999
DXF file: 4905_front.dxf
999
Pro/ENGINEER 2012230 by Parametric Technology Corporation
  0
SECTION
  2
HEADER
  9
$ACADVER
  1
AC1015
  9
$DWGCODEPAGE
  3
ANSI_1252
  9
$EXTMAX
 10
22.0
 20
17.0
 30
0.0
  9
$EXTMIN
 10
0.0
 20
0.0
 30
0.0
  9
$LIMMIN
 10
0.0
 20
0.0
  9
$LIMMAX
 10
22.0
 20
17.0
  9
$VIEWCTR
 10
11.0
 20
8.5
  9
$VIEWSIZE
 40
17.0
  9
$CLAYER
  8
0
  9
$LTSCALE
 40
1.21
  9
$CELTYPE
  6
BYLAYER
  9
$DIMSCALE
 40
1.0
  9
$DIMASZ
 40
0.1875
  9
$DIMEXO
 40
0.0625
  9
$DIMDLI
 40
0.836
  9
$DIMEXE
 40
0.125
  9
$DIMCEN
 40
0.198
  9
$DIMLFAC
 40
1.0
  9
$DIMBLK
  1
_CLOSED
  9
$DIMTXT
 40
0.15625
  9
$DIMTOL
 70
0
  9
$DIMLIM
 70
0
  9
$DIMTFAC
 40
1.0
  9
$DIMGAP
 40
0.09
  9
$DIMDSEP
 70
46
  9
$PDMODE
 70
3
  9
$PDSIZE
 40
0.3125
  9
$HANDSEED
  5
29F
  9
$TILEMODE
 70
1
  9
$MEASUREMENT
 70
0
  9
$INSUNITS
 70
1
  0
ENDSEC
  0
SECTION
  2
CLASSES
  0
CLASS
  1
ACDBDICTIONARYWDFLT
  2
AcDbDictionaryWithDefault
  3
AutoCAD 2000
 90
0
280
0
281
0
  0
CLASS
  1
ACDBPLACEHOLDER
  2
AcDbPlaceHolder
  3
AutoCAD 2000
 90
0
280
0
281
0
  0
CLASS
  1
LAYOUT
  2
AcDbLayout
  3
AutoCAD 2000
 90
0
280
0
281
0
  0
ENDSEC
  0
SECTION
  2
TABLES
  0
TABLE
  2
VPORT
  5
8
100
AcDbSymbolTable
 70
2
  0
VPORT
  5
1F4
100
AcDbSymbolTableRecord
100
AcDbViewportTableRecord
  2
*ACTIVE
 70
0
 10
0.0
 20
0.0
 11
1.0
 21
1.0
 12
11.0
 22
8.5
 13
0.0
 23
0.0
 14
1.0
 24
1.0
 15
0.0
 25
0.0
 16
0.0
 26
0.0
 36
1.0
 17
0.0
 27
0.0
 37
0.0
 40
17.0
 41
1.2941176471
 42
50.0
 43
0.0
 44
0.0
 50
0.0
 51
0.0
 71
0
 72
100
 73
1
 74
1
 75
0
 76
0
 77
0
 78
0
  0
ENDTAB
  0
TABLE
  2
LTYPE
  5
5
100
AcDbSymbolTable
 70
6
  0
LTYPE
  5
14
100
AcDbSymbolTableRecord
100
AcDbLinetypeTableRecord
  2
BYBLOCK
 70
0
  3

 72
65
 73
0
 40
0.0
  0
LTYPE
  5
15
100
AcDbSymbolTableRecord
100
AcDbLinetypeTableRecord
  2
BYLAYER
 70
0
  3

 72
65
 73
0
 40
0.0
  0
LTYPE
  5
16
100
AcDbSymbolTableRecord
100
AcDbLinetypeTableRecord
  2
CONTINUOUS
 70
64
  3
Solid line
 72
65
 73
0
 40
0.0
  0
LTYPE
  5
1F5
100
AcDbSymbolTableRecord
100
AcDbLinetypeTableRecord
  2
CENTER
 70
64
  3
____ _ ____ _ ____ _ ____ _ ____ _ ____ _ ____
 72
65
 73
4
 40
0.6
 49
0.375
 74
0
 49
-0.075
 74
0
 49
0.075
 74
0
 49
-0.075
 74
0
  0
LTYPE
  5
1F6
100
AcDbSymbolTableRecord
100
AcDbLinetypeTableRecord
  2
HIDDEN
 70
64
  3
- - - - - - - - - - - - - - - - - - - -
 72
65
 73
2
 40
0.2
 49
0.1
 74
0
 49
-0.1
 74
0
  0
LTYPE
  5
1F7
100
AcDbSymbolTableRecord
100
AcDbLinetypeTableRecord
  2
PHANTOM
 70
64
  3
_____ _ _ _____ _ _ _____ _ _ _____
 72
65
 73
6
 40
0.8
 49
0.45
 74
0
 49
-0.05
 74
0
 49
0.1
 74
0
 49
-0.05
 74
0
 49
0.1
 74
0
 49
-0.05
 74
0
  0
LTYPE
  5
1F8
100
AcDbSymbolTableRecord
100
AcDbLinetypeTableRecord
  2
DOT
 70
64
  3
. . . . . . . . . . . . . . . . . . . .
 72
65
 73
2
 40
0.2
 49
0.1
 74
0
 49
-0.1
 74
0
  0
LTYPE
  5
1F9
100
AcDbSymbolTableRecord
100
AcDbLinetypeTableRecord
  2
DASHED
 70
64
  3
- - - - - - - - - - - - - - - - - - - -
 72
65
 73
2
 40
0.2
 49
0.1
 74
0
 49
-0.1
 74
0
  0
ENDTAB
  0
TABLE
  2
LAYER
  5
2
100
AcDbSymbolTable
 70
36
  0
LAYER
  5
10
100
AcDbSymbolTableRecord
100
AcDbLayerTableRecord
  2
0
 70
0
 62
7
  6
CONTINUOUS
370
-3
390
F
  0
LAYER
  5
1FA
100
AcDbSymbolTableRecord
100
AcDbLayerTableRecord
  2
DEFAULT_1
 70
0
 62
7
  6
CENTER
370
-3
390
F
  0
LAYER
  5
1FB
100
AcDbSymbolTableRecord
100
AcDbLayerTableRecord
  2
DEFAULT_2
 70
0
 62
8
  6
HIDDEN
370
-3
390
F
  0
LAYER
  5
1FC
100
AcDbSymbolTableRecord
100
AcDbLayerTableRecord
  2
DEFAULT_3
 70
0
 62
7
  6
PHANTOM
370
-3
390
F
  0
LAYER
  5
1FD
100
AcDbSymbolTableRecord
100
AcDbLayerTableRecord
  2
DEFAULT_COORDINATE_SYSTEM
 70
0
 62
7
  6
CONTINUOUS
370
-3
390
F
  0
LAYER
  5
1FE
100
AcDbSymbolTableRecord
100
AcDbLayerTableRecord
  2
DEFAULT_DATUM_AXES
 70
0
 62
7
  6
CONTINUOUS
370
-3
390
F
  0
LAYER
  5
1FF
100
AcDbSymbolTableRecord
100
AcDbLayerTableRecord
  2
DEFAULT_DATUM_PLANES
 70
0
 62
7
  6
CONTINUOUS
370
-3
390
F
  0
ENDTAB
  0
TABLE
  2
STYLE
  5
3
100
AcDbSymbolTable
 70
1
  0
STYLE
  5
11
100
AcDbSymbolTableRecord
100
AcDbTextStyleTableRecord
  2
STANDARD
 70
0
 40
0.0
 41
0.8
 50
0.0
 71
0
 42
0.2
  3
txt
  4

  0
STYLE
  5
200
100
AcDbSymbolTableRecord
100
AcDbTextStyleTableRecord
  2
TEXTSTYLE_1
 70
0
 40
0.0
 41
0.8
 50
0.0
 71
0
 42
0.2
  3
gdt
  4

  0
ENDTAB
  0
TABLE
  2
VIEW
  5
6
100
AcDbSymbolTable
 70
0
  0
ENDTAB
  0
TABLE
  2
UCS
  5
7
100
AcDbSymbolTable
 70
0
  0
ENDTAB
  0
TABLE
  2
APPID
  5
9
100
AcDbSymbolTable
 70
1
  0
APPID
  5
201
100
AcDbSymbolTableRecord
100
AcDbRegAppTableRecord
  2
ACAD
 70
0
  0
ENDTAB
  0
TABLE
  2
BLOCK_RECORD
  5
1
100
AcDbSymbolTable
 70
0
  0
BLOCK_RECORD
  5
202
100
AcDbSymbolTableRecord
100
AcDbBlockTableRecord
  2
*Model_Space
  0
BLOCK_RECORD
  5
203
100
AcDbSymbolTableRecord
100
AcDbBlockTableRecord
  2
*Paper_Space
  0
ENDTAB
  0
TABLE
  2
DIMSTYLE
  5
A
100
AcDbSymbolTable
 70
1
100
AcDbDimStyleTable
 71
0
  0
DIMSTYLE
105
204
100
AcDbSymbolTableRecord
100
AcDbDimStyleTableRecord
  2
STANDARD
 70
0
  3

  4

 40
1.0
 41
0.1875
 42
0.0625
 43
0.38
 44
0.125
 45
0.0
 46
0.0
 47
0.001
 48
0.001
140
0.15625
141
0.09
142
0.0
143
25.4
144
1.0
145
0.0
146
1.0
147
0.09
 71
0.0
 72
0.0
 73
1
 74
1
 75
0
 76
0
 77
0
 78
4
170
0
171
2
172
0
173
0
174
0
175
0
176
0
177
0
178
0
270
2
271
3
272
3
273
2
274
2
275
0
280
0
281
0
282
0
283
1
284
4
285
0
286
0
287
3
288
0
340
11
278
46
  0
ENDTAB
  0
ENDSEC
  0
SECTION
  2
BLOCKS
  0
BLOCK
  5
20
100
AcDbEntity
  8
0
100
AcDbBlockBegin
  2
*Model_Space
 70
0
 10
0.0
 20
0.0
 30
0.0
  3
*Model_Space
  1

  0
ENDBLK
  5
21
100
AcDbEntity
  8
0
100
AcDbBlockEnd
  0
BLOCK
  5
1C
100
AcDbEntity
  8
0
100
AcDbBlockBegin
  2
*Paper_Space
 70
0
 10
0.0
 20
0.0
 30
0.0
  3
*Paper_Space
  1

  0
ENDBLK
  5
1D
100
AcDbEntity
  8
0
100
AcDbBlockEnd
  0
ENDSEC
  0
SECTION
  2
ENTITIES
  0
LWPOLYLINE
  5
205
100
AcDbEntity
  8
0
100
AcDbPolyline
 62
6
  6
CONTINUOUS
 90
37
 70
0
 10
10.2318855819
 20
10.0930856325
 10
10.2318929995
 20
10.0924393253
 10
10.2319530236
 20
10.0910961216
 10
10.2320731675
 20
10.089756958
 10
10.2322531896
 20
10.0884245251
 10
10.232492728
 20
10.0871014998
 10
10.2327913011
 20
10.0857905398
 10
10.2331483087
 20
10.0844942789
 10
10.2335630333
 20
10.0832153212
 10
10.234034641
 20
10.081956236
 10
10.2345621839
 20
10.0807195527
 10
10.2351446015
 20
10.0795077557
 10
10.2357807232
 20
10.078323279
 10
10.2364692703
 20
10.077168502
 10
10.237208859
 20
10.0760457439
 10
10.2379980029
 20
10.0749572595
 10
10.2388351164
 20
10.0739052348
 10
10.2397185171
 20
10.0728917824
 10
10.24064643
 20
10.0719189374
 10
10.2416169907
 20
10.0709886532
 10
10.2426282491
 20
10.0701027975
 10
10.2436781739
 20
10.0692631489
 10
10.2447646557
 20
10.068471393
 10
10.245885512
 20
10.0677291192
 10
10.2470384914
 20
10.0670378175
 10
10.2482212779
 20
10.0663988756
 10
10.2494314962
 20
10.0658135759
 10
10.2506667157
 20
10.0652830929
 10
10.2519244558
 20
10.0648084914
 10
10.253202191
 20
10.0643907238
 10
10.2544973553
 20
10.0640306284
 10
10.2558073479
 20
10.0637289279
 10
10.2571295384
 20
10.0634862279
 10
10.2584612716
 20
10.0633030151
 10
10.2597998733
 20
10.0631796575
 10
10.2611426558
 20
10.0631164022
 10
10.2618611689
 20
10.0631072889
  0
LWPOLYLINE
  5
206
100
AcDbEntity
  8
0
100
AcDbPolyline
 62
6
  6
CONTINUOUS
 90
3
 70
0
 10
10.2324865528
 20
10.0936901379
 10
10.2323094126
 20
10.3841756997
 10
10.2322688339
 20
10.4833737993
  0
LWPOLYLINE
  5
207
100
AcDbEntity
  8
0
100
AcDbPolyline
 62
6
  6
CONTINUOUS
 90
3
 70
0
 10
10.2316576893
 20
10.4826508948
 10
10.2316887803
 20
10.4058315984
 10
10.2318812801
 20
10.0930856274
  0
LINE
  5
208
100
AcDbEntity
  8
0
100
AcDbLine
 62
6
  6
CONTINUOUS
 10
10.0525288921
 20
9.9137533514
 11
10.0525288921
 21
10.2495960834
  0
LINE
  5
209
100
AcDbEntity
  8
0
100
AcDbLine
 62
6
  6
CONTINUOUS
 10
10.0525288921
 20
10.8725324508
 11
10.0525288921
 21
12.1537533514
  0
LWPOLYLINE
  5
20A
100
AcDbEntity
  8
0
100
AcDbPolyline
 62
6
  6
CONTINUOUS
 90
4
 70
0
 10
10.2321290787
 20
11.030300532
 10
10.2321765573
 20
11.3585629669
 10
10.2323094315
 20
11.6833659923
 10
10.2324865543
 20
11.9738181433
  0
LWPOLYLINE
  5
20B
100
AcDbEntity
  8
0
100
AcDbPolyline
 62
6
  6
CONTINUOUS
 90
4
 70
0
 10
10.2318814906
 20
11.9744227342
 10
10.2316884148
 20
11.6609973858
 10
10.2315608266
 20
11.3469644775
 10
10.2315160686
 20
11.0298415109
  0
LINE
  5
20C
100
AcDbEntity
  8
0
100
AcDbLine
 62
6
  6
CONTINUOUS
 10
10.8075288921
 20
10.7737563979
 11
10.8075288921
 21
11.2937503049
  0
LINE
  5
20D
100
AcDbEntity
  8
0
100
AcDbLine
 62
9
  6
CONTINUOUS
 10
10.8485288921
 20
11.2937533514
 11
10.8485288921
 21
10.7737533514
  0
LINE
  5
20E
100
AcDbEntity
  8
0
100
AcDbLine
 62
6
  6
CONTINUOUS
 10
10.8875288921
 20
10.6987533514
 11
10.8875288921
 21
11.3687533514
  0
LINE
  5
20F
100
AcDbEntity
  8
0
100
AcDbLine
 62
9
  6
CONTINUOUS
 10
11.2025254792
 20
12.0041562767
 11
11.2025248395
 21
12.0042677638
  0
LINE
  5
210
100
AcDbEntity
  8
0
100
AcDbLine
 62
9
  6
CONTINUOUS
 10
11.2025288921
 20
11.4005748135
 11
11.2025288921
 21
11.9936473374
  0
LINE
  5
211
100
AcDbEntity
  8
0
100
AcDbLine
 62
9
  6
CONTINUOUS
 10
11.2025288921
 20
12.0501175756
 11
11.2025288921
 21
12.1837533514
  0
LINE
  5
212
100
AcDbEntity
  8
0
100
AcDbLine
 62
9
  6
CONTINUOUS
 10
11.2025335509
 20
12.0176218187
 11
11.2025254792
 21
12.0041562767
  0
LINE
  5
213
100
AcDbEntity
  8
0
100
AcDbLine
 62
6
  6
CONTINUOUS
 10
11.5175288921
 20
10.6987533514
 11
11.5175288921
 21
11.3687533514
  0
LINE
  5
214
100
AcDbEntity
  8
0
100
AcDbLine
 62
9
  6
CONTINUOUS
 10
11.5565288921
 20
11.2937533514
 11
11.5565288921
 21
10.7737533514
  0
LINE
  5
215
100
AcDbEntity
  8
0
100
AcDbLine
 62
6
  6
CONTINUOUS
 10
11.5975288921
 20
10.7737563979
 11
11.5975288921
 21
11.2937503049
  0
LWPOLYLINE
  5
216
100
AcDbEntity
  8
0
100
AcDbPolyline
 62
6
  6
CONTINUOUS
 90
37
 70
0
 10
12.1731721215
 20
11.974422741
 10
12.1731659884
 20
11.9750085875
 10
12.1731085597
 20
11.9763536326
 10
12.172990849
 20
11.9776947453
 10
12.1728130935
 20
11.9790292242
 10
12.1725756514
 20
11.9803543815
 10
12.1722790015
 20
11.981667548
 10
12.1719237415
 20
11.9829660791
 10
12.1715105874
 20
11.9842473592
 10
12.1710403719
 20
11.9855088078
 10
12.1705140427
 20
11.9867478842
 10
12.1699326603
 20
11.9879620929
 10
12.1692973966
 20
11.9891489886
 10
12.1686095316
 20
11.990306181
 10
12.1678704513
 20
11.9914313402
 10
12.1670816449
 20
11.9925222005
 10
12.1662447016
 20
11.9935765658
 10
12.1653613075
 20
11.9945923132
 10
12.1644332422
 20
11.9955673978
 10
12.1634623755
 20
11.9964998566
 10
12.1624506626
 20
11.9973878127
 10
12.1614001415
 20
11.9982294788
 10
12.1603129278
 20
11.9990231608
 10
12.1591912113
 20
11.9997672615
 10
12.1580372508
 20
12.0004602832
 10
12.1568533703
 20
12.0011008313
 10
12.1556419534
 20
12.0016876169
 10
12.1544054394
 20
12.0022194593
 10
12.1531463177
 20
12.0026952885
 10
12.1518671234
 20
12.0031141471
 10
12.1505704317
 20
12.0034751922
 10
12.1492588532
 20
12.0037776976
 10
12.1479350285
 20
12.0040210546
 10
12.1466016227
 20
12.0042047736
 10
12.1452613202
 20
12.0043284849
 10
12.1439168192
 20
12.0043919399
 10
12.1431965805
 20
12.0044010972
  0
LWPOLYLINE
  5
217
100
AcDbEntity
  8
0
100
AcDbPolyline
 62
6
  6
CONTINUOUS
 90
3
 70
0
 10
12.1725712311
 20
11.9738181437
 10
12.1727483724
 20
11.6833301244
 10
12.1728812371
 20
11.3585297527
  0
LWPOLYLINE
  5
218
100
AcDbEntity
  8
0
100
AcDbPolyline
 62
6
  6
CONTINUOUS
 90
3
 70
0
 10
12.1734963584
 20
11.3476704745
 10
12.1733691247
 20
11.6614204136
 10
12.1731764004
 20
11.974422746
  0
LINE
  5
219
100
AcDbEntity
  8
0
100
AcDbLine
 62
6
  6
CONTINUOUS
 10
12.1728812371
 20
11.3585297527
 11
12.172928695
 21
11.0301973311
  0
LINE
  5
21A
100
AcDbEntity
  8
0
100
AcDbLine
 62
6
  6
CONTINUOUS
 10
12.1735417185
 20
11.0297380357
 11
12.1734963584
 21
11.3476704745
  0
LWPOLYLINE
  5
21B
100
AcDbEntity
  8
0
100
AcDbPolyline
 62
6
  6
CONTINUOUS
 90
3
 70
0
 10
12.1727889198
 20
10.4833049183
 10
12.1727483521
 20
10.3841398971
 10
12.1725712304
 20
10.0936901404
  0
LWPOLYLINE
  5
21C
100
AcDbEntity
  8
0
100
AcDbPolyline
 62
6
  6
CONTINUOUS
 90
3
 70
0
 10
12.1731763479
 20
10.0930854563
 10
12.1733691886
 20
10.4062086258
 10
12.1734001831
 20
10.4825823374
  0
LINE
  5
21D
100
AcDbEntity
  8
0
100
AcDbLine
 62
6
  6
CONTINUOUS
 10
12.1725712117
 20
10.0936901395
 11
12.1725677674
 21
10.0934164393
  0
LINE
  5
21E
100
AcDbEntity
  8
0
100
AcDbLine
 62
6
  6
CONTINUOUS
 10
12.3525288921
 20
12.1537533514
 11
12.3525288921
 21
10.8724490385
  0
LINE
  5
21F
100
AcDbEntity
  8
0
100
AcDbLine
 62
6
  6
CONTINUOUS
 10
12.3525288921
 20
10.2498016656
 11
12.3525288921
 21
9.9137533514
  0
LWPOLYLINE
  5
220
100
AcDbEntity
  8
0
100
AcDbPolyline
 62
6
  6
CONTINUOUS
 90
37
 70
0
 10
12.1431964881
 20
10.063109873
 10
12.1438427946
 20
10.0631172905
 10
12.1451859986
 20
10.0631773142
 10
12.1465251625
 20
10.0632974578
 10
12.1478575957
 20
10.0634774796
 10
12.1491806213
 20
10.0637170176
 10
12.1504915816
 20
10.0640155905
 10
12.1517878429
 20
10.0643725978
 10
12.1530668009
 20
10.0647873221
 10
12.1543258865
 20
10.0652589295
 10
12.1555625701
 20
10.0657864722
 10
12.1567743676
 20
10.0663688896
 10
12.1579588446
 20
10.0670050111
 10
12.159113622
 20
10.0676935579
 10
12.1602363806
 20
10.0684331464
 10
12.1613248654
 20
10.0692222902
 10
12.1623768905
 20
10.0700594035
 10
12.1633903434
 20
10.0709428041
 10
12.1643631889
 20
10.0718707169
 10
12.1652934735
 20
10.0728412775
 10
12.1661793297
 20
10.0738525359
 10
12.1670189788
 20
10.0749024605
 10
12.1678107352
 20
10.0759889423
 10
12.1685530094
 20
10.0771097986
 10
12.1692443116
 20
10.078262778
 10
12.1698832539
 20
10.0794455646
 10
12.1704685542
 20
10.0806557829
 10
12.1709990376
 20
10.0818910024
 10
12.1714736396
 20
10.0831487426
 10
12.1718914078
 20
10.0844264779
 10
12.1722515036
 20
10.0857216423
 10
12.1725532046
 20
10.0870316351
 10
12.1727959051
 20
10.0883538257
 10
12.1729791183
 20
10.0896855591
 10
12.1731024765
 20
10.0910241611
 10
12.1731657322
 20
10.0923669438
 10
12.1731748458
 20
10.0930854571
  0
LWPOLYLINE
  5
221
100
AcDbEntity
  8
0
100
AcDbPolyline
 62
6
  6
CONTINUOUS
 90
7
 70
0
 10
12.1425919357
 20
10.0637108498
 10
11.8521060074
 20
10.0635337829
 10
11.5273057452
 20
10.0634009974
 10
11.2025127185
 20
10.0633530522
 10
10.8777188155
 20
10.0634010075
 10
10.5529159245
 20
10.0635338026
 10
10.2624658501
 20
10.0637108509
  0
LINE
  5
222
100
AcDbEntity
  8
0
100
AcDbLine
 62
6
  6
CONTINUOUS
 10
12.3225288921
 20
9.8837533514
 11
10.0825288921
 21
9.8837533514
  0
LWPOLYLINE
  5
223
100
AcDbEntity
  8
0
100
AcDbPolyline
 62
6
  6
CONTINUOUS
 90
7
 70
0
 10
10.2618611682
 20
10.0631057868
 10
10.575268795
 20
10.0629128057
 10
10.8892909498
 20
10.0627853056
 10
11.2031588844
 20
10.0627400609
 10
11.5168729547
 20
10.0627862969
 10
11.8304333899
 20
10.0629131456
 10
12.1431964931
 20
10.0631055793
  0
LINE
  5
224
100
AcDbEntity
  8
0
100
AcDbLine
 62
6
  6
CONTINUOUS
 10
10.2624658492
 20
10.0637108684
 11
10.2621921297
 21
10.0637143167
  0
LINE
  5
225
100
AcDbEntity
  8
0
100
AcDbLine
 62
6
  6
CONTINUOUS
 10
10.8075288921
 20
10.7737533514
 11
10.8485288921
 21
10.7737533514
  0
LINE
  5
226
100
AcDbEntity
  8
0
100
AcDbLine
 62
6
  6
CONTINUOUS
 10
11.5565288921
 20
10.7737533514
 11
11.5975288921
 21
10.7737533514
  0
LINE
  5
227
100
AcDbEntity
  8
0
100
AcDbLine
 62
6
  6
CONTINUOUS
 10
10.8075288921
 20
11.2937533514
 11
10.8485288921
 21
11.2937533514
  0
LINE
  5
228
100
AcDbEntity
  8
0
100
AcDbLine
 62
6
  6
CONTINUOUS
 10
11.5565288921
 20
11.2937533514
 11
11.5975288921
 21
11.2937533514
  0
LWPOLYLINE
  5
229
100
AcDbEntity
  8
0
100
AcDbPolyline
 62
6
  6
CONTINUOUS
 90
37
 70
0
 10
10.2618612948
 20
12.0043983136
 10
10.2612149849
 20
12.0043908951
 10
10.2598717828
 20
12.0043308691
 10
10.2585326208
 20
12.0042107235
 10
10.2572001896
 20
12.0040306998
 10
10.255877166
 20
12.00379116
 10
10.2545662078
 20
12.0034925856
 10
10.2532699487
 20
12.0031355768
 10
10.2519909929
 20
12.0027208512
 10
10.2507319096
 20
12.0022492427
 10
10.2494952282
 20
12.001721699
 10
10.248283433
 20
12.0011392808
 10
10.2470989583
 20
12.0005031587
 10
10.2459441832
 20
11.9998146113
 10
10.2448214269
 20
11.9990750225
 10
10.2437329443
 20
11.9982858785
 10
10.2426809214
 20
11.9974487652
 10
10.2416674707
 20
11.9965653647
 10
10.2406946274
 20
11.9956374521
 10
10.2397643448
 20
11.9946668919
 10
10.2388784906
 20
11.993655634
 10
10.2380388435
 20
11.99260571
 10
10.2372470889
 20
11.991519229
 10
10.2365048164
 20
11.9903983735
 10
10.2358135159
 20
11.9892453951
 10
10.2351745752
 20
11.9880626096
 10
10.2345892764
 20
11.9868523925
 10
10.2340587943
 20
11.9856171742
 10
10.2335841936
 20
11.9843594353
 10
10.2331664266
 20
11.9830817015
 10
10.2328063317
 20
11.9817865386
 10
10.2325046316
 20
11.9804765473
 10
10.2322619318
 20
11.9791543583
 10
10.2320787192
 20
11.9778226265
 10
10.2319553615
 20
11.9764840263
 10
10.2318921062
 20
11.9751412452
 10
10.2318829927
 20
11.9744227334
  0
LWPOLYLINE
  5
22A
100
AcDbEntity
  8
0
100
AcDbPolyline
 62
6
  6
CONTINUOUS
 90
6
 70
0
 10
10.2624657995
 20
12.0037974316
 10
10.583570055
 20
12.0039906953
 10
10.7498748527
 20
12.0040649454
 10
10.908583732
 20
12.0041166458
 10
11.0596984721
 20
12.0041466684
 10
11.2025254792
 20
12.0041562767
  0
LWPOLYLINE
  5
22B
100
AcDbEntity
  8
0
100
AcDbPolyline
 62
6
  6
CONTINUOUS
 90
7
 70
0
 10
11.2025255442
 20
12.0047694561
 10
11.0645571988
 20
12.004760284
 10
10.9185654611
 20
12.0047315902
 10
10.765235771
 20
12.0046821139
 10
10.6045681029
 20
12.0046109533
 10
10.4365624337
 20
12.0045176284
 10
10.26186129
 20
12.0044025993
  0
LWPOLYLINE
  5
22C
100
AcDbEntity
  8
0
100
AcDbPolyline
 62
6
  6
CONTINUOUS
 90
5
 70
0
 10
11.2025254641
 20
12.0041562769
 10
11.3454155678
 20
12.0041466614
 10
11.4965288512
 20
12.0041166325
 10
11.6552362005
 20
12.0040649267
 10
11.8215393951
 20
12.0039906715
  0
LINE
  5
22D
100
AcDbEntity
  8
0
100
AcDbLine
 62
6
  6
CONTINUOUS
 10
11.8215393951
 20
12.0039906715
 11
12.1425919845
 21
12.0037974321
  0
LWPOLYLINE
  5
22E
100
AcDbEntity
  8
0
100
AcDbPolyline
 62
6
  6
CONTINUOUS
 90
7
 70
0
 10
12.1431965812
 20
12.0044025994
 10
11.9685512754
 20
12.0045175958
 10
11.8005448248
 20
12.0046109274
 10
11.6398764096
 20
12.0046820943
 10
11.4865460063
 20
12.0047315771
 10
11.3405535895
 20
12.0047602774
 10
11.2025255442
 20
12.0047694563
  0
LINE
  5
22F
100
AcDbEntity
  8
0
100
AcDbLine
 62
6
  6
CONTINUOUS
 10
12.1425919857
 20
12.0037974112
 11
12.1428655965
 21
12.0037939677
  0
LINE
  5
230
100
AcDbEntity
  8
0
100
AcDbLine
 62
6
  6
CONTINUOUS
 10
10.0825288921
 20
12.1837533514
 11
12.3225288921
 21
12.1837533514
  0
ARC
  5
231
100
AcDbEntity
  8
0
100
AcDbCircle
 62
6
  6
CONTINUOUS
 10
11.2025288921
 20
9.8255748135
 40
1.575
100
AcDbArc
 50
78.4630409672
 51
101.5369590328
  0
ARC
  5
232
100
AcDbEntity
  8
0
100
AcDbCircle
 62
6
  6
CONTINUOUS
 10
11.2025288921
 20
12.2419318894
 40
1.575
100
AcDbArc
 50
258.4630409672
 51
281.5369590328
  0
ARC
  5
233
100
AcDbEntity
  8
0
100
AcDbCircle
 62
9
  6
CONTINUOUS
 10
10.3121581975
 20
11.9241592732
 40
0.1249625944
100
AcDbArc
 50
131.8418988176
 51
138.1812232887
  0
ARC
  5
234
100
AcDbEntity
  8
0
100
AcDbCircle
 62
9
  6
CONTINUOUS
 10
12.0928992412
 20
11.9241596784
 40
0.1249625353
100
AcDbArc
 50
41.8185339985
 51
48.1578760214
  0
ARC
  5
235
100
AcDbEntity
  8
0
100
AcDbCircle
 62
9
  6
CONTINUOUS
 10
10.312139975
 20
10.1433662521
 40
0.1249620134
100
AcDbArc
 50
221.8310366984
 51
228.1703760583
  0
ARC
  5
236
100
AcDbEntity
  8
0
100
AcDbCircle
 62
9
  6
CONTINUOUS
 10
12.0929185226
 20
10.1433669392
 40
0.1249619894
100
AcDbArc
 50
311.8291885644
 51
318.1685298703
  0
ARC
  5
237
100
AcDbEntity
  8
0
100
AcDbCircle
 62
6
  6
CONTINUOUS
 10
11.5565288921
 20
11.3327533514
 40
0.039
100
AcDbArc
 50
180.5637165882
 51
270.0
  0
ARC
  5
238
100
AcDbEntity
  8
0
100
AcDbCircle
 62
6
  6
CONTINUOUS
 10
11.5565288921
 20
10.7347533514
 40
0.039
100
AcDbArc
 50
90.0
 51
179.4362834118
  0
ARC
  5
239
100
AcDbEntity
  8
0
100
AcDbCircle
 62
6
  6
CONTINUOUS
 10
10.8485288921
 20
11.3327533514
 40
0.039
100
AcDbArc
 50
270.0
 51
359.9999999886
  0
ARC
  5
23A
100
AcDbEntity
  8
0
100
AcDbCircle
 62
6
  6
CONTINUOUS
 10
10.8485288921
 20
10.7347533514
 40
0.039
100
AcDbArc
 50
0.0000000114
 51
90.0
  0
ARC
  5
23B
100
AcDbEntity
  8
0
100
AcDbCircle
 62
6
  6
CONTINUOUS
 10
10.0825288921
 20
9.9137533514
 40
0.03
100
AcDbArc
 50
180.0
 51
270.0
  0
ARC
  5
23C
100
AcDbEntity
  8
0
100
AcDbCircle
 62
6
  6
CONTINUOUS
 10
12.3225288921
 20
9.9137533514
 40
0.03
100
AcDbArc
 50
270.0
 51
360.0
  0
ARC
  5
23D
100
AcDbEntity
  8
0
100
AcDbCircle
 62
6
  6
CONTINUOUS
 10
10.0825288921
 20
12.1537533514
 40
0.03
100
AcDbArc
 50
90.0
 51
180.0
  0
ARC
  5
23E
100
AcDbEntity
  8
0
100
AcDbCircle
 62
6
  6
CONTINUOUS
 10
12.3225288921
 20
12.1537533514
 40
0.03
100
AcDbArc
 50
0.0
 51
90.0
  0
SPLINE
  5
23F
100
AcDbEntity
  8
0
100
AcDbSpline
 62
6
  6
CONTINUOUS
 70
0
 71
3
 72
37
 73
33
 74
0
 42
0.0000001
 43
0.0000001
 44
0.0000000001
 40
0.0
 40
0.0
 40
0.0
 40
0.0
 40
0.0895432087
 40
0.1340928236
 40
0.1783110054
 40
0.265237239
 40
0.3077463115
 40
0.349494485
 40
0.4303427563
 40
0.4692861563
 40
0.5071422192
 40
0.5438389762
 40
0.5793096126
 40
0.6135071249
 40
0.6463928973
 40
0.677931249
 40
0.7080908246
 40
0.7368549582
 40
0.7642208498
 40
0.7901922155
 40
0.814780697
 40
0.8380109348
 40
0.8599297974
 40
0.8806000649
 40
0.9001011647
 40
0.9185327662
 40
0.936021135
 40
0.9527213238
 40
0.9688126603
 40
0.9844965974
 40
0.9922577138
 40
1.0
 40
1.0
 40
1.0
 40
1.0
 10
11.2025288921
 20
10.5404531105
 30
0.0
 10
11.2067372797
 20
10.5404531105
 30
0.0
 10
11.2130401588
 20
10.5403424717
 30
0.0
 10
11.2214127451
 20
10.5399747842
 30
0.0
 10
11.2296547249
 20
10.5394656784
 30
0.0
 10
11.2377861909
 20
10.5387412793
 30
0.0
 10
11.2457764632
 20
10.5377977239
 30
0.0
 10
11.2534636645
 20
10.5367368865
 30
0.0
 10
11.260952502
 20
10.5354723797
 30
0.0
 10
11.2682133849
 20
10.5339947536
 30
0.0
 10
11.2734148379
 20
10.5328100428
 30
0.0
 10
11.2784275184
 20
10.5315383636
 30
0.0
 10
11.2832397702
 20
10.5301825922
 30
0.0
 10
11.2878415036
 20
10.5287467677
 30
0.0
 10
11.292223821
 20
10.5272348546
 30
0.0
 10
11.2963781498
 20
10.5256507329
 30
0.0
 10
11.3002963085
 20
10.5239978918
 30
0.0
 10
11.3039712621
 20
10.5222802764
 30
0.0
 10
11.307397205
 20
10.5205022599
 30
0.0
 10
11.3105686931
 20
10.5186678651
 30
0.0
 10
11.3134804586
 20
10.516781022
 30
0.0
 10
11.3161276519
 20
10.5148452051
 30
0.0
 10
11.3185069286
 20
10.5128647572
 30
0.0
 10
11.3206154723
 20
10.5108435845
 30
0.0
 10
11.3224504886
 20
10.5087854426
 30
0.0
 10
11.3240089498
 20
10.5066937623
 30
0.0
 10
11.3252880999
 20
10.5045721545
 30
0.0
 10
11.3262862943
 20
10.5024247597
 30
0.0
 10
11.3270016603
 20
10.500256072
 30
0.0
 10
11.327361794
 20
10.498427578
 30
0.0
 10
11.3275046903
 20
10.4969679905
 30
0.0
 10
11.3275286431
 20
10.4962391205
 30
0.0
 10
11.3275288217
 20
10.4958752455
 30
0.0
  0
SPLINE
  5
240
100
AcDbEntity
  8
0
100
AcDbSpline
 62
6
  6
CONTINUOUS
 70
0
 71
3
 72
195
 73
191
 74
0
 42
0.0000001
 43
0.0000001
 44
0.0000000001
 40
0.0
 40
0.0
 40
0.0
 40
0.0
 40
0.0033004996
 40
0.0049070815
 40
0.0064882324
 40
0.0080467629
 40
0.0095854627
 40
0.0111070921
 40
0.0126143725
 40
0.0141099782
 40
0.0155965272
 40
0.0170765743
 40
0.0185525573
 40
0.0200264612
 40
0.0215000562
 40
0.0229750994
 40
0.0244533318
 40
0.0274260282
 40
0.0304318109
 40
0.0334836452
 40
0.0365939185
 40
0.0397738727
 40
0.0430290902
 40
0.0463617116
 40
0.0497732904
 40
0.0532648833
 40
0.0568371038
 40
0.0604901709
 40
0.0642240548
 40
0.0680386942
 40
0.0719336876
 40
0.0759079569
 40
0.0799552482
 40
0.0840651767
 40
0.0882270065
 40
0.0903240344
 40
0.0924306712
 40
0.096671601
 40
0.1009475038
 40
0.1052560696
 40
0.1139618261
 40
0.1227702211
 40
0.1316669314
 40
0.140649251
 40
0.1497161927
 40
0.1588666186
 40
0.1680983922
 40
0.1774064043
 40
0.1867848439
 40
0.2057292181
 40
0.2152845259
 40
0.224888562
 40
0.2345363286
 40
0.2442227487
 40
0.2539425641
 40
0.263690354
 40
0.2734606343
 40
0.283247865
 40
0.3028506379
 40
0.3224535239
 40
0.3420117539
 40
0.3517613478
 40
0.3614845321
 40
0.3711761292
 40
0.380829292
 40
0.390435936
 40
0.3999879226
 40
0.4047408738
 40
0.409477098
 40
0.4141955545
 40
0.4188949878
 40
0.4282311887
 40
0.4374746073
 40
0.4466142844
 40
0.4556397697
 40
0.4645431207
 40
0.4733175889
 40
0.4776544751
 40
0.4819567353
 40
0.4862236072
 40
0.4904543177
 40
0.4946479783
 40
0.4988036856
 40
0.5069976668
 40
0.5150295303
 40
0.5228928973
 40
0.5305818588
 40
0.5380910481
 40
0.541776784
 40
0.5454158585
 40
0.5490077938
 40
0.5525521648
 40
0.5560486033
 40
0.5594968059
 40
0.5628965431
 40
0.5662476383
 40
0.5695499656
 40
0.5728034532
 40
0.5760080881
 40
0.5791639203
 40
0.5853294406
 40
0.5883401321
 40
0.5913038818
 40
0.5970948135
 40
0.6027124863
 40
0.6081680354
 40
0.6134740651
 40
0.6160768519
 40
0.6186502606
 40
0.6211976658
 40
0.623722512
 40
0.6262283037
 40
0.6287185954
 40
0.631196979
 40
0.6324328714
 40
0.6336671444
 40
0.6349002519
 40
0.6361326938
 40
0.6385981914
 40
0.6410693611
 40
0.6435520533
 40
0.6460522598
 40
0.6485760845
 40
0.6511297134
 40
0.6537193828
 40
0.6563513492
 40
0.6590318601
 40
0.6617671129
 40
0.6645625446
 40
0.6674224973
 40
0.6703511139
 40
0.6733524047
 40
0.6764285291
 40
0.6795774115
 40
0.6827962318
 40
0.6860820417
 40
0.689431839
 40
0.6928432092
 40
0.6963140824
 40
0.6998422709
 40
0.703425474
 40
0.7070612908
 40
0.7107472315
 40
0.7144807274
 40
0.7182591392
 40
0.7220797652
 40
0.7259399143
 40
0.7298369893
 40
0.7337683505
 40
0.7377312996
 40
0.741723085
 40
0.7457409065
 40
0.7497819201
 40
0.7538432415
 40
0.7579219494
 40
0.7661195905
 40
0.7743508485
 40
0.7825911336
 40
0.7908154354
 40
0.7989983844
 40
0.8030664372
 40
0.8071165376
 40
0.8151654028
 40
0.8231504846
 40
0.8310772112
 40
0.8389508863
 40
0.8467766895
 40
0.8545596765
 40
0.8623047807
 40
0.8700168412
 40
0.8777013964
 40
0.8853648516
 40
0.893013562
 40
0.9006537794
 40
0.9082905153
 40
0.9159253544
 40
0.9235591925
 40
0.9273759974
 40
0.9311928539
 40
0.9350098542
 40
0.9388270731
 40
0.9426444951
 40
0.9464620722
 40
0.9540975119
 40
0.9617330885
 40
0.9693686495
 40
0.9770068898
 40
0.984653916
 40
0.9923161226
 40
1.0
 40
1.0
 40
1.0
 40
1.0
 10
10.8075122142
 20
10.836547257
 30
0.0
 10
10.7973965717
 20
10.8362926896
 30
0.0
 10
10.7823620266
 20
10.8355573381
 30
0.0
 10
10.7625437279
 20
10.8338294511
 30
0.0
 10
10.7480826211
 20
10.8321960797
 30
0.0
 10
10.733874682
 20
10.8302193176
 30
0.0
 10
10.7199027337
 20
10.8279049034
 30
0.0
 10
10.706149841
 20
10.825258572
 30
0.0
 10
10.6925990009
 20
10.8222860785
 30
0.0
 10
10.6792332296
 20
10.8189931649
 30
0.0
 10
10.6660355039
 20
10.8153856646
 30
0.0
 10
10.6529890367
 20
10.8114691569
 30
0.0
 10
10.6400778631
 20
10.807250768
 30
0.0
 10
10.6272903316
 20
10.8027302191
 30
0.0
 10
10.6146175863
 20
10.797905394
 30
0.0
 10
10.6020510843
 20
10.7927749082
 30
0.0
 10
10.5853963373
 20
10.7855118463
 30
0.0
 10
10.5647668046
 20
10.7756396056
 30
0.0
 10
10.5403520075
 20
10.7625667875
 30
0.0
 10
10.5161633358
 20
10.7482347911
 30
0.0
 10
10.4921349319
 20
10.7326336975
 30
0.0
 10
10.4682135821
 20
10.7157637426
 30
0.0
 10
10.4443661779
 20
10.6976404795
 30
0.0
 10
10.4205808383
 20
10.6782907755
 30
0.0
 10
10.3968528566
 20
10.657746596
 30
0.0
 10
10.3731776894
 20
10.6360398705
 30
0.0
 10
10.3495507853
 20
10.6132025773
 30
0.0
 10
10.3259676468
 20
10.5892661864
 30
0.0
 10
10.302422174
 20
10.5642623144
 30
0.0
 10
10.2788900396
 20
10.5382376315
 30
0.0
 10
10.2553469095
 20
10.5112376795
 30
0.0
 10
10.2317791843
 20
10.4833195111
 30
0.0
 10
10.2081853208
 20
10.4545662079
 30
0.0
 10
10.1845783974
 20
10.4250836365
 30
0.0
 10
10.1649639727
 20
10.400066503
 30
0.0
 10
10.1492692749
 20
10.3797818524
 30
0.0
 10
10.1335108909
 20
10.3592401198
 30
0.0
 10
10.1138457419
 20
10.3332764704
 30
0.0
 10
10.0903547756
 20
10.3017434628
 30
0.0
 10
10.0590169147
 20
10.2589887064
 30
0.0
 10
10.0200801376
 20
10.204577331
 30
0.0
 10
9.9739168075
 20
10.1380505674
 30
0.0
 10
9.9282137555
 20
10.0701821846
 30
0.0
 10
9.8829890648
 20
10.0010452116
 30
0.0
 10
9.8382368348
 20
9.9306780797
 30
0.0
 10
9.7939492721
 20
9.859116774
 30
0.0
 10
9.7501243771
 20
9.7864070603
 30
0.0
 10
9.7067689005
 20
9.7126045798
 30
0.0
 10
9.6494141042
 20
9.6124986474
 30
0.0
 10
9.5932708847
 20
9.5108324257
 30
0.0
 10
9.5382884611
 20
9.4077585935
 30
0.0
 10
9.4974520002
 20
9.3294466819
 30
0.0
 10
9.4571420317
 20
9.2504112235
 30
0.0
 10
9.4173645098
 20
9.170709584
 30
0.0
 10
9.3781253148
 20
9.0904001812
 30
0.0
 10
9.3394302596
 20
9.0095421479
 30
0.0
 10
9.3012853291
 20
8.9281948205
 30
0.0
 10
9.2511430657
 20
8.8191063101
 30
0.0
 10
9.1899248031
 20
8.6819364513
 30
0.0
 10
9.1187910248
 20
8.5164070199
 30
0.0
 10
9.0613988602
 20
8.3778668231
 30
0.0
 10
9.0166348952
 20
8.2668909806
 30
0.0
 10
8.9836897403
 20
8.1837674378
 30
0.0
 10
8.9513432647
 20
8.1007263792
 30
0.0
 10
8.9196030833
 20
8.0178341899
 30
0.0
 10
8.8884799965
 20
7.9351655759
 30
0.0
 10
8.8630276435
 20
7.8664160214
 30
0.0
 10
8.8429811451
 20
7.8115884287
 30
0.0
 10
8.8281327232
 20
7.7706387978
 30
0.0
 10
8.8134473308
 20
7.7298047398
 30
0.0
 10
8.7941379162
 20
7.6756467299
 30
0.0
 10
8.7704669463
 20
7.6083157962
 30
0.0
 10
8.7428203316
 20
7.5279544672
 30
0.0
 10
8.7160874036
 20
7.448288567
 30
0.0
 10
8.6903569357
 20
7.3693889405
 30
0.0
 10
8.6657149177
 20
7.2913157647
 30
0.0
 10
8.6460808187
 20
7.2267392194
 30
0.0
 10
8.6310013218
 20
7.1755252392
 30
0.0
 10
8.6200590697
 20
7.1375001011
 30
0.0
 10
8.609450827
 20
7.0997184118
 30
0.0
 10
8.5991870169
 20
7.0621867502
 30
0.0
 10
8.5892759537
 20
7.024912895
 30
0.0
 10
8.5766029163
 20
6.9758018427
 30
0.0
 10
8.5616800331
 20
6.9151201653
 30
0.0
 10
8.5452317026
 20
6.8431174606
 30
0.0
 10
8.5303961488
 20
6.772345766
 30
0.0
 10
8.5172412662
 20
6.7028723524
 30
0.0
 10
8.5076774529
 20
6.6457672107
 30
0.0
 10
8.5009480464
 20
6.6007880529
 30
0.0
 10
8.4963954028
 20
6.5676291193
 30
0.0
 10
8.4923143821
 20
6.5348455183
 30
0.0
 10
8.4887135085
 20
6.5024455892
 30
0.0
 10
8.48560123
 20
6.4704377173
 30
0.0
 10
8.4829862046
 20
6.4388302361
 30
0.0
 10
8.4808722648
 20
6.4076318378
 30
0.0
 10
8.4792629956
 20
6.3768511085
 30
0.0
 10
8.4781620425
 20
6.3464965906
 30
0.0
 10
8.4775730415
 20
6.3165769071
 30
0.0
 10
8.4774996166
 20
6.287100378
 30
0.0
 10
8.478089484
 20
6.2487006626
 30
0.0
 10
8.4797129756
 20
6.2109161042
 30
0.0
 10
8.482434633
 20
6.1737941694
 30
0.0
 10
8.4858157017
 20
6.1378799086
 30
0.0
 10
8.4913403394
 20
6.0941486724
 30
0.0
 10
8.5001553958
 20
6.0431834342
 30
0.0
 10
8.5111114031
 20
5.9941558929
 30
0.0
 10
8.5221055901
 20
5.9546631472
 30
0.0
 10
8.5319966224
 20
5.9240824685
 30
0.0
 10
8.5399143604
 20
5.9017625072
 30
0.0
 10
8.5483833631
 20
5.8799019428
 30
0.0
 10
8.5574084372
 20
5.8584896788
 30
0.0
 10
8.5669943454
 20
5.8375148129
 30
0.0
 10
8.577145752
 20
5.8169665395
 30
0.0
 10
8.5860887431
 20
5.8001738682
 30
0.0
 10
8.5935269634
 20
5.7869502951
 30
0.0
 10
8.5992448967
 20
5.7771410139
 30
0.0
 10
8.6051076453
 20
5.7674299445
 30
0.0
 10
8.6131197471
 20
5.7546092279
 30
0.0
 10
8.6235185098
 20
5.7388067242
 30
0.0
 10
8.6366265935
 20
5.7202119688
 30
0.0
 10
8.6503972492
 20
5.7019686172
 30
0.0
 10
8.664861836
 20
5.6840623331
 30
0.0
 10
8.6800517582
 20
5.666478604
 30
0.0
 10
8.6959983615
 20
5.6492029341
 30
0.0
 10
8.7127329641
 20
5.6322207748
 30
0.0
 10
8.7302868834
 20
5.6155175651
 30
0.0
 10
8.7486913191
 20
5.5990786417
 30
0.0
 10
8.7679760757
 20
5.5828910561
 30
0.0
 10
8.7881653466
 20
5.5669433697
 30
0.0
 10
8.8092773236
 20
5.5512250868
 30
0.0
 10
8.8313281615
 20
5.5357282621
 30
0.0
 10
8.8543295412
 20
5.5204482177
 30
0.0
 10
8.8782767783
 20
5.505387958
 30
0.0
 10
8.9031455207
 20
5.4905558357
 30
0.0
 10
8.9289003585
 20
5.4759693202
 30
0.0
 10
8.9555041176
 20
5.4616461707
 30
0.0
 10
8.9829223169
 20
5.4476045413
 30
0.0
 10
9.0111198246
 20
5.4338534799
 30
0.0
 10
9.040062796
 20
5.4203961405
 30
0.0
 10
9.069719228
 20
5.4072359581
 30
0.0
 10
9.1000569986
 20
5.3943760945
 30
0.0
 10
9.131044015
 20
5.381819791
 30
0.0
 10
9.1626481646
 20
5.3695702688
 30
0.0
 10
9.1948373367
 20
5.3576307738
 30
0.0
 10
9.2275793919
 20
5.3460044895
 30
0.0
 10
9.260842465
 20
5.3346947749
 30
0.0
 10
9.2945949707
 20
5.3237038591
 30
0.0
 10
9.3288045518
 20
5.3130291979
 30
0.0
 10
9.3634395781
 20
5.30266858
 30
0.0
 10
9.3984684295
 20
5.292619632
 30
0.0
 10
9.4338594956
 20
5.2828800202
 30
0.0
 10
9.4695811618
 20
5.2734474003
 30
0.0
 10
9.5056018009
 20
5.2643194315
 30
0.0
 10
9.5418898234
 20
5.2554937718
 30
0.0
 10
9.5906679884
 20
5.2441075222
 30
0.0
 10
9.6520849722
 20
5.2306376644
 30
0.0
 10
9.7262216251
 20
5.2156565907
 30
0.0
 10
9.8006590887
 20
5.2017976779
 30
0.0
 10
9.8751402516
 20
5.1890271164
 30
0.0
 10
9.9371495753
 20
5.1792450713
 30
0.0
 10
9.9865872841
 20
5.1719226712
 30
0.0
 10
10.0356620134
 20
5.1649616395
 30
0.0
 10
10.096704206
 20
5.1568686741
 30
0.0
 10
10.1696375482
 20
5.1480754139
 30
0.0
 10
10.2421329385
 20
5.1401774168
 30
0.0
 10
10.3142252761
 20
5.1331309507
 30
0.0
 10
10.3859495528
 20
5.1268922894
 30
0.0
 10
10.4573407425
 20
5.1214176984
 30
0.0
 10
10.5284339077
 20
5.1166634542
 30
0.0
 10
10.5992666872
 20
5.1125856232
 30
0.0
 10
10.6698823203
 20
5.1091403846
 30
0.0
 10
10.7403297294
 20
5.1062838874
 30
0.0
 10
10.8106610025
 20
5.1039719799
 30
0.0
 10
10.8809249045
 20
5.1021606727
 30
0.0
 10
10.9511564645
 20
5.1008059221
 30
0.0
 10
11.0213751045
 20
5.0998627913
 30
0.0
 10
11.0798866619
 20
5.0993828564
 30
0.0
 10
11.1266940642
 20
5.0991603447
 30
0.0
 10
11.1618000124
 20
5.0990685682
 30
0.0
 10
11.1969073357
 20
5.0990465651
 30
0.0
 10
11.2320163743
 20
5.0990879772
 30
0.0
 10
11.2671270432
 20
5.099196807
 30
0.0
 10
11.3139433557
 20
5.0994394048
 30
0.0
 10
11.3724642763
 20
5.0999386141
 30
0.0
 10
11.4426862995
 20
5.1008940404
 30
0.0
 10
11.5129104274
 20
5.1022489403
 30
0.0
 10
11.5831598144
 20
5.1040465276
 30
0.0
 10
11.6534769492
 20
5.10632934
 30
0.0
 10
11.723915028
 20
5.1091402267
 30
0.0
 10
11.7709106288
 20
5.1113909427
 30
0.0
 10
11.7944363104
 20
5.1126175209
 30
0.0
  0
SPLINE
  5
241
100
AcDbEntity
  8
0
100
AcDbSpline
 62
6
  6
CONTINUOUS
 70
0
 71
3
 72
184
 73
180
 74
0
 42
0.0000001
 43
0.0000001
 44
0.0000000001
 40
0.0
 40
0.0
 40
0.0
 40
0.0
 40
0.004800127
 40
0.0095257982
 40
0.0141821997
 40
0.0187740583
 40
0.0233056593
 40
0.0255502639
 40
0.0277812248
 40
0.0299991674
 40
0.0322049771
 40
0.036583098
 40
0.0409214467
 40
0.0452241463
 40
0.0494939714
 40
0.0537324138
 40
0.0579398942
 40
0.0621191334
 40
0.0662753792
 40
0.0704130173
 40
0.0745354514
 40
0.0786451634
 40
0.0827437818
 40
0.0847892526
 40
0.0868321735
 40
0.0909100743
 40
0.0949767493
 40
0.0990310043
 40
0.1030741789
 40
0.1071118795
 40
0.1091304836
 40
0.1111498456
 40
0.1131706433
 40
0.1151934253
 40
0.1172184188
 40
0.1192457969
 40
0.1233083887
 40
0.1273825793
 40
0.1314697265
 40
0.1355711754
 40
0.1396882578
 40
0.1438222931
 40
0.1521437096
 40
0.1605324875
 40
0.1689828443
 40
0.1774888588
 40
0.1860449504
 40
0.194647896
 40
0.2032951752
 40
0.2119841615
 40
0.2207120301
 40
0.2294751653
 40
0.2382695658
 40
0.2470911537
 40
0.2559357825
 40
0.2647993175
 40
0.2736776709
 40
0.2914621095
 40
0.3092555583
 40
0.3181449839
 40
0.3270236994
 40
0.3358872296
 40
0.3447305911
 40
0.3623358798
 40
0.3710874184
 40
0.3797989483
 40
0.3884676847
 40
0.3970909117
 40
0.401384608
 40
0.4056658981
 40
0.4099344363
 40
0.4141898784
 40
0.4184318886
 40
0.4226601392
 40
0.4310740786
 40
0.4394292541
 40
0.4477232617
 40
0.4559521877
 40
0.4641109869
 40
0.4721948053
 40
0.4762071687
 40
0.4801990895
 40
0.4881199029
 40
0.4959546782
 40
0.5037013514
 40
0.5113583583
 40
0.5189246931
 40
0.526399972
 40
0.5337845006
 40
0.5410793461
 40
0.5446937804
 40
0.548286583
 40
0.5554086568
 40
0.5624496155
 40
0.5694147687
 40
0.5763110062
 40
0.5797360233
 40
0.5831467205
 40
0.5899278805
 40
0.5966625209
 40
0.6000157081
 40
0.6033612756
 40
0.6067008937
 40
0.6100363931
 40
0.6133693123
 40
0.6167006279
 40
0.6200314274
 40
0.6233629784
 40
0.626696734
 40
0.6300343359
 40
0.6333776176
 40
0.6367286059
 40
0.6400895221
 40
0.643462566
 40
0.6468489672
 40
0.6502496253
 40
0.65366545
 40
0.6570973663
 40
0.6605463195
 40
0.6640132799
 40
0.6674992475
 40
0.6710052564
 40
0.6727661639
 40
0.6745324871
 40
0.676304361
 40
0.6780817638
 40
0.6798644781
 40
0.6816522479
 40
0.6852417056
 40
0.6888476464
 40
0.6924672384
 40
0.6961001024
 40
0.6997481518
 40
0.7070961459
 40
0.7107990841
 40
0.7145217172
 40
0.7220249407
 40
0.7296030681
 40
0.7372509778
 40
0.7410990927
 40
0.7449619234
 40
0.7488382594
 40
0.7527267168
 40
0.7605340133
 40
0.7683716673
 40
0.7762265735
 40
0.7801562412
 40
0.7840849859
 40
0.7919323475
 40
0.7997538619
 40
0.8075342347
 40
0.8114041317
 40
0.8152578387
 40
0.8190933454
 40
0.8229088201
 40
0.8267040813
 40
0.830479776
 40
0.8379750096
 40
0.8453996347
 40
0.8527586135
 40
0.8600567895
 40
0.8672988885
 40
0.8744895192
 40
0.8816331751
 40
0.8887339275
 40
0.8957946453
 40
0.9028178508
 40
0.9167615021
 40
0.9236897566
 40
0.9305972464
 40
0.9443760017
 40
0.9512603962
 40
0.958151069
 40
0.965055666
 40
0.9719818953
 40
0.9789365846
 40
0.9859229155
 40
0.9929432403
 40
1.0
 40
1.0
 40
1.0
 40
1.0
 10
10.8075187063
 20
11.230619347
 30
0.0
 10
10.7908426011
 20
11.2303483289
 30
0.0
 10
10.757756201
 20
11.2289924352
 30
0.0
 10
10.7086635033
 20
11.2245159722
 30
0.0
 10
10.6605716681
 20
11.2176895123
 30
0.0
 10
10.6135456427
 20
11.2085894505
 30
0.0
 10
10.5751739085
 20
11.1991441932
 30
0.0
 10
10.5450868545
 20
11.1905202329
 30
0.0
 10
10.5228959826
 20
11.1835510246
 30
0.0
 10
10.5010143133
 20
11.1760716701
 30
0.0
 10
10.4723252359
 20
11.1654704017
 30
0.0
 10
10.4372126213
 20
11.1510308796
 30
0.0
 10
10.3962085527
 20
11.1318912672
 30
0.0
 10
10.3564333327
 20
11.1111163397
 30
0.0
 10
10.3178812776
 20
11.0888400187
 30
0.0
 10
10.280545381
 20
11.0651955479
 30
0.0
 10
10.2444087645
 20
11.0403088554
 30
0.0
 10
10.2094354991
 20
11.0142898054
 30
0.0
 10
10.1755678774
 20
10.987236027
 30
0.0
 10
10.1427371675
 20
10.95923783
 30
0.0
 10
10.1108741654
 20
10.9303849446
 30
0.0
 10
10.0799097088
 20
10.900767149
 30
0.0
 10
10.0547809875
 20
10.8755063029
 30
0.0
 10
10.0350597217
 20
10.8550054672
 30
0.0
 10
10.015606565
 20
10.8343487788
 30
0.0
 10
9.9917319317
 20
10.8082121593
 30
0.0
 10
9.9637227031
 20
10.7763972521
 30
0.0
 10
9.9363163601
 20
10.7442203443
 30
0.0
 10
9.9094437643
 20
10.711727428
 30
0.0
 10
9.8874256621
 20
10.6844024115
 30
0.0
 10
9.8699992526
 20
10.6624103091
 30
0.0
 10
9.8570074595
 20
10.6458457976
 30
0.0
 10
9.8440814227
 20
10.6292115666
 30
0.0
 10
9.8312112105
 20
10.612509402
 30
0.0
 10
9.8183950498
 20
10.5957369372
 30
0.0
 10
9.801365854
 20
10.5732643268
 30
0.0
 10
9.7802048754
 20
10.5449896577
 30
0.0
 10
9.755022096
 20
10.5107873973
 30
0.0
 10
9.7300226247
 20
10.4762840598
 30
0.0
 10
9.7051957638
 20
10.4414731322
 30
0.0
 10
9.6805307773
 20
10.4063480616
 30
0.0
 10
9.647777294
 20
10.3589881197
 30
0.0
 10
9.6072062484
 20
10.2989910683
 30
0.0
 10
9.5592048219
 20
10.2259236763
 30
0.0
 10
9.5117973713
 20
10.1517073854
 30
0.0
 10
9.4649993765
 20
10.0764201402
 30
0.0
 10
9.4188212583
 20
10.0001308493
 30
0.0
 10
9.3732648402
 20
9.9228984484
 30
0.0
 10
9.3283254845
 20
9.8447723807
 30
0.0
 10
9.2839973881
 20
9.7657998848
 30
0.0
 10
9.24027581
 20
9.6860307668
 30
0.0
 10
9.1971597019
 20
9.6055171578
 30
0.0
 10
9.1546501823
 20
9.5243140121
 30
0.0
 10
9.1127487875
 20
9.4424772569
 30
0.0
 10
9.0714569096
 20
9.360062615
 30
0.0
 10
9.030775894
 20
9.2771250233
 30
0.0
 10
8.9773236512
 20
9.1658590016
 30
0.0
 10
8.9120907039
 20
9.0258363936
 30
0.0
 10
8.8489271435
 20
8.8848271135
 30
0.0
 10
8.7995989893
 20
8.771539077
 30
0.0
 10
8.7632335594
 20
8.686450392
 30
0.0
 10
8.7274908305
 20
8.6012718516
 30
0.0
 10
8.6807409128
 20
8.487832658
 30
0.0
 10
8.635194616
 20
8.3743208424
 30
0.0
 10
8.59082689
 20
8.260838228
 30
0.0
 10
8.5582544622
 20
8.1760849305
 30
0.0
 10
8.5263183599
 20
8.0915663335
 30
0.0
 10
8.5001950968
 20
8.021261841
 30
0.0
 10
8.4796083341
 20
7.9651638108
 30
0.0
 10
8.4643458799
 20
7.9232293256
 30
0.0
 10
8.4492385912
 20
7.8813799811
 30
0.0
 10
8.4342874236
 20
7.8396195376
 30
0.0
 10
8.419502529
 20
7.7979484218
 30
0.0
 10
8.4000558687
 20
7.7426001729
 30
0.0
 10
8.3762101289
 20
7.673650005
 30
0.0
 10
8.3483599504
 20
7.5911393542
 30
0.0
 10
8.3213993407
 20
7.5090098511
 30
0.0
 10
8.2954076745
 20
7.427284023
 30
0.0
 10
8.270467703
 20
7.3459945336
 30
0.0
 10
8.2505824847
 20
7.2784833489
 30
0.0
 10
8.2352851696
 20
7.2247178485
 30
0.0
 10
8.2204851659
 20
7.1714009186
 30
0.0
 10
8.2027992677
 20
7.1051030982
 30
0.0
 10
8.18292598
 20
7.0258949886
 30
0.0
 10
8.1645567684
 20
6.94726492
 30
0.0
 10
8.1477898349
 20
6.8692307158
 30
0.0
 10
8.1327233684
 20
6.791810108
 30
0.0
 10
8.1194555998
 20
6.7150206909
 30
0.0
 10
8.1080849199
 20
6.6388804869
 30
0.0
 10
8.1002484098
 20
6.575794865
 30
0.0
 10
8.0950362463
 20
6.5256754598
 30
0.0
 10
8.0905672233
 20
6.4760871474
 30
0.0
 10
8.0863426074
 20
6.4145285445
 30
0.0
 10
8.0835959947
 20
6.3411561478
 30
0.0
 10
8.0833245384
 20
6.268515887
 30
0.0
 10
8.0852808076
 20
6.2084696083
 30
0.0
 10
8.0882284263
 20
6.1608454836
 30
0.0
 10
8.0921031456
 20
6.1136890432
 30
0.0
 10
8.0987547531
 20
6.0552350746
 30
0.0
 10
8.1079902299
 20
5.9973319497
 30
0.0
 10
8.1169935182
 20
5.9515294158
 30
0.0
 10
8.1245629137
 20
5.9174779388
 30
0.0
 10
8.1329785238
 20
5.8836889554
 30
0.0
 10
8.1422599564
 20
5.8501728222
 30
0.0
 10
8.1524252423
 20
5.8169440603
 30
0.0
 10
8.1634911738
 20
5.7840212927
 30
0.0
 10
8.1754739296
 20
5.7514258727
 30
0.0
 10
8.1883895995
 20
5.7191793681
 30
0.0
 10
8.2022542804
 20
5.6873033605
 30
0.0
 10
8.2170840704
 20
5.6558194462
 30
0.0
 10
8.2328950515
 20
5.6247492222
 30
0.0
 10
8.2497033553
 20
5.5941143445
 30
0.0
 10
8.2675245249
 20
5.5639369514
 30
0.0
 10
8.2863721958
 20
5.53424383
 30
0.0
 10
8.3062394312
 20
5.505055856
 30
0.0
 10
8.3271160815
 20
5.4763970261
 30
0.0
 10
8.3489916548
 20
5.4482925583
 30
0.0
 10
8.3718555889
 20
5.4207676067
 30
0.0
 10
8.395697328
 20
5.3938473592
 30
0.0
 10
8.4205063687
 20
5.3675569485
 30
0.0
 10
8.4462719959
 20
5.3419217136
 30
0.0
 10
8.468499154
 20
5.3211563973
 30
0.0
 10
8.4867440528
 20
5.304897583
 30
0.0
 10
8.5006808434
 20
5.2928643779
 30
0.0
 10
8.5148487078
 20
5.2810146555
 30
0.0
 10
8.5292426526
 20
5.2693499824
 30
0.0
 10
8.5438536634
 20
5.2578687878
 30
0.0
 10
8.5636380433
 20
5.242785341
 30
0.0
 10
8.5888619451
 20
5.2243937487
 30
0.0
 10
8.6198144232
 20
5.2030791773
 30
0.0
 10
8.6514274466
 20
5.1824801328
 30
0.0
 10
8.6836571138
 20
5.1625803522
 30
0.0
 10
8.7275186238
 20
5.1368876491
 30
0.0
 10
8.772436776
 20
5.1125445503
 30
0.0
 10
8.8182751263
 20
5.0894360897
 30
0.0
 10
8.8650310559
 20
5.0669689539
 30
0.0
 10
8.9246855455
 20
5.0402862376
 30
0.0
 10
8.9978199457
 20
5.0104491603
 30
0.0
 10
9.0599231394
 20
4.98728049
 30
0.0
 10
9.1102971598
 20
4.9696614446
 30
0.0
 10
9.1484723495
 20
4.9568681169
 30
0.0
 10
9.186938152
 20
4.9445112601
 30
0.0
 10
9.2386482092
 20
4.9285846789
 30
0.0
 10
9.3038546078
 20
4.9097354375
 30
0.0
 10
9.3827661788
 20
4.8887395669
 30
0.0
 10
9.448989492
 20
4.8725103913
 30
0.0
 10
9.5021900587
 20
4.8602395736
 30
0.0
 10
9.5554703027
 20
4.8484399707
 30
0.0
 10
9.6221366985
 20
4.834558185
 30
0.0
 10
9.7021559418
 20
4.8192057123
 30
0.0
 10
9.7687824111
 20
4.8074347741
 30
0.0
 10
9.8219244262
 20
4.7986100665
 30
0.0
 10
9.8615876952
 20
4.7922936115
 30
0.0
 10
9.9011036753
 20
4.786260127
 30
0.0
 10
9.9404552572
 20
4.7805004761
 30
0.0
 10
9.9796353576
 20
4.7750092478
 30
0.0
 10
10.0315200367
 20
4.7680556354
 30
0.0
 10
10.095978937
 20
4.7599996122
 30
0.0
 10
10.1728978631
 20
4.751287988
 30
0.0
 10
10.249228272
 20
4.7435074524
 30
0.0
 10
10.3250065484
 20
4.7366094037
 30
0.0
 10
10.4002691718
 20
4.7305452133
 30
0.0
 10
10.4750526022
 20
4.7252662526
 30
0.0
 10
10.5493922436
 20
4.7207239732
 30
0.0
 10
10.6233186133
 20
4.7168699715
 30
0.0
 10
10.6968565653
 20
4.7136556196
 30
0.0
 10
10.7941781999
 20
4.7101667637
 30
0.0
 10
10.8910746516
 20
4.7077499762
 30
0.0
 10
10.9875840431
 20
4.7062291007
 30
0.0
 10
11.0835275474
 20
4.7052443809
 30
0.0
 10
11.179324166
 20
4.7049602072
 30
0.0
 10
11.2750612974
 20
4.7051882971
 30
0.0
 10
11.3469126447
 20
4.7056619018
 30
0.0
 10
11.4189062539
 20
4.7064843232
 30
0.0
 10
11.4911168128
 20
4.7077018823
 30
0.0
 10
11.5636027347
 20
4.7093603169
 30
0.0
 10
11.6364030561
 20
4.7115061359
 30
0.0
 10
11.7095406217
 20
4.7141857384
 30
0.0
 10
11.758404812
 20
4.7163530078
 30
0.0
 10
11.7828951665
 20
4.7175399939
 30
0.0
  0
SPLINE
  5
242
100
AcDbEntity
  8
0
100
AcDbSpline
 62
6
  6
CONTINUOUS
 70
0
 71
3
 72
36
 73
32
 74
0
 42
0.0000001
 43
0.0000001
 44
0.0000000001
 40
0.0
 40
0.0
 40
0.0
 40
0.0
 40
0.0154942068
 40
0.0311761553
 40
0.0472645524
 40
0.0639614728
 40
0.0814473978
 40
0.099876475
 40
0.1193733666
 40
0.1400390225
 40
0.1619545976
 40
0.1851845411
 40
0.2097721298
 40
0.2357409565
 40
0.263104388
 40
0.291868019
 40
0.3220294872
 40
0.3535683825
 40
0.3864541406
 40
0.4206524756
 40
0.4561260503
 40
0.4928250475
 40
0.530681857
 40
0.5696256067
 40
0.6504771248
 40
0.692227723
 40
0.7347399147
 40
0.8216762567
 40
0.8658996118
 40
0.9104531087
 40
1.0
 40
1.0
 40
1.0
 40
1.0
 10
11.0775288938
 20
10.4958644194
 30
0.0
 10
11.0775288732
 20
10.4965926721
 30
0.0
 10
11.0776243245
 20
10.4980597535
 30
0.0
 10
11.0780534152
 20
10.5002452012
 30
0.0
 10
11.0787672127
 20
10.5024144143
 30
0.0
 10
11.0797640384
 20
10.5045621233
 30
0.0
 10
11.0810423296
 20
10.506684031
 30
0.0
 10
11.0825999494
 20
10.5087760062
 30
0.0
 10
11.0844338228
 20
10.5108347015
 30
0.0
 10
11.0865413219
 20
10.5128564375
 30
0.0
 10
11.088919881
 20
10.5148374925
 30
0.0
 10
11.0915668552
 20
10.516773641
 30
0.0
 10
11.0944783333
 20
10.5186610312
 30
0.0
 10
11.0976494114
 20
10.520496083
 30
0.0
 10
11.1010750338
 20
10.5222747332
 30
0.0
 10
11.104749982
 20
10.5239929072
 30
0.0
 10
11.1086684029
 20
10.5256461099
 30
0.0
 10
11.1128229594
 20
10.5272308019
 30
0.0
 10
11.1172054966
 20
10.5287432478
 30
0.0
 10
11.1218076043
 20
10.5301795767
 30
0.0
 10
11.1266204188
 20
10.5315356556
 30
0.0
 10
11.1316336547
 20
10.5328077119
 30
0.0
 10
11.1368355514
 20
10.5339928232
 30
0.0
 10
11.1440970576
 20
10.5354709568
 30
0.0
 10
11.1515866687
 20
10.5367357158
 30
0.0
 10
11.1592747763
 20
10.5377968848
 30
0.0
 10
11.1672663026
 20
10.5387407922
 30
0.0
 10
11.1753991849
 20
10.5394653544
 30
0.0
 10
11.1836426245
 20
10.5399745907
 30
0.0
 10
11.1920163781
 20
10.5403424071
 30
0.0
 10
11.1983200437
 20
10.5404531105
 30
0.0
 10
11.2025288921
 20
10.5404531105
 30
0.0
  0
SPLINE
  5
243
100
AcDbEntity
  8
0
100
AcDbSpline
 62
6
  6
CONTINUOUS
 70
0
 71
3
 72
174
 73
170
 74
0
 42
0.0000001
 43
0.0000001
 44
0.0000000001
 40
0.0
 40
0.0
 40
0.0
 40
0.0
 40
0.0153085344
 40
0.0307412356
 40
0.0385133289
 40
0.0463275388
 40
0.0541877068
 40
0.0620977482
 40
0.0700616516
 40
0.0740650809
 40
0.0780835049
 40
0.0821174183
 40
0.0861661481
 40
0.0942985564
 40
0.1024613004
 40
0.1106350138
 40
0.1188005811
 40
0.1269392095
 40
0.1350328919
 40
0.1430642915
 40
0.1510164614
 40
0.1588729009
 40
0.1666176308
 40
0.1704432662
 40
0.1742350114
 40
0.1779908467
 40
0.1817087922
 40
0.1853869122
 40
0.18902332
 40
0.1926161819
 40
0.1961637237
 40
0.1996642362
 40
0.2031160825
 40
0.2065176996
 40
0.2098672809
 40
0.2131625937
 40
0.2164014283
 40
0.2195816486
 40
0.2227012034
 40
0.228753008
 40
0.231687933
 40
0.2345647569
 40
0.2373856093
 40
0.2401527206
 40
0.2428684761
 40
0.2455366799
 40
0.2481625816
 40
0.2507515092
 40
0.2533087822
 40
0.2558396922
 40
0.2583494816
 40
0.260843323
 40
0.2633262995
 40
0.2645653022
 40
0.2658034287
 40
0.2682787215
 40
0.2707553116
 40
0.2732361927
 40
0.2757243458
 40
0.2782227297
 40
0.2807342727
 40
0.2832618648
 40
0.2858083495
 40
0.2909686833
 40
0.2935878488
 40
0.2962353169
 40
0.3016212903
 40
0.307139424
 40
0.3128013462
 40
0.3186178428
 40
0.3215868459
 40
0.3245969138
 40
0.3307413217
 40
0.3370534291
 40
0.3435346326
 40
0.3501856961
 40
0.3570066709
 40
0.3639963251
 40
0.371152551
 40
0.3784726221
 40
0.3859532701
 40
0.3935907516
 40
0.4013809056
 40
0.4093192036
 40
0.417400793
 40
0.4256205341
 40
0.4297805603
 40
0.433973145
 40
0.442453669
 40
0.4510574602
 40
0.4597795962
 40
0.4686149438
 40
0.4775581669
 40
0.4866028876
 40
0.4957412548
 40
0.5049651751
 40
0.5142664381
 40
0.5189434837
 40
0.5236367398
 40
0.5283451534
 40
0.5330677612
 40
0.5378038756
 40
0.5425528609
 40
0.5520868979
 40
0.5616648098
 40
0.5712815408
 40
0.5906112454
 40
0.6100359476
 40
0.6295163936
 40
0.6490189285
 40
0.6685130661
 40
0.6879687521
 40
0.707356389
 40
0.726646456
 40
0.7458069704
 40
0.7648052939
 40
0.774233712
 40
0.7836096751
 40
0.7929293219
 40
0.8021888502
 40
0.8113846858
 40
0.8205144934
 40
0.8295765216
 40
0.8385691006
 40
0.8474906455
 40
0.8563392053
 40
0.8651081699
 40
0.8737881951
 40
0.8823699957
 40
0.8866212135
 40
0.890844445
 40
0.8950385635
 40
0.8971243591
 40
0.8992024078
 40
0.9012718647
 40
0.9033314287
 40
0.9074156611
 40
0.9114447864
 40
0.9154097658
 40
0.9193079257
 40
0.9231388903
 40
0.9269025087
 40
0.9305985364
 40
0.9342261705
 40
0.9377847149
 40
0.9412737145
 40
0.9446929836
 40
0.9480426379
 40
0.9513231295
 40
0.9529377271
 40
0.9545354774
 40
0.9576834354
 40
0.9607742183
 40
0.963815433
 40
0.9668150177
 40
0.9697812175
 40
0.9727225491
 40
0.9741866869
 40
0.9756479026
 40
0.9771073278
 40
0.978566385
 40
0.9800268109
 40
0.9814904008
 40
0.9844342894
 40
0.9874133924
 40
0.9904433912
 40
0.993540324
 40
0.99672043
 40
1.0
 40
1.0
 40
1.0
 40
1.0
 10
11.7944363104
 20
5.1126175209
 30
0.0
 10
11.8352488156
 20
5.1147453969
 30
0.0
 10
11.917174863
 20
5.1196209774
 30
0.0
 10
12.0197025614
 20
5.1273820666
 30
0.0
 10
12.1021875926
 20
5.1347093787
 30
0.0
 10
12.1644836025
 20
5.1408101258
 30
0.0
 10
12.2270862911
 20
5.1475300988
 30
0.0
 10
12.2900186366
 20
5.154896328
 30
0.0
 10
12.3426615016
 20
5.161583961
 30
0.0
 10
12.3849554955
 20
5.1672813631
 30
0.0
 10
12.4168295267
 20
5.1717405184
 30
0.0
 10
12.4487999116
 20
5.1763807682
 30
0.0
 10
12.4916061156
 20
5.1828222843
 30
0.0
 10
12.5452458012
 20
5.191338999
 30
0.0
 10
12.6096398685
 20
5.2023222687
 30
0.0
 10
12.6739818714
 20
5.2141096002
 30
0.0
 10
12.7381009643
 20
5.2267266911
 30
0.0
 10
12.8018273905
 20
5.2402008108
 30
0.0
 10
12.8649949172
 20
5.254552856
 30
0.0
 10
12.9274404191
 20
5.26980015
 30
0.0
 10
12.9890016057
 20
5.2859611857
 30
0.0
 10
13.0495160944
 20
5.3030540055
 30
0.0
 10
13.0991367107
 20
5.318150714
 30
0.0
 10
13.1381721326
 20
5.3307282388
 30
0.0
 10
13.166965502
 20
5.3403637461
 30
0.0
 10
13.195373364
 20
5.350238962
 30
0.0
 10
13.2233748544
 20
5.3603529334
 30
0.0
 10
13.2509490596
 20
5.3707047176
 30
0.0
 10
13.2780750829
 20
5.3812933696
 30
0.0
 10
13.304732025
 20
5.3921179498
 30
0.0
 10
13.3308989967
 20
5.4031775079
 30
0.0
 10
13.3565550911
 20
5.4144711399
 30
0.0
 10
13.3816794666
 20
5.4259977769
 30
0.0
 10
13.4062501956
 20
5.4377565514
 30
0.0
 10
13.4302444519
 20
5.4497431161
 30
0.0
 10
13.453639746
 20
5.461947387
 30
0.0
 10
13.4764118748
 20
5.4743594581
 30
0.0
 10
13.498536916
 20
5.4869693822
 30
0.0
 10
13.5268565744
 20
5.5038625314
 30
0.0
 10
13.5540983688
 20
5.5212752894
 30
0.0
 10
13.5801847347
 20
5.5392394199
 30
0.0
 10
13.5988535771
 20
5.5527556277
 30
0.0
 10
13.616828745
 20
5.5664544221
 30
0.0
 10
13.6341135832
 20
5.5803380474
 30
0.0
 10
13.6507134443
 20
5.5944117013
 30
0.0
 10
13.6666414449
 20
5.6086826334
 30
0.0
 10
13.6819196814
 20
5.6231592002
 30
0.0
 10
13.6965727534
 20
5.6378529419
 30
0.0
 10
13.7106255448
 20
5.6527753282
 30
0.0
 10
13.7241029095
 20
5.6679378467
 30
0.0
 10
13.7370297469
 20
5.6833519821
 30
0.0
 10
13.7494309021
 20
5.6990291116
 30
0.0
 10
13.7593548357
 20
5.7123313802
 30
0.0
 10
13.7670497243
 20
5.7231081075
 30
0.0
 10
13.7745841416
 20
5.7339726757
 30
0.0
 10
13.7837209243
 20
5.7477446807
 30
0.0
 10
13.7942335651
 20
5.7645765355
 30
0.0
 10
13.8042986404
 20
5.781719677
 30
0.0
 10
13.8139210236
 20
5.7991815622
 30
0.0
 10
13.8231056941
 20
5.8169697432
 30
0.0
 10
13.8318575939
 20
5.8350916861
 30
0.0
 10
13.8401817597
 20
5.8535551076
 30
0.0
 10
13.8507629258
 20
5.8787475291
 30
0.0
 10
13.860461062
 20
5.9045662322
 30
0.0
 10
13.8692969839
 20
5.9309647346
 30
0.0
 10
13.8776791673
 20
5.9581422971
 30
0.0
 10
13.8871236639
 20
5.9930794355
 30
0.0
 10
13.8967601938
 20
6.0362555617
 30
0.0
 10
13.9047699676
 20
6.0809301349
 30
0.0
 10
13.9100557509
 20
6.1191458043
 30
0.0
 10
13.9134931829
 20
6.1504487518
 30
0.0
 10
13.9164388028
 20
6.1826810874
 30
0.0
 10
13.9190988919
 20
6.2238940739
 30
0.0
 10
13.9206799275
 20
6.2744342734
 30
0.0
 10
13.9206824374
 20
6.3263513332
 30
0.0
 10
13.919117595
 20
6.3796031354
 30
0.0
 10
13.9159963513
 20
6.4341453447
 30
0.0
 10
13.9113601586
 20
6.4899322421
 30
0.0
 10
13.9052508209
 20
6.5469166319
 30
0.0
 10
13.8977100127
 20
6.605050721
 30
0.0
 10
13.8887794135
 20
6.6642866821
 30
0.0
 10
13.878500677
 20
6.7245766329
 30
0.0
 10
13.8669154474
 20
6.7858726422
 30
0.0
 10
13.8540653704
 20
6.8481267667
 30
0.0
 10
13.8399920632
 20
6.9112909333
 30
0.0
 10
13.8273313843
 20
6.9644294805
 30
0.0
 10
13.8166353387
 20
7.007359191
 30
0.0
 10
13.8054810031
 20
7.0508911862
 30
0.0
 10
13.7908532525
 20
7.1057781907
 30
0.0
 10
13.7723280219
 20
7.1721356142
 30
0.0
 10
13.7528180882
 20
7.2391971667
 30
0.0
 10
13.7323764099
 20
7.306927479
 30
0.0
 10
13.7110565556
 20
7.3752889711
 30
0.0
 10
13.6889143005
 20
7.4442385131
 30
0.0
 10
13.6660077468
 20
7.5137272552
 30
0.0
 10
13.6423960048
 20
7.5837026229
 30
0.0
 10
13.6222195253
 20
7.6422659056
 30
0.0
 10
13.6057805799
 20
7.6893231498
 30
0.0
 10
13.5932886902
 20
7.7247713208
 30
0.0
 10
13.5806648342
 20
7.7603018102
 30
0.0
 10
13.5679155697
 20
7.7959090438
 30
0.0
 10
13.5550417039
 20
7.8315865888
 30
0.0
 10
13.5376896838
 20
7.8793033949
 30
0.0
 10
13.5156958204
 20
7.9390858598
 30
0.0
 10
13.4888510073
 20
8.0109292346
 30
0.0
 10
13.4523581509
 20
8.1070827672
 30
0.0
 10
13.4055911159
 20
8.2274518563
 30
0.0
 10
13.3477228691
 20
8.3717485431
 30
0.0
 10
13.2880559857
 20
8.5158107588
 30
0.0
 10
13.226626764
 20
8.6593323381
 30
0.0
 10
13.1634647531
 20
8.8020279354
 30
0.0
 10
13.0985963228
 20
8.9436190784
 30
0.0
 10
13.0320485574
 20
9.0838264414
 30
0.0
 10
12.9638520195
 20
9.2223621946
 30
0.0
 10
12.8940499716
 20
9.3589301761
 30
0.0
 10
12.8344363626
 20
9.4711216389
 30
0.0
 10
12.7859538673
 20
9.5596329963
 30
0.0
 10
12.7493117136
 20
9.6251659926
 30
0.0
 10
12.7123050879
 20
9.6899751867
 30
0.0
 10
12.6749400071
 20
9.7540223553
 30
0.0
 10
12.6372207138
 20
9.8172722776
 30
0.0
 10
12.5991485964
 20
9.8796937816
 30
0.0
 10
12.5607228123
 20
9.9412595808
 30
0.0
 10
12.5219417907
 20
10.001943543
 30
0.0
 10
12.4828047512
 20
10.0617186133
 30
0.0
 10
12.4433182383
 20
10.1205458809
 30
0.0
 10
12.4035047399
 20
10.17837134
 30
0.0
 10
12.3633990045
 20
10.2351247231
 30
0.0
 10
12.3296622772
 20
10.2816050915
 30
0.0
 10
12.3025513361
 20
10.3181883959
 30
0.0
 10
12.2822321245
 20
10.3452245929
 30
0.0
 10
12.2652322876
 20
10.3675231698
 30
0.0
 10
12.2516108979
 20
10.3851954693
 30
0.0
 10
12.2414055863
 20
10.3983392956
 30
0.0
 10
12.2311942963
 20
10.4113896857
 30
0.0
 10
12.2176125609
 20
10.4286030218
 30
0.0
 10
12.2006511131
 20
10.449813377
 30
0.0
 10
12.1802604099
 20
10.4747927622
 30
0.0
 10
12.159901255
 20
10.4991541764
 30
0.0
 10
12.1395711876
 20
10.5228472681
 30
0.0
 10
12.1192545826
 20
10.5458396004
 30
0.0
 10
12.0989321485
 20
10.5681017601
 30
0.0
 10
12.0785889334
 20
10.5896039128
 30
0.0
 10
12.0582219612
 20
10.6103229069
 30
0.0
 10
12.0378286381
 20
10.630232911
 30
0.0
 10
12.0174068529
 20
10.6493081265
 30
0.0
 10
11.9969543505
 20
10.6675227225
 30
0.0
 10
11.9764690235
 20
10.6848507397
 30
0.0
 10
11.9592790177
 20
10.6986021327
 30
0.0
 10
11.9455066077
 20
10.7091277259
 30
0.0
 10
11.9318598601
 20
10.7192317516
 30
0.0
 10
11.9147561454
 20
10.7312854347
 30
0.0
 10
11.8940395723
 20
10.7448797053
 30
0.0
 10
11.8732000199
 20
10.7575384584
 30
0.0
 10
11.852203815
 20
10.7692687596
 30
0.0
 10
11.8310175328
 20
10.780077672
 30
0.0
 10
11.8131483989
 20
10.7883358053
 30
0.0
 10
11.7987410753
 20
10.7944797661
 30
0.0
 10
11.7878831276
 20
10.7988555122
 30
0.0
 10
11.7769521912
 20
10.8030074711
 30
0.0
 10
11.7659406925
 20
10.8069346306
 30
0.0
 10
11.7548385068
 20
10.8106332255
 30
0.0
 10
11.7398728117
 20
10.8152649722
 30
0.0
 10
11.7208469869
 20
10.8204752805
 30
0.0
 10
11.6975272849
 20
10.8257508598
 30
0.0
 10
11.6735903192
 20
10.8300385213
 30
0.0
 10
11.6489526144
 20
10.8333148158
 30
0.0
 10
11.6235310281
 20
10.8355567008
 30
0.0
 10
11.6062976639
 20
10.8363332755
 30
0.0
 10
11.5975451563
 20
10.8365503488
 30
0.0
  0
SPLINE
  5
244
100
AcDbEntity
  8
0
100
AcDbSpline
 62
6
  6
CONTINUOUS
 70
0
 71
3
 72
174
 73
170
 74
0
 42
0.0000001
 43
0.0000001
 44
0.0000000001
 40
0.0
 40
0.0
 40
0.0
 40
0.0
 40
0.0139220519
 40
0.0209402673
 40
0.0280010197
 40
0.0351077306
 40
0.0422638915
 40
0.0494730648
 40
0.0567388837
 40
0.0640650525
 40
0.071455346
 40
0.0751757505
 40
0.0789136008
 40
0.082668459
 40
0.0864389114
 40
0.0940207735
 40
0.1016477655
 40
0.1093086731
 40
0.1169925426
 40
0.1246885047
 40
0.1323855772
 40
0.1400731286
 40
0.1477409908
 40
0.1553795167
 40
0.1591849794
 40
0.1629798528
 40
0.1705343466
 40
0.1780370154
 40
0.1854828042
 40
0.1891832043
 40
0.1928680314
 40
0.1965370045
 40
0.2001899607
 40
0.2038272503
 40
0.2074496738
 40
0.2110581856
 40
0.214653893
 40
0.2182380621
 40
0.22181169
 40
0.225373812
 40
0.2289230145
 40
0.2324581159
 40
0.2359781854
 40
0.2377324046
 40
0.2394826424
 40
0.2412288642
 40
0.2429710856
 40
0.2464436254
 40
0.2499006983
 40
0.2533426356
 40
0.2567697513
 40
0.2635800421
 40
0.2669644791
 40
0.270335278
 40
0.2720157034
 40
0.2736929286
 40
0.2770386063
 40
0.2803741746
 40
0.2837012974
 40
0.2870215187
 40
0.2903362626
 40
0.2969538548
 40
0.3035637064
 40
0.3068683984
 40
0.3101744412
 40
0.3167957131
 40
0.3234379486
 40
0.3301091797
 40
0.3368156173
 40
0.3435627824
 40
0.3503583001
 40
0.3572092147
 40
0.3641212588
 40
0.3676017508
 40
0.3710991164
 40
0.3746137426
 40
0.378146
 40
0.3816962644
 40
0.3852648695
 40
0.3924580959
 40
0.3997276514
 40
0.407074747
 40
0.4145000227
 40
0.4220035936
 40
0.4295850953
 40
0.4372437248
 40
0.444978281
 40
0.4488735785
 40
0.4527872234
 40
0.4606680659
 40
0.468617684
 40
0.4766326715
 40
0.4847094278
 40
0.4928441773
 40
0.5010335216
 40
0.509275227
 40
0.5175671276
 40
0.5259069423
 40
0.5300940806
 40
0.5342922955
 40
0.538501275
 40
0.5427207004
 40
0.5469502395
 40
0.5511895556
 40
0.5596961704
 40
0.5682378752
 40
0.5768120076
 40
0.5940469168
 40
0.6113799554
 40
0.6287899763
 40
0.6462516772
 40
0.6637373683
 40
0.681219697
 40
0.6986717333
 40
0.7160673706
 40
0.7333836718
 40
0.750599535
 40
0.7676945848
 40
0.7846492558
 40
0.793068043
 40
0.801443522
 40
0.8097719055
 40
0.8180494777
 40
0.8262726016
 40
0.8344381564
 40
0.8425473422
 40
0.850603869
 40
0.854613607
 40
0.8586116369
 40
0.8625984599
 40
0.8665745852
 40
0.8685588002
 40
0.8705405353
 40
0.8725198563
 40
0.8744968901
 40
0.8764722017
 40
0.8784465534
 40
0.8823954616
 40
0.8863499125
 40
0.8903149829
 40
0.8942904318
 40
0.8982748704
 40
0.9002701123
 40
0.9022672044
 40
0.9062669108
 40
0.910274576
 40
0.914291242
 40
0.9183184217
 40
0.9223581363
 40
0.9264129485
 40
0.9304859937
 40
0.9345807981
 40
0.9386987677
 40
0.9428400724
 40
0.9470056236
 40
0.9511971628
 40
0.9554173046
 40
0.9596695736
 40
0.9639584334
 40
0.9682887206
 40
0.9726632619
 40
0.9770844562
 40
0.9793135234
 40
0.981555314
 40
0.9860784264
 40
0.9906575473
 40
0.9929694453
 40
0.9952968319
 40
1.0
 40
1.0
 40
1.0
 40
1.0
 10
11.7828951665
 20
4.7175399939
 30
0.0
 10
11.825808841
 20
4.7196199122
 30
0.0
 10
11.8903346778
 20
4.7232132981
 30
0.0
 10
11.976551036
 20
4.7290402481
 30
0.0
 10
12.0417442702
 20
4.7339883131
 30
0.0
 10
12.1073166873
 20
4.7395332858
 30
0.0
 10
12.1732931217
 20
4.7457060365
 30
0.0
 10
12.2396982949
 20
4.752537461
 30
0.0
 10
12.3065569716
 20
4.7600584435
 30
0.0
 10
12.3738938448
 20
4.7682998823
 30
0.0
 10
12.4302984655
 20
4.7757767711
 30
0.0
 10
12.4756771119
 20
4.7821458028
 30
0.0
 10
12.5099203048
 20
4.7871319654
 30
0.0
 10
12.5442895378
 20
4.792321188
 30
0.0
 10
12.5903499928
 20
4.7995326611
 30
0.0
 10
12.6481386799
 20
4.8090820811
 30
0.0
 10
12.7176297704
 20
4.8214255729
 30
0.0
 10
12.787266246
 20
4.8347189204
 30
0.0
 10
12.856923119
 20
4.8490065038
 30
0.0
 10
12.926473204
 20
4.8643341652
 30
0.0
 10
12.9957852435
 20
4.8807558176
 30
0.0
 10
13.0647266153
 20
4.8983240974
 30
0.0
 10
13.133164251
 20
4.9170917693
 30
0.0
 10
13.1897340586
 20
4.9337954979
 30
0.0
 10
13.2346230495
 20
4.9478193122
 30
0.0
 10
13.2791102913
 20
4.9622500054
 30
0.0
 10
13.334142511
 20
4.9811402367
 30
0.0
 10
13.3992569129
 20
5.0053008779
 30
0.0
 10
13.4526667881
 20
5.0267595237
 30
0.0
 10
13.4947565788
 20
5.0447427011
 30
0.0
 10
13.5259230293
 20
5.0586169198
 30
0.0
 10
13.5567359508
 20
5.0729151491
 30
0.0
 10
13.5871810195
 20
5.087647319
 30
0.0
 10
13.6172437928
 20
5.1028289418
 30
0.0
 10
13.646910415
 20
5.1184793297
 30
0.0
 10
13.6761682296
 20
5.1346175542
 30
0.0
 10
13.705004527
 20
5.1512628604
 30
0.0
 10
13.7334054081
 20
5.1684338367
 30
0.0
 10
13.761350556
 20
5.1861444356
 30
0.0
 10
13.7888091601
 20
5.2044066291
 30
0.0
 10
13.8157426592
 20
5.2232284359
 30
0.0
 10
13.842110658
 20
5.2426165854
 30
0.0
 10
13.8636033927
 20
5.2592697906
 30
0.0
 10
13.8804739683
 20
5.2728838393
 30
0.0
 10
13.8929463644
 20
5.2832288776
 30
0.0
 10
13.9052467761
 20
5.2937209035
 30
0.0
 10
13.9213954259
 20
5.3078883673
 30
0.0
 10
13.9411433797
 20
5.3259551033
 30
0.0
 10
13.9641506807
 20
5.3482119926
 30
0.0
 10
13.9864303419
 20
5.371002315
 30
0.0
 10
14.0150876339
 20
5.4020057161
 30
0.0
 10
14.0423176251
 20
5.4340671812
 30
0.0
 10
14.0680398028
 20
5.467101871
 30
0.0
 10
14.083445906
 20
5.4880916732
 30
0.0
 10
14.0953705323
 20
5.50509117
 30
0.0
 10
14.1070075305
 20
5.5221951952
 30
0.0
 10
14.1210624084
 20
5.5438288275
 30
0.0
 10
14.1371575242
 20
5.5701945308
 30
0.0
 10
14.152476607
 20
5.5969280077
 30
0.0
 10
14.1670285519
 20
5.6240138083
 30
0.0
 10
14.1854084791
 20
5.6605536383
 30
0.0
 10
14.2065259347
 20
5.7070584609
 30
0.0
 10
14.225213624
 20
5.7545560952
 30
0.0
 10
14.2387291555
 20
5.7930554455
 30
0.0
 10
14.2513161047
 20
5.8319053316
 30
0.0
 10
14.265336975
 20
5.8811008244
 30
0.0
 10
14.2795049771
 20
5.9409865792
 30
0.0
 10
14.2911332138
 20
6.0016832226
 30
0.0
 10
14.3003298149
 20
6.0631209402
 30
0.0
 10
14.3072032654
 20
6.12524601
 30
0.0
 10
14.3118513385
 20
6.1880227369
 30
0.0
 10
14.3143750618
 20
6.2514281967
 30
0.0
 10
14.3147909929
 20
6.3046497148
 30
0.0
 10
14.3141693375
 20
6.3475112273
 30
0.0
 10
14.3132338893
 20
6.3798791127
 30
0.0
 10
14.3118432245
 20
6.4123903762
 30
0.0
 10
14.3100081815
 20
6.445043051
 30
0.0
 10
14.3077369835
 20
6.4778352593
 30
0.0
 10
14.3041294365
 20
6.5218563961
 30
0.0
 10
14.2985645204
 20
6.577228854
 30
0.0
 10
14.2902982151
 20
6.6440309167
 30
0.0
 10
14.2804951635
 20
6.7113481473
 30
0.0
 10
14.26922447
 20
6.7791667971
 30
0.0
 10
14.2565551594
 20
6.8474734656
 30
0.0
 10
14.2425562337
 20
6.9162546625
 30
0.0
 10
14.2272966751
 20
6.985496812
 30
0.0
 10
14.2136203321
 20
7.0434317154
 30
0.0
 10
14.2021203843
 20
7.0900010045
 30
0.0
 10
14.1902028206
 20
7.1369311121
 30
0.0
 10
14.1746419131
 20
7.1958434919
 30
0.0
 10
14.1550092101
 20
7.2667659026
 30
0.0
 10
14.1344320405
 20
7.3380494162
 30
0.0
 10
14.1129679036
 20
7.4096673117
 30
0.0
 10
14.0906738118
 20
7.4815945544
 30
0.0
 10
14.0676048277
 20
7.5538114298
 30
0.0
 10
14.0438134732
 20
7.6263040186
 30
0.0
 10
14.0193510355
 20
7.6990628409
 30
0.0
 10
13.9984777675
 20
7.7598259302
 30
0.0
 10
13.9814936988
 20
7.8085661836
 30
0.0
 10
13.968602247
 20
7.8452326664
 30
0.0
 10
13.9555811547
 20
7.8819590344
 30
0.0
 10
13.9424373553
 20
7.918744333
 30
0.0
 10
13.9291718016
 20
7.9555854234
 30
0.0
 10
13.9113020635
 20
8.0048305029
 30
0.0
 10
13.8886618429
 20
8.0665008699
 30
0.0
 10
13.8610353674
 20
8.1405900931
 30
0.0
 10
13.8234861761
 20
8.2397254034
 30
0.0
 10
13.775346168
 20
8.3638587215
 30
0.0
 10
13.7157229192
 20
8.5127756822
 30
0.0
 10
13.6541532953
 20
8.6616565797
 30
0.0
 10
13.5906498447
 20
8.8102357461
 30
0.0
 10
13.52523171
 20
8.9582263249
 30
0.0
 10
13.4579216505
 20
9.1053337315
 30
0.0
 10
13.3887417304
 20
9.2512641564
 30
0.0
 10
13.3177106133
 20
9.3957324548
 30
0.0
 10
13.2448343025
 20
9.5384616745
 30
0.0
 10
13.1701124188
 20
9.6791849693
 30
0.0
 10
13.0935435109
 20
9.817638561
 30
0.0
 10
13.0280446939
 20
9.9311671803
 30
0.0
 10
12.9746927866
 20
10.0206167841
 30
0.0
 10
12.9343156736
 20
10.0868039205
 30
0.0
 10
12.8934897445
 20
10.1522020041
 30
0.0
 10
12.8522226909
 20
10.2167654427
 30
0.0
 10
12.8105214313
 20
10.2804495862
 30
0.0
 10
12.7683852474
 20
10.3432220587
 30
0.0
 10
12.7257972197
 20
10.4050657031
 30
0.0
 10
12.6898510656
 20
10.4559055978
 30
0.0
 10
12.6608408614
 20
10.4961066876
 30
0.0
 10
12.6389840496
 20
10.525980953
 30
0.0
 10
12.6169905504
 20
10.5556256526
 30
0.0
 10
12.5985333391
 20
10.5801547403
 30
0.0
 10
12.583695641
 20
10.5996628015
 30
0.0
 10
12.5725378157
 20
10.6142274865
 30
0.0
 10
12.5613425203
 20
10.6287354037
 30
0.0
 10
12.5501085777
 20
10.6431883197
 30
0.0
 10
12.5388290281
 20
10.6575862125
 30
0.0
 10
12.5237165188
 20
10.6767113668
 30
0.0
 10
12.5046547874
 20
10.7004999671
 30
0.0
 10
12.4814539749
 20
10.7288420821
 30
0.0
 10
12.457868702
 20
10.7569723355
 30
0.0
 10
12.4338545453
 20
10.7848598354
 30
0.0
 10
12.4134694072
 20
10.807846048
 30
0.0
 10
12.3969158584
 20
10.8260661623
 30
0.0
 10
12.3801786125
 20
10.8441818571
 30
0.0
 10
12.358928602
 20
10.8665820731
 30
0.0
 10
12.3328710428
 20
10.893003593
 30
0.0
 10
12.306197646
 20
10.918925824
 30
0.0
 10
12.2788621656
 20
10.9442952627
 30
0.0
 10
12.2508183062
 20
10.9690584287
 30
0.0
 10
12.22201983
 20
10.9931618407
 30
0.0
 10
12.1924208106
 20
11.0165513062
 30
0.0
 10
12.1619834264
 20
11.0391682309
 30
0.0
 10
12.1306787934
 20
11.0609410238
 30
0.0
 10
12.0984871788
 20
11.0817854954
 30
0.0
 10
12.0653942967
 20
11.1016142993
 30
0.0
 10
12.031385848
 20
11.1203397566
 30
0.0
 10
11.9964475984
 20
11.1378741726
 30
0.0
 10
11.9605653451
 20
11.1541296657
 30
0.0
 10
11.9237266638
 20
11.1690179356
 30
0.0
 10
11.8859295986
 20
11.1824459885
 30
0.0
 10
11.8472013576
 20
11.1943608352
 30
0.0
 10
11.8142709642
 20
11.2029594043
 30
0.0
 10
11.7875079784
 20
11.2090310953
 30
0.0
 10
11.7603116375
 20
11.2145852352
 30
0.0
 10
11.7257897502
 20
11.2204699073
 30
0.0
 10
11.6908299013
 20
11.2248749177
 30
0.0
 10
11.6625017465
 20
11.2275099841
 30
0.0
 10
11.6337414246
 20
11.2295537405
 30
0.0
 10
11.6120514689
 20
11.2303801445
 30
0.0
 10
11.5975392417
 20
11.2306181178
 30
0.0
  0
SPLINE
  5
245
100
AcDbEntity
  8
0
100
AcDbSpline
 62
6
  6
CONTINUOUS
 70
0
 71
3
 72
36
 73
32
 74
0
 42
0.0000001
 43
0.0000001
 44
0.0000000001
 40
0.0
 40
0.0
 40
0.0
 40
0.0
 40
0.0891649905
 40
0.1775084993
 40
0.2210484625
 40
0.2640263564
 40
0.3479053739
 40
0.3886268842
 40
0.4284260244
 40
0.467224796
 40
0.5049467392
 40
0.5415286966
 40
0.5769201696
 40
0.6110726112
 40
0.64394096
 40
0.6754946592
 40
0.7057119212
 40
0.7345745709
 40
0.7620722877
 40
0.7882093373
 40
0.8129981525
 40
0.8364595433
 40
0.8586279653
 40
0.8795572939
 40
0.8993172946
 40
0.9179959739
 40
0.935703681
 40
0.9525799043
 40
0.9687911373
 40
0.9845276271
 40
1.0
 40
1.0
 40
1.0
 40
1.0
 10
11.2025288921
 20
10.4484799819
 30
0.0
 10
11.1983056287
 20
10.4484799819
 30
0.0
 10
11.1898971445
 20
10.4486470733
 30
0.0
 10
11.1794428382
 20
10.4492692665
 30
0.0
 10
11.1711937854
 20
10.4500161703
 30
0.0
 10
11.1631722661
 20
10.4509102667
 30
0.0
 10
11.155312275
 20
10.4520365224
 30
0.0
 10
11.1476454225
 20
10.4534006059
 30
0.0
 10
11.1421049322
 20
10.4545180447
 30
0.0
 10
11.136731123
 20
10.45573543
 30
0.0
 10
11.1315369169
 20
10.45704865
 30
0.0
 10
11.1265339975
 20
10.4584530108
 30
0.0
 10
11.1217326669
 20
10.4599431841
 30
0.0
 10
11.1171426251
 20
10.4615141335
 30
0.0
 10
11.1127730028
 20
10.4631611636
 30
0.0
 10
11.1086317727
 20
10.4648790625
 30
0.0
 10
11.1047259393
 20
10.466662589
 30
0.0
 10
11.101062112
 20
10.4685067698
 30
0.0
 10
11.097646373
 20
10.470406875
 30
0.0
 10
11.0944838039
 20
10.4723577453
 30
0.0
 10
11.091578998
 20
10.4743545074
 30
0.0
 10
11.0889363774
 20
10.4763925023
 30
0.0
 10
11.0865599872
 20
10.4784673279
 30
0.0
 10
11.0844528922
 20
10.4805742392
 30
0.0
 10
11.0826179721
 20
10.4827088984
 30
0.0
 10
11.0810581443
 20
10.4848670724
 30
0.0
 10
11.079776657
 20
10.4870448871
 30
0.0
 10
11.0787760026
 20
10.4892379774
 30
0.0
 10
11.0780583176
 20
10.4914420054
 30
0.0
 10
11.0776259106
 20
10.4936516761
 30
0.0
 10
11.0775289145
 20
10.4951315767
 30
0.0
 10
11.0775288938
 20
10.4958644194
 30
0.0
  0
LINE
  5
246
100
AcDbEntity
  8
0
100
AcDbLine
 62
9
  6
CONTINUOUS
 10
10.269287225
 20
11.9932603374
 11
10.8955818203
 21
11.3698126065
  0
LINE
  5
247
100
AcDbEntity
  8
0
100
AcDbLine
 62
9
  6
CONTINUOUS
 10
11.2025288921
 20
11.9936473371
 11
10.269287225
 21
11.9932603374
  0
LINE
  5
248
100
AcDbEntity
  8
0
100
AcDbLine
 62
9
  6
CONTINUOUS
 10
10.0782839121
 20
9.8840552183
 11
10.2125431492
 21
10.0177474628
  0
SPLINE
  5
249
100
AcDbEntity
  8
0
100
AcDbSpline
 62
9
  6
CONTINUOUS
 70
0
 71
3
 72
13
 73
9
 74
0
 42
0.0000001
 43
0.0000001
 44
0.0000000001
 40
0.0
 40
0.0
 40
0.0
 40
0.0
 40
0.2499999995
 40
0.375
 40
0.4375000002
 40
0.5000000003
 40
0.7500000002
 40
1.0
 40
1.0
 40
1.0
 40
1.0
 10
12.1925146085
 20
10.017747518
 30
0.0
 10
12.0275170089
 20
10.0176403893
 30
0.0
 10
11.7800205889
 20
10.0175069176
 30
0.0
 10
11.4912747394
 20
10.0174210921
 30
0.0
 10
11.3262771059
 20
10.0173956777
 30
0.0
 10
11.0787806537
 20
10.0173833154
 30
0.0
 10
10.707535974
 20
10.0174620791
 30
0.0
 10
10.3775407489
 20
10.0176402835
 30
0.0
 10
10.2125431492
 20
10.0177474628
 30
0.0
  0
LINE
  5
24A
100
AcDbEntity
  8
0
100
AcDbLine
 62
9
  6
CONTINUOUS
 10
12.3267738825
 20
9.8840552146
 11
12.1925146085
 21
10.017747518
  0
LINE
  5
24B
100
AcDbEntity
  8
0
100
AcDbLine
 62
9
  6
CONTINUOUS
 10
10.2125427357
 20
12.049760589
 11
11.2025288921
 21
12.050117576
  0
LINE
  5
24C
100
AcDbEntity
  8
0
100
AcDbLine
 62
9
  6
CONTINUOUS
 10
10.0782839896
 20
12.1834515173
 11
10.2125427357
 21
12.049760589
  0
LINE
  5
24D
100
AcDbEntity
  8
0
100
AcDbLine
 62
9
  6
CONTINUOUS
 10
12.1431966713
 20
12.004402356
 11
12.1357703378
 21
11.9932603378
  0
LINE
  5
24E
100
AcDbEntity
  8
0
100
AcDbLine
 62
9
  6
CONTINUOUS
 10
12.1731749525
 20
11.9744213831
 11
12.1620340468
 21
11.9669956411
  0
LINE
  5
24F
100
AcDbEntity
  8
0
100
AcDbLine
 62
9
  6
CONTINUOUS
 10
10.2318829751
 20
11.9744221748
 11
10.2430238453
 21
11.9669959647
  0
LINE
  5
250
100
AcDbEntity
  8
0
100
AcDbLine
 62
9
  6
CONTINUOUS
 10
10.2618617277
 20
12.0044023762
 11
10.2692878598
 21
11.9932603378
  0
LINE
  5
251
100
AcDbEntity
  8
0
100
AcDbLine
 62
9
  6
CONTINUOUS
 10
12.1731748635
 20
10.0930860157
 11
12.1620339566
 21
10.1005119644
  0
LINE
  5
252
100
AcDbEntity
  8
0
100
AcDbLine
 62
9
  6
CONTINUOUS
 10
12.1431960555
 20
10.0631058024
 11
12.135769543
 21
10.074247949
  0
LINE
  5
253
100
AcDbEntity
  8
0
100
AcDbLine
 62
9
  6
CONTINUOUS
 10
10.2618617275
 20
10.0631072713
 11
10.2692877771
 21
10.074248158
  0
LINE
  5
254
100
AcDbEntity
  8
0
100
AcDbLine
 62
9
  6
CONTINUOUS
 10
10.2318815029
 20
10.0930860651
 11
10.2430236705
 21
10.1005124712
  0
LINE
  5
255
100
AcDbEntity
  8
0
100
AcDbLine
 62
9
  6
CONTINUOUS
 10
11.2025288921
 20
11.9936473372
 11
11.2025255441
 21
12.0047684238
  0
SPLINE
  5
256
100
AcDbEntity
  8
0
100
AcDbSpline
 62
6
  6
CONTINUOUS
 70
0
 71
3
 72
38
 73
34
 74
0
 42
0.0000001
 43
0.0000001
 44
0.0000000001
 40
0.0
 40
0.0
 40
0.0
 40
0.0
 40
0.0154652701
 40
0.0311933163
 40
0.0473950368
 40
0.064261504
 40
0.0730001824
 40
0.0819653809
 40
0.1006337031
 40
0.1203827171
 40
0.1413016982
 40
0.1634618601
 40
0.1869183068
 40
0.2117049058
 40
0.237841201
 40
0.2653382922
 40
0.2942006678
 40
0.3244240516
 40
0.3559867573
 40
0.3888603324
 40
0.4230133785
 40
0.4584119932
 40
0.4950089518
 40
0.5327397116
 40
0.5715371336
 40
0.6113330333
 40
0.6520568929
 40
0.6936249103
 40
0.7359466908
 40
0.8224826781
 40
0.8665033762
 40
0.9108550283
 40
1.0
 40
1.0
 40
1.0
 40
1.0
 10
11.3275288217
 20
10.4958752455
 30
0.0
 10
11.3275291813
 20
10.4951426767
 30
0.0
 10
11.3274331698
 20
10.4936633429
 30
0.0
 10
11.3270025971
 20
10.4914543134
 30
0.0
 10
11.3262869329
 20
10.4892508831
 30
0.0
 10
11.3254643197
 20
10.4874449319
 30
0.0
 10
11.324672617
 20
10.4860108598
 30
0.0
 10
11.323766018
 20
10.4845450275
 30
0.0
 10
11.3224504199
 20
10.4827225276
 30
0.0
 10
11.320617545
 20
10.4805879203
 30
0.0
 10
11.3185122704
 20
10.4784807601
 30
0.0
 10
11.3161373638
 20
10.476405528
 30
0.0
 10
11.3134957429
 20
10.4743669551
 30
0.0
 10
11.3105915509
 20
10.4723694293
 30
0.0
 10
11.3074293656
 20
10.4704176548
 30
0.0
 10
11.3040138976
 20
10.4685165397
 30
0.0
 10
11.3003500225
 20
10.4666711145
 30
0.0
 10
11.296443418
 20
10.4648866835
 30
0.0
 10
11.292301095
 20
10.4631679061
 30
0.0
 10
11.2879306737
 20
10.4615198821
 30
0.0
 10
11.2833399565
 20
10.4599477223
 30
0.0
 10
11.2785372484
 20
10.4584568725
 30
0.0
 10
11.2735323883
 20
10.4570523551
 30
0.0
 10
11.2683367802
 20
10.455738505
 30
0.0
 10
11.2629625001
 20
10.4545201423
 30
0.0
 10
11.257421785
 20
10.4534020006
 30
0.0
 10
11.2517275444
 20
10.4523891302
 30
0.0
 10
11.2458939139
 20
10.4514850058
 30
0.0
 10
11.2378910035
 20
10.4504211123
 30
0.0
 10
11.2297403301
 20
10.4496008587
 30
0.0
 10
11.2214748494
 20
10.4490235362
 30
0.0
 10
11.2130760562
 20
10.4486060036
 30
0.0
 10
11.2067515683
 20
10.4484799819
 30
0.0
 10
11.2025288921
 20
10.4484799819
 30
0.0
  0
LINE
  5
257
100
AcDbEntity
  8
0
100
AcDbLine
 62
9
  6
CONTINUOUS
 10
12.1725712408
 20
11.9738180491
 11
12.1726811443
 21
11.9740932259
  0
LINE
  5
258
100
AcDbEntity
  8
0
100
AcDbLine
 62
9
  6
CONTINUOUS
 10
12.1357701277
 20
10.074248064
 11
11.5097523677
 21
10.6974178037
  0
SPLINE
  5
259
100
AcDbEntity
  8
0
100
AcDbSpline
 62
9
  6
CONTINUOUS
 70
0
 71
3
 72
14
 73
10
 74
0
 42
0.0000001
 43
0.0000001
 44
0.0000000001
 40
0.0
 40
0.0
 40
0.0
 40
0.0
 40
0.249999999
 40
0.3749999995
 40
0.4374999996
 40
0.4999999997
 40
0.625
 40
0.7500000007
 40
1.0
 40
1.0
 40
1.0
 40
1.0
 10
10.2692876575
 20
10.0742480905
 30
0.0
 10
10.4248278358
 20
10.0741318567
 30
0.0
 10
10.6581381293
 20
10.0739872901
 30
0.0
 10
10.9303335041
 20
10.0738943961
 30
0.0
 10
11.0858737248
 20
10.0738668715
 30
0.0
 10
11.2414139475
 20
10.0738578885
 30
0.0
 10
11.4358392266
 20
10.0738818546
 30
0.0
 10
11.7469196555
 20
10.073986922
 30
0.0
 10
11.9802299493
 20
10.0741318117
 30
0.0
 10
12.1357701277
 20
10.074248064
 30
0.0
  0
LINE
  5
25A
100
AcDbEntity
  8
0
100
AcDbLine
 62
9
  6
CONTINUOUS
 10
10.2692876575
 20
10.0742480905
 11
10.8952714084
 21
10.6973841687
  0
LINE
  5
25B
100
AcDbEntity
  8
0
100
AcDbLine
 62
9
  6
CONTINUOUS
 10
12.352227027
 20
9.9095083591
 11
12.2185346202
 21
10.0437674179
  0
LINE
  5
25C
100
AcDbEntity
  8
0
100
AcDbLine
 62
9
  6
CONTINUOUS
 10
12.2185345405
 20
12.0237401564
 11
12.218889898
 21
10.9952417639
  0
LINE
  5
25D
100
AcDbEntity
  8
0
100
AcDbLine
 62
9
  6
CONTINUOUS
 10
12.2187468796
 20
10.426769157
 11
12.2185346202
 21
10.0437674179
  0
LINE
  5
25E
100
AcDbEntity
  8
0
100
AcDbLine
 62
9
  6
CONTINUOUS
 10
10.2324865446
 20
11.9738180486
 11
10.2323766418
 21
11.9740932246
  0
LINE
  5
25F
100
AcDbEntity
  8
0
100
AcDbLine
 62
9
  6
CONTINUOUS
 10
12.3522270306
 20
12.1579983317
 11
12.2185345405
 21
12.0237401564
  0
LINE
  5
260
100
AcDbEntity
  8
0
100
AcDbLine
 62
9
  6
CONTINUOUS
 10
10.0528307346
 20
12.1579983171
 11
10.1865231944
 21
12.0237401804
  0
LINE
  5
261
100
AcDbEntity
  8
0
100
AcDbLine
 62
9
  6
CONTINUOUS
 10
12.142591841
 20
10.0637108401
 11
12.142866947
 21
10.0636009365
  0
LINE
  5
262
100
AcDbEntity
  8
0
100
AcDbLine
 62
9
  6
CONTINUOUS
 10
10.1865232072
 20
10.0437674383
 11
10.1863109653
 21
10.4267983989
  0
LINE
  5
263
100
AcDbEntity
  8
0
100
AcDbLine
 62
9
  6
CONTINUOUS
 10
10.1861676871
 20
10.9953645015
 11
10.1865231944
 21
12.0237401804
  0
LINE
  5
264
100
AcDbEntity
  8
0
100
AcDbLine
 62
9
  6
CONTINUOUS
 10
12.1620340245
 20
11.966996205
 11
11.5192135157
 21
11.3212437708
  0
LINE
  5
265
100
AcDbEntity
  8
0
100
AcDbLine
 62
9
  6
CONTINUOUS
 10
12.1620339711
 20
10.1005118357
 11
12.16228119
 21
10.4957292249
  0
LINE
  5
266
100
AcDbEntity
  8
0
100
AcDbLine
 62
9
  6
CONTINUOUS
 10
12.1624197734
 20
11.0380745877
 11
12.1620340245
 21
11.966996205
  0
LINE
  5
267
100
AcDbEntity
  8
0
100
AcDbLine
 62
9
  6
CONTINUOUS
 10
12.1620339711
 20
10.1005118357
 11
11.5192487469
 21
10.7462295055
  0
LINE
  5
268
100
AcDbEntity
  8
0
100
AcDbLine
 62
9
  6
CONTINUOUS
 10
10.0528307589
 20
9.909508351
 11
10.1865232072
 21
10.0437674383
  0
LINE
  5
269
100
AcDbEntity
  8
0
100
AcDbLine
 62
9
  6
CONTINUOUS
 10
12.3267738094
 20
12.1834514981
 11
12.1925150489
 21
12.0497605894
  0
LINE
  5
26A
100
AcDbEntity
  8
0
100
AcDbLine
 62
9
  6
CONTINUOUS
 10
11.2025288921
 20
12.0501175756
 11
12.1925150489
 21
12.0497605894
  0
LINE
  5
26B
100
AcDbEntity
  8
0
100
AcDbLine
 62
9
  6
CONTINUOUS
 10
10.2624654119
 20
10.063710855
 11
10.2621907013
 21
10.0636009391
  0
LINE
  5
26C
100
AcDbEntity
  8
0
100
AcDbLine
 62
9
  6
CONTINUOUS
 10
12.1357705596
 20
11.9932603377
 11
11.2025288921
 21
11.9936473374
  0
LINE
  5
26D
100
AcDbEntity
  8
0
100
AcDbLine
 62
9
  6
CONTINUOUS
 10
12.1725712323
 20
10.093689533
 11
12.1726811414
 21
10.0934150126
  0
LINE
  5
26E
100
AcDbEntity
  8
0
100
AcDbLine
 62
9
  6
CONTINUOUS
 10
12.1357705596
 20
11.9932603377
 11
11.5098528947
 21
11.3701905211
  0
LINE
  5
26F
100
AcDbEntity
  8
0
100
AcDbLine
 62
9
  6
CONTINUOUS
 10
10.2190290439
 20
10.0600246532
 11
10.2319039994
 21
10.0922327424
  0
LINE
  5
270
100
AcDbEntity
  8
0
100
AcDbLine
 62
9
  6
CONTINUOUS
 10
12.1425925846
 20
12.0037974339
 11
12.1428670234
 21
12.0039073492
  0
LINE
  5
271
100
AcDbEntity
  8
0
100
AcDbLine
 62
9
  6
CONTINUOUS
 10
10.2190290439
 20
10.0600246532
 11
10.2187967901
 21
10.4674410646
  0
LINE
  5
272
100
AcDbEntity
  8
0
100
AcDbLine
 62
9
  6
CONTINUOUS
 10
10.2186631426
 20
11.020220098
 11
10.2190289994
 21
12.0074813447
  0
LINE
  5
273
100
AcDbEntity
  8
0
100
AcDbLine
 62
9
  6
CONTINUOUS
 10
10.2624652054
 20
12.0037974332
 11
10.2621907967
 21
12.0039073488
  0
LINE
  5
274
100
AcDbEntity
  8
0
100
AcDbLine
 62
9
  6
CONTINUOUS
 10
10.2190289994
 20
12.0074813447
 11
10.2318993621
 21
11.9752869157
  0
LINE
  5
275
100
AcDbEntity
  8
0
100
AcDbLine
 62
9
  6
CONTINUOUS
 10
10.2323766418
 20
11.9740932246
 11
10.2320172645
 21
11.0302202308
  0
LINE
  5
276
100
AcDbEntity
  8
0
100
AcDbLine
 62
9
  6
CONTINUOUS
 10
10.2321498584
 20
10.4832397551
 11
10.2323766405
 21
10.0934151554
  0
LINE
  5
277
100
AcDbEntity
  8
0
100
AcDbLine
 62
9
  6
CONTINUOUS
 10
10.2288006913
 20
10.0502532827
 11
10.2609971273
 21
10.063123652
  0
SPLINE
  5
278
100
AcDbEntity
  8
0
100
AcDbSpline
 62
9
  6
CONTINUOUS
 70
0
 71
3
 72
13
 73
9
 74
0
 42
0.0000001
 43
0.0000001
 44
0.0000000001
 40
0.0
 40
0.0
 40
0.0
 40
0.0
 40
0.2499999993
 40
0.3749999997
 40
0.4999999997
 40
0.6249999999
 40
0.7500000005
 40
1.0
 40
1.0
 40
1.0
 40
1.0
 10
10.2621907013
 20
10.0636009391
 30
0.0
 10
10.418913698
 20
10.0634924056
 30
0.0
 10
10.6539982157
 20
10.0633578169
 30
0.0
 10
10.9674442708
 20
10.0632589726
 30
0.0
 10
11.2025288237
 20
10.0632329288
 30
0.0
 10
11.4376133765
 20
10.0632597121
 30
0.0
 10
11.7510594324
 20
10.0633573575
 30
0.0
 10
11.9861439503
 20
10.0634923848
 30
0.0
 10
12.142866947
 20
10.0636009365
 30
0.0
  0
SPLINE
  5
279
100
AcDbEntity
  8
0
100
AcDbSpline
 62
9
  6
CONTINUOUS
 70
0
 71
3
 72
17
 73
13
 74
0
 42
0.0000001
 43
0.0000001
 44
0.0000000001
 40
0.0
 40
0.0
 40
0.0
 40
0.0
 40
0.1205559042
 40
0.1824199931
 40
0.2450630234
 40
0.3719222055
 40
0.4999997179
 40
0.6280772705
 40
0.7549365659
 40
0.8175796761
 40
0.87944386
 40
1.0
 40
1.0
 40
1.0
 40
1.0
 10
10.2430237428
 20
10.100511846
 30
0.0
 10
10.2433789343
 20
10.0989863728
 30
0.0
 10
10.2441002259
 20
10.096716766
 30
0.0
 10
10.2453802464
 20
10.0937997501
 30
0.0
 10
10.2468993268
 20
10.0909059011
 30
0.0
 10
10.2491945569
 20
10.0874608202
 30
0.0
 10
10.2524834811
 20
10.0837077639
 30
0.0
 10
10.2562365559
 20
10.0804188586
 30
0.0
 10
10.2596816509
 20
10.0781236443
 30
0.0
 10
10.2625755103
 20
10.0766045758
 30
0.0
 10
10.2654925369
 20
10.0753245664
 30
0.0
 10
10.2677621509
 20
10.0746032832
 30
0.0
 10
10.2692876285
 20
10.0742480972
 30
0.0
  0
SPLINE
  5
27A
100
AcDbEntity
  8
0
100
AcDbSpline
 62
9
  6
CONTINUOUS
 70
0
 71
3
 72
17
 73
13
 74
0
 42
0.0000001
 43
0.0000001
 44
0.0000000001
 40
0.0
 40
0.0
 40
0.0
 40
0.0
 40
0.120423668
 40
0.1822630956
 40
0.2449058833
 40
0.371823796
 40
0.4999996308
 40
0.6281754995
 40
0.7550935162
 40
0.817736394
 40
0.8795759495
 40
1.0
 40
1.0
 40
1.0
 40
1.0
 10
10.1865231594
 20
10.0437675426
 30
0.0
 10
10.1868941369
 20
10.0422664256
 30
0.0
 10
10.1876327962
 20
10.0400343565
 30
0.0
 10
10.1889240248
 20
10.037165354
 30
0.0
 10
10.1904475297
 20
10.0343167136
 30
0.0
 10
10.1927340508
 20
10.0309224039
 30
0.0
 10
10.1959925954
 20
10.0272168489
 30
0.0
 10
10.1996981314
 20
10.0239582807
 30
0.0
 10
10.2030924312
 20
10.0216717393
 30
0.0
 10
10.2059410686
 20
10.0201482198
 30
0.0
 10
10.2088100733
 20
10.0188569772
 30
0.0
 10
10.2110421463
 20
10.0181183087
 30
0.0
 10
10.2125432668
 20
10.0177473247
 30
0.0
  0
LINE
  5
27B
100
AcDbEntity
  8
0
100
AcDbLine
 62
9
  6
CONTINUOUS
 10
12.1762570886
 20
10.0502533435
 11
12.1440519978
 21
10.0631272036
  0
SPLINE
  5
27C
100
AcDbEntity
  8
0
100
AcDbSpline
 62
9
  6
CONTINUOUS
 70
0
 71
3
 72
17
 73
13
 74
0
 42
0.0000001
 43
0.0000001
 44
0.0000000001
 40
0.0
 40
0.0
 40
0.0
 40
0.0
 40
0.1205560699
 40
0.1824202265
 40
0.2450633143
 40
0.3719225772
 40
0.5000001183
 40
0.6280776435
 40
0.7549368584
 40
0.8175799108
 40
0.8794440264
 40
1.0
 40
1.0
 40
1.0
 40
1.0
 10
12.1357701302
 20
10.0742480646
 30
0.0
 10
12.1372956039
 20
10.0746032514
 30
0.0
 10
12.1395652119
 20
10.0753245356
 30
0.0
 10
12.1424822304
 20
10.0766045459
 30
0.0
 10
12.1453760819
 20
10.078123615
 30
0.0
 10
12.1488211669
 20
10.0804188298
 30
0.0
 10
12.15257423
 20
10.0837077347
 30
0.0
 10
12.1558631432
 20
10.0874607899
 30
0.0
 10
12.1581583649
 20
10.0909058687
 30
0.0
 10
12.1596774394
 20
10.0937997156
 30
0.0
 10
12.1609574546
 20
10.0967167295
 30
0.0
 10
12.1616787426
 20
10.0989863344
 30
0.0
 10
12.1620339319
 20
10.1005118062
 30
0.0
  0
SPLINE
  5
27D
100
AcDbEntity
  8
0
100
AcDbSpline
 62
9
  6
CONTINUOUS
 70
0
 71
3
 72
17
 73
13
 74
0
 42
0.0000001
 43
0.0000001
 44
0.0000000001
 40
0.0
 40
0.0
 40
0.0
 40
0.0
 40
0.1204238621
 40
0.1822633484
 40
0.2449061705
 40
0.3718241002
 40
0.4999999346
 40
0.6281758073
 40
0.7550938088
 40
0.8177366518
 40
0.8795761474
 40
1.0
 40
1.0
 40
1.0
 40
1.0
 10
12.192514455
 20
10.0177474852
 30
0.0
 10
12.1940155752
 20
10.0181184575
 30
0.0
 10
12.1962476494
 20
10.0188571094
 30
0.0
 10
12.1991166579
 20
10.020148331
 30
0.0
 10
12.2019653017
 20
10.02167183
 30
0.0
 10
12.2053596126
 20
10.0239583484
 30
0.0
 10
12.2090651657
 20
10.0272168928
 30
0.0
 10
12.2123237316
 20
10.0309224281
 30
0.0
 10
12.2146102741
 20
10.0343167243
 30
0.0
 10
12.2161337982
 20
10.0371653561
 30
0.0
 10
12.2174250468
 20
10.0400343527
 30
0.0
 10
12.218163722
 20
10.0422664189
 30
0.0
 10
12.2185347109
 20
10.043767535
 30
0.0
  0
SPLINE
  5
27E
100
AcDbEntity
  8
0
100
AcDbSpline
 62
9
  6
CONTINUOUS
 70
0
 71
3
 72
13
 73
9
 74
0
 42
0.0000001
 43
0.0000001
 44
0.0000000001
 40
0.0
 40
0.0
 40
0.0
 40
0.0
 40
0.2499999996
 40
0.3750000001
 40
0.4375000002
 40
0.5000000003
 40
0.7500000002
 40
1.0
 40
1.0
 40
1.0
 40
1.0
 10
12.1762570886
 20
10.0502533435
 30
0.0
 10
12.0139690791
 20
10.0501431885
 30
0.0
 10
11.7705370427
 20
10.0500060137
 30
0.0
 10
11.4865329722
 20
10.0499178319
 30
0.0
 10
11.3242449263
 20
10.0498917186
 30
0.0
 10
11.0808128555
 20
10.0498790041
 30
0.0
 10
10.7156647476
 20
10.0499599404
 30
0.0
 10
10.3910887009
 20
10.0501431082
 30
0.0
 10
10.2288006913
 20
10.0502532827
 30
0.0
  0
SPLINE
  5
27F
100
AcDbEntity
  8
0
100
AcDbSpline
 62
9
  6
CONTINUOUS
 70
0
 71
3
 72
17
 73
13
 74
0
 42
0.0000001
 43
0.0000001
 44
0.0000000001
 40
0.0
 40
0.0
 40
0.0
 40
0.0
 40
0.1205554306
 40
0.182419316
 40
0.2450621694
 40
0.3719210928
 40
0.4999984988
 40
0.6280761143
 40
0.7549356439
 40
0.817578932
 40
0.8794433304
 40
1.0
 40
1.0
 40
1.0
 40
1.0
 10
10.269287244
 20
11.9932603596
 30
0.0
 10
10.2677617793
 20
11.9929051584
 30
0.0
 10
10.2654921862
 20
11.9921838516
 30
0.0
 10
10.2625751913
 20
11.9909038105
 30
0.0
 10
10.2596813632
 20
11.9893847076
 30
0.0
 10
10.2562363105
 20
11.9870894472
 30
0.0
 10
10.2524832913
 20
11.983800486
 30
0.0
 10
10.2491944242
 20
11.9800473739
 30
0.0
 10
10.2468992426
 20
11.9766022496
 30
0.0
 10
10.2453801991
 20
11.9737083676
 30
0.0
 10
10.2441002129
 20
11.9707913175
 30
0.0
 10
10.2433789476
 20
11.9685216876
 30
0.0
 10
10.2430237732
 20
11.9669962002
 30
0.0
  0
SPLINE
  5
280
100
AcDbEntity
  8
0
100
AcDbSpline
 62
9
  6
CONTINUOUS
 70
0
 71
3
 72
17
 73
13
 74
0
 42
0.0000001
 43
0.0000001
 44
0.0000000001
 40
0.0
 40
0.0
 40
0.0
 40
0.0
 40
0.1204229583
 40
0.1822620575
 40
0.2449045534
 40
0.3718220382
 40
0.4999977072
 40
0.6281737013
 40
0.7550921229
 40
0.8177352931
 40
0.879575187
 40
1.0
 40
1.0
 40
1.0
 40
1.0
 10
10.2125428442
 20
12.0497606919
 30
0.0
 10
10.2110417384
 20
12.0493897025
 30
0.0
 10
10.2088096883
 20
12.048651022
 30
0.0
 10
10.2059407167
 20
12.0473597612
 30
0.0
 10
10.2030921085
 20
12.0458362198
 30
0.0
 10
10.1996978433
 20
12.0435496476
 30
0.0
 10
10.195992348
 20
12.0402910392
 30
0.0
 10
10.1927338414
 20
12.0365854384
 30
0.0
 10
10.1904473518
 20
12.0331910879
 30
0.0
 10
10.1889238711
 20
12.0303424124
 30
0.0
 10
10.1876326637
 20
12.02747337
 30
0.0
 10
10.1868940202
 20
12.0252412725
 30
0.0
 10
10.1865230512
 20
12.0237401372
 30
0.0
  0
LINE
  5
281
100
AcDbEntity
  8
0
100
AcDbLine
 62
9
  6
CONTINUOUS
 10
12.1860287878
 20
10.0600246793
 11
12.1731572113
 21
10.0922244456
  0
SPLINE
  5
282
100
AcDbEntity
  8
0
100
AcDbSpline
 62
9
  6
CONTINUOUS
 70
0
 71
3
 72
17
 73
13
 74
0
 42
0.0000001
 43
0.0000001
 44
0.0000000001
 40
0.0
 40
0.0
 40
0.0
 40
0.0
 40
0.1205566478
 40
0.1824210375
 40
0.2450643184
 40
0.3719238385
 40
0.5000014517
 40
0.6280788627
 40
0.7549377963
 40
0.8175806559
 40
0.8794445489
 40
1.0
 40
1.0
 40
1.0
 40
1.0
 10
12.1620340242
 20
11.9669962065
 30
0.0
 10
12.1616788497
 20
11.9685216922
 30
0.0
 10
12.1609575843
 20
11.9707913194
 30
0.0
 10
12.1596775984
 20
11.9737083659
 30
0.0
 10
12.1581585552
 20
11.9766022445
 30
0.0
 10
12.1558633743
 20
11.9800473645
 30
0.0
 10
12.1525745085
 20
11.9838004717
 30
0.0
 10
12.148821491
 20
11.9870894283
 30
0.0
 10
12.1453764402
 20
11.9893846853
 30
0.0
 10
12.1424826139
 20
11.9909037859
 30
0.0
 10
12.1395656207
 20
11.9921838249
 30
0.0
 10
12.137296029
 20
11.9929051304
 30
0.0
 10
12.1357705654
 20
11.9932603308
 30
0.0
  0
SPLINE
  5
283
100
AcDbEntity
  8
0
100
AcDbSpline
 62
9
  6
CONTINUOUS
 70
0
 71
3
 72
17
 73
13
 74
0
 42
0.0000001
 43
0.0000001
 44
0.0000000001
 40
0.0
 40
0.0
 40
0.0
 40
0.0
 40
0.1204248038
 40
0.1822646952
 40
0.2449078641
 40
0.3718262865
 40
0.5000022851
 40
0.628177961
 40
0.7550954499
 40
0.8177379455
 40
0.8795770435
 40
1.0
 40
1.0
 40
1.0
 40
1.0
 10
12.2185345014
 20
12.0237401199
 30
0.0
 10
12.2181635332
 20
12.0252412528
 30
0.0
 10
12.2174248912
 20
12.0274733468
 30
0.0
 10
12.2161336861
 20
12.0303423848
 30
0.0
 10
12.214610208
 20
12.0331910561
 30
0.0
 10
12.2123237221
 20
12.0365854015
 30
0.0
 10
12.2090652205
 20
12.0402909969
 30
0.0
 10
12.2053597307
 20
12.0435496005
 30
0.0
 10
12.2019654706
 20
12.0458361693
 30
0.0
 10
12.1991168668
 20
12.0473597085
 30
0.0
 10
12.1962478997
 20
12.0486509674
 30
0.0
 10
12.194015853
 20
12.0493896468
 30
0.0
 10
12.1925147497
 20
12.0497606358
 30
0.0
  0
LINE
  5
284
100
AcDbEntity
  8
0
100
AcDbLine
 62
9
  6
CONTINUOUS
 10
12.1726811414
 20
10.0934150126
 11
12.1729077904
 21
10.4831676215
  0
LINE
  5
285
100
AcDbEntity
  8
0
100
AcDbLine
 62
9
  6
CONTINUOUS
 10
12.1730405444
 20
11.0301166063
 11
12.1726811443
 21
11.9740932259
  0
LINE
  5
286
100
AcDbEntity
  8
0
100
AcDbLine
 62
9
  6
CONTINUOUS
 10
12.1860287307
 20
12.0074812729
 11
12.1731539744
 21
11.9752757887
  0
LINE
  5
287
100
AcDbEntity
  8
0
100
AcDbLine
 62
9
  6
CONTINUOUS
 10
12.1860287307
 20
12.0074812729
 11
12.1863945821
 21
11.0201121981
  0
LINE
  5
288
100
AcDbEntity
  8
0
100
AcDbLine
 62
9
  6
CONTINUOUS
 10
12.1862610091
 20
10.4673862802
 11
12.1860287878
 21
10.0600246793
  0
LINE
  5
289
100
AcDbEntity
  8
0
100
AcDbLine
 62
9
  6
CONTINUOUS
 10
12.1762591721
 20
12.0172548553
 11
12.144057977
 21
12.0043834688
  0
LINE
  5
28A
100
AcDbEntity
  8
0
100
AcDbLine
 62
9
  6
CONTINUOUS
 10
12.1428670234
 20
12.0039073492
 11
11.2025248395
 21
12.0042677641
  0
LINE
  5
28B
100
AcDbEntity
  8
0
100
AcDbLine
 62
9
  6
CONTINUOUS
 10
11.2025335509
 20
12.0176218181
 11
12.1762591721
 21
12.0172548553
  0
LINE
  5
28C
100
AcDbEntity
  8
0
100
AcDbLine
 62
9
  6
CONTINUOUS
 10
10.2324865341
 20
10.0936902359
 11
10.2323766405
 21
10.0934151554
  0
LINE
  5
28D
100
AcDbEntity
  8
0
100
AcDbLine
 62
9
  6
CONTINUOUS
 10
10.2287985322
 20
12.0172548542
 11
10.2610087106
 21
12.004379911
  0
LINE
  5
28E
100
AcDbEntity
  8
0
100
AcDbLine
 62
9
  6
CONTINUOUS
 10
10.2287985322
 20
12.0172548542
 11
11.2025335509
 21
12.0176218187
  0
LINE
  5
28F
100
AcDbEntity
  8
0
100
AcDbLine
 62
9
  6
CONTINUOUS
 10
11.2025248395
 20
12.0042677638
 11
10.2621907967
 21
12.0039073488
  0
LINE
  5
290
100
AcDbEntity
  8
0
100
AcDbLine
 62
9
  6
CONTINUOUS
 10
12.1925147208
 20
12.0497605896
 11
12.1762588216
 21
12.0172548556
  0
LINE
  5
291
100
AcDbEntity
  8
0
100
AcDbLine
 62
9
  6
CONTINUOUS
 10
11.2025288921
 20
12.0501175756
 11
11.202533553
 21
12.0176218181
  0
LINE
  5
292
100
AcDbEntity
  8
0
100
AcDbLine
 62
9
  6
CONTINUOUS
 10
10.1865232787
 20
10.0437675765
 11
10.2190290561
 21
10.0600248162
  0
LINE
  5
293
100
AcDbEntity
  8
0
100
AcDbLine
 62
9
  6
CONTINUOUS
 10
10.1865230626
 20
12.0237401311
 11
10.2190289764
 21
12.0074808542
  0
LINE
  5
294
100
AcDbEntity
  8
0
100
AcDbLine
 62
9
  6
CONTINUOUS
 10
12.2185347051
 20
10.0437675382
 11
12.1860288025
 21
10.0600251859
  0
LINE
  5
295
100
AcDbEntity
  8
0
100
AcDbLine
 62
9
  6
CONTINUOUS
 10
12.2185344927
 20
12.0237401152
 11
12.1860287227
 21
12.0074809081
  0
LINE
  5
296
100
AcDbEntity
  8
0
100
AcDbLine
 62
9
  6
CONTINUOUS
 10
10.2125428788
 20
12.049760589
 11
10.2287987579
 21
12.0172548544
  0
LINE
  5
297
100
AcDbEntity
  8
0
100
AcDbLine
 62
9
  6
CONTINUOUS
 10
10.2125432702
 20
10.017747331
 11
10.2288012263
 21
10.0502532596
  0
LINE
  5
298
100
AcDbEntity
  8
0
100
AcDbLine
 62
9
  6
CONTINUOUS
 10
12.1925144227
 20
10.0177475895
 11
12.1762568869
 21
10.0502533557
  0
LINE
  5
299
100
AcDbEntity
  8
0
100
AcDbLine
 62
9
  6
CONTINUOUS
 10
10.2430237928
 20
10.1005118349
 11
10.8858300016
 21
10.7462504333
  0
LINE
  5
29A
100
AcDbEntity
  8
0
100
AcDbLine
 62
9
  6
CONTINUOUS
 10
10.243023774
 20
11.9669962036
 11
10.2426379937
 21
11.0381728814
  0
LINE
  5
29B
100
AcDbEntity
  8
0
100
AcDbLine
 62
9
  6
CONTINUOUS
 10
10.242776475
 20
10.4958101358
 11
10.2430237928
 21
10.1005118349
  0
LINE
  5
29C
100
AcDbEntity
  8
0
100
AcDbLine
 62
9
  6
CONTINUOUS
 10
10.243023774
 20
11.9669962036
 11
10.8858925343
 21
11.3211967941
  0
ENDSEC
  0
SECTION
  2
OBJECTS
  0
DICTIONARY
  5
C
100
AcDbDictionary
280
0
281
1
  3
ACAD_GROUP
350
D
  3
ACAD_MLINESTYLE
350
17
  3
ACAD_LAYOUT
350
1A
  3
ACAD_PLOTSETTINGS
350
19
  3
ACAD_PLOTSTYLENAME
350
E
  0
DICTIONARY
  5
D
102
{ACAD_REACTORS
330
C
102
}
100
AcDbDictionary
280
0
281
1
  0
ACDBDICTIONARYWDFLT
  5
E
102
{ACAD_REACTORS
330
C
102
}
100
AcDbDictionary
281
1
  3
Normal
350
F
100
AcDbDictionaryWithDefault
340
F
  0
DICTIONARY
  5
17
102
{ACAD_REACTORS
330
C
102
}
100
AcDbDictionary
280
0
281
1
  3
Standard
350
18
  0
DICTIONARY
  5
19
102
{ACAD_REACTORS
330
C
102
}
100
AcDbDictionary
281
1
  0
DICTIONARY
  5
1A
102
{ACAD_REACTORS
330
C
102
}
100
AcDbDictionary
281
1
  3
Model
350
29D
  3
Layout1
350
29E
  0
ACDBPLACEHOLDER
  5
F
102
{ACAD_REACTORS
330
E
102
}
  0
MLINESTYLE
  5
18
102
{ACAD_REACTORS
330
17
102
}
100
AcDbMlineStyle
  2
STANDARD
 70
0
  3

 62
256
 51
90.0
 52
90.0
 71
2
 49
0.5
 62
256
  6
BYLAYER
 49
-0.5
 62
256
  6
BYLAYER
  0
LAYOUT
  5
29D
102
{ACAD_REACTORS
330
1A
102
}
100
AcDbPlotSettings
  1

  2
none_device
  4
ANSI_C_(22.00_x_17.00_Inches)
  6

 40
0.0
 41
0.0
 42
0.0
 43
0.0
 44
558.8
 45
431.8
 46
0.0
 47
0.0
 48
0.0
 49
0.0
140
0.0
141
0.0
142
1.0
143
1.0
 70
1024
 72
0
 73
0
 74
0
  7

 75
0
147
1.0
148
0.0
149
0.0
100
AcDbLayout
  1
Model
 70
0
 71
0
 10
0.0
 20
0.0
 11
22.0
 21
17.0
 12
0.0
 22
0.0
 32
0.0
 14
0.0
 24
0.0
 34
0.0
 15
0.0
 25
0.0
 35
0.0
146
0.0
 13
0.0
 23
0.0
 33
0.0
 16
1.0
 26
0.0
 36
0.0
 17
0.0
 27
1.0
 37
0.0
 76
0
330
202
345
0
346
0
  0
LAYOUT
  5
29E
102
{ACAD_REACTORS
330
1A
102
}
100
AcDbPlotSettings
  1

  2
none_device
  4
ANSI_C_(22.00_x_17.00_Inches)
  6

 40
0.0
 41
0.0
 42
0.0
 43
0.0
 44
558.8
 45
431.8
 46
0.0
 47
0.0
 48
0.0
 49
0.0
140
0.0
141
0.0
142
1.0
143
1.0
 70
0
 72
0
 73
0
 74
0
  7

 75
0
147
1.0
148
0.0
149
0.0
100
AcDbLayout
  1
Layout1
 70
0
 71
1
 10
0.0
 20
0.0
 11
22.0
 21
17.0
 12
0.0
 22
0.0
 32
0.0
 14
0.0
 24
0.0
 34
0.0
 15
0.0
 25
0.0
 35
0.0
146
0.0
 13
0.0
 23
0.0
 33
0.0
 16
1.0
 26
0.0
 36
0.0
 17
0.0
 27
1.0
 37
0.0
 76
0
330
203
345
0
346
0
  0
ENDSEC
  0
EOF
