999
DXF file: 41-12_front.dxf
999
Pro/ENGINEER 2019352 by Parametric Technology Corporation
  0
SECTION
  2
HEADER
  9
$ACADVER
  1
AC1032
  9
$DWGCODEPAGE
  3
ANSI_1252
  9
$EXTMAX
 10
11.0
 20
8.5
 30
0.0
  9
$EXTMIN
 10
0.0
 20
0.0
 30
0.0
  9
$LIMMIN
 10
0.0
 20
0.0
  9
$LIMMAX
 10
11.0
 20
8.5
  9
$VIEWCTR
 10
5.5
 20
4.25
  9
$VIEWSIZE
 40
8.5
  9
$CLAYER
  8
0
  9
$LTSCALE
 40
0.605
  9
$CELTYPE
  6
BYLAYER
  9
$DIMSCALE
 40
1.0
  9
$DIMASZ
 40
0.1
  9
$DIMEXO
 40
0.0625
  9
$DIMDLI
 40
0.418
  9
$DIMEXE
 40
0.125
  9
$DIMCEN
 40
0.099
  9
$DIMLFAC
 40
1.0
  9
$DIMBLK
  1
_FILLED
  9
$DIMALT
 70
1
  9
$DIMALTD
 70
2
  9
$DIMALTTD
 70
2
  9
$DIMALTF
 40
25.4
  9
$DIMTXT
 40
0.08
  9
$DIMTOL
 70
1
  9
$DIMLIM
 70
0
  9
$DIMTFAC
 40
1.0
  9
$DIMTP
 40
0.001
  9
$DIMTM
 40
0.001
  9
$DIMGAP
 40
0.09
  9
$DIMDSEP
 70
46
  9
$AUNITS
 70
0
  9
$PDMODE
 70
3
  9
$PDSIZE
 40
0.3125
  9
$HANDSEED
  5
2C3
  9
$TILEMODE
 70
1
  9
$MEASUREMENT
 70
0
  9
$INSUNITS
 70
1
  0
ENDSEC
  0
SECTION
  2
CLASSES
  0
CLASS
  1
ACDBDICTIONARYWDFLT
  2
AcDbDictionaryWithDefault
  3
AutoCAD 2000
 90
0
 91
1
280
0
281
0
  0
CLASS
  1
ACDBPLACEHOLDER
  2
AcDbPlaceHolder
  3
AutoCAD 2000
 90
0
 91
1
280
0
281
0
  0
CLASS
  1
LAYOUT
  2
AcDbLayout
  3
AutoCAD 2000
 90
0
 91
0
280
0
281
0
  0
ENDSEC
  0
SECTION
  2
TABLES
  0
TABLE
  2
VPORT
  5
8
100
AcDbSymbolTable
 70
2
  0
VPORT
  5
1F4
100
AcDbSymbolTableRecord
100
AcDbViewportTableRecord
  2
*ACTIVE
 70
0
 10
0.0
 20
0.0
 11
1.0
 21
1.0
 12
5.5
 22
4.25
 13
0.0
 23
0.0
 14
1.0
 24
1.0
 15
0.0
 25
0.0
 16
0.0
 26
0.0
 36
1.0
 17
0.0
 27
0.0
 37
0.0
 40
8.5
 41
1.2941176471
 42
50.0
 43
0.0
 44
0.0
 50
0.0
 51
0.0
 71
0
 72
100
 73
1
 74
1
 75
0
 76
0
 77
0
 78
0
  0
ENDTAB
  0
TABLE
  2
LTYPE
  5
5
100
AcDbSymbolTable
 70
6
  0
LTYPE
  5
14
100
AcDbSymbolTableRecord
100
AcDbLinetypeTableRecord
  2
BYBLOCK
 70
0
  3

 72
65
 73
0
 40
0.0
  0
LTYPE
  5
15
100
AcDbSymbolTableRecord
100
AcDbLinetypeTableRecord
  2
BYLAYER
 70
0
  3

 72
65
 73
0
 40
0.0
  0
LTYPE
  5
16
100
AcDbSymbolTableRecord
100
AcDbLinetypeTableRecord
  2
CONTINUOUS
 70
64
  3
Solid line
 72
65
 73
0
 40
0.0
  0
LTYPE
  5
1F5
100
AcDbSymbolTableRecord
100
AcDbLinetypeTableRecord
  2
CENTER
 70
64
  3
____ _ ____ _ ____ _ ____ _ ____ _ ____ _ ____
 72
65
 73
4
 40
0.6
 49
0.375
 74
0
 49
-0.075
 74
0
 49
0.075
 74
0
 49
-0.075
 74
0
  0
LTYPE
  5
1F6
100
AcDbSymbolTableRecord
100
AcDbLinetypeTableRecord
  2
HIDDEN
 70
64
  3
- - - - - - - - - - - - - - - - - - - -
 72
65
 73
2
 40
0.2
 49
0.1
 74
0
 49
-0.1
 74
0
  0
LTYPE
  5
1F7
100
AcDbSymbolTableRecord
100
AcDbLinetypeTableRecord
  2
PHANTOM
 70
64
  3
_____ _ _ _____ _ _ _____ _ _ _____
 72
65
 73
6
 40
0.8
 49
0.45
 74
0
 49
-0.05
 74
0
 49
0.1
 74
0
 49
-0.05
 74
0
 49
0.1
 74
0
 49
-0.05
 74
0
  0
LTYPE
  5
1F8
100
AcDbSymbolTableRecord
100
AcDbLinetypeTableRecord
  2
DOT
 70
64
  3
. . . . . . . . . . . . . . . . . . . .
 72
65
 73
2
 40
0.2
 49
0.1
 74
0
 49
-0.1
 74
0
  0
LTYPE
  5
1F9
100
AcDbSymbolTableRecord
100
AcDbLinetypeTableRecord
  2
DASHED
 70
64
  3
- - - - - - - - - - - - - - - - - - - -
 72
65
 73
2
 40
0.2
 49
0.1
 74
0
 49
-0.1
 74
0
  0
ENDTAB
  0
TABLE
  2
LAYER
  5
2
100
AcDbSymbolTable
 70
36
  0
LAYER
  5
10
100
AcDbSymbolTableRecord
100
AcDbLayerTableRecord
  2
0
 70
0
 62
7
  6
CONTINUOUS
370
-3
390
F
  0
LAYER
  5
1FA
100
AcDbSymbolTableRecord
100
AcDbLayerTableRecord
  2
DEFAULT_1
 70
0
 62
7
  6
CENTER
370
-3
390
F
  0
LAYER
  5
1FB
100
AcDbSymbolTableRecord
100
AcDbLayerTableRecord
  2
DEFAULT_2
 70
0
 62
8
  6
HIDDEN
370
-3
390
F
  0
LAYER
  5
1FC
100
AcDbSymbolTableRecord
100
AcDbLayerTableRecord
  2
DEFAULT_3
 70
0
 62
7
  6
PHANTOM
370
-3
390
F
  0
LAYER
  5
1FD
100
AcDbSymbolTableRecord
100
AcDbLayerTableRecord
  2
DEFAULT_COORDINATE_SYSTEM
 70
0
 62
7
  6
CONTINUOUS
370
-3
390
F
  0
LAYER
  5
1FE
100
AcDbSymbolTableRecord
100
AcDbLayerTableRecord
  2
DEFAULT_DATUM_AXES
 70
0
 62
7
  6
CONTINUOUS
370
-3
390
F
  0
LAYER
  5
1FF
100
AcDbSymbolTableRecord
100
AcDbLayerTableRecord
  2
DEFAULT_DATUM_PLANES
 70
0
 62
7
  6
CONTINUOUS
370
-3
390
F
  0
ENDTAB
  0
TABLE
  2
STYLE
  5
3
100
AcDbSymbolTable
 70
1
  0
STYLE
  5
11
100
AcDbSymbolTableRecord
100
AcDbTextStyleTableRecord
  2
STANDARD
 70
0
 40
0.0
 41
0.8
 50
0.0
 71
0
 42
0.2
  3
txt
  4

  0
STYLE
  5
200
100
AcDbSymbolTableRecord
100
AcDbTextStyleTableRecord
  2
TEXTSTYLE_1
 70
0
 40
0.0
 41
0.8
 50
0.0
 71
0
 42
0.2
  3
gdt
  4

  0
ENDTAB
  0
TABLE
  2
VIEW
  5
6
100
AcDbSymbolTable
 70
0
  0
ENDTAB
  0
TABLE
  2
UCS
  5
7
100
AcDbSymbolTable
 70
0
  0
ENDTAB
  0
TABLE
  2
APPID
  5
9
100
AcDbSymbolTable
 70
1
  0
APPID
  5
201
100
AcDbSymbolTableRecord
100
AcDbRegAppTableRecord
  2
ACAD
 70
0
  0
ENDTAB
  0
TABLE
  2
BLOCK_RECORD
  5
1
100
AcDbSymbolTable
 70
0
  0
BLOCK_RECORD
  5
202
100
AcDbSymbolTableRecord
100
AcDbBlockTableRecord
  2
*Model_Space
  0
BLOCK_RECORD
  5
203
100
AcDbSymbolTableRecord
100
AcDbBlockTableRecord
  2
*Paper_Space
  0
BLOCK_RECORD
  5
204
100
AcDbSymbolTableRecord
100
AcDbBlockTableRecord
  2
_FILLED
  0
ENDTAB
  0
TABLE
  2
DIMSTYLE
  5
A
100
AcDbSymbolTable
 70
1
100
AcDbDimStyleTable
 71
0
  0
DIMSTYLE
105
205
100
AcDbSymbolTableRecord
100
AcDbDimStyleTableRecord
  2
STANDARD
 70
0
  3

  4

 40
1.0
 41
0.1
 42
0.0625
 43
0.38
 44
0.125
 45
0.0
 46
0.0
 47
0.001
 48
0.001
140
0.08
141
0.09
142
0.0
143
25.4
144
1.0
145
0.0
146
1.0
147
0.09
 71
1.0
 72
0.0
 73
1
 74
1
 75
0
 76
0
 77
0
 78
4
 79
1
170
1
171
2
172
0
173
0
174
0
175
0
176
0
177
0
178
0
270
2
179
3
271
3
272
3
273
2
274
2
275
0
280
0
281
0
282
0
283
1
284
4
285
0
286
0
287
3
288
0
340
11
278
46
341
204
342
204
343
204
344
204
  0
ENDTAB
  0
ENDSEC
  0
SECTION
  2
BLOCKS
  0
BLOCK
  5
20
100
AcDbEntity
  8
0
100
AcDbBlockBegin
  2
*Model_Space
 70
0
 10
0.0
 20
0.0
 30
0.0
  3
*Model_Space
  1

  0
ENDBLK
  5
21
100
AcDbEntity
  8
0
100
AcDbBlockEnd
  0
BLOCK
  5
1C
100
AcDbEntity
  8
0
100
AcDbBlockBegin
  2
*Paper_Space
 70
0
 10
0.0
 20
0.0
 30
0.0
  3
*Paper_Space
  1

  0
ENDBLK
  5
1D
100
AcDbEntity
  8
0
100
AcDbBlockEnd
  0
BLOCK
  5
206
100
AcDbEntity
  8
0
100
AcDbBlockBegin
  2
_FILLED
 70
64
 10
0.0
 20
0.0
  3
_FILLED
  1

  0
SOLID
  5
207
100
AcDbEntity
  8
0
  6
BYBLOCK
 62
0
100
AcDbTrace
 10
0.0
 20
0.0
 11
-1.0
 21
0.2
 12
-1.0
 22
-0.2
 13
-1.0
 23
-0.2
  0
ENDBLK
  5
208
100
AcDbEntity
  8
0
  6
BYBLOCK
 62
0
100
AcDbBlockEnd
  0
ENDSEC
  0
SECTION
  2
ENTITIES
  0
MTEXT
  5
209
100
AcDbEntity
  8
0
100
AcDbMText
 62
2
  6
CONTINUOUS
  7
STANDARD
 71
3
 72
1
 10
5.2612727415
 20
1.8726541719
 30
0.0
 11
1.0
 21
0.0
 31
0.0
 73
2
 44
0.9
  1
SCALE 1.000
 40
0.08
 41
0.704
  0
LINE
  5
20A
100
AcDbEntity
  8
0
100
AcDbLine
 62
7
  6
CONTINUOUS
 10
0.0
 20
0.0
 11
0.0
 21
8.5
  0
LINE
  5
20B
100
AcDbEntity
  8
0
100
AcDbLine
 62
7
  6
CONTINUOUS
 10
0.0
 20
0.0
 11
11.0
 21
0.0
  0
LINE
  5
20C
100
AcDbEntity
  8
0
100
AcDbLine
 62
7
  6
CONTINUOUS
 10
0.0
 20
8.5
 11
11.0
 21
8.5
  0
LINE
  5
20D
100
AcDbEntity
  8
0
100
AcDbLine
 62
7
  6
CONTINUOUS
 10
11.0
 20
0.0
 11
11.0
 21
8.5
  0
LINE
  5
20E
100
AcDbEntity
  8
0
100
AcDbLine
 62
7
  6
CONTINUOUS
 10
3.613592064
 20
3.5814057403
 11
3.613592064
 21
5.7454057403
  0
LINE
  5
20F
100
AcDbEntity
  8
0
100
AcDbLine
 62
7
  6
CONTINUOUS
 10
3.643592064
 20
3.5514057403
 11
5.807592064
 21
3.5514057403
  0
LWPOLYLINE
  5
210
100
AcDbEntity
  8
0
100
AcDbPolyline
 62
7
  6
CONTINUOUS
 90
26
 70
0
 10
3.8132685871
 20
3.7810366325
 10
3.8133174894
 20
3.7793679675
 10
3.81348491
 20
3.7774842717
 10
3.8137706769
 20
3.77561487
 10
3.8141736539
 20
3.7737671914
 10
3.8146922389
 20
3.7719485786
 10
3.8153243707
 20
3.7701662582
 10
3.8160675366
 20
3.7684273125
 10
3.8169187823
 20
3.7667386525
 10
3.8178747243
 20
3.7651069879
 10
3.8189315632
 20
3.7635388021
 10
3.8200850976
 20
3.7620403273
 10
3.8213307424
 20
3.7606175176
 10
3.8226635473
 20
3.7592760253
 10
3.8240782153
 20
3.7580211801
 10
3.8255691238
 20
3.7568579677
 10
3.8271303484
 20
3.7557910085
 10
3.8287556859
 20
3.7548245404
 10
3.8304386778
 20
3.7539624028
 10
3.8321726363
 20
3.7532080203
 10
3.8339506721
 20
3.7525643892
 10
3.8357657205
 20
3.752034066
 10
3.837610569
 20
3.7516191572
 10
3.8394778874
 20
3.7513213106
 10
3.841360256
 20
3.7511417088
 10
3.8432226599
 20
3.7510810924
  0
LWPOLYLINE
  5
211
100
AcDbEntity
  8
0
100
AcDbPolyline
 62
7
  6
CONTINUOUS
 90
26
 70
0
 10
5.6079608981
 20
3.7510826359
 10
5.6096295668
 20
3.7511315346
 10
5.6115132624
 20
3.7512989515
 10
5.6133826639
 20
3.7515847147
 10
5.6152303428
 20
3.7519876882
 10
5.6170489558
 20
3.75250627
 10
5.6188312766
 20
3.7531383987
 10
5.620570223
 20
3.7538815617
 10
5.6222588836
 20
3.7547328046
 10
5.623890549
 20
3.7556887442
 10
5.6254587356
 20
3.7567455808
 10
5.6269572112
 20
3.7578991131
 10
5.6283800218
 20
3.759144756
 10
5.629721515
 20
3.7604775592
 10
5.630976361
 20
3.7618922256
 10
5.6321395743
 20
3.7633831327
 10
5.6332065342
 20
3.764944356
 10
5.634173003
 20
3.7665696924
 10
5.6350351412
 20
3.7682526834
 10
5.6357895242
 20
3.7699866411
 10
5.6364331557
 20
3.7717646762
 10
5.6369634792
 20
3.7735797239
 10
5.6373783881
 20
3.7754245718
 10
5.6376762347
 20
3.7772918897
 10
5.6378558364
 20
3.7791742579
 10
5.6379164525
 20
3.7810366654
  0
LINE
  5
212
100
AcDbEntity
  8
0
100
AcDbLine
 62
7
  6
CONTINUOUS
 10
3.859592064
 20
5.2054057403
 11
3.859592064
 21
5.1654057403
  0
LWPOLYLINE
  5
213
100
AcDbEntity
  8
0
100
AcDbPolyline
 62
7
  6
CONTINUOUS
 90
10
 70
0
 10
3.8132668701
 20
5.5457750232
 10
3.8130035776
 20
5.3510837042
 10
3.8127898464
 20
5.154345907
 10
3.8126385746
 20
4.9576757914
 10
3.8125603227
 20
4.7610745667
 10
3.8125626103
 20
4.5645420729
 10
3.8126416351
 20
4.3680771819
 10
3.8127909322
 20
4.1716804171
 10
3.8130031678
 20
3.9753533997
 10
3.8132661804
 20
3.7810366004
  0
LINE
  5
214
100
AcDbEntity
  8
0
100
AcDbLine
 62
7
  6
CONTINUOUS
 10
5.2868148715
 20
3.7506734845
 11
5.6079609309
 21
3.7510802656
  0
LINE
  5
215
100
AcDbEntity
  8
0
100
AcDbLine
 62
7
  6
CONTINUOUS
 10
4.9913477883
 20
3.7504372452
 11
5.2868148715
 21
3.7506734845
  0
LINE
  5
216
100
AcDbEntity
  8
0
100
AcDbLine
 62
7
  6
CONTINUOUS
 10
4.725592064
 20
3.7503636714
 11
4.9913477883
 21
3.7504372452
  0
LINE
  5
217
100
AcDbEntity
  8
0
100
AcDbLine
 62
7
  6
CONTINUOUS
 10
4.4596630658
 20
3.7504373388
 11
4.725592064
 21
3.7503636714
  0
LINE
  5
218
100
AcDbEntity
  8
0
100
AcDbLine
 62
7
  6
CONTINUOUS
 10
4.1641956907
 20
3.7506736654
 11
4.4596630658
 21
3.7504373388
  0
LINE
  5
219
100
AcDbEntity
  8
0
100
AcDbLine
 62
7
  6
CONTINUOUS
 10
3.8432226686
 20
3.7510802664
 11
4.1641956907
 21
3.7506736654
  0
LINE
  5
21A
100
AcDbEntity
  8
0
100
AcDbLine
 62
7
  6
CONTINUOUS
 10
3.977592064
 20
5.1384057403
 11
3.977592064
 21
5.2324057403
  0
LINE
  5
21B
100
AcDbEntity
  8
0
100
AcDbLine
 62
7
  6
CONTINUOUS
 10
3.7987367249
 20
3.7444685275
 11
3.8132766049
 21
3.7808690847
  0
LINE
  5
21C
100
AcDbEntity
  8
0
100
AcDbLine
 62
7
  6
CONTINUOUS
 10
3.8011323385
 20
3.7504661239
 11
3.8018781366
 21
3.7523325755
  0
LINE
  5
21D
100
AcDbEntity
  8
0
100
AcDbLine
 62
7
  6
CONTINUOUS
 10
3.8124342366
 20
3.7787598642
 11
3.8132737404
 21
3.7808607895
  0
LINE
  5
21E
100
AcDbEntity
  8
0
100
AcDbLine
 62
7
  6
CONTINUOUS
 10
5.6445296163
 20
5.5902613313
 11
5.6081380938
 21
5.5757244478
  0
LINE
  5
21F
100
AcDbEntity
  8
0
100
AcDbLine
 62
7
  6
CONTINUOUS
 10
5.6445295917
 20
3.7365503062
 11
5.6081278053
 21
3.7510906378
  0
LINE
  5
220
100
AcDbEntity
  8
0
100
AcDbLine
 62
7
  6
CONTINUOUS
 10
5.6385320805
 20
3.7389458474
 11
5.6366656547
 21
3.739691633
  0
LINE
  5
221
100
AcDbEntity
  8
0
100
AcDbLine
 62
7
  6
CONTINUOUS
 10
5.6102384169
 20
3.7502477099
 11
5.6081361085
 21
3.7510877703
  0
LINE
  5
222
100
AcDbEntity
  8
0
100
AcDbLine
 62
7
  6
CONTINUOUS
 10
3.7987364908
 20
5.5823432714
 11
3.8132734417
 21
5.5459515657
  0
LINE
  5
223
100
AcDbEntity
  8
0
100
AcDbLine
 62
7
  6
CONTINUOUS
 10
4.440592064
 20
4.3984057403
 11
4.440592064
 21
4.9284057403
  0
LINE
  5
224
100
AcDbEntity
  8
0
100
AcDbLine
 62
7
  6
CONTINUOUS
 10
4.475592064
 20
4.8784057403
 11
4.475592064
 21
4.4484057403
  0
LINE
  5
225
100
AcDbEntity
  8
0
100
AcDbLine
 62
7
  6
CONTINUOUS
 10
4.495592064
 20
4.4484057403
 11
4.495592064
 21
5.1384057403
  0
LINE
  5
226
100
AcDbEntity
  8
0
100
AcDbLine
 62
7
  6
CONTINUOUS
 10
4.515592064
 20
4.4084057403
 11
4.515592064
 21
5.1384057403
  0
LINE
  5
227
100
AcDbEntity
  8
0
100
AcDbLine
 62
7
  6
CONTINUOUS
 10
3.8432227388
 20
3.751080458
 11
3.852262035
 21
3.764617896
  0
LWPOLYLINE
  5
228
100
AcDbEntity
  8
0
100
AcDbPolyline
 62
7
  6
CONTINUOUS
 90
3
 70
0
 10
3.8432218271
 20
3.7510802676
 10
3.8432506301
 20
3.7511216752
 10
3.8433704446
 20
3.7512988032
  0
LWPOLYLINE
  5
229
100
AcDbEntity
  8
0
100
AcDbPolyline
 62
7
  6
CONTINUOUS
 90
3
 70
0
 10
5.6379179906
 20
5.5457752539
 10
5.6378770883
 20
5.5457467741
 10
5.6377012828
 20
5.5456279555
  0
LINE
  5
22A
100
AcDbEntity
  8
0
100
AcDbLine
 62
7
  6
CONTINUOUS
 10
5.6379178619
 20
5.5457742164
 11
5.6243803601
 21
5.5367353125
  0
LINE
  5
22B
100
AcDbEntity
  8
0
100
AcDbLine
 62
7
  6
CONTINUOUS
 10
4.990592064
 20
4.3784057403
 11
4.460592064
 21
4.3784057403
  0
LINE
  5
22C
100
AcDbEntity
  8
0
100
AcDbLine
 62
7
  6
CONTINUOUS
 10
4.515592064
 20
4.4084057403
 11
4.935592064
 21
4.4084057403
  0
LINE
  5
22D
100
AcDbEntity
  8
0
100
AcDbLine
 62
7
  6
CONTINUOUS
 10
4.935592064
 20
4.4284057403
 11
4.515592064
 21
4.4284057403
  0
LINE
  5
22E
100
AcDbEntity
  8
0
100
AcDbLine
 62
7
  6
CONTINUOUS
 10
4.975592064
 20
4.4484057403
 11
4.955592064
 21
4.4484057403
  0
LINE
  5
22F
100
AcDbEntity
  8
0
100
AcDbLine
 62
7
  6
CONTINUOUS
 10
4.475592064
 20
4.4484057403
 11
4.495592064
 21
4.4484057403
  0
LINE
  5
230
100
AcDbEntity
  8
0
100
AcDbLine
 62
7
  6
CONTINUOUS
 10
5.6379170869
 20
3.7810367448
 11
5.6243796487
 21
3.7900760307
  0
LWPOLYLINE
  5
231
100
AcDbEntity
  8
0
100
AcDbPolyline
 62
7
  6
CONTINUOUS
 90
3
 70
0
 10
5.6379172772
 20
3.7810358371
 10
5.6378758779
 20
3.7810646495
 10
5.6376987634
 20
3.7811844766
  0
LWPOLYLINE
  5
232
100
AcDbEntity
  8
0
100
AcDbPolyline
 62
7
  6
CONTINUOUS
 90
3
 70
0
 10
3.8432226401
 20
5.5757315085
 10
3.8432511231
 20
5.5756906075
 10
3.8433699467
 20
5.575514803
  0
LINE
  5
233
100
AcDbEntity
  8
0
100
AcDbLine
 62
7
  6
CONTINUOUS
 10
3.8432236763
 20
5.5757313795
 11
3.8522626138
 21
5.5621938748
  0
LINE
  5
234
100
AcDbEntity
  8
0
100
AcDbLine
 62
7
  6
CONTINUOUS
 10
4.725592064
 20
3.5514057403
 11
4.725592064
 21
4.3784057403
  0
LINE
  5
235
100
AcDbEntity
  8
0
100
AcDbLine
 62
7
  6
CONTINUOUS
 10
4.495592064
 20
4.6254057403
 11
4.955592064
 21
4.6254057403
  0
LINE
  5
236
100
AcDbEntity
  8
0
100
AcDbLine
 62
7
  6
CONTINUOUS
 10
4.935592064
 20
4.4084057403
 11
4.935592064
 21
5.1384057403
  0
LWPOLYLINE
  5
237
100
AcDbEntity
  8
0
100
AcDbPolyline
 62
7
  6
CONTINUOUS
 90
3
 70
0
 10
5.6079623313
 20
5.5757310203
 10
5.6079335276
 20
5.5756896137
 10
5.6078137119
 20
5.5755124865
  0
LWPOLYLINE
  5
238
100
AcDbEntity
  8
0
100
AcDbPolyline
 62
7
  6
CONTINUOUS
 90
3
 70
0
 10
3.8132661813
 20
3.7810360152
 10
3.8133070821
 20
3.7810644902
 10
3.8134828846
 20
3.7811833033
  0
LINE
  5
239
100
AcDbEntity
  8
0
100
AcDbLine
 62
7
  6
CONTINUOUS
 10
4.975592064
 20
4.8784057403
 11
4.955592064
 21
4.8784057403
  0
LINE
  5
23A
100
AcDbEntity
  8
0
100
AcDbLine
 62
7
  6
CONTINUOUS
 10
4.475592064
 20
4.8784057403
 11
4.495592064
 21
4.8784057403
  0
LWPOLYLINE
  5
23B
100
AcDbEntity
  8
0
100
AcDbPolyline
 62
7
  6
CONTINUOUS
 90
3
 70
0
 10
3.8132668713
 20
5.5457758637
 10
3.8133082748
 20
5.5457470571
 10
3.8134853969
 20
5.5456272375
  0
LWPOLYLINE
  5
23C
100
AcDbEntity
  8
0
100
AcDbPolyline
 62
7
  6
CONTINUOUS
 90
3
 70
0
 10
5.6079615111
 20
3.7510802665
 10
5.6079330279
 20
3.7511211642
 10
5.6078142026
 20
3.7512969649
  0
LINE
  5
23D
100
AcDbEntity
  8
0
100
AcDbLine
 62
7
  6
CONTINUOUS
 10
4.955592064
 20
5.1384057403
 11
4.955592064
 21
4.4484057403
  0
LINE
  5
23E
100
AcDbEntity
  8
0
100
AcDbLine
 62
7
  6
CONTINUOUS
 10
4.975592064
 20
4.4484057403
 11
4.975592064
 21
4.8784057403
  0
LINE
  5
23F
100
AcDbEntity
  8
0
100
AcDbLine
 62
7
  6
CONTINUOUS
 10
5.010592064
 20
4.9284057403
 11
5.010592064
 21
4.3984057403
  0
LINE
  5
240
100
AcDbEntity
  8
0
100
AcDbLine
 62
7
  6
CONTINUOUS
 10
5.6079614195
 20
5.5757308299
 11
5.5989220431
 21
5.5621933929
  0
LINE
  5
241
100
AcDbEntity
  8
0
100
AcDbLine
 62
7
  6
CONTINUOUS
 10
3.8132663108
 20
3.7810370586
 11
3.8268037957
 21
3.7900760407
  0
LINE
  5
242
100
AcDbEntity
  8
0
100
AcDbLine
 62
7
  6
CONTINUOUS
 10
4.460592064
 20
4.9484057403
 11
4.495592064
 21
4.9484057403
  0
LINE
  5
243
100
AcDbEntity
  8
0
100
AcDbLine
 62
7
  6
CONTINUOUS
 10
4.955592064
 20
4.9484057403
 11
4.990592064
 21
4.9484057403
  0
LINE
  5
244
100
AcDbEntity
  8
0
100
AcDbLine
 62
7
  6
CONTINUOUS
 10
3.8132670617
 20
5.5457749533
 11
3.8268045033
 21
5.5367355957
  0
LINE
  5
245
100
AcDbEntity
  8
0
100
AcDbLine
 62
7
  6
CONTINUOUS
 10
5.6079604716
 20
3.7510803966
 11
5.5989214356
 21
3.7646178952
  0
LINE
  5
246
100
AcDbEntity
  8
0
100
AcDbLine
 62
7
  6
CONTINUOUS
 10
5.6524473954
 20
5.5823430806
 11
5.6379075125
 21
5.5459423699
  0
LINE
  5
247
100
AcDbEntity
  8
0
100
AcDbLine
 62
7
  6
CONTINUOUS
 10
3.806654753
 20
3.7365503058
 11
3.8430456218
 21
3.7510868545
  0
LINE
  5
248
100
AcDbEntity
  8
0
100
AcDbLine
 62
7
  6
CONTINUOUS
 10
5.564592064
 20
5.1384057403
 11
3.886592064
 21
5.1384057403
  0
LINE
  5
249
100
AcDbEntity
  8
0
100
AcDbLine
 62
7
  6
CONTINUOUS
 10
5.591592064
 20
5.1654057403
 11
3.859592064
 21
5.1654057403
  0
LINE
  5
24A
100
AcDbEntity
  8
0
100
AcDbLine
 62
7
  6
CONTINUOUS
 10
3.8066547321
 20
5.5902610768
 11
3.8430557746
 21
5.5757210524
  0
LINE
  5
24B
100
AcDbEntity
  8
0
100
AcDbLine
 62
7
  6
CONTINUOUS
 10
5.6524476666
 20
3.7444680877
 11
5.6379106985
 21
3.7808598765
  0
LINE
  5
24C
100
AcDbEntity
  8
0
100
AcDbLine
 62
7
  6
CONTINUOUS
 10
3.859592064
 20
5.2054057403
 11
5.591592064
 21
5.2054057403
  0
LINE
  5
24D
100
AcDbEntity
  8
0
100
AcDbLine
 62
7
  6
CONTINUOUS
 10
3.886592064
 20
5.2324057403
 11
5.564592064
 21
5.2324057403
  0
LINE
  5
24E
100
AcDbEntity
  8
0
100
AcDbLine
 62
7
  6
CONTINUOUS
 10
5.473592064
 20
5.1384057403
 11
5.473592064
 21
5.2324057403
  0
LWPOLYLINE
  5
24F
100
AcDbEntity
  8
0
100
AcDbPolyline
 62
7
  6
CONTINUOUS
 90
26
 70
0
 10
5.637915536
 20
5.5457746435
 10
5.6378666365
 20
5.5474433095
 10
5.6376992189
 20
5.5493270052
 10
5.6374134549
 20
5.5511964068
 10
5.6370104807
 20
5.5530440856
 10
5.6364918982
 20
5.5548626986
 10
5.6358597689
 20
5.5566450195
 10
5.6351166053
 20
5.5583839657
 10
5.6342653618
 20
5.5600726263
 10
5.6333094218
 20
5.5617042915
 10
5.6322525847
 20
5.5632724781
 10
5.631099052
 20
5.5647709536
 10
5.6298534088
 20
5.5661937641
 10
5.6285206052
 20
5.5675352572
 10
5.6271059385
 20
5.5687901031
 10
5.6256150311
 20
5.5699533164
 10
5.6240538076
 20
5.5710202763
 10
5.622428471
 20
5.571986745
 10
5.6207454799
 20
5.5728488833
 10
5.619011522
 20
5.5736032663
 10
5.6172334868
 20
5.5742468979
 10
5.615418439
 20
5.5747772214
 10
5.613573591
 20
5.5751921304
 10
5.611706273
 20
5.5754899772
 10
5.6098239048
 20
5.5756695792
 10
5.6079614983
 20
5.5757301955
  0
LINE
  5
250
100
AcDbEntity
  8
0
100
AcDbLine
 62
7
  6
CONTINUOUS
 10
5.591592064
 20
5.2054057403
 11
5.591592064
 21
5.1654057403
  0
LWPOLYLINE
  5
251
100
AcDbEntity
  8
0
100
AcDbPolyline
 62
7
  6
CONTINUOUS
 90
10
 70
0
 10
5.6379172784
 20
3.7810366746
 10
5.6381806908
 20
3.9757953752
 10
5.638394309
 20
4.1725838445
 10
5.6385454802
 20
4.3692878043
 10
5.6386242349
 20
4.5659059239
 10
5.6386222346
 20
4.7624382541
 10
5.6385424139
 20
4.9588860349
 10
5.6383925624
 20
5.1552489876
 10
5.6381805615
 20
5.3515254768
 10
5.6379179914
 20
5.5457746749
  0
LWPOLYLINE
  5
252
100
AcDbEntity
  8
0
100
AcDbPolyline
 62
7
  6
CONTINUOUS
 90
26
 70
0
 10
3.8432232491
 20
5.5757290697
 10
3.8415545812
 20
5.5756801711
 10
3.8396708853
 20
5.5755127545
 10
3.8378014834
 20
5.5752269914
 10
3.8359538042
 20
5.5748240179
 10
3.8341351908
 20
5.5743054361
 10
3.8323528696
 20
5.5736733074
 10
3.830613923
 20
5.5729301443
 10
3.828925262
 20
5.5720789012
 10
3.8272935964
 20
5.5711229614
 10
3.8257254096
 20
5.5700661245
 10
3.8242269338
 20
5.5689125919
 10
3.822804123
 20
5.5676669487
 10
3.8214626298
 20
5.5663341451
 10
3.8202077837
 20
5.5649194783
 10
3.8190445705
 20
5.5634285707
 10
3.8179776106
 20
5.5618673469
 10
3.8170111421
 20
5.56024201
 10
3.816149004
 20
5.5585590186
 10
3.8153946213
 20
5.5568250604
 10
3.8147509901
 20
5.5550470249
 10
3.8142206671
 20
5.5532319767
 10
3.8138057587
 20
5.5513871283
 10
3.8135079126
 20
5.5495198101
 10
3.8133283115
 20
5.5476374415
 10
3.8132676961
 20
5.5457750323
  0
LWPOLYLINE
  5
253
100
AcDbEntity
  8
0
100
AcDbPolyline
 62
7
  6
CONTINUOUS
 90
4
 70
0
 10
3.8066547321
 20
5.5902610768
 10
4.0135506003
 20
5.5905851499
 10
4.2189589832
 20
5.5908419776
 10
4.3842774053
 20
5.5909878737
  0
LINE
  5
254
100
AcDbEntity
  8
0
100
AcDbLine
 62
7
  6
CONTINUOUS
 10
4.0375655595
 20
5.5759941267
 11
3.8432232178
 21
5.5757315094
  0
LINE
  5
255
100
AcDbEntity
  8
0
100
AcDbLine
 62
7
  6
CONTINUOUS
 10
3.8066547321
 20
5.5902610768
 11
4.3842774001
 21
5.590994773
  0
LINE
  5
256
100
AcDbEntity
  8
0
100
AcDbLine
 62
7
  6
CONTINUOUS
 10
4.3156236074
 20
5.5626169639
 11
3.8522619287
 21
5.5621937145
  0
LINE
  5
257
100
AcDbEntity
  8
0
100
AcDbLine
 62
7
  6
CONTINUOUS
 10
4.3469993949
 20
5.5762928429
 11
4.0375655595
 21
5.5759941267
  0
LINE
  5
258
100
AcDbEntity
  8
0
100
AcDbLine
 62
7
  6
CONTINUOUS
 10
5.5989220178
 20
5.5621934855
 11
5.1369107146
 21
5.562616814
  0
LWPOLYLINE
  5
259
100
AcDbEntity
  8
0
100
AcDbPolyline
 62
7
  6
CONTINUOUS
 90
4
 70
0
 10
5.0682629743
 20
5.5909855097
 10
5.2300392017
 20
5.5908435641
 10
5.436384698
 20
5.5905865147
 10
5.6445296163
 20
5.5902613313
  0
LWPOLYLINE
  5
25A
100
AcDbEntity
  8
0
100
AcDbPolyline
 62
7
  6
CONTINUOUS
 90
3
 70
0
 10
5.6079614893
 20
5.5757310216
 10
5.4132958886
 20
5.5759942998
 10
5.1055343895
 20
5.5762929869
  0
LINE
  5
25B
100
AcDbEntity
  8
0
100
AcDbLine
 62
7
  6
CONTINUOUS
 10
5.0682629799
 20
5.5909929888
 11
5.6445296163
 21
5.5902613313
  0
LINE
  5
25C
100
AcDbEntity
  8
0
100
AcDbLine
 62
7
  6
CONTINUOUS
 10
5.837592064
 20
3.5814057403
 11
5.837592064
 21
5.7454057403
  0
LINE
  5
25D
100
AcDbEntity
  8
0
100
AcDbLine
 62
7
  6
CONTINUOUS
 10
3.643592064
 20
5.7754057403
 11
5.807592064
 21
5.7754057403
  0
ARC
  5
25E
100
AcDbEntity
  8
0
100
AcDbCircle
 62
7
  6
CONTINUOUS
 10
-682.8695374921
 20
4.6633180464
 40
688.4944660551
100
AcDbArc
 50
359.9273296875
 51
0.0726849305
  0
ARC
  5
25F
100
AcDbEntity
  8
0
100
AcDbCircle
 62
7
  6
CONTINUOUS
 10
-484.9917393582
 20
4.6634866013
 40
490.6450388524
100
AcDbArc
 50
359.8926802316
 51
0.1073008468
  0
ARC
  5
260
100
AcDbEntity
  8
0
100
AcDbCircle
 62
7
  6
CONTINUOUS
 10
3.9130007086
 20
3.8508114325
 40
0.1560931835
100
AcDbArc
 50
222.9436353005
 51
227.0548301785
  0
ARC
  5
261
100
AcDbEntity
  8
0
100
AcDbCircle
 62
7
  6
CONTINUOUS
 10
3.5883994774
 20
3.6227752901
 40
0.0488184622
100
AcDbArc
 50
301.0719466621
 51
301.9237017214
  0
ARC
  5
262
100
AcDbEntity
  8
0
100
AcDbCircle
 62
7
  6
CONTINUOUS
 10
3.6849030611
 20
3.5262522986
 40
0.0487480247
100
AcDbArc
 50
148.0815541592
 51
148.9318322218
  0
ARC
  5
263
100
AcDbEntity
  8
0
100
AcDbCircle
 62
7
  6
CONTINUOUS
 10
4.515592064
 20
4.4484057403
 40
0.04
100
AcDbArc
 50
180.0
 51
270.0
  0
ARC
  5
264
100
AcDbEntity
  8
0
100
AcDbCircle
 62
7
  6
CONTINUOUS
 10
3.643592064
 20
3.5814057403
 40
0.03
100
AcDbArc
 50
180.0
 51
270.0
  0
ARC
  5
265
100
AcDbEntity
  8
0
100
AcDbCircle
 62
7
  6
CONTINUOUS
 10
4.460592064
 20
4.3984057403
 40
0.02
100
AcDbArc
 50
180.0
 51
270.0
  0
ARC
  5
266
100
AcDbEntity
  8
0
100
AcDbCircle
 62
7
  6
CONTINUOUS
 10
4.515592064
 20
4.4484057403
 40
0.02
100
AcDbArc
 50
180.0
 51
270.0
  0
ARC
  5
267
100
AcDbEntity
  8
0
100
AcDbCircle
 62
7
  6
CONTINUOUS
 10
3.9129966889
 20
5.4759942749
 40
0.1560945214
100
AcDbArc
 50
132.9426622661
 51
137.053793334
  0
ARC
  5
268
100
AcDbEntity
  8
0
100
AcDbCircle
 62
7
  6
CONTINUOUS
 10
3.5867537106
 20
5.7014051198
 40
0.0519215534
100
AcDbArc
 50
58.0697947623
 51
58.8710803508
  0
ARC
  5
269
100
AcDbEntity
  8
0
100
AcDbCircle
 62
7
  6
CONTINUOUS
 10
3.6854449631
 20
5.8009027288
 40
0.0493896107
100
AcDbArc
 50
211.0849649673
 51
211.9263617676
  0
ARC
  5
26A
100
AcDbEntity
  8
0
100
AcDbCircle
 62
7
  6
CONTINUOUS
 10
4.515592064
 20
4.8784057403
 40
0.04
100
AcDbArc
 50
120.0004853733
 51
180.0
  0
ARC
  5
26B
100
AcDbEntity
  8
0
100
AcDbCircle
 62
7
  6
CONTINUOUS
 10
3.643592064
 20
5.7454057403
 40
0.03
100
AcDbArc
 50
90.0
 51
180.0
  0
ARC
  5
26C
100
AcDbEntity
  8
0
100
AcDbCircle
 62
7
  6
CONTINUOUS
 10
3.886592064
 20
5.2054057403
 40
0.027
100
AcDbArc
 50
90.0
 51
180.0
  0
ARC
  5
26D
100
AcDbEntity
  8
0
100
AcDbCircle
 62
7
  6
CONTINUOUS
 10
3.886592064
 20
5.1654057403
 40
0.027
100
AcDbArc
 50
180.0
 51
270.0
  0
ARC
  5
26E
100
AcDbEntity
  8
0
100
AcDbCircle
 62
7
  6
CONTINUOUS
 10
4.460592064
 20
4.9284057403
 40
0.02
100
AcDbArc
 50
90.0
 51
180.0
  0
ARC
  5
26F
100
AcDbEntity
  8
0
100
AcDbCircle
 62
7
  6
CONTINUOUS
 10
692.2793700227
 20
4.6634794959
 40
688.4531145004
100
AcDbArc
 50
179.9273241641
 51
180.0726881371
  0
ARC
  5
270
100
AcDbEntity
  8
0
100
AcDbCircle
 62
7
  6
CONTINUOUS
 10
494.4218936806
 20
4.6633290661
 40
490.6240090599
100
AcDbArc
 50
179.8926761346
 51
180.1073059201
  0
ARC
  5
271
100
AcDbEntity
  8
0
100
AcDbCircle
 62
7
  6
CONTINUOUS
 10
5.5381856843
 20
3.8508168077
 40
0.1560955716
100
AcDbArc
 50
312.9432514656
 51
317.0543240283
  0
ARC
  5
272
100
AcDbEntity
  8
0
100
AcDbCircle
 62
7
  6
CONTINUOUS
 10
5.8629553744
 20
3.6230391264
 40
0.0491327602
100
AcDbArc
 50
238.0711357003
 51
238.9164415778
  0
ARC
  5
273
100
AcDbEntity
  8
0
100
AcDbCircle
 62
7
  6
CONTINUOUS
 10
5.7663368117
 20
3.5262815501
 40
0.0486853285
100
AcDbArc
 50
31.0723704402
 51
31.925805719
  0
ARC
  5
274
100
AcDbEntity
  8
0
100
AcDbCircle
 62
7
  6
CONTINUOUS
 10
4.935592064
 20
4.4484057403
 40
0.04
100
AcDbArc
 50
270.0
 51
360.0
  0
ARC
  5
275
100
AcDbEntity
  8
0
100
AcDbCircle
 62
7
  6
CONTINUOUS
 10
5.807592064
 20
3.5814057403
 40
0.03
100
AcDbArc
 50
270.0
 51
360.0
  0
ARC
  5
276
100
AcDbEntity
  8
0
100
AcDbCircle
 62
7
  6
CONTINUOUS
 10
4.990592064
 20
4.3984057403
 40
0.02
100
AcDbArc
 50
270.0
 51
360.0
  0
ARC
  5
277
100
AcDbEntity
  8
0
100
AcDbCircle
 62
7
  6
CONTINUOUS
 10
4.935592064
 20
4.4484057403
 40
0.02
100
AcDbArc
 50
270.0
 51
360.0
  0
ARC
  5
278
100
AcDbEntity
  8
0
100
AcDbCircle
 62
7
  6
CONTINUOUS
 10
4.7262670675
 20
4.6684057403
 40
0.984
100
AcDbArc
 50
34.9716278124
 51
145.0283721876
  0
ARC
  5
279
100
AcDbEntity
  8
0
100
AcDbCircle
 62
7
  6
CONTINUOUS
 10
4.7262670675
 20
4.6684057403
 40
0.945
100
AcDbArc
 50
36.642870185
 51
143.357129815
  0
ARC
  5
27A
100
AcDbEntity
  8
0
100
AcDbCircle
 62
7
  6
CONTINUOUS
 10
5.5381802152
 20
5.4760013208
 40
0.1560946575
100
AcDbArc
 50
42.9425135915
 51
47.0536385092
  0
ARC
  5
27B
100
AcDbEntity
  8
0
100
AcDbCircle
 62
7
  6
CONTINUOUS
 10
5.762988521
 20
5.8026182875
 40
0.0526309413
100
AcDbArc
 50
328.0712770039
 51
328.8615853904
  0
ARC
  5
27C
100
AcDbEntity
  8
0
100
AcDbCircle
 62
7
  6
CONTINUOUS
 10
5.8632052512
 20
5.7033664431
 40
0.0496091985
100
AcDbArc
 50
121.0887754324
 51
121.9257021014
  0
ARC
  5
27D
100
AcDbEntity
  8
0
100
AcDbCircle
 62
7
  6
CONTINUOUS
 10
4.935592064
 20
4.8784057403
 40
0.04
100
AcDbArc
 50
0.0
 51
59.9995146246
  0
ARC
  5
27E
100
AcDbEntity
  8
0
100
AcDbCircle
 62
7
  6
CONTINUOUS
 10
5.807592064
 20
5.7454057403
 40
0.03
100
AcDbArc
 50
0.0
 51
90.0
  0
ARC
  5
27F
100
AcDbEntity
  8
0
100
AcDbCircle
 62
7
  6
CONTINUOUS
 10
5.564592064
 20
5.2054057403
 40
0.027
100
AcDbArc
 50
0.0
 51
90.0
  0
ARC
  5
280
100
AcDbEntity
  8
0
100
AcDbCircle
 62
7
  6
CONTINUOUS
 10
5.564592064
 20
5.1654057403
 40
0.027
100
AcDbArc
 50
270.0
 51
360.0
  0
ARC
  5
281
100
AcDbEntity
  8
0
100
AcDbCircle
 62
7
  6
CONTINUOUS
 10
4.990592064
 20
4.9284057403
 40
0.02
100
AcDbArc
 50
0.0
 51
90.0
  0
SPLINE
  5
282
100
AcDbEntity
  8
0
100
AcDbSpline
 62
7
  6
CONTINUOUS
 70
0
 71
3
 72
15
 73
11
 74
0
 42
0.0000001
 43
0.0000001
 44
0.0000000001
 40
0.0
 40
0.0
 40
0.0
 40
0.0
 40
0.1201762354
 40
0.2444298533
 40
0.3714715903
 40
0.5000000075
 40
0.6285284355
 40
0.7555701951
 40
0.8798238169
 40
1.0
 40
1.0
 40
1.0
 40
1.0
 10
3.7647091349
 20
3.7274335675
 30
0.0
 10
3.7651406464
 20
3.7260353132
 30
0.0
 10
3.7662168734
 20
3.7232495465
 30
0.0
 10
3.7683681249
 20
3.7192586526
 30
0.0
 10
3.7710372203
 20
3.7154685452
 30
0.0
 10
3.7741575743
 20
3.7119710852
 30
0.0
 10
3.7776550194
 20
3.7088507142
 30
0.0
 10
3.7814451131
 20
3.7061815988
 30
0.0
 10
3.7854359932
 20
3.7040303228
 30
0.0
 10
3.7882217512
 20
3.7029540754
 30
0.0
 10
3.7896200016
 20
3.7025225532
 30
0.0
  0
SPLINE
  5
283
100
AcDbEntity
  8
0
100
AcDbSpline
 62
7
  6
CONTINUOUS
 70
0
 71
3
 72
15
 73
11
 74
0
 42
0.0000001
 43
0.0000001
 44
0.0000000001
 40
0.0
 40
0.0
 40
0.0
 40
0.0
 40
0.1199983161
 40
0.2442381724
 40
0.3713590466
 40
0.4999999995
 40
0.6286409524
 40
0.7557618267
 40
0.8800016835
 40
1.0
 40
1.0
 40
1.0
 40
1.0
 10
3.6295021231
 20
3.5909258428
 30
0.0
 10
3.6299854559
 20
3.589640691
 30
0.0
 10
3.631129988
 20
3.5870831664
 30
0.0
 10
3.6332854452
 20
3.5834125143
 30
0.0
 10
3.6358698675
 20
3.579906369
 30
0.0
 10
3.6388264
 20
3.5766400752
 30
0.0
 10
3.6420926939
 20
3.5736835428
 30
0.0
 10
3.6455988392
 20
3.5710991205
 30
0.0
 10
3.6492694913
 20
3.5689436634
 30
0.0
 10
3.651827016
 20
3.5677991312
 30
0.0
 10
3.6531121678
 20
3.5673157985
 30
0.0
  0
LINE
  5
284
100
AcDbEntity
  8
0
100
AcDbLine
 62
7
  6
CONTINUOUS
 10
3.7896194599
 20
5.6242885586
 11
3.8066547129
 21
5.5902610569
  0
LINE
  5
285
100
AcDbEntity
  8
0
100
AcDbLine
 62
7
  6
CONTINUOUS
 10
3.6531121678
 20
3.5673157985
 11
3.7896197671
 21
3.7025225468
  0
SPLINE
  5
286
100
AcDbEntity
  8
0
100
AcDbSpline
 62
7
  6
CONTINUOUS
 70
0
 71
3
 72
17
 73
13
 74
0
 42
0.0000001
 43
0.0000001
 44
0.0000000001
 40
0.0
 40
0.0
 40
0.0
 40
0.0
 40
0.1203377036
 40
0.2445692018
 40
0.3078157566
 40
0.3715977607
 40
0.499999454
 40
0.6284012216
 40
0.6921833154
 40
0.7554299921
 40
0.8796618426
 40
1.0
 40
1.0
 40
1.0
 40
1.0
 10
5.5989220597
 20
3.7646178866
 30
0.0
 10
5.6003708529
 20
3.7650220907
 30
0.0
 10
5.6032584653
 20
3.7660593695
 30
0.0
 10
5.6066848169
 20
3.7678331933
 30
0.0
 10
5.609327475
 20
3.7695333327
 30
0.0
 10
5.6119018854
 20
3.7714246138
 30
0.0
 10
5.6149084878
 20
3.7740892661
 30
0.0
 10
5.6175731127
 20
3.7770958944
 30
0.0
 10
5.6194643724
 20
3.7796703249
 30
0.0
 10
5.6211644919
 20
3.7823130042
 30
0.0
 10
5.6229382916
 20
3.7857393811
 30
0.0
 10
5.6239755517
 20
3.7886270109
 30
0.0
 10
5.6243797469
 20
3.7900758125
 30
0.0
  0
SPLINE
  5
287
100
AcDbEntity
  8
0
100
AcDbSpline
 62
7
  6
CONTINUOUS
 70
0
 71
3
 72
17
 73
13
 74
0
 42
0.0000001
 43
0.0000001
 44
0.0000000001
 40
0.0
 40
0.0
 40
0.0
 40
0.0
 40
0.1249999959
 40
0.2499999952
 40
0.312499995
 40
0.3749999958
 40
0.4999999998
 40
0.625000004
 40
0.6875000049
 40
0.7500000049
 40
0.8750000042
 40
1.0
 40
1.0
 40
1.0
 40
1.0
 10
3.7647089996
 20
3.7274334495
 30
0.0
 10
3.7645597301
 20
3.8054310569
 30
0.0
 10
3.7642849359
 20
3.9614263209
 30
0.0
 10
3.7640199914
 20
4.156420527
 30
0.0
 10
3.7638665161
 20
4.3124159587
 30
0.0
 10
3.763756253
 20
4.46841143
 30
0.0
 10
3.7637016541
 20
4.663405821
 30
0.0
 10
3.763757041
 20
4.8584002118
 30
0.0
 10
3.7638675529
 20
5.0143956832
 30
0.0
 10
3.7640208086
 20
5.1703911153
 30
0.0
 10
3.7642849957
 20
5.3653853225
 30
0.0
 10
3.7645593788
 20
5.5213805873
 30
0.0
 10
3.7647086729
 20
5.5993781945
 30
0.0
  0
SPLINE
  5
288
100
AcDbEntity
  8
0
100
AcDbSpline
 62
7
  6
CONTINUOUS
 70
0
 71
3
 72
15
 73
11
 74
0
 42
0.0000001
 43
0.0000001
 44
0.0000000001
 40
0.0
 40
0.0
 40
0.0
 40
0.0
 40
0.1201762725
 40
0.2444299126
 40
0.3714716636
 40
0.5000000788
 40
0.6285284937
 40
0.7555702342
 40
0.8798238346
 40
1.0
 40
1.0
 40
1.0
 40
1.0
 10
5.6615648408
 20
3.7025223338
 30
0.0
 10
5.6629631026
 20
3.7029538457
 30
0.0
 10
5.6657488844
 20
3.7040300742
 30
0.0
 10
5.6697398007
 20
3.7061813309
 30
0.0
 10
5.6735299297
 20
3.7088504337
 30
0.0
 10
5.6770274101
 20
3.7119707976
 30
0.0
 10
5.6801477999
 20
3.7154682548
 30
0.0
 10
5.6828169316
 20
3.7192583627
 30
0.0
 10
5.6849682213
 20
3.7232492587
 30
0.0
 10
5.686044476
 20
3.7260350283
 30
0.0
 10
5.6864760012
 20
3.7274332847
 30
0.0
  0
SPLINE
  5
289
100
AcDbEntity
  8
0
100
AcDbSpline
 62
7
  6
CONTINUOUS
 70
0
 71
3
 72
15
 73
11
 74
0
 42
0.0000001
 43
0.0000001
 44
0.0000000001
 40
0.0
 40
0.0
 40
0.0
 40
0.0
 40
0.1199983147
 40
0.2442381701
 40
0.3713590456
 40
0.4999999997
 40
0.6286409538
 40
0.7557618293
 40
0.8800016851
 40
1.0
 40
1.0
 40
1.0
 40
1.0
 10
5.7980719602
 20
3.5673157985
 30
0.0
 10
5.799357112
 20
3.5677991312
 30
0.0
 10
5.8019146366
 20
3.5689436633
 30
0.0
 10
5.8055852887
 20
3.5710991204
 30
0.0
 10
5.8090914341
 20
3.5736835427
 30
0.0
 10
5.812357728
 20
3.5766400751
 30
0.0
 10
5.8153142605
 20
3.579906369
 30
0.0
 10
5.8178986828
 20
3.5834125143
 30
0.0
 10
5.82005414
 20
3.5870831665
 30
0.0
 10
5.8211986721
 20
3.589640691
 30
0.0
 10
5.8216820049
 20
3.5909258429
 30
0.0
  0
SPLINE
  5
28A
100
AcDbEntity
  8
0
100
AcDbSpline
 62
7
  6
CONTINUOUS
 70
0
 71
3
 72
15
 73
11
 74
0
 42
0.0000001
 43
0.0000001
 44
0.0000000001
 40
0.0
 40
0.0
 40
0.0
 40
0.0
 40
0.073649601
 40
0.1634350223
 40
0.2685136441
 40
0.3881316594
 40
0.5216220165
 40
0.66842733
 40
0.8280337463
 40
1.0
 40
1.0
 40
1.0
 40
1.0
 10
5.8076576856
 20
3.5520273573
 30
0.0
 10
5.8074238244
 20
3.5524036593
 30
0.0
 10
5.8068977493
 20
3.5532342782
 30
0.0
 10
5.8060220057
 20
3.5545915674
 30
0.0
 10
5.8049912687
 20
3.5561779342
 30
0.0
 10
5.8038185751
 20
3.5579856019
 30
0.0
 10
5.8025185172
 20
3.5600098418
 30
0.0
 10
5.8011085846
 20
3.5622493236
 30
0.0
 10
5.7996053626
 20
3.5647033659
 30
0.0
 10
5.7985903587
 20
3.5664205698
 30
0.0
 10
5.7980719602
 20
3.5673157985
 30
0.0
  0
LINE
  5
28B
100
AcDbEntity
  8
0
100
AcDbLine
 62
7
  6
CONTINUOUS
 10
3.6295021231
 20
5.735885637
 11
3.7647086729
 21
5.5993781945
  0
SPLINE
  5
28C
100
AcDbEntity
  8
0
100
AcDbSpline
 62
7
  6
CONTINUOUS
 70
0
 71
3
 72
17
 73
13
 74
0
 42
0.0000001
 43
0.0000001
 44
0.0000000001
 40
0.0
 40
0.0
 40
0.0
 40
0.0
 40
0.1203373755
 40
0.2445686188
 40
0.3078150814
 40
0.3715970183
 40
0.4999986562
 40
0.6284004777
 40
0.6921826378
 40
0.7554294055
 40
0.8796615115
 40
1.0
 40
1.0
 40
1.0
 40
1.0
 10
5.62438012
 20
5.536735938
 30
0.0
 10
5.6239759101
 20
5.5381847215
 30
0.0
 10
5.6229386195
 20
5.5410723142
 30
0.0
 10
5.6211647818
 20
5.5444986385
 30
0.0
 10
5.6194646315
 20
5.5471412744
 30
0.0
 10
5.617573339
 20
5.5497156634
 30
0.0
 10
5.6149086726
 20
5.5527222392
 30
0.0
 10
5.6119020323
 20
5.555386837
 30
0.0
 10
5.6093275931
 20
5.5572780762
 30
0.0
 10
5.6066849045
 20
5.5589781768
 30
0.0
 10
5.6032585171
 20
5.5607519541
 30
0.0
 10
5.6003708816
 20
5.5617891978
 30
0.0
 10
5.5989220774
 20
5.5621933854
 30
0.0
  0
SPLINE
  5
28D
100
AcDbEntity
  8
0
100
AcDbSpline
 62
7
  6
CONTINUOUS
 70
0
 71
3
 72
9
 73
5
 74
0
 42
0.0000001
 43
0.0000001
 44
0.0000000001
 40
0.0
 40
0.0
 40
0.0
 40
0.0
 40
0.4999999998
 40
1.0
 40
1.0
 40
1.0
 40
1.0
 10
3.6295021231
 20
5.735885637
 30
0.0
 10
3.6276084941
 20
5.3783958177
 30
0.0
 10
3.6251087115
 20
4.6634057401
 30
0.0
 10
3.6276084941
 20
3.9484156624
 30
0.0
 10
3.6295021231
 20
3.5909258428
 30
0.0
  0
SPLINE
  5
28E
100
AcDbEntity
  8
0
100
AcDbSpline
 62
7
  6
CONTINUOUS
 70
0
 71
3
 72
15
 73
11
 74
0
 42
0.0000001
 43
0.0000001
 44
0.0000000001
 40
0.0
 40
0.0
 40
0.0
 40
0.0
 40
0.1201763086
 40
0.2444299832
 40
0.3714717638
 40
0.5000001956
 40
0.6285286103
 40
0.7555703295
 40
0.8798238905
 40
1.0
 40
1.0
 40
1.0
 40
1.0
 10
5.6864751269
 20
5.5993784265
 30
0.0
 10
5.6860436158
 20
5.6007766891
 30
0.0
 10
5.6849673893
 20
5.6035624726
 30
0.0
 10
5.6828161359
 20
5.6075533921
 30
0.0
 10
5.6801470366
 20
5.611343525
 30
0.0
 10
5.6770266763
 20
5.6148410095
 30
0.0
 10
5.6735292227
 20
5.6179614034
 30
0.0
 10
5.6697391184
 20
5.6206305391
 30
0.0
 10
5.6657482258
 20
5.6227818325
 30
0.0
 10
5.6629624582
 20
5.6238580893
 30
0.0
 10
5.6615642027
 20
5.6242896155
 30
0.0
  0
SPLINE
  5
28F
100
AcDbEntity
  8
0
100
AcDbSpline
 62
7
  6
CONTINUOUS
 70
0
 71
3
 72
15
 73
11
 74
0
 42
0.0000001
 43
0.0000001
 44
0.0000000001
 40
0.0
 40
0.0
 40
0.0
 40
0.0
 40
0.1199983139
 40
0.2442381688
 40
0.3713590449
 40
0.4999999995
 40
0.6286409541
 40
0.7557618303
 40
0.8800016857
 40
1.0
 40
1.0
 40
1.0
 40
1.0
 10
5.8216820049
 20
5.7358856371
 30
0.0
 10
5.8211986721
 20
5.7371707889
 30
0.0
 10
5.82005414
 20
5.7397283134
 30
0.0
 10
5.8178986828
 20
5.7433989654
 30
0.0
 10
5.8153142605
 20
5.7469051107
 30
0.0
 10
5.8123577281
 20
5.7501714046
 30
0.0
 10
5.8090914342
 20
5.753127937
 30
0.0
 10
5.805585289
 20
5.7557123593
 30
0.0
 10
5.8019146369
 20
5.7578678164
 30
0.0
 10
5.7993571124
 20
5.7590123485
 30
0.0
 10
5.7980719606
 20
5.7594956813
 30
0.0
  0
SPLINE
  5
290
100
AcDbEntity
  8
0
100
AcDbSpline
 62
7
  6
CONTINUOUS
 70
0
 71
3
 72
23
 73
19
 74
0
 42
0.0000001
 43
0.0000001
 44
0.0000000001
 40
0.0
 40
0.0
 40
0.0
 40
0.0
 40
0.0829876927
 40
0.1631621007
 40
0.2405082161
 40
0.3150375842
 40
0.3867872531
 40
0.4558160673
 40
0.5221890744
 40
0.5859739706
 40
0.6472365161
 40
0.7060237971
 40
0.7622923963
 40
0.81594223
 40
0.8667502809
 40
0.9144801895
 40
0.9589548682
 40
1.0
 40
1.0
 40
1.0
 40
1.0
 10
5.5989220937
 20
3.764617896
 30
0.0
 10
5.5818164452
 20
3.7815790694
 30
0.0
 10
5.5481889096
 20
3.8149303451
 30
0.0
 10
5.4986338349
 20
3.8641051341
 30
0.0
 10
5.4508355007
 20
3.9115645815
 30
0.0
 10
5.4047837668
 20
3.9573123036
 30
0.0
 10
5.3604559118
 20
4.0013696744
 30
0.0
 10
5.3178216196
 20
4.0437724537
 30
0.0
 10
5.2768365239
 20
4.0845548879
 30
0.0
 10
5.2374513045
 20
4.1237491001
 30
0.0
 10
5.1996292268
 20
4.1613924721
 30
0.0
 10
5.1633584363
 20
4.1975016604
 30
0.0
 10
5.128649157
 20
4.232047268
 30
0.0
 10
5.0955655368
 20
4.2649429219
 30
0.0
 10
5.0642290239
 20
4.2960804294
 30
0.0
 10
5.0347772654
 20
4.3253362045
 30
0.0
 10
5.0073338249
 20
4.3525925463
 30
0.0
 10
4.9897210222
 20
4.3700861246
 30
0.0
 10
4.9812686196
 20
4.3784829937
 30
0.0
  0
LINE
  5
291
100
AcDbEntity
  8
0
100
AcDbLine
 62
7
  6
CONTINUOUS
 10
3.6295021231
 20
3.5909258428
 11
3.7647089996
 21
3.7274334495
  0
SPLINE
  5
292
100
AcDbEntity
  8
0
100
AcDbSpline
 62
7
  6
CONTINUOUS
 70
0
 71
3
 72
17
 73
13
 74
0
 42
0.0000001
 43
0.0000001
 44
0.0000000001
 40
0.0
 40
0.0
 40
0.0
 40
0.0
 40
0.1203374428
 40
0.2445687389
 40
0.3078152209
 40
0.3715971721
 40
0.499998822
 40
0.6284006329
 40
0.6921827794
 40
0.7554295285
 40
0.8796615812
 40
1.0
 40
1.0
 40
1.0
 40
1.0
 10
3.8522619538
 20
5.5621937214
 30
0.0
 10
3.8508131678
 20
5.5617895127
 30
0.0
 10
3.8479255699
 20
5.5607522242
 30
0.0
 10
3.8444992386
 20
5.5589783889
 30
0.0
 10
3.8418565971
 20
5.5572782403
 30
0.0
 10
3.8392822027
 20
5.5553869496
 30
0.0
 10
3.8362756202
 20
5.5527222851
 30
0.0
 10
3.8336110158
 20
5.5497156463
 30
0.0
 10
3.8317197717
 20
5.5471412079
 30
0.0
 10
3.8300196666
 20
5.5444985203
 30
0.0
 10
3.828245884
 20
5.5410721338
 30
0.0
 10
3.8272086366
 20
5.5381844985
 30
0.0
 10
3.8268044474
 20
5.5367356943
 30
0.0
  0
SPLINE
  5
293
100
AcDbEntity
  8
0
100
AcDbSpline
 62
7
  6
CONTINUOUS
 70
0
 71
3
 72
9
 73
5
 74
0
 42
0.0000001
 43
0.0000001
 44
0.0000000001
 40
0.0
 40
0.0
 40
0.0
 40
0.0
 40
0.5
 40
1.0
 40
1.0
 40
1.0
 40
1.0
 10
5.7980719606
 20
5.7594956813
 30
0.0
 10
5.4405821413
 20
5.7613893103
 30
0.0
 10
4.725592064
 20
5.7638890927
 30
0.0
 10
4.0106019866
 20
5.7613893103
 30
0.0
 10
3.6531121674
 20
5.7594956813
 30
0.0
  0
SPLINE
  5
294
100
AcDbEntity
  8
0
100
AcDbSpline
 62
7
  6
CONTINUOUS
 70
0
 71
3
 72
15
 73
11
 74
0
 42
0.0000001
 43
0.0000001
 44
0.0000000001
 40
0.0
 40
0.0
 40
0.0
 40
0.0
 40
0.1201762989
 40
0.2444299675
 40
0.3714717448
 40
0.500000177
 40
0.6285285948
 40
0.7555703192
 40
0.8798238857
 40
1.0
 40
1.0
 40
1.0
 40
1.0
 10
3.7896194202
 20
5.6242888018
 30
0.0
 10
3.7882211582
 20
5.6238572903
 30
0.0
 10
3.7854353761
 20
5.6227810627
 30
0.0
 10
3.7814444588
 20
5.6206298078
 30
0.0
 10
3.7776543285
 20
5.617960707
 30
0.0
 10
3.7741568466
 20
5.6148403454
 30
0.0
 10
3.7710364554
 20
5.6113428907
 30
0.0
 10
3.7683673225
 20
5.6075527856
 30
0.0
 10
3.7662160319
 20
5.6035618924
 30
0.0
 10
3.765139777
 20
5.6007761247
 30
0.0
 10
3.7647082518
 20
5.5993778693
 30
0.0
  0
SPLINE
  5
295
100
AcDbEntity
  8
0
100
AcDbSpline
 62
7
  6
CONTINUOUS
 70
0
 71
3
 72
15
 73
11
 74
0
 42
0.0000001
 43
0.0000001
 44
0.0000000001
 40
0.0
 40
0.0
 40
0.0
 40
0.0
 40
0.1199983143
 40
0.2442381694
 40
0.3713590453
 40
0.4999999996
 40
0.628640954
 40
0.7557618298
 40
0.8800016854
 40
1.0
 40
1.0
 40
1.0
 40
1.0
 10
3.6531121674
 20
5.7594956813
 30
0.0
 10
3.6518270156
 20
5.7590123485
 30
0.0
 10
3.6492694911
 20
5.7578678164
 30
0.0
 10
3.645598839
 20
5.7557123593
 30
0.0
 10
3.6420926937
 20
5.753127937
 30
0.0
 10
3.6388263999
 20
5.7501714046
 30
0.0
 10
3.6358698674
 20
5.7469051107
 30
0.0
 10
3.6332854451
 20
5.7433989654
 30
0.0
 10
3.631129988
 20
5.7397283134
 30
0.0
 10
3.6299854559
 20
5.7371707888
 30
0.0
 10
3.6295021231
 20
5.7358856371
 30
0.0
  0
SPLINE
  5
296
100
AcDbEntity
  8
0
100
AcDbSpline
 62
7
  6
CONTINUOUS
 70
0
 71
3
 72
23
 73
19
 74
0
 42
0.0000001
 43
0.0000001
 44
0.0000000001
 40
0.0
 40
0.0
 40
0.0
 40
0.0
 40
0.0829876934
 40
0.1631620648
 40
0.2405080145
 40
0.3150375517
 40
0.3867875757
 40
0.4558162547
 40
0.5221888667
 40
0.5859737257
 40
0.6472364354
 40
0.7060237371
 40
0.7622922949
 40
0.8159421434
 40
0.8667502485
 40
0.914480229
 40
0.9589549182
 40
1.0
 40
1.0
 40
1.0
 40
1.0
 10
3.8268040205
 20
3.7900755244
 30
0.0
 10
3.8437652126
 20
3.8071811663
 30
0.0
 10
3.8771164485
 20
3.8408087496
 30
0.0
 10
3.9262912514
 20
3.8903637619
 30
0.0
 10
3.9737509799
 20
3.9381618359
 30
0.0
 10
4.0194986331
 20
3.9842138163
 30
0.0
 10
4.0635556231
 20
4.0285422392
 30
0.0
 10
4.1059585348
 20
4.0711763574
 30
0.0
 10
4.1467413454
 20
4.1121608741
 30
0.0
 10
4.1859355198
 20
4.1515460482
 30
0.0
 10
4.2235787138
 20
4.1893683894
 30
0.0
 10
4.259687926
 20
4.2256392396
 30
0.0
 10
4.2942336123
 20
4.2603484619
 30
0.0
 10
4.3271292742
 20
4.293432108
 30
0.0
 10
4.3582667691
 20
4.3247687125
 30
0.0
 10
4.3875225163
 20
4.3542205748
 30
0.0
 10
4.4147788578
 20
4.3816640475
 30
0.0
 10
4.4322724663
 20
4.3992768162
 30
0.0
 10
4.4406693341
 20
4.4077292053
 30
0.0
  0
LINE
  5
297
100
AcDbEntity
  8
0
100
AcDbLine
 62
7
  6
CONTINUOUS
 10
3.6531121674
 20
5.7594956813
 11
3.7896196311
 21
5.6242888025
  0
SPLINE
  5
298
100
AcDbEntity
  8
0
100
AcDbSpline
 62
7
  6
CONTINUOUS
 70
0
 71
3
 72
10
 73
6
 74
0
 42
0.0000001
 43
0.0000001
 44
0.0000000001
 40
0.0
 40
0.0
 40
0.0
 40
0.0
 40
0.4999999925
 40
0.7499999949
 40
1.0
 40
1.0
 40
1.0
 40
1.0
 10
3.7896196311
 20
5.6242888025
 30
0.0
 10
3.9074405479
 20
5.6245142639
 30
0.0
 10
4.0841720108
 20
5.6248118054
 30
0.0
 10
4.3198141221
 20
5.6250878914
 30
0.0
 10
4.4376352274
 20
5.6251787048
 30
0.0
 10
4.4965457868
 20
5.6252112177
 30
0.0
  0
SPLINE
  5
299
100
AcDbEntity
  8
0
100
AcDbSpline
 62
7
  6
CONTINUOUS
 70
0
 71
3
 72
10
 73
6
 74
0
 42
0.0000001
 43
0.0000001
 44
0.0000000001
 40
0.0
 40
0.0
 40
0.0
 40
0.0
 40
0.2500000055
 40
0.5000000082
 40
1.0
 40
1.0
 40
1.0
 40
1.0
 10
4.9559944221
 20
5.6252095967
 30
0.0
 10
5.0147919774
 20
5.6251768022
 30
0.0
 10
5.1323870744
 20
5.6250857294
 30
0.0
 10
5.36757717
 20
5.6248105671
 30
0.0
 10
5.5439696224
 20
5.6245142855
 30
0.0
 10
5.6615645311
 20
5.6242891539
 30
0.0
  0
LINE
  5
29A
100
AcDbEntity
  8
0
100
AcDbLine
 62
7
  6
CONTINUOUS
 10
5.7980719606
 20
5.7594956813
 11
5.6615645311
 21
5.6242891539
  0
SPLINE
  5
29B
100
AcDbEntity
  8
0
100
AcDbSpline
 62
7
  6
CONTINUOUS
 70
0
 71
3
 72
9
 73
5
 74
0
 42
0.0000001
 43
0.0000001
 44
0.0000000001
 40
0.0
 40
0.0
 40
0.0
 40
0.0
 40
0.5000000002
 40
1.0
 40
1.0
 40
1.0
 40
1.0
 10
5.8216820049
 20
3.5909258429
 30
0.0
 10
5.8235756339
 20
3.9484156624
 30
0.0
 10
5.8260754164
 20
4.6634057401
 30
0.0
 10
5.8235756339
 20
5.3783958178
 30
0.0
 10
5.8216820049
 20
5.7358856371
 30
0.0
  0
SPLINE
  5
29C
100
AcDbEntity
  8
0
100
AcDbSpline
 62
7
  6
CONTINUOUS
 70
0
 71
3
 72
14
 73
10
 74
0
 42
0.0000001
 43
0.0000001
 44
0.0000000001
 40
0.0
 40
0.0
 40
0.0
 40
0.0
 40
0.0736450641
 40
0.1634265567
 40
0.2685078836
 40
0.3881338706
 40
0.5216315254
 40
0.6684317447
 40
1.0
 40
1.0
 40
1.0
 40
1.0
 10
5.83697073
 20
3.5813398892
 30
0.0
 10
5.8365944634
 20
3.5815737645
 30
0.0
 10
5.8357638849
 20
3.582099827
 30
0.0
 10
5.8344066063
 20
3.5829755547
 30
0.0
 10
5.8328202193
 20
3.5840063729
 30
0.0
 10
5.8310126206
 20
3.5851794091
 30
0.0
 10
5.8289884882
 20
3.586479812
 30
0.0
 10
5.8258732967
 20
3.5884404731
 30
0.0
 10
5.8234074191
 20
3.5899251086
 30
0.0
 10
5.8216820049
 20
3.5909258428
 30
0.0
  0
SPLINE
  5
29D
100
AcDbEntity
  8
0
100
AcDbSpline
 62
7
  6
CONTINUOUS
 70
0
 71
3
 72
15
 73
11
 74
0
 42
0.0000001
 43
0.0000001
 44
0.0000000001
 40
0.0
 40
0.0
 40
0.0
 40
0.0
 40
0.0736442105
 40
0.1634252479
 40
0.26850182
 40
0.3881209458
 40
0.5216143113
 40
0.6684216155
 40
0.828028735
 40
1.0
 40
1.0
 40
1.0
 40
1.0
 10
5.8369709586
 20
5.7454714839
 30
0.0
 10
5.8365946809
 20
5.7452376217
 30
0.0
 10
5.8357640437
 20
5.7447116356
 30
0.0
 10
5.834406727
 20
5.7438359826
 30
0.0
 10
5.8328203388
 20
5.7428052412
 30
0.0
 10
5.8310126438
 20
5.7416324574
 30
0.0
 10
5.8289883712
 20
5.7403322591
 30
0.0
 10
5.8267487821
 20
5.7389222936
 30
0.0
 10
5.8242945292
 20
5.7374191737
 30
0.0
 10
5.8225772478
 20
5.7364041281
 30
0.0
 10
5.8216820049
 20
5.7358856371
 30
0.0
  0
LINE
  5
29E
100
AcDbEntity
  8
0
100
AcDbLine
 62
7
  6
CONTINUOUS
 10
3.8268043623
 20
5.5367356585
 11
4.0145247503
 21
5.3476062404
  0
LINE
  5
29F
100
AcDbEntity
  8
0
100
AcDbLine
 62
7
  6
CONTINUOUS
 10
4.2226708273
 20
5.1383610003
 11
4.4406692101
 21
4.9190823884
  0
LINE
  5
2A0
100
AcDbEntity
  8
0
100
AcDbLine
 62
7
  6
CONTINUOUS
 10
5.6243801178
 20
5.5367359461
 11
5.4373429214
 21
5.3482952957
  0
LINE
  5
2A1
100
AcDbEntity
  8
0
100
AcDbLine
 62
7
  6
CONTINUOUS
 10
5.2285144869
 20
5.1383584381
 11
5.010514795
 21
4.9190822485
  0
SPLINE
  5
2A2
100
AcDbEntity
  8
0
100
AcDbSpline
 62
7
  6
CONTINUOUS
 70
0
 71
3
 72
8
 73
4
 74
0
 42
0.0000001
 43
0.0000001
 44
0.0000000001
 40
0.0
 40
0.0
 40
0.0
 40
0.0
 40
1.0
 40
1.0
 40
1.0
 40
1.0
 10
3.8522620342
 20
3.764617896
 30
0.0
 10
4.1433719087
 20
3.7642810448
 30
0.0
 10
4.4344819946
 20
3.7640597915
 30
0.0
 10
4.725592064
 20
3.7640597915
 30
0.0
  0
SPLINE
  5
2A3
100
AcDbEntity
  8
0
100
AcDbSpline
 62
7
  6
CONTINUOUS
 70
0
 71
3
 72
23
 73
19
 74
0
 42
0.0000001
 43
0.0000001
 44
0.0000000001
 40
0.0
 40
0.0
 40
0.0
 40
0.0
 40
0.0829877007
 40
0.1631620591
 40
0.2405079656
 40
0.3150375015
 40
0.3867875781
 40
0.4558162376
 40
0.5221888006
 40
0.5859736812
 40
0.6472364567
 40
0.7060237361
 40
0.7622922387
 40
0.8159421136
 40
0.8667502314
 40
0.9144802192
 40
0.9589549163
 40
1.0
 40
1.0
 40
1.0
 40
1.0
 10
3.8522620342
 20
3.764617896
 30
0.0
 10
3.8693676651
 20
3.7815790912
 30
0.0
 10
3.90299525
 20
3.8149303013
 30
0.0
 10
3.9525502508
 20
3.8641050636
 30
0.0
 10
4.0003482571
 20
3.9115648057
 30
0.0
 10
4.0464002411
 20
3.9573124289
 30
0.0
 10
4.0907287126
 20
4.0013693545
 30
0.0
 10
4.1333627982
 20
4.0437722648
 30
0.0
 10
4.1743472557
 20
4.084555089
 30
0.0
 10
4.2137324389
 20
4.1237492446
 30
0.0
 10
4.251554797
 20
4.161392424
 30
0.0
 10
4.2878256178
 20
4.1975016376
 30
0.0
 10
4.3225348102
 20
4.2320473105
 30
0.0
 10
4.3556184459
 20
4.2649429548
 30
0.0
 10
4.3869550499
 20
4.2960804491
 30
0.0
 10
4.4164069096
 20
4.3253361913
 30
0.0
 10
4.4438503759
 20
4.3525925285
 30
0.0
 10
4.461463138
 20
4.3700861363
 30
0.0
 10
4.4699155235
 20
4.378483003
 30
0.0
  0
LINE
  5
2A4
100
AcDbEntity
  8
0
100
AcDbLine
 62
7
  6
CONTINUOUS
 10
5.8216820049
 20
5.7358856371
 11
5.6864751208
 21
5.5993781855
  0
SPLINE
  5
2A5
100
AcDbEntity
  8
0
100
AcDbSpline
 62
7
  6
CONTINUOUS
 70
0
 71
3
 72
17
 73
13
 74
0
 42
0.0000001
 43
0.0000001
 44
0.0000000001
 40
0.0
 40
0.0
 40
0.0
 40
0.0
 40
0.1249999959
 40
0.2499999952
 40
0.312499995
 40
0.3749999958
 40
0.4999999997
 40
0.6250000039
 40
0.6875000049
 40
0.7500000049
 40
0.8750000042
 40
1.0
 40
1.0
 40
1.0
 40
1.0
 10
5.6864751208
 20
5.5993781855
 30
0.0
 10
5.6866243643
 20
5.5213805666
 30
0.0
 10
5.6868991697
 20
5.3653852797
 30
0.0
 10
5.6871641818
 20
5.170391045
 30
0.0
 10
5.6873176824
 20
5.0143955903
 30
0.0
 10
5.6874279269
 20
4.8584000961
 30
0.0
 10
5.6874824408
 20
4.6634056763
 30
0.0
 10
5.6874269887
 20
4.4684112569
 30
0.0
 10
5.6873165001
 20
4.3124157625
 30
0.0
 10
5.6871633208
 20
4.1564203073
 30
0.0
 10
5.6868992532
 20
3.9614260712
 30
0.0
 10
5.6866248549
 20
3.8054307835
 30
0.0
 10
5.6864754906
 20
3.7274331649
 30
0.0
  0
LINE
  5
2A6
100
AcDbEntity
  8
0
100
AcDbLine
 62
7
  6
CONTINUOUS
 10
5.8216820049
 20
3.5909258429
 11
5.6864754906
 21
3.7274331649
  0
SPLINE
  5
2A7
100
AcDbEntity
  8
0
100
AcDbSpline
 62
7
  6
CONTINUOUS
 70
0
 71
3
 72
8
 73
4
 74
0
 42
0.0000001
 43
0.0000001
 44
0.0000000001
 40
0.0
 40
0.0
 40
0.0
 40
0.0
 40
1.0
 40
1.0
 40
1.0
 40
1.0
 10
5.661564621
 20
3.7025225473
 30
0.0
 10
5.3495741648
 20
3.7019253895
 30
0.0
 10
5.0375830916
 20
3.7015303939
 30
0.0
 10
4.725592064
 20
3.7015303938
 30
0.0
  0
SPLINE
  5
2A8
100
AcDbEntity
  8
0
100
AcDbSpline
 62
7
  6
CONTINUOUS
 70
0
 71
3
 72
9
 73
5
 74
0
 42
0.0000001
 43
0.0000001
 44
0.0000000001
 40
0.0
 40
0.0
 40
0.0
 40
0.0
 40
0.2501327034
 40
1.0
 40
1.0
 40
1.0
 40
1.0
 10
4.725592064
 20
3.5641722776
 30
0.0
 10
4.8150132786
 20
3.5641722776
 30
0.0
 10
5.1725083936
 20
3.5644850973
 30
0.0
 10
5.5300018404
 20
3.5658958267
 30
0.0
 10
5.7980719602
 20
3.5673157985
 30
0.0
  0
LINE
  5
2A9
100
AcDbEntity
  8
0
100
AcDbLine
 62
7
  6
CONTINUOUS
 10
5.7980719602
 20
3.5673157985
 11
5.661564621
 21
3.7025225473
  0
SPLINE
  5
2AA
100
AcDbEntity
  8
0
100
AcDbSpline
 62
7
  6
CONTINUOUS
 70
0
 71
3
 72
14
 73
10
 74
0
 42
0.0000001
 43
0.0000001
 44
0.0000000001
 40
0.0
 40
0.0
 40
0.0
 40
0.0
 40
0.07365376
 40
0.1634392402
 40
0.2685233717
 40
0.3881521906
 40
0.5216512166
 40
0.66844718
 40
1.0
 40
1.0
 40
1.0
 40
1.0
 10
5.8076567519
 20
5.7747836844
 30
0.0
 10
5.8074228245
 20
5.774407424
 30
0.0
 10
5.8068970153
 20
5.773576676
 30
0.0
 10
5.8060215227
 20
5.7722192637
 30
0.0
 10
5.8049907209
 20
5.7706329509
 30
0.0
 10
5.8038176418
 20
5.7688255042
 30
0.0
 10
5.8025172333
 20
5.7668015704
 30
0.0
 10
5.800556897
 20
5.7636865968
 30
0.0
 10
5.7990727906
 20
5.7612207758
 30
0.0
 10
5.7980719606
 20
5.7594956813
 30
0.0
  0
SPLINE
  5
2AB
100
AcDbEntity
  8
0
100
AcDbSpline
 62
7
  6
CONTINUOUS
 70
0
 71
3
 72
15
 73
11
 74
0
 42
0.0000001
 43
0.0000001
 44
0.0000000001
 40
0.0
 40
0.0
 40
0.0
 40
0.0
 40
0.0736499996
 40
0.1634349784
 40
0.2685138221
 40
0.388132696
 40
0.5216239098
 40
0.6684288971
 40
0.8280338388
 40
1.0
 40
1.0
 40
1.0
 40
1.0
 10
3.6435265947
 20
5.7747840758
 30
0.0
 10
3.6437604682
 20
5.7744077821
 30
0.0
 10
3.6442864917
 20
5.7735771391
 30
0.0
 10
3.6451621827
 20
5.7722198272
 30
0.0
 10
3.646192916
 20
5.7706334685
 30
0.0
 10
3.6473656357
 20
5.768825821
 30
0.0
 10
3.6486657243
 20
5.76680161
 30
0.0
 10
3.650075628
 20
5.7645621371
 30
0.0
 10
3.6515787517
 20
5.7621080704
 30
0.0
 10
3.6525937422
 20
5.7603908858
 30
0.0
 10
3.6531121674
 20
5.7594956813
 30
0.0
  0
SPLINE
  5
2AC
100
AcDbEntity
  8
0
100
AcDbSpline
 62
7
  6
CONTINUOUS
 70
0
 71
3
 72
23
 73
19
 74
0
 42
0.0000001
 43
0.0000001
 44
0.0000000001
 40
0.0
 40
0.0
 40
0.0
 40
0.0
 40
0.0829876987
 40
0.1631620887
 40
0.2405081551
 40
0.315037517
 40
0.3867872436
 40
0.455816032
 40
0.5221889779
 40
0.5859738961
 40
0.6472365404
 40
0.7060238447
 40
0.7622923703
 40
0.8159421919
 40
0.8667502652
 40
0.9144801847
 40
0.9589548644
 40
1.0
 40
1.0
 40
1.0
 40
1.0
 10
5.6243797767
 20
3.7900758046
 30
0.0
 10
5.607418598
 20
3.807181442
 30
0.0
 10
5.574067346
 20
3.8408089797
 30
0.0
 10
5.5248925941
 20
3.890364042
 30
0.0
 10
5.4774331278
 20
3.9381623039
 30
0.0
 10
5.4316854304
 20
3.9842140408
 30
0.0
 10
5.3876281204
 20
4.028541945
 30
0.0
 10
5.3452253402
 20
4.0711762034
 30
0.0
 10
5.3044428961
 20
4.1121612423
 30
0.0
 10
5.2652486989
 20
4.1515464817
 30
0.0
 10
5.2276053211
 20
4.189368594
 30
0.0
 10
5.191496122
 20
4.2256393757
 30
0.0
 10
5.1569505299
 20
4.2603486278
 30
0.0
 10
5.1240548957
 20
4.2934322253
 30
0.0
 10
5.0929173935
 20
4.3247687368
 30
0.0
 10
5.0636616245
 20
4.354220501
 30
0.0
 10
5.036405291
 20
4.3816639426
 30
0.0
 10
5.018911717
 20
4.399276743
 30
0.0
 10
5.0105148496
 20
4.4077291446
 30
0.0
  0
SPLINE
  5
2AD
100
AcDbEntity
  8
0
100
AcDbSpline
 62
7
  6
CONTINUOUS
 70
0
 71
3
 72
15
 73
11
 74
0
 42
0.0000001
 43
0.0000001
 44
0.0000000001
 40
0.0
 40
0.0
 40
0.0
 40
0.0
 40
0.0736547049
 40
0.1634432144
 40
0.26852142
 40
0.3881361661
 40
0.5216229668
 40
0.6684290112
 40
0.8280393218
 40
1.0
 40
1.0
 40
1.0
 40
1.0
 10
3.6142141669
 20
3.5813404732
 30
0.0
 10
3.6145904902
 20
3.5815743301
 30
0.0
 10
3.6154211499
 20
3.582100371
 30
0.0
 10
3.6167784635
 20
3.5829760628
 30
0.0
 10
3.6183648079
 20
3.5840067108
 30
0.0
 10
3.6201724657
 20
3.5851792066
 30
0.0
 10
3.6221967038
 20
3.586479049
 30
0.0
 10
3.6244360417
 20
3.5878890522
 30
0.0
 10
3.6268897273
 20
3.5893926595
 30
0.0
 10
3.6286068624
 20
3.5904076362
 30
0.0
 10
3.6295021231
 20
3.5909258428
 30
0.0
  0
SPLINE
  5
2AE
100
AcDbEntity
  8
0
100
AcDbSpline
 62
7
  6
CONTINUOUS
 70
0
 71
3
 72
8
 73
4
 74
0
 42
0.0000001
 43
0.0000001
 44
0.0000000001
 40
0.0
 40
0.0
 40
0.0
 40
0.0
 40
1.0
 40
1.0
 40
1.0
 40
1.0
 10
4.725592064
 20
3.7640597915
 30
0.0
 10
5.0167021333
 20
3.7640597915
 30
0.0
 10
5.3078122193
 20
3.7642810448
 30
0.0
 10
5.5989220937
 20
3.764617896
 30
0.0
  0
SPLINE
  5
2AF
100
AcDbEntity
  8
0
100
AcDbSpline
 62
7
  6
CONTINUOUS
 70
0
 71
3
 72
14
 73
10
 74
0
 42
0.0000001
 43
0.0000001
 44
0.0000000001
 40
0.0
 40
0.0
 40
0.0
 40
0.0
 40
0.0736537667
 40
0.1634389915
 40
0.2685243458
 40
0.3881532276
 40
0.5216509402
 40
0.6684469076
 40
1.0
 40
1.0
 40
1.0
 40
1.0
 10
3.6142142841
 20
5.745470578
 30
0.0
 10
3.6145905422
 20
5.7452366498
 30
0.0
 10
3.6154212425
 20
5.7447107735
 30
0.0
 10
3.6167786113
 20
5.7438352136
 30
0.0
 10
3.6183649203
 20
5.7428044059
 30
0.0
 10
3.6201723866
 20
5.7416313709
 30
0.0
 10
3.622196342
 20
5.7403310247
 30
0.0
 10
3.6253112632
 20
5.7383706433
 30
0.0
 10
3.6277769711
 20
5.7368863578
 30
0.0
 10
3.6295021231
 20
5.7358856371
 30
0.0
  0
SPLINE
  5
2B0
100
AcDbEntity
  8
0
100
AcDbSpline
 62
7
  6
CONTINUOUS
 70
0
 71
3
 72
15
 73
11
 74
0
 42
0.0000001
 43
0.0000001
 44
0.0000000001
 40
0.0
 40
0.0
 40
0.0
 40
0.0
 40
0.0736326315
 40
0.1634059791
 40
0.2684755285
 40
0.3880917931
 40
0.521587237
 40
0.6683978618
 40
0.8280104683
 40
1.0
 40
1.0
 40
1.0
 40
1.0
 10
3.6435256638
 20
3.552025946
 30
0.0
 10
3.643759446
 20
3.552402223
 30
0.0
 10
3.6442853708
 20
3.553232833
 30
0.0
 10
3.6451609165
 20
3.5545901468
 30
0.0
 10
3.6461915574
 20
3.5561766111
 30
0.0
 10
3.6473643686
 20
3.557984388
 30
0.0
 10
3.6486646906
 20
3.5600087726
 30
0.0
 10
3.6500747226
 20
3.5622485877
 30
0.0
 10
3.6515778821
 20
3.5647032112
 30
0.0
 10
3.6525933067
 20
3.5664205704
 30
0.0
 10
3.6531121678
 20
3.5673157985
 30
0.0
  0
LINE
  5
2B1
100
AcDbEntity
  8
0
100
AcDbLine
 62
7
  6
CONTINUOUS
 10
3.8522619287
 20
5.5621937145
 11
4.0412530888
 21
5.3746106555
  0
LINE
  5
2B2
100
AcDbEntity
  8
0
100
AcDbLine
 62
7
  6
CONTINUOUS
 10
4.2787003384
 20
5.1383923933
 11
4.4699154607
 21
4.9483285499
  0
SPLINE
  5
2B3
100
AcDbEntity
  8
0
100
AcDbSpline
 62
7
  6
CONTINUOUS
 70
0
 71
3
 72
8
 73
4
 74
0
 42
0.0000001
 43
0.0000001
 44
0.0000000001
 40
0.0
 40
0.0
 40
0.0
 40
0.0
 40
1.0
 40
1.0
 40
1.0
 40
1.0
 10
4.725592064
 20
3.7356836543
 30
0.0
 10
4.4192794908
 20
3.7356836543
 30
0.0
 10
4.1129668814
 20
3.7360283011
 30
0.0
 10
3.806654753
 20
3.7365503058
 30
0.0
  0
SPLINE
  5
2B4
100
AcDbEntity
  8
0
100
AcDbSpline
 62
7
  6
CONTINUOUS
 70
0
 71
3
 72
8
 73
4
 74
0
 42
0.0000001
 43
0.0000001
 44
0.0000000001
 40
0.0
 40
0.0
 40
0.0
 40
0.0
 40
1.0
 40
1.0
 40
1.0
 40
1.0
 10
5.6445295917
 20
3.7365503062
 30
0.0
 10
5.338217391
 20
3.7360283014
 30
0.0
 10
5.0319047094
 20
3.7356836543
 30
0.0
 10
4.725592064
 20
3.7356836543
 30
0.0
  0
LINE
  5
2B5
100
AcDbEntity
  8
0
100
AcDbLine
 62
7
  6
CONTINUOUS
 10
5.5989220178
 20
5.5621934855
 11
5.4106017902
 21
5.3752759619
  0
LINE
  5
2B6
100
AcDbEntity
  8
0
100
AcDbLine
 62
7
  6
CONTINUOUS
 10
5.1724826294
 20
5.1383937154
 11
4.9812685266
 21
4.9483284257
  0
LINE
  5
2B7
100
AcDbEntity
  8
0
100
AcDbLine
 62
7
  6
CONTINUOUS
 10
3.7896199979
 20
3.7025225464
 11
3.8066552679
 21
3.7365503049
  0
LINE
  5
2B8
100
AcDbEntity
  8
0
100
AcDbLine
 62
7
  6
CONTINUOUS
 10
5.6864759737
 20
3.7274332994
 11
5.6524477075
 21
3.7444687102
  0
LINE
  5
2B9
100
AcDbEntity
  8
0
100
AcDbLine
 62
7
  6
CONTINUOUS
 10
5.6864748673
 20
5.5993783849
 11
5.6524473745
 21
5.5823431299
  0
LINE
  5
2BA
100
AcDbEntity
  8
0
100
AcDbLine
 62
7
  6
CONTINUOUS
 10
3.7647092367
 20
3.727433589
 11
3.7987367436
 21
3.7444687462
  0
LINE
  5
2BB
100
AcDbEntity
  8
0
100
AcDbLine
 62
7
  6
CONTINUOUS
 10
3.7647082571
 20
5.5993778665
 11
3.7987364559
 21
5.5823425434
  0
LINE
  5
2BC
100
AcDbEntity
  8
0
100
AcDbLine
 62
7
  6
CONTINUOUS
 10
5.6615647939
 20
3.7025225476
 11
5.6445295329
 21
3.7365503061
  0
LINE
  5
2BD
100
AcDbEntity
  8
0
100
AcDbLine
 62
7
  6
CONTINUOUS
 10
5.6615642003
 20
5.624289611
 11
5.6445288627
 21
5.5902613699
  0
SPLINE
  5
2BE
100
AcDbEntity
  8
0
100
AcDbSpline
 62
7
  6
CONTINUOUS
 70
0
 71
3
 72
9
 73
5
 74
0
 42
0.0000001
 43
0.0000001
 44
0.0000000001
 40
0.0
 40
0.0
 40
0.0
 40
0.0
 40
0.2498142505
 40
1.0
 40
1.0
 40
1.0
 40
1.0
 10
3.6531121678
 20
3.5673157985
 30
0.0
 10
3.7424182716
 20
3.5668427426
 30
0.0
 10
4.0999090481
 20
3.5651100623
 30
0.0
 10
4.4574043758
 20
3.5641722776
 30
0.0
 10
4.725592064
 20
3.5641722776
 30
0.0
  0
SPLINE
  5
2BF
100
AcDbEntity
  8
0
100
AcDbSpline
 62
7
  6
CONTINUOUS
 70
0
 71
3
 72
17
 73
13
 74
0
 42
0.0000001
 43
0.0000001
 44
0.0000000001
 40
0.0
 40
0.0
 40
0.0
 40
0.0
 40
0.120337555
 40
0.244568937
 40
0.3078154487
 40
0.3715974214
 40
0.4999990884
 40
0.6284008799
 40
0.6921830037
 40
0.7554297217
 40
0.8796616894
 40
1.0
 40
1.0
 40
1.0
 40
1.0
 10
3.8268040226
 20
3.7900755172
 30
0.0
 10
3.8272082289
 20
3.7886267301
 30
0.0
 10
3.8282455121
 20
3.78573913
 30
0.0
 10
3.8300193403
 20
3.782312795
 30
0.0
 10
3.8317194828
 20
3.7796701501
 30
0.0
 10
3.8336107669
 20
3.7770957525
 30
0.0
 10
3.8362754227
 20
3.7740891658
 30
0.0
 10
3.8392820529
 20
3.7714245565
 30
0.0
 10
3.8418564844
 20
3.7695333084
 30
0.0
 10
3.8444991649
 20
3.7678331994
 30
0.0
 10
3.8479255426
 20
3.7660594119
 30
0.0
 10
3.8508131716
 20
3.7650221604
 30
0.0
 10
3.8522619727
 20
3.7646179691
 30
0.0
  0
SPLINE
  5
2C0
100
AcDbEntity
  8
0
100
AcDbSpline
 62
7
  6
CONTINUOUS
 70
0
 71
3
 72
8
 73
4
 74
0
 42
0.0000001
 43
0.0000001
 44
0.0000000001
 40
0.0
 40
0.0
 40
0.0
 40
0.0
 40
1.0
 40
1.0
 40
1.0
 40
1.0
 10
4.725592064
 20
3.7015303938
 30
0.0
 10
4.4136011231
 20
3.7015303938
 30
0.0
 10
4.1016101365
 20
3.7019253889
 30
0.0
 10
3.7896197671
 20
3.7025225468
 30
0.0
  0
ENDSEC
  0
SECTION
  2
OBJECTS
  0
DICTIONARY
  5
C
100
AcDbDictionary
280
0
281
1
  3
ACAD_GROUP
350
D
  3
ACAD_MLINESTYLE
350
17
  3
ACAD_LAYOUT
350
1A
  3
ACAD_PLOTSETTINGS
350
19
  3
ACAD_PLOTSTYLENAME
350
E
  0
DICTIONARY
  5
D
102
{ACAD_REACTORS
330
C
102
}
100
AcDbDictionary
280
0
281
1
  0
ACDBDICTIONARYWDFLT
  5
E
102
{ACAD_REACTORS
330
C
102
}
100
AcDbDictionary
281
1
  3
Normal
350
F
100
AcDbDictionaryWithDefault
340
F
  0
DICTIONARY
  5
17
102
{ACAD_REACTORS
330
C
102
}
100
AcDbDictionary
280
0
281
1
  3
Standard
350
18
  0
DICTIONARY
  5
19
102
{ACAD_REACTORS
330
C
102
}
100
AcDbDictionary
281
1
  0
DICTIONARY
  5
1A
102
{ACAD_REACTORS
330
C
102
}
100
AcDbDictionary
281
1
  3
Model
350
2C1
  3
Layout1
350
2C2
  0
ACDBPLACEHOLDER
  5
F
102
{ACAD_REACTORS
330
E
102
}
  0
MLINESTYLE
  5
18
102
{ACAD_REACTORS
330
17
102
}
100
AcDbMlineStyle
  2
STANDARD
 70
0
  3

 62
256
 51
90.0
 52
90.0
 71
2
 49
0.5
 62
256
  6
BYLAYER
 49
-0.5
 62
256
  6
BYLAYER
  0
LAYOUT
  5
2C1
102
{ACAD_REACTORS
330
1A
102
}
100
AcDbPlotSettings
  1

  2
none_device
  4
ANSI_A_(11.00_x_8.50_Inches)
  6

 40
0.0
 41
0.0
 42
0.0
 43
0.0
 44
279.4
 45
215.9
 46
0.0
 47
0.0
 48
0.0
 49
0.0
140
0.0
141
0.0
142
1.0
143
1.0
 70
1024
 72
0
 73
0
 74
0
  7

 75
0
147
1.0
148
0.0
149
0.0
100
AcDbLayout
  1
Model
 70
0
 71
0
 10
0.0
 20
0.0
 11
11.0
 21
8.5
 12
0.0
 22
0.0
 32
0.0
 14
0.0
 24
0.0
 34
0.0
 15
0.0
 25
0.0
 35
0.0
146
0.0
 13
0.0
 23
0.0
 33
0.0
 16
1.0
 26
0.0
 36
0.0
 17
0.0
 27
1.0
 37
0.0
 76
0
330
202
345
0
346
0
  0
LAYOUT
  5
2C2
102
{ACAD_REACTORS
330
1A
102
}
100
AcDbPlotSettings
  1

  2
none_device
  4
ANSI_A_(11.00_x_8.50_Inches)
  6

 40
0.0
 41
0.0
 42
0.0
 43
0.0
 44
279.4
 45
215.9
 46
0.0
 47
0.0
 48
0.0
 49
0.0
140
0.0
141
0.0
142
1.0
143
1.0
 70
0
 72
0
 73
0
 74
0
  7

 75
0
147
1.0
148
0.0
149
0.0
100
AcDbLayout
  1
Layout1
 70
0
 71
1
 10
0.0
 20
0.0
 11
11.0
 21
8.5
 12
0.0
 22
0.0
 32
0.0
 14
0.0
 24
0.0
 34
0.0
 15
0.0
 25
0.0
 35
0.0
146
0.0
 13
0.0
 23
0.0
 33
0.0
 16
1.0
 26
0.0
 36
0.0
 17
0.0
 27
1.0
 37
0.0
 76
0
330
203
345
0
346
0
  0
ENDSEC
  0
EOF
