999
DXF file: C:\Prowork\plots\417x_right.dxf
999
Pro/ENGINEER 2018500 by Parametric Technology Corporation
  0
SECTION
  2
HEADER
  9
$ACADVER
  1
AC1032
  9
$DWGCODEPAGE
  3
ANSI_1252
  9
$EXTMAX
 10
11.0
 20
8.5
 30
0.0
  9
$EXTMIN
 10
0.0
 20
0.0
 30
0.0
  9
$LIMMIN
 10
0.0
 20
0.0
  9
$LIMMAX
 10
11.0
 20
8.5
  9
$VIEWCTR
 10
5.5
 20
4.25
  9
$VIEWSIZE
 40
8.5
  9
$CLAYER
  8
0
  9
$LTSCALE
 40
0.605
  9
$CELTYPE
  6
BYLAYER
  9
$DIMSCALE
 40
1.0
  9
$DIMASZ
 40
0.1
  9
$DIMEXO
 40
0.0625
  9
$DIMDLI
 40
0.418
  9
$DIMEXE
 40
0.125
  9
$DIMCEN
 40
0.099
  9
$DIMLFAC
 40
1.0
  9
$DIMBLK
  1
_FILLED
  9
$DIMALT
 70
1
  9
$DIMALTD
 70
2
  9
$DIMALTTD
 70
2
  9
$DIMALTF
 40
25.4
  9
$DIMTXT
 40
0.08
  9
$DIMTOL
 70
1
  9
$DIMLIM
 70
0
  9
$DIMTFAC
 40
1.0
  9
$DIMTP
 40
0.001
  9
$DIMTM
 40
0.001
  9
$DIMGAP
 40
0.09
  9
$DIMDSEP
 70
46
  9
$AUNITS
 70
0
  9
$PDMODE
 70
3
  9
$PDSIZE
 40
0.06
  9
$HANDSEED
  5
353
  9
$TILEMODE
 70
1
  9
$MEASUREMENT
 70
0
  9
$INSUNITS
 70
1
  0
ENDSEC
  0
SECTION
  2
CLASSES
  0
CLASS
  1
ACDBDICTIONARYWDFLT
  2
AcDbDictionaryWithDefault
  3
AutoCAD 2000
 90
0
 91
1
280
0
281
0
  0
CLASS
  1
ACDBPLACEHOLDER
  2
AcDbPlaceHolder
  3
AutoCAD 2000
 90
0
 91
1
280
0
281
0
  0
CLASS
  1
LAYOUT
  2
AcDbLayout
  3
AutoCAD 2000
 90
0
 91
0
280
0
281
0
  0
ENDSEC
  0
SECTION
  2
TABLES
  0
TABLE
  2
VPORT
  5
8
100
AcDbSymbolTable
 70
2
  0
VPORT
  5
1F4
100
AcDbSymbolTableRecord
100
AcDbViewportTableRecord
  2
*ACTIVE
 70
0
 10
0.0
 20
0.0
 11
1.0
 21
1.0
 12
5.5
 22
4.25
 13
0.0
 23
0.0
 14
1.0
 24
1.0
 15
0.0
 25
0.0
 16
0.0
 26
0.0
 36
1.0
 17
0.0
 27
0.0
 37
0.0
 40
8.5
 41
1.2941176471
 42
50.0
 43
0.0
 44
0.0
 50
0.0
 51
0.0
 71
0
 72
100
 73
1
 74
1
 75
0
 76
0
 77
0
 78
0
  0
ENDTAB
  0
TABLE
  2
LTYPE
  5
5
100
AcDbSymbolTable
 70
6
  0
LTYPE
  5
14
100
AcDbSymbolTableRecord
100
AcDbLinetypeTableRecord
  2
BYBLOCK
 70
0
  3

 72
65
 73
0
 40
0.0
  0
LTYPE
  5
15
100
AcDbSymbolTableRecord
100
AcDbLinetypeTableRecord
  2
BYLAYER
 70
0
  3

 72
65
 73
0
 40
0.0
  0
LTYPE
  5
16
100
AcDbSymbolTableRecord
100
AcDbLinetypeTableRecord
  2
CONTINUOUS
 70
64
  3
Solid line
 72
65
 73
0
 40
0.0
  0
LTYPE
  5
1F5
100
AcDbSymbolTableRecord
100
AcDbLinetypeTableRecord
  2
CENTER
 70
64
  3
____ _ ____ _ ____ _ ____ _ ____ _ ____ _ ____
 72
65
 73
4
 40
0.6
 49
0.375
 74
0
 49
-0.075
 74
0
 49
0.075
 74
0
 49
-0.075
 74
0
  0
LTYPE
  5
1F6
100
AcDbSymbolTableRecord
100
AcDbLinetypeTableRecord
  2
HIDDEN
 70
64
  3
- - - - - - - - - - - - - - - - - - - -
 72
65
 73
2
 40
0.2
 49
0.1
 74
0
 49
-0.1
 74
0
  0
LTYPE
  5
1F7
100
AcDbSymbolTableRecord
100
AcDbLinetypeTableRecord
  2
PHANTOM
 70
64
  3
_____ _ _ _____ _ _ _____ _ _ _____
 72
65
 73
6
 40
0.8
 49
0.45
 74
0
 49
-0.05
 74
0
 49
0.1
 74
0
 49
-0.05
 74
0
 49
0.1
 74
0
 49
-0.05
 74
0
  0
LTYPE
  5
1F8
100
AcDbSymbolTableRecord
100
AcDbLinetypeTableRecord
  2
DOT
 70
64
  3
. . . . . . . . . . . . . . . . . . . .
 72
65
 73
2
 40
0.2
 49
0.1
 74
0
 49
-0.1
 74
0
  0
LTYPE
  5
1F9
100
AcDbSymbolTableRecord
100
AcDbLinetypeTableRecord
  2
DASHED
 70
64
  3
- - - - - - - - - - - - - - - - - - - -
 72
65
 73
2
 40
0.2
 49
0.1
 74
0
 49
-0.1
 74
0
  0
ENDTAB
  0
TABLE
  2
LAYER
  5
2
100
AcDbSymbolTable
 70
36
  0
LAYER
  5
10
100
AcDbSymbolTableRecord
100
AcDbLayerTableRecord
  2
0
 70
0
 62
7
  6
CONTINUOUS
370
-3
390
F
  0
LAYER
  5
1FA
100
AcDbSymbolTableRecord
100
AcDbLayerTableRecord
  2
DEFAULT_1
 70
0
 62
7
  6
CENTER
370
-3
390
F
  0
LAYER
  5
1FB
100
AcDbSymbolTableRecord
100
AcDbLayerTableRecord
  2
DEFAULT_2
 70
0
 62
8
  6
HIDDEN
370
-3
390
F
  0
LAYER
  5
1FC
100
AcDbSymbolTableRecord
100
AcDbLayerTableRecord
  2
DEFAULT_3
 70
0
 62
7
  6
PHANTOM
370
-3
390
F
  0
LAYER
  5
1FD
100
AcDbSymbolTableRecord
100
AcDbLayerTableRecord
  2
50350
 70
0
 62
7
  6
CONTINUOUS
370
-3
390
F
  0
LAYER
  5
1FE
100
AcDbSymbolTableRecord
100
AcDbLayerTableRecord
  2
50356
 70
0
 62
7
  6
CONTINUOUS
370
-3
390
F
  0
LAYER
  5
1FF
100
AcDbSymbolTableRecord
100
AcDbLayerTableRecord
  2
50359
 70
0
 62
7
  6
CONTINUOUS
370
-3
390
F
  0
LAYER
  5
200
100
AcDbSymbolTableRecord
100
AcDbLayerTableRecord
  2
50674
 70
0
 62
7
  6
CONTINUOUS
370
-3
390
F
  0
LAYER
  5
201
100
AcDbSymbolTableRecord
100
AcDbLayerTableRecord
  2
50675
 70
0
 62
7
  6
CONTINUOUS
370
-3
390
F
  0
LAYER
  5
202
100
AcDbSymbolTableRecord
100
AcDbLayerTableRecord
  2
50677
 70
0
 62
7
  6
CONTINUOUS
370
-3
390
F
  0
LAYER
  5
203
100
AcDbSymbolTableRecord
100
AcDbLayerTableRecord
  2
50685
 70
0
 62
7
  6
CONTINUOUS
370
-3
390
F
  0
LAYER
  5
204
100
AcDbSymbolTableRecord
100
AcDbLayerTableRecord
  2
50686
 70
0
 62
7
  6
CONTINUOUS
370
-3
390
F
  0
LAYER
  5
205
100
AcDbSymbolTableRecord
100
AcDbLayerTableRecord
  2
50854
 70
0
 62
7
  6
CONTINUOUS
370
-3
390
F
  0
LAYER
  5
206
100
AcDbSymbolTableRecord
100
AcDbLayerTableRecord
  2
6-417
 70
0
 62
7
  6
CONTINUOUS
370
-3
390
F
  0
LAYER
  5
207
100
AcDbSymbolTableRecord
100
AcDbLayerTableRecord
  2
92000
 70
0
 62
7
  6
CONTINUOUS
370
-3
390
F
  0
LAYER
  5
208
100
AcDbSymbolTableRecord
100
AcDbLayerTableRecord
  2
ALL_FEATURES_9
 70
0
 62
7
  6
CONTINUOUS
370
-3
390
F
  0
LAYER
  5
209
100
AcDbSymbolTableRecord
100
AcDbLayerTableRecord
  2
DEFAULT_COORDINATE_SYSTEM
 70
0
 62
7
  6
CONTINUOUS
370
-3
390
F
  0
LAYER
  5
20A
100
AcDbSymbolTableRecord
100
AcDbLayerTableRecord
  2
DEFAULT_DATUM_AXES
 70
0
 62
7
  6
CONTINUOUS
370
-3
390
F
  0
LAYER
  5
20B
100
AcDbSymbolTableRecord
100
AcDbLayerTableRecord
  2
DEFAULT_DATUM_PLANES
 70
0
 62
7
  6
CONTINUOUS
370
-3
390
F
  0
LAYER
  5
20C
100
AcDbSymbolTableRecord
100
AcDbLayerTableRecord
  2
DEFAULT_SURFACES
 70
0
 62
7
  6
CONTINUOUS
370
-3
390
F
  0
LAYER
  5
20D
100
AcDbSymbolTableRecord
100
AcDbLayerTableRecord
  2
INTF_50350
 70
0
 62
7
  6
CONTINUOUS
370
-3
390
F
  0
LAYER
  5
20E
100
AcDbSymbolTableRecord
100
AcDbLayerTableRecord
  2
INTF_50356
 70
0
 62
7
  6
CONTINUOUS
370
-3
390
F
  0
LAYER
  5
20F
100
AcDbSymbolTableRecord
100
AcDbLayerTableRecord
  2
INTF_50359
 70
0
 62
7
  6
CONTINUOUS
370
-3
390
F
  0
LAYER
  5
210
100
AcDbSymbolTableRecord
100
AcDbLayerTableRecord
  2
INTF_50674
 70
0
 62
7
  6
CONTINUOUS
370
-3
390
F
  0
LAYER
  5
211
100
AcDbSymbolTableRecord
100
AcDbLayerTableRecord
  2
INTF_50675
 70
0
 62
7
  6
CONTINUOUS
370
-3
390
F
  0
LAYER
  5
212
100
AcDbSymbolTableRecord
100
AcDbLayerTableRecord
  2
INTF_50677
 70
0
 62
7
  6
CONTINUOUS
370
-3
390
F
  0
LAYER
  5
213
100
AcDbSymbolTableRecord
100
AcDbLayerTableRecord
  2
INTF_50685
 70
0
 62
7
  6
CONTINUOUS
370
-3
390
F
  0
LAYER
  5
214
100
AcDbSymbolTableRecord
100
AcDbLayerTableRecord
  2
INTF_50686
 70
0
 62
7
  6
CONTINUOUS
370
-3
390
F
  0
LAYER
  5
215
100
AcDbSymbolTableRecord
100
AcDbLayerTableRecord
  2
INTF_50854
 70
0
 62
7
  6
CONTINUOUS
370
-3
390
F
  0
LAYER
  5
216
100
AcDbSymbolTableRecord
100
AcDbLayerTableRecord
  2
INTF_92000
 70
0
 62
7
  6
CONTINUOUS
370
-3
390
F
  0
LAYER
  5
217
100
AcDbSymbolTableRecord
100
AcDbLayerTableRecord
  2
INTF_BLANK
 70
0
 62
7
  6
CONTINUOUS
370
-3
390
F
  0
LAYER
  5
218
100
AcDbSymbolTableRecord
100
AcDbLayerTableRecord
  2
PLATED_SURFACE
 70
0
 62
7
  6
CONTINUOUS
370
-3
390
F
  0
LAYER
  5
219
100
AcDbSymbolTableRecord
100
AcDbLayerTableRecord
  2
PLATED_SURFACE_1
 70
0
 62
7
  6
CONTINUOUS
370
-3
390
F
  0
LAYER
  5
21A
100
AcDbSymbolTableRecord
100
AcDbLayerTableRecord
  2
_BLACK_HOLE
 70
0
 62
7
  6
CONTINUOUS
370
-3
390
F
  0
ENDTAB
  0
TABLE
  2
STYLE
  5
3
100
AcDbSymbolTable
 70
1
  0
STYLE
  5
11
100
AcDbSymbolTableRecord
100
AcDbTextStyleTableRecord
  2
STANDARD
 70
0
 40
0.0
 41
0.8
 50
0.0
 71
0
 42
0.2
  3
txt
  4

  0
STYLE
  5
21B
100
AcDbSymbolTableRecord
100
AcDbTextStyleTableRecord
  2
TEXTSTYLE_1
 70
0
 40
0.0
 41
0.8
 50
0.0
 71
0
 42
0.2
  3
gdt
  4

  0
ENDTAB
  0
TABLE
  2
VIEW
  5
6
100
AcDbSymbolTable
 70
0
  0
ENDTAB
  0
TABLE
  2
UCS
  5
7
100
AcDbSymbolTable
 70
0
  0
ENDTAB
  0
TABLE
  2
APPID
  5
9
100
AcDbSymbolTable
 70
1
  0
APPID
  5
21C
100
AcDbSymbolTableRecord
100
AcDbRegAppTableRecord
  2
ACAD
 70
0
  0
ENDTAB
  0
TABLE
  2
BLOCK_RECORD
  5
1
100
AcDbSymbolTable
 70
0
  0
BLOCK_RECORD
  5
21D
100
AcDbSymbolTableRecord
100
AcDbBlockTableRecord
  2
*Model_Space
  0
BLOCK_RECORD
  5
21E
100
AcDbSymbolTableRecord
100
AcDbBlockTableRecord
  2
*Paper_Space
  0
BLOCK_RECORD
  5
21F
100
AcDbSymbolTableRecord
100
AcDbBlockTableRecord
  2
_FILLED
  0
ENDTAB
  0
TABLE
  2
DIMSTYLE
  5
A
100
AcDbSymbolTable
 70
1
100
AcDbDimStyleTable
 71
0
  0
DIMSTYLE
105
220
100
AcDbSymbolTableRecord
100
AcDbDimStyleTableRecord
  2
STANDARD
 70
0
  3

  4

 40
1.0
 41
0.1
 42
0.0625
 43
0.38
 44
0.125
 45
0.0
 46
0.0
 47
0.001
 48
0.001
140
0.08
141
0.09
142
0.0
143
25.4
144
1.0
145
0.0
146
1.0
147
0.09
 71
1.0
 72
0.0
 73
1
 74
1
 75
0
 76
0
 77
0
 78
4
 79
1
170
1
171
2
172
0
173
0
174
0
175
0
176
0
177
0
178
0
270
2
179
3
271
3
272
3
273
2
274
2
275
0
280
0
281
0
282
0
283
1
284
4
285
0
286
0
287
3
288
0
340
11
278
46
341
21F
342
21F
343
21F
344
21F
  0
ENDTAB
  0
ENDSEC
  0
SECTION
  2
BLOCKS
  0
BLOCK
  5
20
100
AcDbEntity
  8
0
100
AcDbBlockBegin
  2
*Model_Space
 70
0
 10
0.0
 20
0.0
 30
0.0
  3
*Model_Space
  1

  0
ENDBLK
  5
21
100
AcDbEntity
  8
0
100
AcDbBlockEnd
  0
BLOCK
  5
1C
100
AcDbEntity
  8
0
100
AcDbBlockBegin
  2
*Paper_Space
 70
0
 10
0.0
 20
0.0
 30
0.0
  3
*Paper_Space
  1

  0
ENDBLK
  5
1D
100
AcDbEntity
  8
0
100
AcDbBlockEnd
  0
BLOCK
  5
221
100
AcDbEntity
  8
0
100
AcDbBlockBegin
  2
_FILLED
 70
64
 10
0.0
 20
0.0
  3
_FILLED
  1

  0
SOLID
  5
222
100
AcDbEntity
  8
0
  6
BYBLOCK
 62
0
100
AcDbTrace
 10
0.0
 20
0.0
 11
-1.0
 21
0.2
 12
-1.0
 22
-0.2
 13
-1.0
 23
-0.2
  0
ENDBLK
  5
223
100
AcDbEntity
  8
0
  6
BYBLOCK
 62
0
100
AcDbBlockEnd
  0
ENDSEC
  0
SECTION
  2
ENTITIES
  0
MTEXT
  5
224
100
AcDbEntity
  8
0
100
AcDbMText
 62
7
  6
CONTINUOUS
  7
STANDARD
 71
1
 72
1
 10
9.4142663043
 20
0.4218517081
 30
0.0
 11
1.0
 21
0.0
 31
0.0
 73
2
 44
0.9
  1
SCALE: 1.25
 40
0.08
 41
0.704
  0
LINE
  5
225
100
AcDbEntity
  8
0
100
AcDbLine
 62
7
  6
CONTINUOUS
 10
0.0
 20
0.0
 11
0.0
 21
8.5
  0
LINE
  5
226
100
AcDbEntity
  8
0
100
AcDbLine
 62
7
  6
CONTINUOUS
 10
0.0
 20
0.0
 11
11.0
 21
0.0
  0
LINE
  5
227
100
AcDbEntity
  8
0
100
AcDbLine
 62
7
  6
CONTINUOUS
 10
0.0
 20
8.5
 11
11.0
 21
8.5
  0
LINE
  5
228
100
AcDbEntity
  8
0
100
AcDbLine
 62
7
  6
CONTINUOUS
 10
11.0
 20
0.0
 11
11.0
 21
8.5
  0
LINE
  5
229
100
AcDbEntity
  8
0
100
AcDbLine
 62
7
  6
CONTINUOUS
 10
1.6960093168
 20
4.3176729544
 11
1.6960093168
 21
3.5364574804
  0
LINE
  5
22A
100
AcDbEntity
  8
0
100
AcDbLine
 62
7
  6
CONTINUOUS
 10
1.7474030704
 20
4.3004344287
 11
1.7474030704
 21
4.2302783527
  0
LINE
  5
22B
100
AcDbEntity
  8
0
100
AcDbLine
 62
7
  6
CONTINUOUS
 10
1.7474030704
 20
3.9972212934
 11
1.7474030704
 21
3.8569091414
  0
LINE
  5
22C
100
AcDbEntity
  8
0
100
AcDbLine
 62
7
  6
CONTINUOUS
 10
1.7474030704
 20
3.623852082
 11
1.7474030704
 21
3.553696006
  0
LINE
  5
22D
100
AcDbEntity
  8
0
100
AcDbLine
 62
7
  6
CONTINUOUS
 10
2.0247593168
 20
4.3004344287
 11
2.0247593168
 21
4.2302783527
  0
LINE
  5
22E
100
AcDbEntity
  8
0
100
AcDbLine
 62
7
  6
CONTINUOUS
 10
2.0247593168
 20
3.9972212934
 11
2.0247593168
 21
3.8569091414
  0
LINE
  5
22F
100
AcDbEntity
  8
0
100
AcDbLine
 62
7
  6
CONTINUOUS
 10
2.0247593168
 20
3.623852082
 11
2.0247593168
 21
3.553696006
  0
LINE
  5
230
100
AcDbEntity
  8
0
100
AcDbLine
 62
7
  6
CONTINUOUS
 10
2.2197593168
 20
4.3176729544
 11
2.2197593168
 21
3.5364574804
  0
LINE
  5
231
100
AcDbEntity
  8
0
100
AcDbLine
 62
7
  6
CONTINUOUS
 10
2.3404512435
 20
4.7695037176
 11
2.3404512435
 21
4.979803549
  0
LINE
  5
232
100
AcDbEntity
  8
0
100
AcDbLine
 62
9
  6
CONTINUOUS
 10
2.3488246558
 20
4.9833372046
 11
2.3488246558
 21
4.7659700621
  0
LINE
  5
233
100
AcDbEntity
  8
0
100
AcDbLine
 62
7
  6
CONTINUOUS
 10
2.4247593168
 20
4.7301902174
 11
2.4247593168
 21
4.6989402174
  0
LINE
  5
234
100
AcDbEntity
  8
0
100
AcDbLine
 62
7
  6
CONTINUOUS
 10
2.4510093168
 20
4.6579521
 11
2.4510093168
 21
4.6300264587
  0
LINE
  5
235
100
AcDbEntity
  8
0
100
AcDbLine
 62
7
  6
CONTINUOUS
 10
2.4510093168
 20
4.5686108235
 11
2.4510093168
 21
4.4864402174
  0
LINE
  5
236
100
AcDbEntity
  8
0
100
AcDbLine
 62
7
  6
CONTINUOUS
 10
2.4660093168
 20
4.4864402174
 11
2.4660093168
 21
3.3676902174
  0
LINE
  5
237
100
AcDbEntity
  8
0
100
AcDbLine
 62
7
  6
CONTINUOUS
 10
1.6960093168
 20
3.5364402174
 11
1.7564392146
 21
3.4760103196
  0
LINE
  5
238
100
AcDbEntity
  8
0
100
AcDbLine
 62
7
  6
CONTINUOUS
 10
2.2783457963
 20
3.613490955
 11
2.300062639
 21
3.5759659749
  0
LINE
  5
239
100
AcDbEntity
  8
0
100
AcDbLine
 62
7
  6
CONTINUOUS
 10
2.3408845201
 20
3.6134424095
 11
2.3626116992
 21
3.5758937383
  0
LINE
  5
23A
100
AcDbEntity
  8
0
100
AcDbLine
 62
7
  6
CONTINUOUS
 10
2.2199979527
 20
3.6061428412
 11
2.2374351428
 21
3.5759980606
  0
LINE
  5
23B
100
AcDbEntity
  8
0
100
AcDbLine
 62
7
  6
CONTINUOUS
 10
2.5691343168
 20
5.1176902174
 11
2.5691343168
 21
5.0864402174
  0
LINE
  5
23C
100
AcDbEntity
  8
0
100
AcDbLine
 62
9
  6
CONTINUOUS
 10
2.6284786924
 20
4.7659700621
 11
2.6284786924
 21
4.9833372046
  0
LINE
  5
23D
100
AcDbEntity
  8
0
100
AcDbLine
 62
9
  6
CONTINUOUS
 10
2.6826052801
 20
4.9833372046
 11
2.6826052801
 21
4.7659700621
  0
LINE
  5
23E
100
AcDbEntity
  8
0
100
AcDbLine
 62
7
  6
CONTINUOUS
 10
2.7150340905
 20
4.5239402174
 11
2.7150340905
 21
4.4864402174
  0
LINE
  5
23F
100
AcDbEntity
  8
0
100
AcDbLine
 62
7
  6
CONTINUOUS
 10
2.7272593168
 20
5.1911783573
 11
2.7272593168
 21
5.1176902174
  0
LINE
  5
240
100
AcDbEntity
  8
0
100
AcDbLine
 62
7
  6
CONTINUOUS
 10
2.2687498218
 20
4.2781384568
 11
2.2476362608
 21
4.24164955
  0
LINE
  5
241
100
AcDbEntity
  8
0
100
AcDbLine
 62
7
  6
CONTINUOUS
 10
2.3313549163
 20
4.2782005097
 11
2.3101729961
 21
4.2416001602
  0
LINE
  5
242
100
AcDbEntity
  8
0
100
AcDbLine
 62
7
  6
CONTINUOUS
 10
1.6960093168
 20
4.3176902174
 11
1.7564392146
 21
4.3781201152
  0
LINE
  5
243
100
AcDbEntity
  8
0
100
AcDbLine
 62
9
  6
CONTINUOUS
 10
2.5795009837
 20
5.7355078222
 11
2.579462747
 21
5.735487014
  0
LINE
  5
244
100
AcDbEntity
  8
0
100
AcDbLine
 62
7
  6
CONTINUOUS
 10
2.3107307382
 20
4.2406365643
 11
2.2890100021
 21
4.2781679288
  0
LINE
  5
245
100
AcDbEntity
  8
0
100
AcDbLine
 62
7
  6
CONTINUOUS
 10
2.2481918998
 20
4.2406894259
 11
2.2284040705
 21
4.2748862358
  0
LINE
  5
246
100
AcDbEntity
  8
0
100
AcDbLine
 62
7
  6
CONTINUOUS
 10
2.2577206978
 20
3.5759260059
 11
2.2789032743
 21
3.6125278016
  0
LINE
  5
247
100
AcDbEntity
  8
0
100
AcDbLine
 62
7
  6
CONTINUOUS
 10
2.3203248516
 20
3.57598967
 11
2.3414404106
 21
3.6124818502
  0
LINE
  5
248
100
AcDbEntity
  8
0
100
AcDbLine
 62
7
  6
CONTINUOUS
 10
2.4510093168
 20
4.5686108235
 11
2.4516083522
 21
4.5692992208
  0
LINE
  5
249
100
AcDbEntity
  8
0
100
AcDbLine
 62
7
  6
CONTINUOUS
 10
2.4510093168
 20
4.6579521
 11
2.4516284972
 21
4.6586490229
  0
LINE
  5
24A
100
AcDbEntity
  8
0
100
AcDbLine
 62
9
  6
CONTINUOUS
 10
2.2584433914
 20
5.2523934208
 11
2.2584051548
 21
5.2523726126
  0
LINE
  5
24B
100
AcDbEntity
  8
0
100
AcDbLine
 62
7
  6
CONTINUOUS
 10
2.3003843533
 20
3.5755027174
 11
2.299873796
 21
3.5759657007
  0
LINE
  5
24C
100
AcDbEntity
  8
0
100
AcDbLine
 62
7
  6
CONTINUOUS
 10
2.2378842996
 20
3.5755027174
 11
2.2373451076
 21
3.5759979235
  0
LINE
  5
24D
100
AcDbEntity
  8
0
100
AcDbLine
 62
7
  6
CONTINUOUS
 10
3.1972593168
 20
5.191174504
 11
3.1972593168
 21
5.1176902174
  0
LINE
  5
24E
100
AcDbEntity
  8
0
100
AcDbLine
 62
7
  6
CONTINUOUS
 10
3.209484543
 20
4.4864402174
 11
3.209484543
 21
4.5239402174
  0
LINE
  5
24F
100
AcDbEntity
  8
0
100
AcDbLine
 62
9
  6
CONTINUOUS
 10
3.2419133534
 20
4.7659700621
 11
3.2419133534
 21
4.9833372046
  0
LINE
  5
250
100
AcDbEntity
  8
0
100
AcDbLine
 62
9
  6
CONTINUOUS
 10
3.2960399411
 20
4.9833372046
 11
3.2960399411
 21
4.7659700621
  0
LINE
  5
251
100
AcDbEntity
  8
0
100
AcDbLine
 62
7
  6
CONTINUOUS
 10
3.3553843168
 20
5.0864402174
 11
3.3553843168
 21
5.1176902174
  0
LINE
  5
252
100
AcDbEntity
  8
0
100
AcDbLine
 62
9
  6
CONTINUOUS
 10
3.6660752422
 20
5.735487014
 11
3.6661134788
 21
5.7355078222
  0
LINE
  5
253
100
AcDbEntity
  8
0
100
AcDbLine
 62
7
  6
CONTINUOUS
 10
2.3628843414
 20
3.5755027174
 11
2.3624153033
 21
3.5758934763
  0
LINE
  5
254
100
AcDbEntity
  8
0
100
AcDbLine
 62
7
  6
CONTINUOUS
 10
2.159329419
 20
4.3781201152
 11
2.2197593168
 21
4.3176902174
  0
LINE
  5
255
100
AcDbEntity
  8
0
100
AcDbLine
 62
7
  6
CONTINUOUS
 10
3.4735093168
 20
4.4864402174
 11
3.4735093168
 21
4.6132814568
  0
LINE
  5
256
100
AcDbEntity
  8
0
100
AcDbLine
 62
7
  6
CONTINUOUS
 10
3.4735093168
 20
4.6747484892
 11
3.4735093168
 21
4.6989402174
  0
LINE
  5
257
100
AcDbEntity
  8
0
100
AcDbLine
 62
7
  6
CONTINUOUS
 10
3.4997593168
 20
4.7301902174
 11
3.4997593168
 21
4.6989402174
  0
LINE
  5
258
100
AcDbEntity
  8
0
100
AcDbLine
 62
7
  6
CONTINUOUS
 10
3.5622593168
 20
3.3676902174
 11
3.5622593168
 21
4.4864402174
  0
LINE
  5
259
100
AcDbEntity
  8
0
100
AcDbLine
 62
9
  6
CONTINUOUS
 10
3.5756939778
 20
4.7659700621
 11
3.5756939778
 21
4.9833372046
  0
LINE
  5
25A
100
AcDbEntity
  8
0
100
AcDbLine
 62
7
  6
CONTINUOUS
 10
3.58406739
 20
4.7695037176
 11
3.58406739
 21
4.979803549
  0
LINE
  5
25B
100
AcDbEntity
  8
0
100
AcDbLine
 62
7
  6
CONTINUOUS
 10
3.4735093168
 20
4.6747452454
 11
3.4729187119
 21
4.6740591623
  0
LINE
  5
25C
100
AcDbEntity
  8
0
100
AcDbLine
 62
7
  6
CONTINUOUS
 10
2.159329419
 20
3.4760103196
 11
2.2197593168
 21
3.5364402174
  0
LINE
  5
25D
100
AcDbEntity
  8
0
100
AcDbLine
 62
7
  6
CONTINUOUS
 10
2.5049060754
 20
4.68943844
 11
2.4516285156
 21
4.6586355238
  0
LINE
  5
25E
100
AcDbEntity
  8
0
100
AcDbLine
 62
7
  6
CONTINUOUS
 10
2.5049503203
 20
4.6000872631
 11
2.4516084262
 21
4.5692442447
  0
LINE
  5
25F
100
AcDbEntity
  8
0
100
AcDbLine
 62
9
  6
CONTINUOUS
 10
3.3450176499
 20
5.2523726126
 11
3.3450558865
 21
5.2523934208
  0
LINE
  5
260
100
AcDbEntity
  8
0
100
AcDbLine
 62
7
  6
CONTINUOUS
 10
2.3486825811
 20
4.9836418848
 11
2.5691343168
 21
5.0864402174
  0
LINE
  5
261
100
AcDbEntity
  8
0
100
AcDbLine
 62
7
  6
CONTINUOUS
 10
2.3404512435
 20
4.979803549
 11
2.3488246558
 21
4.9833372046
  0
LINE
  5
262
100
AcDbEntity
  8
0
100
AcDbLine
 62
7
  6
CONTINUOUS
 10
2.2886939342
 20
4.2786277174
 11
2.2892025721
 21
4.2781682074
  0
LINE
  5
263
100
AcDbEntity
  8
0
100
AcDbLine
 62
7
  6
CONTINUOUS
 10
3.9247593168
 20
4.4288998196
 11
3.9247593168
 21
3.4252306152
  0
LINE
  5
264
100
AcDbEntity
  8
0
100
AcDbLine
 62
7
  6
CONTINUOUS
 10
3.4195740231
 20
4.6432253707
 11
3.4729186978
 21
4.6740696095
  0
LINE
  5
265
100
AcDbEntity
  8
0
100
AcDbLine
 62
7
  6
CONTINUOUS
 10
3.4997593168
 20
4.7301902174
 11
3.5758360525
 21
4.7656653819
  0
LINE
  5
266
100
AcDbEntity
  8
0
100
AcDbLine
 62
7
  6
CONTINUOUS
 10
3.5756939778
 20
4.7659700621
 11
3.58406739
 21
4.7695037176
  0
LINE
  5
267
100
AcDbEntity
  8
0
100
AcDbLine
 62
7
  6
CONTINUOUS
 10
3.5803169993
 20
4.7679263737
 11
3.5814660791
 21
4.7684088682
  0
LINE
  5
268
100
AcDbEntity
  8
0
100
AcDbLine
 62
7
  6
CONTINUOUS
 10
3.583965353
 20
4.7694626802
 11
3.58406739
 21
4.7695037176
  0
LINE
  5
269
100
AcDbEntity
  8
0
100
AcDbLine
 62
7
  6
CONTINUOUS
 10
2.4516199706
 20
4.629379457
 11
2.5036152824
 21
4.5993152193
  0
LINE
  5
26A
100
AcDbEntity
  8
0
100
AcDbLine
 62
7
  6
CONTINUOUS
 10
2.4858306155
 20
4.6989402174
 11
2.5035848189
 21
4.6886744396
  0
LINE
  5
26B
100
AcDbEntity
  8
0
100
AcDbLine
 62
7
  6
CONTINUOUS
 10
2.3404512435
 20
4.7695037176
 11
2.4247593168
 21
4.7301902174
  0
LINE
  5
26C
100
AcDbEntity
  8
0
100
AcDbLine
 62
7
  6
CONTINUOUS
 10
2.4660093168
 20
3.3676902174
 11
3.5622593168
 21
3.3676902174
  0
LINE
  5
26D
100
AcDbEntity
  8
0
100
AcDbLine
 62
7
  6
CONTINUOUS
 10
3.9247593168
 20
3.4251902174
 11
3.5622593168
 21
3.4251902174
  0
LINE
  5
26E
100
AcDbEntity
  8
0
100
AcDbLine
 62
7
  6
CONTINUOUS
 10
2.159329419
 20
3.4760103196
 11
1.7564392146
 21
3.4760103196
  0
LINE
  5
26F
100
AcDbEntity
  8
0
100
AcDbLine
 62
7
  6
CONTINUOUS
 10
9.7997593168
 20
3.4958152174
 11
8.5872593168
 21
3.4958152174
  0
LINE
  5
270
100
AcDbEntity
  8
0
100
AcDbLine
 62
7
  6
CONTINUOUS
 10
7.2169889547
 20
3.4958152174
 11
3.9247593168
 21
3.4958152174
  0
LINE
  5
271
100
AcDbEntity
  8
0
100
AcDbLine
 62
7
  6
CONTINUOUS
 10
1.7474030704
 20
3.553696006
 11
2.0247593168
 21
3.553696006
  0
LINE
  5
272
100
AcDbEntity
  8
0
100
AcDbLine
 62
7
  6
CONTINUOUS
 10
2.2378842996
 20
3.5755027174
 11
2.2574439246
 21
3.5755027174
  0
LINE
  5
273
100
AcDbEntity
  8
0
100
AcDbLine
 62
7
  6
CONTINUOUS
 10
2.3003843533
 20
3.5755027174
 11
2.3199439149
 21
3.5755027174
  0
LINE
  5
274
100
AcDbEntity
  8
0
100
AcDbLine
 62
7
  6
CONTINUOUS
 10
2.3628843414
 20
3.5755027174
 11
2.4660093168
 21
3.5755027174
  0
LINE
  5
275
100
AcDbEntity
  8
0
100
AcDbLine
 62
7
  6
CONTINUOUS
 10
2.3404512435
 20
4.7695037176
 11
2.3405534787
 21
4.7694624902
  0
LINE
  5
276
100
AcDbEntity
  8
0
100
AcDbLine
 62
7
  6
CONTINUOUS
 10
2.3405534787
 20
4.7694624902
 11
2.3488246558
 21
4.7659700621
  0
LINE
  5
277
100
AcDbEntity
  8
0
100
AcDbLine
 62
7
  6
CONTINUOUS
 10
3.4728928671
 20
4.6139393905
 11
3.4209082957
 21
4.6439969649
  0
LINE
  5
278
100
AcDbEntity
  8
0
100
AcDbLine
 62
7
  6
CONTINUOUS
 10
1.7474030704
 20
3.623852082
 11
2.0247593168
 21
3.623852082
  0
LINE
  5
279
100
AcDbEntity
  8
0
100
AcDbLine
 62
7
  6
CONTINUOUS
 10
2.4660093168
 20
3.6953645059
 11
3.5622593168
 21
3.6953645059
  0
LINE
  5
27A
100
AcDbEntity
  8
0
100
AcDbLine
 62
7
  6
CONTINUOUS
 10
2.159329419
 20
3.7015377685
 11
1.7564392146
 21
3.7015377685
  0
LINE
  5
27B
100
AcDbEntity
  8
0
100
AcDbLine
 62
7
  6
CONTINUOUS
 10
1.7474030704
 20
3.8569091414
 11
2.0247593168
 21
3.8569091414
  0
LINE
  5
27C
100
AcDbEntity
  8
0
100
AcDbLine
 62
9
  6
CONTINUOUS
 10
2.5795009837
 20
5.2523726126
 11
2.5795532956
 21
5.2523441673
  0
LINE
  5
27D
100
AcDbEntity
  8
0
100
AcDbLine
 62
9
  6
CONTINUOUS
 10
2.2583528428
 20
5.7355362675
 11
2.2584051548
 21
5.7355078222
  0
LINE
  5
27E
100
AcDbEntity
  8
0
100
AcDbLine
 62
7
  6
CONTINUOUS
 10
1.7474030704
 20
3.9972212934
 11
2.0247593168
 21
3.9972212934
  0
LINE
  5
27F
100
AcDbEntity
  8
0
100
AcDbLine
 62
7
  6
CONTINUOUS
 10
1.7564392146
 20
4.1525926663
 11
2.159329419
 21
4.1525926663
  0
LINE
  5
280
100
AcDbEntity
  8
0
100
AcDbLine
 62
7
  6
CONTINUOUS
 10
2.4660093168
 20
4.1587659288
 11
3.5622593168
 21
4.1587659288
  0
LINE
  5
281
100
AcDbEntity
  8
0
100
AcDbLine
 62
7
  6
CONTINUOUS
 10
3.5756939778
 20
4.9833372046
 11
3.58406739
 21
4.979803549
  0
LINE
  5
282
100
AcDbEntity
  8
0
100
AcDbLine
 62
7
  6
CONTINUOUS
 10
3.3553843168
 20
5.0864402174
 11
3.58406739
 21
4.979803549
  0
LINE
  5
283
100
AcDbEntity
  8
0
100
AcDbLine
 62
9
  6
CONTINUOUS
 10
3.6661657908
 20
5.2523441673
 11
3.6661134788
 21
5.2523726126
  0
LINE
  5
284
100
AcDbEntity
  8
0
100
AcDbLine
 62
7
  6
CONTINUOUS
 10
1.7474030704
 20
4.2302783527
 11
2.0247593168
 21
4.2302783527
  0
LINE
  5
285
100
AcDbEntity
  8
0
100
AcDbLine
 62
7
  6
CONTINUOUS
 10
3.5622593168
 20
4.2706409288
 11
2.4660093168
 21
4.2706409288
  0
LINE
  5
286
100
AcDbEntity
  8
0
100
AcDbLine
 62
7
  6
CONTINUOUS
 10
2.4660093168
 20
4.2786277174
 11
2.3316343616
 21
4.2786277174
  0
LINE
  5
287
100
AcDbEntity
  8
0
100
AcDbLine
 62
7
  6
CONTINUOUS
 10
2.2886939342
 20
4.2786277174
 11
2.2691343286
 21
4.2786277174
  0
LINE
  5
288
100
AcDbEntity
  8
0
100
AcDbLine
 62
7
  6
CONTINUOUS
 10
2.2197593168
 20
4.2786277174
 11
2.2260205009
 21
4.2786277174
  0
LINE
  5
289
100
AcDbEntity
  8
0
100
AcDbLine
 62
7
  6
CONTINUOUS
 10
1.7474030704
 20
4.3004344287
 11
2.0247593168
 21
4.3004344287
  0
LINE
  5
28A
100
AcDbEntity
  8
0
100
AcDbLine
 62
7
  6
CONTINUOUS
 10
9.7997593168
 20
4.3583152174
 11
8.5872593168
 21
4.3583152174
  0
LINE
  5
28B
100
AcDbEntity
  8
0
100
AcDbLine
 62
7
  6
CONTINUOUS
 10
7.2169889547
 20
4.3583152174
 11
3.9247593168
 21
4.3583152174
  0
LINE
  5
28C
100
AcDbEntity
  8
0
100
AcDbLine
 62
7
  6
CONTINUOUS
 10
2.159329419
 20
4.3781201152
 11
1.7564392146
 21
4.3781201152
  0
LINE
  5
28D
100
AcDbEntity
  8
0
100
AcDbLine
 62
7
  6
CONTINUOUS
 10
3.9247593168
 20
4.4289402174
 11
3.5622593168
 21
4.4289402174
  0
LINE
  5
28E
100
AcDbEntity
  8
0
100
AcDbLine
 62
7
  6
CONTINUOUS
 10
2.7477606306
 20
5.1853471588
 11
2.7489880032
 21
5.1850169404
  0
LINE
  5
28F
100
AcDbEntity
  8
0
100
AcDbLine
 62
7
  6
CONTINUOUS
 10
2.7477677646
 20
5.1853623812
 11
2.7489889319
 21
5.1850160708
  0
LINE
  5
290
100
AcDbEntity
  8
0
100
AcDbLine
 62
9
  6
CONTINUOUS
 10
3.3450176499
 20
5.7355078222
 11
3.3449653379
 21
5.7355362675
  0
LINE
  5
291
100
AcDbEntity
  8
0
100
AcDbLine
 62
7
  6
CONTINUOUS
 10
7.2169889547
 20
3.2708152174
 11
8.5872593168
 21
2.4270652174
  0
LINE
  5
292
100
AcDbEntity
  8
0
100
AcDbLine
 62
7
  6
CONTINUOUS
 10
7.2169889547
 20
4.5833152174
 11
8.5872593168
 21
5.4270652174
  0
LINE
  5
293
100
AcDbEntity
  8
0
100
AcDbLine
 62
7
  6
CONTINUOUS
 10
3.5622593168
 20
4.4864402174
 11
3.209484543
 21
4.4864402174
  0
LINE
  5
294
100
AcDbEntity
  8
0
100
AcDbLine
 62
7
  6
CONTINUOUS
 10
2.4510093168
 20
4.4864402174
 11
2.7150340905
 21
4.4864402174
  0
LINE
  5
295
100
AcDbEntity
  8
0
100
AcDbLine
 62
7
  6
CONTINUOUS
 10
3.2094845432
 20
4.5239402174
 11
2.7150340903
 21
4.5239402174
  0
LINE
  5
296
100
AcDbEntity
  8
0
100
AcDbLine
 62
7
  6
CONTINUOUS
 10
3.4997588273
 20
4.6989402174
 11
2.4247598063
 21
4.6989402174
  0
LINE
  5
297
100
AcDbEntity
  8
0
100
AcDbLine
 62
7
  6
CONTINUOUS
 10
3.4997593168
 20
4.7301902174
 11
2.4247593168
 21
4.7301902174
  0
LINE
  5
298
100
AcDbEntity
  8
0
100
AcDbLine
 62
7
  6
CONTINUOUS
 10
2.9624315069
 20
4.6802666413
 11
3.0664895676
 21
4.68318152
  0
LINE
  5
299
100
AcDbEntity
  8
0
100
AcDbLine
 62
7
  6
CONTINUOUS
 10
3.210270638
 20
5.7927024762
 11
3.2089926844
 21
5.7931067185
  0
LINE
  5
29A
100
AcDbEntity
  8
0
100
AcDbLine
 62
7
  6
CONTINUOUS
 10
3.2102659996
 20
5.7926950503
 11
3.2089918107
 21
5.7931074349
  0
LINE
  5
29B
100
AcDbEntity
  8
0
100
AcDbLine
 62
7
  6
CONTINUOUS
 10
2.5691343168
 20
5.0864402174
 11
3.3553843168
 21
5.0864402174
  0
LINE
  5
29C
100
AcDbEntity
  8
0
100
AcDbLine
 62
7
  6
CONTINUOUS
 10
3.3553843168
 20
5.1176902174
 11
2.5691343168
 21
5.1176902174
  0
LINE
  5
29D
100
AcDbEntity
  8
0
100
AcDbLine
 62
7
  6
CONTINUOUS
 10
7.2169889547
 20
3.2708152174
 11
7.2169889547
 21
4.5833152174
  0
LINE
  5
29E
100
AcDbEntity
  8
0
100
AcDbLine
 62
7
  6
CONTINUOUS
 10
3.1755291987
 20
5.185015936
 11
3.1767423157
 21
5.1853597476
  0
LINE
  5
29F
100
AcDbEntity
  8
0
100
AcDbLine
 62
7
  6
CONTINUOUS
 10
3.1755301788
 20
5.1850168277
 11
3.1767493778
 21
5.1853448397
  0
LINE
  5
2A0
100
AcDbEntity
  8
0
100
AcDbLine
 62
9
  6
CONTINUOUS
 10
2.9622630212
 20
5.8308152174
 11
2.9622618431
 21
5.8308152174
  0
LINE
  5
2A1
100
AcDbEntity
  8
0
100
AcDbLine
 62
7
  6
CONTINUOUS
 10
8.5872593168
 20
5.4270652174
 11
8.5872593168
 21
2.4270652174
  0
LINE
  5
2A2
100
AcDbEntity
  8
0
100
AcDbLine
 62
7
  6
CONTINUOUS
 10
9.7997593168
 20
4.3583152174
 11
9.7997593168
 21
3.4958152174
  0
ARC
  5
2A3
100
AcDbEntity
  8
0
100
AcDbCircle
 62
7
  6
CONTINUOUS
 10
1.9348646788
 20
3.4727962928
 40
0.3204074804
100
AcDbArc
 50
40.9935544693
 51
42.1646347521
  0
ARC
  5
2A4
100
AcDbEntity
  8
0
100
AcDbCircle
 62
7
  6
CONTINUOUS
 10
1.9483500976
 20
3.484527904
 40
0.3025332772
100
AcDbArc
 50
40.4485985574
 51
40.9918993363
  0
ARC
  5
2A5
100
AcDbEntity
  8
0
100
AcDbCircle
 62
7
  6
CONTINUOUS
 10
2.118070411
 20
4.2649056971
 40
0.1017094968
100
AcDbArc
 50
6.831046091
 51
8.562747072
  0
ARC
  5
2A6
100
AcDbEntity
  8
0
100
AcDbCircle
 62
7
  6
CONTINUOUS
 10
2.1205600442
 20
3.5889370586
 40
0.0992033224
100
AcDbArc
 50
353.163998615
 51
357.511327498
  0
ARC
  5
2A7
100
AcDbEntity
  8
0
100
AcDbCircle
 62
7
  6
CONTINUOUS
 10
2.1223050762
 20
4.2653318064
 40
0.0974542437
100
AcDbArc
 50
0.0144537746
 51
6.878430001
  0
ARC
  5
2A8
100
AcDbEntity
  8
0
100
AcDbCircle
 62
7
  6
CONTINUOUS
 10
2.1234922153
 20
3.5887800015
 40
0.0962671016
100
AcDbArc
 50
357.5289378631
 51
359.9964542614
  0
ARC
  5
2A9
100
AcDbEntity
  8
0
100
AcDbCircle
 62
7
  6
CONTINUOUS
 10
2.9622401437
 20
4.9988226503
 40
0.8319926965
100
AcDbArc
 50
88.4981105401
 51
88.9074826699
  0
ARC
  5
2AA
100
AcDbEntity
  8
0
100
AcDbCircle
 62
7
  6
CONTINUOUS
 10
2.9622562251
 20
4.9997977602
 40
0.8310174572
100
AcDbArc
 50
88.9073093491
 51
89.9995314263
  0
ARC
  5
2AB
100
AcDbEntity
  8
0
100
AcDbCircle
 62
7
  6
CONTINUOUS
 10
2.9618155691
 20
5.0056741126
 40
0.8251315192
100
AcDbArc
 50
91.4791870666
 51
103.0637423042
  0
ARC
  5
2AC
100
AcDbEntity
  8
0
100
AcDbCircle
 62
7
  6
CONTINUOUS
 10
2.9540082884
 20
5.0369092972
 40
0.792911317
100
AcDbArc
 50
107.5037141178
 51
109.8009956052
  0
ARC
  5
2AD
100
AcDbEntity
  8
0
100
AcDbCircle
 62
7
  6
CONTINUOUS
 10
2.9505431828
 20
5.0466950896
 40
0.7825302933
100
AcDbArc
 50
109.8050041892
 51
111.2620302541
  0
ARC
  5
2AE
100
AcDbEntity
  8
0
100
AcDbCircle
 62
7
  6
CONTINUOUS
 10
2.9466475354
 20
5.0566724965
 40
0.771819338
100
AcDbArc
 50
111.261114697
 51
114.1732543345
  0
ARC
  5
2AF
100
AcDbEntity
  8
0
100
AcDbCircle
 62
7
  6
CONTINUOUS
 10
2.9383455616
 20
5.0752341066
 40
0.7514857355
100
AcDbArc
 50
114.1753085168
 51
118.5231298142
  0
ARC
  5
2B0
100
AcDbEntity
  8
0
100
AcDbCircle
 62
9
  6
CONTINUOUS
 10
2.9622552357
 20
5.1334341725
 40
0.6973810449
100
AcDbArc
 50
88.5084597779
 51
89.9994571452
  0
ARC
  5
2B1
100
AcDbEntity
  8
0
100
AcDbCircle
 62
7
  6
CONTINUOUS
 10
2.7432463448
 20
5.452301599
 40
0.3472577443
100
AcDbArc
 50
78.6485583399
 51
81.4322518239
  0
ARC
  5
2B2
100
AcDbEntity
  8
0
100
AcDbCircle
 62
7
  6
CONTINUOUS
 10
2.7438049183
 20
5.4557451472
 40
0.3437694783
100
AcDbArc
 50
78.6269366032
 51
81.4387563338
  0
ARC
  5
2B3
100
AcDbEntity
  8
0
100
AcDbCircle
 62
7
  6
CONTINUOUS
 10
2.9583552406
 20
4.9772298302
 40
0.2334033664
100
AcDbArc
 50
73.6807296251
 51
78.9665899892
  0
ARC
  5
2B4
100
AcDbEntity
  8
0
100
AcDbCircle
 62
7
  6
CONTINUOUS
 10
2.9584936918
 20
4.9778035768
 40
0.232813729
100
AcDbArc
 50
73.6737514931
 51
78.973010498
  0
ARC
  5
2B5
100
AcDbEntity
  8
0
100
AcDbCircle
 62
7
  6
CONTINUOUS
 10
2.9613218045
 20
4.9913159274
 40
0.2190100015
100
AcDbArc
 50
79.0230754901
 51
84.4986142754
  0
ARC
  5
2B6
100
AcDbEntity
  8
0
100
AcDbCircle
 62
7
  6
CONTINUOUS
 10
2.9614160547
 20
4.9919668418
 40
0.2183530514
100
AcDbArc
 50
79.0148319525
 51
84.506857039
  0
ARC
  5
2B7
100
AcDbEntity
  8
0
100
AcDbCircle
 62
7
  6
CONTINUOUS
 10
2.9622089098
 20
4.9989587334
 40
0.2113174056
100
AcDbArc
 50
84.5393672903
 51
89.98633284
  0
ARC
  5
2B8
100
AcDbEntity
  8
0
100
AcDbCircle
 62
7
  6
CONTINUOUS
 10
2.9620699365
 20
5.0039498252
 40
0.2063263976
100
AcDbArc
 50
89.9474071264
 51
95.5536567989
  0
ARC
  5
2B9
100
AcDbEntity
  8
0
100
AcDbCircle
 62
7
  6
CONTINUOUS
 10
2.9571226267
 20
5.9611461674
 40
0.8035524545
100
AcDbArc
 50
253.3455200209
 51
254.9865661872
  0
ARC
  5
2BA
100
AcDbEntity
  8
0
100
AcDbCircle
 62
7
  6
CONTINUOUS
 10
2.9549018068
 20
5.953816319
 40
0.7958936043
100
AcDbArc
 50
251.6440520708
 51
253.3474584718
  0
ARC
  5
2BB
100
AcDbEntity
  8
0
100
AcDbCircle
 62
7
  6
CONTINUOUS
 10
2.9489249512
 20
5.9366559152
 40
0.7777241676
100
AcDbArc
 50
246.5507560095
 51
251.6638401044
  0
ARC
  5
2BC
100
AcDbEntity
  8
0
100
AcDbCircle
 62
7
  6
CONTINUOUS
 10
2.9370779814
 20
5.909998613
 40
0.7485541167
100
AcDbArc
 50
241.4653435237
 51
246.5707066128
  0
ARC
  5
2BD
100
AcDbEntity
  8
0
100
AcDbCircle
 62
7
  6
CONTINUOUS
 10
2.1269894315
 20
5.4939402174
 40
0.275
100
AcDbArc
 50
61.4532700444
 51
298.5467299556
  0
ARC
  5
2BE
100
AcDbEntity
  8
0
100
AcDbCircle
 62
7
  6
CONTINUOUS
 10
2.9622784585
 20
4.9988213431
 40
0.8319940032
100
AcDbArc
 50
91.0905109973
 51
91.4988715487
  0
ARC
  5
2BF
100
AcDbEntity
  8
0
100
AcDbCircle
 62
7
  6
CONTINUOUS
 10
2.9622623997
 20
4.9997969653
 40
0.8310182521
100
AcDbArc
 50
90.0002125575
 51
91.0906841888
  0
ARC
  5
2C0
100
AcDbEntity
  8
0
100
AcDbCircle
 62
7
  6
CONTINUOUS
 10
2.9627033944
 20
5.0056760651
 40
0.825129543
100
AcDbArc
 50
76.9362513764
 51
88.5177938735
  0
ARC
  5
2C1
100
AcDbEntity
  8
0
100
AcDbCircle
 62
7
  6
CONTINUOUS
 10
2.9698752769
 20
5.0349257346
 40
0.7949940376
100
AcDbArc
 50
71.6367538815
 51
72.4932680641
  0
ARC
  5
2C2
100
AcDbEntity
  8
0
100
AcDbCircle
 62
7
  6
CONTINUOUS
 10
2.9718118437
 20
5.0406834439
 40
0.7889194244
100
AcDbArc
 50
70.1800984415
 51
71.6385000268
  0
ARC
  5
2C3
100
AcDbEntity
  8
0
100
AcDbCircle
 62
7
  6
CONTINUOUS
 10
2.9743961436
 20
5.0478180591
 40
0.7813311973
100
AcDbArc
 50
68.7232298869
 51
70.1809870359
  0
ARC
  5
2C4
100
AcDbEntity
  8
0
100
AcDbCircle
 62
7
  6
CONTINUOUS
 10
2.9789804212
 20
5.0593206718
 40
0.7689491143
100
AcDbArc
 50
65.8155570931
 51
68.7305181235
  0
ARC
  5
2C5
100
AcDbEntity
  8
0
100
AcDbCircle
 62
7
  6
CONTINUOUS
 10
2.9884431121
 20
5.0798164805
 40
0.7463756002
100
AcDbArc
 50
61.4620059086
 51
65.8336380879
  0
ARC
  5
2C6
100
AcDbEntity
  8
0
100
AcDbCircle
 62
9
  6
CONTINUOUS
 10
2.9631870054
 20
5.1440698891
 40
0.6867191122
100
AcDbArc
 50
75.9746815913
 51
88.5630763788
  0
ARC
  5
2C7
100
AcDbEntity
  8
0
100
AcDbCircle
 62
7
  6
CONTINUOUS
 10
2.9661811249
 20
4.9773562939
 40
0.2332869447
100
AcDbArc
 50
102.749681064
 51
106.3322197859
  0
ARC
  5
2C8
100
AcDbEntity
  8
0
100
AcDbCircle
 62
7
  6
CONTINUOUS
 10
2.9657336496
 20
4.9791505072
 40
0.2314394713
100
AcDbArc
 50
102.7398001082
 51
106.3508129477
  0
ARC
  5
2C9
100
AcDbEntity
  8
0
100
AcDbCircle
 62
7
  6
CONTINUOUS
 10
2.9642042627
 20
4.985892614
 40
0.2245260784
100
AcDbArc
 50
100.9892256903
 51
102.7385392675
  0
ARC
  5
2CA
100
AcDbEntity
  8
0
100
AcDbCircle
 62
7
  6
CONTINUOUS
 10
2.9636576986
 20
4.9886890671
 40
0.2216767152
100
AcDbArc
 50
99.861877565
 51
100.9883289244
  0
ARC
  5
2CB
100
AcDbEntity
  8
0
100
AcDbCircle
 62
7
  6
CONTINUOUS
 10
2.9636128733
 20
4.9891558782
 40
0.221209929
100
AcDbArc
 50
99.8711373501
 51
100.9999769036
  0
ARC
  5
2CC
100
AcDbEntity
  8
0
100
AcDbCircle
 62
7
  6
CONTINUOUS
 10
2.9634855642
 20
4.9896779807
 40
0.2206729322
100
AcDbArc
 50
99.178035152
 51
99.8618214654
  0
ARC
  5
2CD
100
AcDbEntity
  8
0
100
AcDbCircle
 62
7
  6
CONTINUOUS
 10
2.9633861865
 20
4.9904567721
 40
0.2198894322
100
AcDbArc
 50
99.1848139783
 51
99.8710552921
  0
ARC
  5
2CE
100
AcDbEntity
  8
0
100
AcDbCircle
 62
7
  6
CONTINUOUS
 10
2.9632637551
 20
4.9910710842
 40
0.2192622848
100
AcDbArc
 50
98.0328824674
 51
99.1788803694
  0
ARC
  5
2CF
100
AcDbEntity
  8
0
100
AcDbCircle
 62
7
  6
CONTINUOUS
 10
2.9631029753
 20
4.9922339322
 40
0.2180898519
100
AcDbArc
 50
98.032801857
 51
99.1858883398
  0
ARC
  5
2D0
100
AcDbEntity
  8
0
100
AcDbCircle
 62
7
  6
CONTINUOUS
 10
2.9630868755
 20
4.9923222335
 40
0.2179986943
100
AcDbArc
 50
97.3353700213
 51
98.032801857
  0
ARC
  5
2D1
100
AcDbEntity
  8
0
100
AcDbCircle
 62
7
  6
CONTINUOUS
 10
2.9629090724
 20
4.9937138949
 40
0.2165957212
100
AcDbArc
 50
96.3297073639
 51
97.3357231791
  0
ARC
  5
2D2
100
AcDbEntity
  8
0
100
AcDbCircle
 62
7
  6
CONTINUOUS
 10
2.9628822298
 20
4.9937950625
 40
0.216513192
100
AcDbArc
 50
97.3357231791
 51
98.0335871992
  0
ARC
  5
2D3
100
AcDbEntity
  8
0
100
AcDbCircle
 62
7
  6
CONTINUOUS
 10
2.9627316272
 20
4.9953066487
 40
0.2149931137
100
AcDbArc
 50
95.506250707
 51
96.3295040541
  0
ARC
  5
2D4
100
AcDbEntity
  8
0
100
AcDbCircle
 62
7
  6
CONTINUOUS
 10
2.9626645027
 20
4.9955001017
 40
0.2147943083
100
AcDbArc
 50
96.3295040541
 51
97.3317725167
  0
ARC
  5
2D5
100
AcDbEntity
  8
0
100
AcDbCircle
 62
7
  6
CONTINUOUS
 10
2.9624508539
 20
4.997421329
 40
0.2128612384
100
AcDbArc
 50
95.4856408775
 51
96.3171177015
  0
ARC
  5
2D6
100
AcDbEntity
  8
0
100
AcDbCircle
 62
7
  6
CONTINUOUS
 10
2.9622813896
 20
4.9995532852
 40
0.2107228489
100
AcDbArc
 50
90.0060016285
 51
95.4951897479
  0
ARC
  5
2D7
100
AcDbEntity
  8
0
100
AcDbCircle
 62
7
  6
CONTINUOUS
 10
2.962347338
 20
5.0018547458
 40
0.2084214086
100
AcDbArc
 50
84.5014883999
 51
90.0241944232
  0
ARC
  5
2D8
100
AcDbEntity
  8
0
100
AcDbCircle
 62
7
  6
CONTINUOUS
 10
2.9671320658
 20
5.9620755435
 40
0.8045184919
100
AcDbArc
 50
285.014416123
 51
286.634762229
  0
ARC
  5
2D9
100
AcDbEntity
  8
0
100
AcDbCircle
 62
7
  6
CONTINUOUS
 10
2.969120318
 20
5.9553933744
 40
0.7975468013
100
AcDbArc
 50
286.6353269516
 51
288.3316535532
  0
ARC
  5
2DA
100
AcDbEntity
  8
0
100
AcDbCircle
 62
7
  6
CONTINUOUS
 10
2.9740073495
 20
5.9408119139
 40
0.7821682704
100
AcDbArc
 50
288.3277779413
 51
293.4241934826
  0
ARC
  5
2DB
100
AcDbEntity
  8
0
100
AcDbCircle
 62
7
  6
CONTINUOUS
 10
2.9848374974
 20
5.9153397623
 40
0.7544900157
100
AcDbArc
 50
293.4385066231
 51
298.5145727168
  0
ARC
  5
2DC
100
AcDbEntity
  8
0
100
AcDbCircle
 62
7
  6
CONTINUOUS
 10
3.797529202
 20
5.4939402174
 40
0.275
100
AcDbArc
 50
241.4532700444
 51
118.5467299556
  0
ARC
  5
2DD
100
AcDbEntity
  8
0
100
AcDbCircle
 62
7
  6
CONTINUOUS
 10
2.9622596417
 20
5.959003401
 40
0.2018194112
100
AcDbArc
 50
263.1987117347
 51
276.7285377898
  0
ARC
  5
2DE
100
AcDbEntity
  8
0
100
AcDbCircle
 62
7
  6
CONTINUOUS
 10
22.4215069843
 20
4.5641357597
 40
20.2091929593
100
AcDbArc
 50
181.5547775204
 51
181.7942583664
  0
LINE
  5
2DF
100
AcDbEntity
  8
0
100
AcDbLine
 62
7
  6
CONTINUOUS
 10
2.2262253523
 20
4.278545515
 11
2.2264666967
 21
4.2782384099
  0
SPLINE
  5
2E0
100
AcDbEntity
  8
0
100
AcDbSpline
 62
7
  6
CONTINUOUS
 70
0
 71
3
 72
22
 73
18
 74
0
 42
0.0000001
 43
0.0000001
 44
0.0000000001
 40
0.0
 40
0.0
 40
0.0
 40
0.0
 40
0.2107866603
 40
0.3988729635
 40
0.5632729217
 40
0.6363136412
 40
0.7031013158
 40
0.7635243786
 40
0.8174693433
 40
0.8648249912
 40
0.9054843441
 40
0.9393482382
 40
0.9663368448
 40
0.9772568963
 40
0.9864833888
 40
0.9940467637
 40
1.0
 40
1.0
 40
1.0
 40
1.0
 10
2.6188012448
 20
4.6989403899
 30
0.0
 10
2.6107684891
 20
4.6985638593
 30
0.0
 10
2.5955694865
 20
4.697819753
 30
0.0
 10
2.5741125373
 20
4.6966435135
 30
0.0
 10
2.5579099073
 20
4.6956307156
 30
0.0
 10
2.5463325256
 20
4.6948094994
 30
0.0
 10
2.5387156797
 20
4.6942187223
 30
0.0
 10
2.5318296717
 20
4.6936287593
 30
0.0
 10
2.525687891
 20
4.6930398481
 30
0.0
 10
2.520303862
 20
4.6924523488
 30
0.0
 10
2.5156906946
 20
4.6918673043
 30
0.0
 10
2.5118616506
 20
4.6912852167
 30
0.0
 10
2.5091698749
 20
4.690775926
 30
0.0
 10
2.5074214939
 20
4.6903540126
 30
0.0
 10
2.5064050928
 20
4.6900612876
 30
0.0
 10
2.5055873048
 20
4.6897700364
 30
0.0
 10
2.5051180159
 20
4.6895521379
 30
0.0
 10
2.5049214149
 20
4.6894384254
 30
0.0
  0
SPLINE
  5
2E1
100
AcDbEntity
  8
0
100
AcDbSpline
 62
7
  6
CONTINUOUS
 70
0
 71
3
 72
21
 73
17
 74
0
 42
0.0000001
 43
0.0000001
 44
0.0000000001
 40
0.0
 40
0.0
 40
0.0
 40
0.0
 40
0.1283573461
 40
0.1915367313
 40
0.2540930442
 40
0.3161013256
 40
0.3776635895
 40
0.4389114898
 40
0.4999999972
 40
0.5610885034
 40
0.6223364017
 40
0.6838986646
 40
0.7459069448
 40
0.8084632581
 40
0.8716426471
 40
1.0
 40
1.0
 40
1.0
 40
1.0
 10
3.5756939778
 20
4.9833372046
 30
0.0
 10
3.564329708
 20
4.9881626128
 30
0.0
 10
3.5471088331
 20
4.9947802299
 30
0.0
 10
3.5237655293
 20
5.0020437744
 30
0.0
 10
3.5062784955
 20
5.0065818429
 30
0.0
 10
3.4887332528
 20
5.0101842576
 30
0.0
 10
3.4711407361
 20
5.0128047843
 30
0.0
 10
3.4535127031
 20
5.0143888782
 30
0.0
 10
3.4358669605
 20
5.0149150715
 30
0.0
 10
3.4182212179
 20
5.0143888806
 30
0.0
 10
3.4005931858
 20
5.0128047821
 30
0.0
 10
3.3830006695
 20
5.0101842566
 30
0.0
 10
3.3654554263
 20
5.0065818444
 30
0.0
 10
3.3479683926
 20
5.0020437741
 30
0.0
 10
3.3246250881
 20
4.9947802288
 30
0.0
 10
3.3074042115
 20
4.988162613
 30
0.0
 10
3.2960399411
 20
4.9833372046
 30
0.0
  0
SPLINE
  5
2E2
100
AcDbEntity
  8
0
100
AcDbSpline
 62
7
  6
CONTINUOUS
 70
0
 71
3
 72
16
 73
12
 74
0
 42
0.0000001
 43
0.0000001
 44
0.0000000001
 40
0.0
 40
0.0
 40
0.0
 40
0.0
 40
0.0414928635
 40
0.0864896839
 40
0.1867275723
 40
0.2999956745
 40
0.425002408
 40
0.5598828694
 40
0.7025611205
 40
0.8503149695
 40
1.0
 40
1.0
 40
1.0
 40
1.0
 10
3.2960399411
 20
4.9833372046
 30
0.0
 10
3.295342501
 20
4.983041063
 30
0.0
 10
3.2938617809
 20
4.9824862089
 30
0.0
 10
3.2905912823
 20
4.9815142226
 30
0.0
 10
3.2859525269
 20
4.9805866028
 30
0.0
 10
3.2797989664
 20
4.9799344555
 30
0.0
 10
3.2729822678
 20
4.9797298932
 30
0.0
 10
3.2656307027
 20
4.9799689984
 30
0.0
 10
3.2578907191
 20
4.9806560997
 30
0.0
 10
3.2499278726
 20
4.9817671259
 30
0.0
 10
3.2445871834
 20
4.9827695341
 30
0.0
 10
3.2419133534
 20
4.9833372046
 30
0.0
  0
SPLINE
  5
2E3
100
AcDbEntity
  8
0
100
AcDbSpline
 62
7
  6
CONTINUOUS
 70
0
 71
3
 72
21
 73
17
 74
0
 42
0.0000001
 43
0.0000001
 44
0.0000000001
 40
0.0
 40
0.0
 40
0.0
 40
0.0
 40
0.1249829184
 40
0.187483904
 40
0.2499875878
 40
0.3124911231
 40
0.3749920801
 40
0.4374943675
 40
0.4999999968
 40
0.562505625
 40
0.6250079099
 40
0.6875088659
 40
0.7500124009
 40
0.8125160845
 40
0.8750170736
 40
1.0
 40
1.0
 40
1.0
 40
1.0
 10
3.2419133534
 20
4.9833372046
 30
0.0
 10
3.2189350047
 20
4.9882156488
 30
0.0
 10
3.1843128965
 20
4.9948509924
 30
0.0
 10
3.1378818068
 20
5.0020686255
 30
0.0
 10
3.1029279443
 20
5.0065996624
 30
0.0
 10
3.0678654011
 20
5.0101952855
 30
0.0
 10
3.032715813
 20
5.0128099696
 30
0.0
 10
2.9975037677
 20
5.0143899742
 30
0.0
 10
2.9622593189
 20
5.0149147568
 30
0.0
 10
2.9270148704
 20
5.0143899766
 30
0.0
 10
2.8918028261
 20
5.0128099674
 30
0.0
 10
2.8566532387
 20
5.0101952845
 30
0.0
 10
2.8215906956
 20
5.0065996639
 30
0.0
 10
2.7866368327
 20
5.0020686252
 30
0.0
 10
2.740205741
 20
4.9948509912
 30
0.0
 10
2.7055836303
 20
4.9882156491
 30
0.0
 10
2.6826052801
 20
4.9833372046
 30
0.0
  0
SPLINE
  5
2E4
100
AcDbEntity
  8
0
100
AcDbSpline
 62
7
  6
CONTINUOUS
 70
0
 71
3
 72
16
 73
12
 74
0
 42
0.0000001
 43
0.0000001
 44
0.0000000001
 40
0.0
 40
0.0
 40
0.0
 40
0.0
 40
0.1496857223
 40
0.2974411564
 40
0.4401210749
 40
0.5750017064
 40
0.700007665
 40
0.8132746582
 40
0.9135110686
 40
0.9585073483
 40
1.0
 40
1.0
 40
1.0
 40
1.0
 10
2.6826052801
 20
4.9833372046
 30
0.0
 10
2.6799314378
 20
4.9827695315
 30
0.0
 10
2.6745907085
 20
4.9817671119
 30
0.0
 10
2.6666277924
 20
4.9806560664
 30
0.0
 10
2.6588877472
 20
4.9799689463
 30
0.0
 10
2.6515361599
 20
4.9797298899
 30
0.0
 10
2.6447194957
 20
4.9799345092
 30
0.0
 10
2.6385659957
 20
4.9805866352
 30
0.0
 10
2.6339272951
 20
4.9815142388
 30
0.0
 10
2.6306568358
 20
4.9824862142
 30
0.0
 10
2.629176129
 20
4.9830410645
 30
0.0
 10
2.6284786924
 20
4.9833372046
 30
0.0
  0
SPLINE
  5
2E5
100
AcDbEntity
  8
0
100
AcDbSpline
 62
7
  6
CONTINUOUS
 70
0
 71
3
 72
21
 73
17
 74
0
 42
0.0000001
 43
0.0000001
 44
0.0000000001
 40
0.0
 40
0.0
 40
0.0
 40
0.0
 40
0.1283573461
 40
0.1915367313
 40
0.2540930442
 40
0.3161013256
 40
0.3776635895
 40
0.4389114898
 40
0.4999999972
 40
0.5610885034
 40
0.6223364017
 40
0.6838986646
 40
0.7459069448
 40
0.8084632581
 40
0.8716426471
 40
1.0
 40
1.0
 40
1.0
 40
1.0
 10
2.6284786924
 20
4.9833372046
 30
0.0
 10
2.6171144226
 20
4.9881626128
 30
0.0
 10
2.5998935477
 20
4.9947802299
 30
0.0
 10
2.5765502439
 20
5.0020437744
 30
0.0
 10
2.5590632101
 20
5.0065818429
 30
0.0
 10
2.5415179674
 20
5.0101842576
 30
0.0
 10
2.5239254507
 20
5.0128047843
 30
0.0
 10
2.5062974177
 20
5.0143888782
 30
0.0
 10
2.4886516752
 20
5.0149150715
 30
0.0
 10
2.4710059326
 20
5.0143888806
 30
0.0
 10
2.4533779004
 20
5.0128047821
 30
0.0
 10
2.4357853841
 20
5.0101842566
 30
0.0
 10
2.4182401409
 20
5.0065818444
 30
0.0
 10
2.4007531073
 20
5.0020437741
 30
0.0
 10
2.3774098027
 20
4.9947802288
 30
0.0
 10
2.3601889261
 20
4.988162613
 30
0.0
 10
2.3488246558
 20
4.9833372046
 30
0.0
  0
SPLINE
  5
2E6
100
AcDbEntity
  8
0
100
AcDbSpline
 62
7
  6
CONTINUOUS
 70
0
 71
3
 72
51
 73
47
 74
0
 42
0.0000001
 43
0.0000001
 44
0.0000000001
 40
0.0
 40
0.0
 40
0.0
 40
0.0
 40
0.0008709148
 40
0.0019973168
 40
0.0033876842
 40
0.0050467587
 40
0.0091791368
 40
0.0144004693
 40
0.0207093878
 40
0.0281022779
 40
0.0365744397
 40
0.0461200579
 40
0.0567171227
 40
0.0683251523
 40
0.0944072874
 40
0.124032887
 40
0.1569075932
 40
0.192794431
 40
0.2314573394
 40
0.2725817408
 40
0.3157731756
 40
0.3606323927
 40
0.4067444007
 40
0.5010213746
 40
0.5952335996
 40
0.6412764826
 40
0.6860411969
 40
0.7290939978
 40
0.7700448914
 40
0.8086018562
 40
0.8444852357
 40
0.8773774792
 40
0.9069136641
 40
0.9327347698
 40
0.9441706244
 40
0.9545959082
 40
0.9639906815
 40
0.9723352357
 40
0.9796112277
 40
0.9858127676
 40
0.9909428561
 40
0.9950068716
 40
0.9966423541
 40
0.9980163442
 40
0.9991329684
 40
1.0
 40
1.0
 40
1.0
 40
1.0
 10
2.3107306288
 20
4.240649822
 30
0.0
 10
2.3108218462
 20
4.2404918607
 30
0.0
 10
2.3109953065
 20
4.2401094168
 30
0.0
 10
2.3112255631
 20
4.2394379515
 30
0.0
 10
2.3114572882
 20
4.238594089
 30
0.0
 10
2.3117925313
 20
4.2371274661
 30
0.0
 10
2.3121968177
 20
4.2348554942
 30
0.0
 10
2.312659205
 20
4.2316075689
 30
0.0
 10
2.3131240123
 20
4.2276712705
 30
0.0
 10
2.3135909058
 20
4.2230504769
 30
0.0
 10
2.3140588713
 20
4.2177488825
 30
0.0
 10
2.3145271072
 20
4.2117739454
 30
0.0
 10
2.3149954542
 20
4.2051404357
 30
0.0
 10
2.3156460189
 20
4.1950479029
 30
0.0
 10
2.316446325
 20
4.180971624
 30
0.0
 10
2.3173771427
 20
4.1624419216
 30
0.0
 10
2.3183105448
 20
4.1418564904
 30
0.0
 10
2.3192459132
 20
4.1193765854
 30
0.0
 10
2.3201827248
 20
4.0951675171
 30
0.0
 10
2.3211207595
 20
4.0694275289
 30
0.0
 10
2.322059641
 20
4.0423889815
 30
0.0
 10
2.3229977351
 20
4.0143051858
 30
0.0
 10
2.3242565043
 20
3.9755266358
 30
0.0
 10
2.3258078111
 20
3.9264155072
 30
0.0
 10
2.3273609549
 20
3.8773189202
 30
0.0
 10
2.3286225053
 20
3.8385883177
 30
0.0
 10
2.3295614104
 20
3.8105678915
 30
0.0
 10
2.3304994147
 20
3.7836145341
 30
0.0
 10
2.331436483
 20
3.7579621341
 30
0.0
 10
2.3323721068
 20
3.7338123192
 30
0.0
 10
2.3333060244
 20
3.7113516125
 30
0.0
 10
2.3342378539
 20
3.6907819034
 30
0.0
 10
2.3351676017
 20
3.6723219501
 30
0.0
 10
2.3359703952
 20
3.6583554274
 30
0.0
 10
2.3366234427
 20
3.6483900294
 30
0.0
 10
2.3370926886
 20
3.6418604779
 30
0.0
 10
2.3375611726
 20
3.6359801545
 30
0.0
 10
2.338028469
 20
3.6307616316
 30
0.0
 10
2.3384945576
 20
3.6262148322
 30
0.0
 10
2.3389585802
 20
3.6223449863
 30
0.0
 10
2.3394201827
 20
3.6191534274
 30
0.0
 10
2.3398239578
 20
3.6169203472
 30
0.0
 10
2.3401585572
 20
3.6154768585
 30
0.0
 10
2.3403901163
 20
3.6146437709
 30
0.0
 10
2.3406203391
 20
3.613978941
 30
0.0
 10
2.3407935541
 20
3.6135995826
 30
0.0
 10
2.340884518
 20
3.6134424142
 30
0.0
  0
SPLINE
  5
2E7
100
AcDbEntity
  8
0
100
AcDbSpline
 62
7
  6
CONTINUOUS
 70
0
 71
3
 72
58
 73
54
 74
0
 42
0.0000001
 43
0.0000001
 44
0.0000000001
 40
0.0
 40
0.0
 40
0.0
 40
0.0
 40
0.000837752
 40
0.0019461113
 40
0.0033320543
 40
0.0049985971
 40
0.0069470448
 40
0.0091778523
 40
0.0144860929
 40
0.0209200147
 40
0.0284660432
 40
0.0371040857
 40
0.046813446
 40
0.057573145
 40
0.0693620083
 40
0.0959191206
 40
0.1262242328
 40
0.1600030555
 40
0.1969465228
 40
0.2367003422
 40
0.2789038525
 40
0.323161947
 40
0.3690584253
 40
0.4161720236
 40
0.5122787688
 40
0.5603777876
 40
0.6079111531
 40
0.6544326796
 40
0.6995118128
 40
0.7427315996
 40
0.7836814721
 40
0.8219888274
 40
0.8572962542
 40
0.8892666089
 40
0.9176173011
 40
0.9420766936
 40
0.9527730162
 40
0.9624176759
 40
0.9709896269
 40
0.9784680779
 40
0.9848328664
 40
0.9875931338
 40
0.9900712079
 40
0.9922668734
 40
0.9941802315
 40
0.9958119218
 40
0.9971635723
 40
0.9982388289
 40
0.9990460915
 40
0.9993556885
 40
0.9996093313
 40
0.9998177517
 40
1.0
 40
1.0
 40
1.0
 40
1.0
 10
2.28920863
 20
4.2781646839
 30
0.0
 10
2.2893039135
 20
4.2779927429
 30
0.0
 10
2.2894823173
 20
4.2775702374
 30
0.0
 10
2.2897165433
 20
4.2768240449
 30
0.0
 10
2.2899519174
 20
4.2758759275
 30
0.0
 10
2.2901881137
 20
4.2747263206
 30
0.0
 10
2.2904248218
 20
4.2733750226
 30
0.0
 10
2.2907606737
 20
4.2711741486
 30
0.0
 10
2.2911702831
 20
4.2679206098
 30
0.0
 10
2.2916417053
 20
4.2634191134
 30
0.0
 10
2.2921157598
 20
4.2581328832
 30
0.0
 10
2.2925919651
 20
4.2520756285
 30
0.0
 10
2.2930694802
 20
4.2452623319
 30
0.0
 10
2.2935478641
 20
4.2377081388
 30
0.0
 10
2.2942127186
 20
4.2262047065
 30
0.0
 10
2.295030251
 20
4.210116398
 30
0.0
 10
2.2959798001
 20
4.1888687217
 30
0.0
 10
2.296931145
 20
4.1651818055
 30
0.0
 10
2.2978840904
 20
4.1392762162
 30
0.0
 10
2.2988384744
 20
4.1113926031
 30
0.0
 10
2.29979331
 20
4.0817916994
 30
0.0
 10
2.3007485911
 20
4.0507487334
 30
0.0
 10
2.3017043673
 20
4.0185531144
 30
0.0
 10
2.3029873564
 20
3.9741956451
 30
0.0
 10
2.3042542249
 20
3.9293206818
 30
0.0
 10
2.3055287764
 20
3.8843474007
 30
0.0
 10
2.3064847686
 20
3.8510048708
 30
0.0
 10
2.3074405619
 20
3.818371243
 30
0.0
 10
2.3083960583
 20
3.7867502268
 30
0.0
 10
2.3093510598
 20
3.7564371936
 30
0.0
 10
2.3103060354
 20
3.7277139734
 30
0.0
 10
2.3112599335
 20
3.7008484254
 30
0.0
 10
2.312211689
 20
3.6760912539
 30
0.0
 10
2.3131610811
 20
3.6536721674
 30
0.0
 10
2.3141085131
 20
3.6338010157
 30
0.0
 10
2.3149298894
 20
3.6189217195
 30
0.0
 10
2.3156004512
 20
3.6084307123
 30
0.0
 10
2.3160792844
 20
3.6016631878
 30
0.0
 10
2.3165554983
 20
3.5956526119
 30
0.0
 10
2.3170280553
 20
3.5904140788
 30
0.0
 10
2.3174339234
 20
3.5865390424
 30
0.0
 10
2.3177625872
 20
3.5838362298
 30
0.0
 10
2.317996745
 20
3.5821075662
 30
0.0
 10
2.31823071
 20
3.5805796321
 30
0.0
 10
2.3184647707
 20
3.5792528905
 30
0.0
 10
2.3186991673
 20
3.5781278792
 30
0.0
 10
2.3189337027
 20
3.5772042089
 30
0.0
 10
2.3191687315
 20
3.5764823472
 30
0.0
 10
2.3193786957
 20
3.5760099181
 30
0.0
 10
2.3195571325
 20
3.5757413063
 30
0.0
 10
2.319680892
 20
3.5756076383
 30
0.0
 10
2.3198088441
 20
3.5755231213
 30
0.0
 10
2.3199011506
 20
3.5755027174
 30
0.0
 10
2.3199439149
 20
3.5755027174
 30
0.0
  0
SPLINE
  5
2E8
100
AcDbEntity
  8
0
100
AcDbSpline
 62
7
  6
CONTINUOUS
 70
0
 71
3
 72
51
 73
47
 74
0
 42
0.0000001
 43
0.0000001
 44
0.0000000001
 40
0.0
 40
0.0
 40
0.0
 40
0.0
 40
0.0008694832
 40
0.0019917647
 40
0.0033735477
 40
0.0050177969
 40
0.0090975253
 40
0.0142333314
 40
0.0204252919
 40
0.0276734629
 40
0.0359768649
 40
0.0453339388
 40
0.0557427816
 40
0.0671935548
 40
0.0930651042
 40
0.1226058264
 40
0.1554684881
 40
0.1913361097
 40
0.2299107365
 40
0.2708887106
 40
0.3139231976
 40
0.3586479389
 40
0.4046847886
 40
0.4989396301
 40
0.593179054
 40
0.6392829422
 40
0.6841680334
 40
0.727388597
 40
0.7684960166
 40
0.8071209733
 40
0.843007155
 40
0.8759056085
 40
0.9055362555
 40
0.9315891488
 40
0.9431769953
 40
0.9537591405
 40
0.9633132806
 40
0.9718189049
 40
0.9792558585
 40
0.9856046013
 40
0.9908468996
 40
0.9949776245
 40
0.9966316366
 40
0.9980158309
 40
0.9991355655
 40
1.0
 40
1.0
 40
1.0
 40
1.0
 10
2.2481920422
 20
4.2407041758
 30
0.0
 10
2.2482831721
 20
4.2405465028
 30
0.0
 10
2.2484563857
 20
4.2401652223
 30
0.0
 10
2.2486864193
 20
4.2394967931
 30
0.0
 10
2.2489178637
 20
4.2386588109
 30
0.0
 10
2.2492521999
 20
4.2372082775
 30
0.0
 10
2.2496556949
 20
4.2349686627
 30
0.0
 10
2.2501175101
 20
4.2317745206
 30
0.0
 10
2.2505817629
 20
4.2279112529
 30
0.0
 10
2.2510481386
 20
4.2233808608
 30
0.0
 10
2.2515157437
 20
4.2181846091
 30
0.0
 10
2.2519842892
 20
4.2123240987
 30
0.0
 10
2.2524533963
 20
4.2058025354
 30
0.0
 10
2.2531055821
 20
4.195826453
 30
0.0
 10
2.2539074252
 20
4.1818447169
 30
0.0
 10
2.2548384703
 20
4.1633788459
 30
0.0
 10
2.2557711294
 20
4.1428169916
 30
0.0
 10
2.2567050217
 20
4.1203612818
 30
0.0
 10
2.2576402885
 20
4.0962045139
 30
0.0
 10
2.2585772066
 20
4.0705456529
 30
0.0
 10
2.2595155805
 20
4.0435978855
 30
0.0
 10
2.2604546837
 20
4.0155899438
 30
0.0
 10
2.2617157662
 20
3.9768586521
 30
0.0
 10
2.2632687854
 20
3.9277605096
 30
0.0
 10
2.2648205319
 20
3.8786482796
 30
0.0
 10
2.2660795445
 20
3.8398725002
 30
0.0
 10
2.2670177156
 20
3.8117778786
 30
0.0
 10
2.2679557258
 20
3.7847303663
 30
0.0
 10
2.2688933745
 20
3.7589948514
 30
0.0
 10
2.2698306274
 20
3.7347965864
 30
0.0
 10
2.2707661916
 20
3.7123190019
 30
0.0
 10
2.2716991677
 20
3.6917269165
 30
0.0
 10
2.2726293154
 20
3.6731966097
 30
0.0
 10
2.2734297031
 20
3.6591291377
 30
0.0
 10
2.2740805926
 20
3.6490497677
 30
0.0
 10
2.2745496844
 20
3.6424216544
 30
0.0
 10
2.2750183825
 20
3.6364408575
 30
0.0
 10
2.2754862947
 20
3.6311209806
 30
0.0
 10
2.2759529755
 20
3.6264753005
 30
0.0
 10
2.2764172499
 20
3.6225166851
 30
0.0
 10
2.2768789805
 20
3.6192560299
 30
0.0
 10
2.2772836456
 20
3.616980972
 30
0.0
 10
2.2776192099
 20
3.6155171313
 30
0.0
 10
2.2778509175
 20
3.6146771091
 30
0.0
 10
2.2780811822
 20
3.6140098938
 30
0.0
 10
2.2782547843
 20
3.6136304827
 30
0.0
 10
2.2783460858
 20
3.6134741323
 30
0.0
  0
SPLINE
  5
2E9
100
AcDbEntity
  8
0
100
AcDbSpline
 62
7
  6
CONTINUOUS
 70
0
 71
3
 72
14
 73
10
 74
0
 42
0.0000001
 43
0.0000001
 44
0.0000000001
 40
0.0
 40
0.0
 40
0.0
 40
0.0
 40
0.0524247785
 40
0.1251299846
 40
0.2186621094
 40
0.3331521205
 40
0.4685974237
 40
0.624944487
 40
1.0
 40
1.0
 40
1.0
 40
1.0
 10
2.2264666967
 20
4.2782384099
 30
0.0
 10
2.2265720356
 20
4.2780552082
 30
0.0
 10
2.2267664661
 20
4.2775866735
 30
0.0
 10
2.2270235845
 20
4.2767436674
 30
0.0
 10
2.2272888543
 20
4.2756428015
 30
0.0
 10
2.2275611164
 20
4.2742851918
 30
0.0
 10
2.2278388237
 20
4.2726709623
 30
0.0
 10
2.2282396296
 20
4.2700127978
 30
0.0
 10
2.2285056619
 20
4.2678868964
 30
0.0
 10
2.2286796745
 20
4.266385075
 30
0.0
  0
SPLINE
  5
2EA
100
AcDbEntity
  8
0
100
AcDbSpline
 62
7
  6
CONTINUOUS
 70
0
 71
3
 72
52
 73
48
 74
0
 42
0.0000001
 43
0.0000001
 44
0.0000000001
 40
0.0
 40
0.0
 40
0.0
 40
0.0
 40
0.0065022051
 40
0.0139790215
 40
0.0317952107
 40
0.0532989462
 40
0.0783295299
 40
0.1066857942
 40
0.1381370464
 40
0.1724397714
 40
0.2093090755
 40
0.2484500573
 40
0.2895487647
 40
0.3322684275
 40
0.37626886
 40
0.421193664
 40
0.4666792392
 40
0.5123601613
 40
0.5578675077
 40
0.6028325656
 40
0.6468943956
 40
0.6896975515
 40
0.7308925853
 40
0.7701526054
 40
0.8071567109
 40
0.8416062359
 40
0.8732306847
 40
0.9017678289
 40
0.9269957651
 40
0.9487093811
 40
0.9581887211
 40
0.9667270881
 40
0.9743095114
 40
0.9809214751
 40
0.9865492897
 40
0.9889908177
 40
0.9911834677
 40
0.9931271769
 40
0.9948221523
 40
0.9962690595
 40
0.9974694036
 40
0.9984263938
 40
0.9991472217
 40
0.9994245204
 40
0.9996520005
 40
0.9998385345
 40
1.0
 40
1.0
 40
1.0
 40
1.0
 10
2.2286796745
 20
4.266385075
 30
0.0
 10
2.22885229
 20
4.2648953109
 30
0.0
 10
2.2291928378
 20
4.2616889253
 30
0.0
 10
2.2298671339
 20
4.2543862816
 30
0.0
 10
2.2306764471
 20
4.2436223079
 30
0.0
 10
2.231572169
 20
4.2288065904
 30
0.0
 10
2.2324078071
 20
4.2115530189
 30
0.0
 10
2.2332089973
 20
4.1920014889
 30
0.0
 10
2.2340262477
 20
4.1703103781
 30
0.0
 10
2.2349006002
 20
4.1466565127
 30
0.0
 10
2.2358199388
 20
4.1212294709
 30
0.0
 10
2.2367777104
 20
4.0942353099
 30
0.0
 10
2.2377490067
 20
4.0658914092
 30
0.0
 10
2.2386892048
 20
4.0364249968
 30
0.0
 10
2.2395499352
 20
4.0060733037
 30
0.0
 10
2.2403627777
 20
3.9750821572
 30
0.0
 10
2.2411757987
 20
3.943703281
 30
0.0
 10
2.2420255314
 20
3.9121909592
 30
0.0
 10
2.2429159885
 20
3.8807998561
 30
0.0
 10
2.2438628792
 20
3.8497840149
 30
0.0
 10
2.2448393027
 20
3.8193931455
 30
0.0
 10
2.245793897
 20
3.789871579
 30
0.0
 10
2.2466808796
 20
3.7614559569
 30
0.0
 10
2.2475229232
 20
3.7343771379
 30
0.0
 10
2.2483424285
 20
3.708854217
 30
0.0
 10
2.2491657083
 20
3.6850935207
 30
0.0
 10
2.2500199933
 20
3.6632880883
 30
0.0
 10
2.2509431
 20
3.643614438
 30
0.0
 10
2.2519016482
 20
3.6262315431
 30
0.0
 10
2.2527162833
 20
3.6132434656
 30
0.0
 10
2.2533491011
 20
3.6041012902
 30
0.0
 10
2.2537938411
 20
3.5982133531
 30
0.0
 10
2.254234189
 20
3.592988474
 30
0.0
 10
2.2546743341
 20
3.5884375992
 30
0.0
 10
2.2550600198
 20
3.5850730603
 30
0.0
 10
2.2553791293
 20
3.5827276601
 30
0.0
 10
2.2556081433
 20
3.5812277729
 30
0.0
 10
2.2558376261
 20
3.5799023956
 30
0.0
 10
2.2560668203
 20
3.5787518313
 30
0.0
 10
2.2562949369
 20
3.5777764419
 30
0.0
 10
2.2565208481
 20
3.5769758153
 30
0.0
 10
2.2567438563
 20
3.5763502523
 30
0.0
 10
2.2569393499
 20
3.575941427
 30
0.0
 10
2.2571018243
 20
3.5757091911
 30
0.0
 10
2.2572130085
 20
3.5755936426
 30
0.0
 10
2.2573259535
 20
3.5755206629
 30
0.0
 10
2.2574066826
 20
3.5755027174
 30
0.0
 10
2.2574439246
 20
3.5755027174
 30
0.0
  0
SPLINE
  5
2EB
100
AcDbEntity
  8
0
100
AcDbSpline
 62
7
  6
CONTINUOUS
 70
0
 71
3
 72
60
 73
56
 74
0
 42
0.0000001
 43
0.0000001
 44
0.0000000001
 40
0.0
 40
0.0
 40
0.0
 40
0.0
 40
0.0007920023
 40
0.0018559076
 40
0.003198577
 40
0.0048228447
 40
0.0067298671
 40
0.0089199865
 40
0.014148725
 40
0.0205055264
 40
0.0279777651
 40
0.0365457846
 40
0.0461890874
 40
0.0568868035
 40
0.0686178279
 40
0.0950734969
 40
0.1252958949
 40
0.15900969
 40
0.1959065125
 40
0.2356312809
 40
0.2778223841
 40
0.3220844186
 40
0.3679996904
 40
0.415145683
 40
0.5113525219
 40
0.5595158628
 40
0.6071208148
 40
0.6537194267
 40
0.6988791119
 40
0.7421812752
 40
0.7832135003
 40
0.8216012731
 40
0.8569858555
 40
0.8890282964
 40
0.9174444394
 40
0.9302069565
 40
0.9419613606
 40
0.9526829615
 40
0.9623505907
 40
0.9709432935
 40
0.9784404442
 40
0.9848221562
 40
0.9875902406
 40
0.9900756107
 40
0.9922779516
 40
0.994197222
 40
0.9958338455
 40
0.9971890996
 40
0.9982660084
 40
0.9987022403
 40
0.9990723105
 40
0.9993791245
 40
0.9996279162
 40
0.9998286403
 40
1.0
 40
1.0
 40
1.0
 40
1.0
 10
2.3624334201
 20
3.5758965786
 30
0.0
 10
2.3623399249
 20
3.5760572097
 30
0.0
 10
2.362164341
 20
3.576458073
 30
0.0
 10
2.3619318008
 20
3.5771719258
 30
0.0
 10
2.3616951627
 20
3.5780883792
 30
0.0
 10
2.3614553803
 20
3.5792068901
 30
0.0
 10
2.361213447
 20
3.5805277359
 30
0.0
 10
2.3608683529
 20
3.5826889955
 30
0.0
 10
2.360446993
 20
3.5858947075
 30
0.0
 10
2.359966827
 20
3.5903413671
 30
0.0
 10
2.3594892562
 20
3.5955757384
 30
0.0
 10
2.3590128845
 20
3.6015841469
 30
0.0
 10
2.3585374474
 20
3.6083516297
 30
0.0
 10
2.3580620066
 20
3.6158629984
 30
0.0
 10
2.3574001994
 20
3.6273156533
 30
0.0
 10
2.3565823668
 20
3.6433485553
 30
0.0
 10
2.3556299339
 20
3.6645395239
 30
0.0
 10
2.3546758008
 20
3.6881828552
 30
0.0
 10
2.3537217604
 20
3.7140577421
 30
0.0
 10
2.3527667375
 20
3.7419232093
 30
0.0
 10
2.3518109908
 20
3.7715179954
 30
0.0
 10
2.350854438
 20
3.8025661996
 30
0.0
 10
2.3498972942
 20
3.8347776793
 30
0.0
 10
2.3486124514
 20
3.8791746872
 30
0.0
 10
2.3473440777
 20
3.9240999355
 30
0.0
 10
2.3460680775
 20
3.969132713
 30
0.0
 10
2.3451108579
 20
4.0025282754
 30
0.0
 10
2.3441537237
 20
4.0352186778
 30
0.0
 10
2.343196866
 20
4.0668989087
 30
0.0
 10
2.342240695
 20
4.0972722792
 30
0.0
 10
2.3412850318
 20
4.1260556774
 30
0.0
 10
2.340330281
 20
4.1529800022
 30
0.0
 10
2.3393767092
 20
4.1777933221
 30
0.0
 10
2.3384237899
 20
4.2002647316
 30
0.0
 10
2.3376060632
 20
4.2174282083
 30
0.0
 10
2.3369441572
 20
4.2298324091
 30
0.0
 10
2.3364663851
 20
4.2380880619
 30
0.0
 10
2.3359892313
 20
4.2456161573
 30
0.0
 10
2.3355124644
 20
4.2524006872
 30
0.0
 10
2.3350360017
 20
4.2584265019
 30
0.0
 10
2.3345597675
 20
4.2636784893
 30
0.0
 10
2.3341461113
 20
4.2675633551
 30
0.0
 10
2.3338084903
 20
4.2702729014
 30
0.0
 10
2.3335676417
 20
4.2720059681
 30
0.0
 10
2.3333273188
 20
4.2735377988
 30
0.0
 10
2.3330878196
 20
4.2748678223
 30
0.0
 10
2.3328497182
 20
4.2759957483
 30
0.0
 10
2.3326133202
 20
4.2769211011
 30
0.0
 10
2.3324069506
 20
4.2775627945
 30
0.0
 10
2.3322369255
 20
4.2779710171
 30
0.0
 10
2.3321189524
 20
4.2782044197
 30
0.0
 10
2.3320013441
 20
4.2783877106
 30
0.0
 10
2.3318832451
 20
4.2785215027
 30
0.0
 10
2.3317624077
 20
4.2786065536
 30
0.0
 10
2.3316745746
 20
4.2786277174
 30
0.0
 10
2.3316343616
 20
4.2786277174
 30
0.0
  0
SPLINE
  5
2EC
100
AcDbEntity
  8
0
100
AcDbSpline
 62
7
  6
CONTINUOUS
 70
0
 71
3
 72
58
 73
54
 74
0
 42
0.0000001
 43
0.0000001
 44
0.0000000001
 40
0.0
 40
0.0
 40
0.0
 40
0.0
 40
0.0008399789
 40
0.0019504874
 40
0.0033385162
 40
0.005007094
 40
0.0069575352
 40
0.0091903016
 40
0.0145023747
 40
0.0209400213
 40
0.0284896182
 40
0.0371310502
 40
0.0468436094
 40
0.0576063105
 40
0.0693979741
 40
0.0959599936
 40
0.1262691062
 40
0.1600510744
 40
0.1969967981
 40
0.2367520238
 40
0.2789561347
 40
0.323214039
 40
0.3691096091
 40
0.4162216416
 40
0.5123235491
 40
0.5604194592
 40
0.6079493646
 40
0.6544671653
 40
0.6995424051
 40
0.7427582103
 40
0.7837041028
 40
0.822007572
 40
0.8573112704
 40
0.8892781417
 40
0.9176256708
 40
0.9420822853
 40
0.9527773857
 40
0.9624209347
 40
0.9709918827
 40
0.9784694313
 40
0.9848334058
 40
0.9875932987
 40
0.9900710242
 40
0.9922663714
 40
0.9941794479
 40
0.9958109029
 40
0.9971623807
 40
0.998237556
 40
0.9990448863
 40
0.9993546114
 40
0.9996084783
 40
0.9998172534
 40
1.0
 40
1.0
 40
1.0
 40
1.0
 10
2.2998662736
 20
3.5759692448
 30
0.0
 10
2.2997708923
 20
3.5761417279
 30
0.0
 10
2.2995923444
 20
3.5765652804
 30
0.0
 10
2.2993580521
 20
3.5773130404
 30
0.0
 10
2.2991227743
 20
3.5782626916
 30
0.0
 10
2.298886801
 20
3.5794138035
 30
0.0
 10
2.2986504038
 20
3.5807665752
 30
0.0
 10
2.2983150843
 20
3.5829693671
 30
0.0
 10
2.2979061392
 20
3.5862252208
 30
0.0
 10
2.2974351881
 20
3.5907293673
 30
0.0
 10
2.2969613149
 20
3.596018104
 30
0.0
 10
2.2964851012
 20
3.6020777193
 30
0.0
 10
2.2960074548
 20
3.6088932301
 30
0.0
 10
2.2955288947
 20
3.6164494926
 30
0.0
 10
2.2948638626
 20
3.6279553777
 30
0.0
 10
2.2940463441
 20
3.6440463622
 30
0.0
 10
2.2930969528
 20
3.6652967762
 30
0.0
 10
2.2921457536
 20
3.6889857943
 30
0.0
 10
2.291192858
 20
3.7148928618
 30
0.0
 10
2.2902384987
 20
3.7427773451
 30
0.0
 10
2.2892837043
 20
3.7723785371
 30
0.0
 10
2.2883284847
 20
3.8034212417
 30
0.0
 10
2.2873727749
 20
3.8356160855
 30
0.0
 10
2.2860898742
 20
3.8799716317
 30
0.0
 10
2.2848230762
 20
3.9248441526
 30
0.0
 10
2.2835485932
 20
3.969814546
 30
0.0
 10
2.2825926592
 20
4.0031545037
 30
0.0
 10
2.2816369293
 20
4.0357853786
 30
0.0
 10
2.2806814969
 20
4.0674035243
 30
0.0
 10
2.2797265503
 20
4.0977136331
 30
0.0
 10
2.2787716079
 20
4.1264339375
 30
0.0
 10
2.27781775
 20
4.1532966378
 30
0.0
 10
2.276866083
 20
4.1780510898
 30
0.0
 10
2.2759168449
 20
4.2004676403
 30
0.0
 10
2.2749695126
 20
4.2203364893
 30
0.0
 10
2.2741480126
 20
4.2352140258
 30
0.0
 10
2.2734772609
 20
4.2457037696
 30
0.0
 10
2.2729983366
 20
4.2524704707
 30
0.0
 10
2.2725221359
 20
4.2584803088
 30
0.0
 10
2.2720497495
 20
4.263718191
 30
0.0
 10
2.2716442399
 20
4.2675927513
 30
0.0
 10
2.2713159866
 20
4.2702952372
 30
0.0
 10
2.2710821349
 20
4.2720236872
 30
0.0
 10
2.270848461
 20
4.2735514332
 30
0.0
 10
2.270614647
 20
4.2748780132
 30
0.0
 10
2.2703804243
 20
4.2760028903
 30
0.0
 10
2.2701459598
 20
4.276926458
 30
0.0
 10
2.2699108719
 20
4.2776482524
 30
0.0
 10
2.2697007133
 20
4.2781206362
 30
0.0
 10
2.2695220133
 20
4.2783891941
 30
0.0
 10
2.2693979961
 20
4.2785228553
 30
0.0
 10
2.2692697203
 20
4.278607346
 30
0.0
 10
2.2691772096
 20
4.2786277174
 30
0.0
 10
2.2691343286
 20
4.2786277174
 30
0.0
  0
SPLINE
  5
2ED
100
AcDbEntity
  8
0
100
AcDbSpline
 62
7
  6
CONTINUOUS
 70
0
 71
3
 72
21
 73
17
 74
0
 42
0.0000001
 43
0.0000001
 44
0.0000000001
 40
0.0
 40
0.0
 40
0.0
 40
0.0
 40
0.1283573447
 40
0.1915367292
 40
0.2540930421
 40
0.3161013237
 40
0.3776635878
 40
0.4389114882
 40
0.4999999957
 40
0.5610885018
 40
0.6223364
 40
0.6838986627
 40
0.7459069427
 40
0.808463256
 40
0.8716426457
 40
1.0
 40
1.0
 40
1.0
 40
1.0
 10
2.3488246558
 20
4.7659700621
 30
0.0
 10
2.3601889254
 20
4.7611446539
 30
0.0
 10
2.3774098004
 20
4.7545270376
 30
0.0
 10
2.4007531044
 20
4.7472634942
 30
0.0
 10
2.4182401381
 20
4.742725426
 30
0.0
 10
2.4357853808
 20
4.7391230107
 30
0.0
 10
2.4533778975
 20
4.7365024833
 30
0.0
 10
2.4710059304
 20
4.734918389
 30
0.0
 10
2.488651673
 20
4.7343921952
 30
0.0
 10
2.5062974156
 20
4.7349183854
 30
0.0
 10
2.5239254477
 20
4.7365024836
 30
0.0
 10
2.5415179641
 20
4.7391230084
 30
0.0
 10
2.5590632074
 20
4.7427254201
 30
0.0
 10
2.576550241
 20
4.7472634906
 30
0.0
 10
2.5998935455
 20
4.754527037
 30
0.0
 10
2.6171144219
 20
4.7611446536
 30
0.0
 10
2.6284786924
 20
4.7659700621
 30
0.0
  0
SPLINE
  5
2EE
100
AcDbEntity
  8
0
100
AcDbSpline
 62
7
  6
CONTINUOUS
 70
0
 71
3
 72
16
 73
12
 74
0
 42
0.0000001
 43
0.0000001
 44
0.0000000001
 40
0.0
 40
0.0
 40
0.0
 40
0.0
 40
0.041492817
 40
0.0864895285
 40
0.1867271638
 40
0.2999951268
 40
0.4250017722
 40
0.5598822482
 40
0.7025607352
 40
0.8503148399
 40
1.0
 40
1.0
 40
1.0
 40
1.0
 10
2.6284786924
 20
4.7659700621
 30
0.0
 10
2.6291761317
 20
4.7662662033
 30
0.0
 10
2.63065685
 20
4.7668210544
 30
0.0
 10
2.6339273441
 20
4.7677930292
 30
0.0
 10
2.6385660934
 20
4.7687206309
 30
0.0
 10
2.6447196441
 20
4.7693727765
 30
0.0
 10
2.651536337
 20
4.7695773752
 30
0.0
 10
2.6588879064
 20
4.7693383038
 30
0.0
 10
2.6666278992
 20
4.7686511991
 30
0.0
 10
2.6745907539
 20
4.7675401514
 30
0.0
 10
2.6799314479
 20
4.766537733
 30
0.0
 10
2.6826052801
 20
4.7659700621
 30
0.0
  0
SPLINE
  5
2EF
100
AcDbEntity
  8
0
100
AcDbSpline
 62
7
  6
CONTINUOUS
 70
0
 71
3
 72
31
 73
27
 74
0
 42
0.0000001
 43
0.0000001
 44
0.0000000001
 40
0.0
 40
0.0
 40
0.0
 40
0.0
 40
0.0016906649
 40
0.0039010943
 40
0.0066457102
 40
0.0099310616
 40
0.0137602
 40
0.0181344071
 40
0.0285183575
 40
0.0410771689
 40
0.0557837089
 40
0.0726021678
 40
0.0914955003
 40
0.1124259715
 40
0.1353546499
 40
0.1869886851
 40
0.2459085816
 40
0.3116059625
 40
0.3834837247
 40
0.4608865104
 40
0.5431386809
 40
0.6294884107
 40
0.7191641329
 40
0.8113663751
 40
0.9052584611
 40
1.0
 40
1.0
 40
1.0
 40
1.0
 10
2.2373260468
 20
3.5760012283
 30
0.0
 10
2.2372305256
 20
3.5761748514
 30
0.0
 10
2.2370519015
 20
3.5765978494
 30
0.0
 10
2.2368192414
 20
3.5773415494
 30
0.0
 10
2.2365883738
 20
3.5782799917
 30
0.0
 10
2.2363595148
 20
3.5794128798
 30
0.0
 10
2.2361328072
 20
3.5807404344
 30
0.0
 10
2.2358150296
 20
3.5828959055
 30
0.0
 10
2.2354340599
 20
3.5860755228
 30
0.0
 10
2.235003908
 20
3.5904675932
 30
0.0
 10
2.2345763121
 20
3.5956171321
 30
0.0
 10
2.2341476517
 20
3.6015112212
 30
0.0
 10
2.2337146016
 20
3.608136233
 30
0.0
 10
2.233273578
 20
3.6154783142
 30
0.0
 10
2.2326442479
 20
3.6266534946
 30
0.0
 10
2.2318356426
 20
3.6422783189
 30
0.0
 10
2.2308596445
 20
3.6629139187
 30
0.0
 10
2.2298514125
 20
3.6859233018
 30
0.0
 10
2.228843929
 20
3.7111010383
 30
0.0
 10
2.227882936
 20
3.7382223601
 30
0.0
 10
2.2270075611
 20
3.7670436454
 30
0.0
 10
2.2261612373
 20
3.7973048332
 30
0.0
 10
2.2252851292
 20
3.8287319098
 30
0.0
 10
2.2243484814
 20
3.8610416729
 30
0.0
 10
2.2233690035
 20
3.8939442021
 30
0.0
 10
2.2226916412
 20
3.9160437939
 30
0.0
 10
2.2223513253
 20
3.9271433449
 30
0.0
  0
LINE
  5
2F0
100
AcDbEntity
  8
0
100
AcDbLine
 62
7
  6
CONTINUOUS
 10
2.2223513253
 20
3.9271433449
 11
2.2222216473
 21
3.9313738162
  0
SPLINE
  5
2F1
100
AcDbEntity
  8
0
100
AcDbSpline
 62
7
  6
CONTINUOUS
 70
0
 71
3
 72
21
 73
17
 74
0
 42
0.0000001
 43
0.0000001
 44
0.0000000001
 40
0.0
 40
0.0
 40
0.0
 40
0.0
 40
0.1249829181
 40
0.1874839035
 40
0.2499875874
 40
0.3124911226
 40
0.3749920796
 40
0.4374943671
 40
0.4999999964
 40
0.5625056246
 40
0.6250079094
 40
0.6875088655
 40
0.7500124005
 40
0.8125160841
 40
0.8750170733
 40
1.0
 40
1.0
 40
1.0
 40
1.0
 10
2.6826052801
 20
4.7659700621
 30
0.0
 10
2.7055836288
 20
4.7610916178
 30
0.0
 10
2.7402057371
 20
4.7544562751
 30
0.0
 10
2.7866368269
 20
4.7472386431
 30
0.0
 10
2.8215906894
 20
4.7427076065
 30
0.0
 10
2.8566532325
 20
4.7391119828
 30
0.0
 10
2.8918028205
 20
4.736497298
 30
0.0
 10
2.9270148659
 20
4.734917293
 30
0.0
 10
2.9622593147
 20
4.7343925098
 30
0.0
 10
2.9975037631
 20
4.7349172895
 30
0.0
 10
3.0327158074
 20
4.7364972983
 30
0.0
 10
3.0678653949
 20
4.7391119805
 30
0.0
 10
3.1029279381
 20
4.7427076005
 30
0.0
 10
3.137881801
 20
4.7472386394
 30
0.0
 10
3.1843128926
 20
4.7544562745
 30
0.0
 10
3.2189350032
 20
4.7610916175
 30
0.0
 10
3.2419133534
 20
4.7659700621
 30
0.0
  0
SPLINE
  5
2F2
100
AcDbEntity
  8
0
100
AcDbSpline
 62
7
  6
CONTINUOUS
 70
0
 71
3
 72
16
 73
12
 74
0
 42
0.0000001
 43
0.0000001
 44
0.0000000001
 40
0.0
 40
0.0
 40
0.0
 40
0.0
 40
0.1496855936
 40
0.2974407732
 40
0.4401204558
 40
0.575001071
 40
0.700007116
 40
0.8132742478
 40
0.9135109123
 40
0.9585073016
 40
1.0
 40
1.0
 40
1.0
 40
1.0
 10
3.2419133534
 20
4.7659700621
 30
0.0
 10
3.2445871935
 20
4.7665377347
 30
0.0
 10
3.2499279181
 20
4.7675401441
 30
0.0
 10
3.2578908261
 20
4.7686511681
 30
0.0
 10
3.265630862
 20
4.7693382848
 30
0.0
 10
3.2729824448
 20
4.769577375
 30
0.0
 10
3.2797991147
 20
4.769372792
 30
0.0
 10
3.2859526245
 20
4.7687206643
 30
0.0
 10
3.2905913313
 20
4.7677930427
 30
0.0
 10
3.2938617951
 20
4.7668210558
 30
0.0
 10
3.2953425038
 20
4.7662662025
 30
0.0
 10
3.2960399411
 20
4.7659700621
 30
0.0
  0
SPLINE
  5
2F3
100
AcDbEntity
  8
0
100
AcDbSpline
 62
7
  6
CONTINUOUS
 70
0
 71
3
 72
14
 73
10
 74
0
 42
0.0000001
 43
0.0000001
 44
0.0000000001
 40
0.0
 40
0.0
 40
0.0
 40
0.0
 40
0.2564864327
 40
0.3828549688
 40
0.5080384814
 40
0.6321575543
 40
0.75537572
 40
0.8779039809
 40
1.0
 40
1.0
 40
1.0
 40
1.0
 10
3.2960399411
 20
4.7659700621
 30
0.0
 10
3.3066723572
 20
4.7614554079
 30
0.0
 10
3.3227725072
 20
4.7552274043
 30
0.0
 10
3.3445747062
 20
4.7482695025
 30
0.0
 10
3.3609085406
 20
4.7438354126
 30
0.0
 10
3.3772954214
 20
4.7402083117
 30
0.0
 10
3.3937264196
 20
4.7374261206
 30
0.0
 10
3.4101917204
 20
4.7355301207
 30
0.0
 10
3.4211963603
 20
4.7348807018
 30
0.0
 10
3.4266924645
 20
4.7347099467
 30
0.0
  0
SPLINE
  5
2F4
100
AcDbEntity
  8
0
100
AcDbSpline
 62
7
  6
CONTINUOUS
 70
0
 71
3
 72
14
 73
10
 74
0
 42
0.0000001
 43
0.0000001
 44
0.0000000001
 40
0.0
 40
0.0
 40
0.0
 40
0.0
 40
0.1223170438
 40
0.2448193084
 40
0.4916711612
 40
0.6167027968
 40
0.7430363759
 40
0.870788401
 40
1.0
 40
1.0
 40
1.0
 40
1.0
 10
3.4266924645
 20
4.7347099467
 30
0.0
 10
3.4329456864
 20
4.7345156692
 30
0.0
 10
3.4454780574
 20
4.7345246086
 30
0.0
 10
3.4705873207
 20
4.7361410321
 30
0.0
 10
3.4956246442
 20
4.7401659998
 30
0.0
 10
3.5203685384
 20
4.7462891155
 30
0.0
 10
3.5389344284
 20
4.7519159996
 30
0.0
 10
3.5574158977
 20
4.7584745143
 30
0.0
 10
3.5696107724
 20
4.7633870585
 30
0.0
 10
3.5756939778
 20
4.7659700621
 30
0.0
  0
SPLINE
  5
2F5
100
AcDbEntity
  8
0
100
AcDbSpline
 62
7
  6
CONTINUOUS
 70
0
 71
3
 72
18
 73
14
 74
0
 42
0.0000001
 43
0.0000001
 44
0.0000000001
 40
0.0
 40
0.0
 40
0.0
 40
0.0
 40
0.1399256155
 40
0.2757388303
 40
0.4070348929
 40
0.4709410277
 40
0.533655911
 40
0.6555267356
 40
0.714838921
 40
0.7731943439
 40
0.8307281789
 40
0.8875952508
 40
1.0
 40
1.0
 40
1.0
 40
1.0
 10
1.7564392146
 20
4.3781201152
 30
0.0
 10
1.7521106306
 20
4.3737915312
 30
0.0
 10
1.7437598255
 20
4.3650786287
 30
0.0
 10
1.7321320532
 20
4.351579585
 30
0.0
 10
1.7234049808
 20
4.340005704
 30
0.0
 10
1.7171602204
 20
4.3306037589
 30
0.0
 10
1.7115449809
 20
4.32129259
 30
0.0
 10
1.7066874495
 20
4.3117655746
 30
0.0
 10
1.70275486
 20
4.3020459533
 30
0.0
 10
1.7003306204
 20
4.2947689682
 30
0.0
 10
1.6984212036
 20
4.2874496765
 30
0.0
 10
1.6965860101
 20
4.2776933229
 30
0.0
 10
1.6960093168
 20
4.2702739351
 30
0.0
 10
1.6960093168
 20
4.2653563907
 30
0.0
  0
SPLINE
  5
2F6
100
AcDbEntity
  8
0
100
AcDbSpline
 62
7
  6
CONTINUOUS
 70
0
 71
3
 72
15
 73
11
 74
0
 42
0.0000001
 43
0.0000001
 44
0.0000000001
 40
0.0
 40
0.0
 40
0.0
 40
0.0
 40
0.1385895029
 40
0.2735607956
 40
0.4045541246
 40
0.5313870293
 40
0.653980729
 40
0.7725070054
 40
0.8875480714
 40
1.0
 40
1.0
 40
1.0
 40
1.0
 10
2.159329419
 20
3.4760103196
 30
0.0
 10
2.1632353338
 20
3.4799162344
 30
0.0
 10
2.1707986414
 20
3.4877751967
 30
0.0
 10
2.1814268052
 20
3.4999103111
 30
0.0
 10
2.1910678045
 20
3.5122579803
 30
0.0
 10
2.199583327
 20
3.524819769
 30
0.0
 10
2.2068254238
 20
3.5375933686
 30
0.0
 10
2.2126377547
 20
3.5505728327
 30
0.0
 10
2.2168442131
 20
3.5637387772
 30
0.0
 10
2.2185252094
 20
3.5726788674
 30
0.0
 10
2.2190581216
 20
3.5771290986
 30
0.0
  0
SPLINE
  5
2F7
100
AcDbEntity
  8
0
100
AcDbSpline
 62
7
  6
CONTINUOUS
 70
0
 71
3
 72
18
 73
14
 74
0
 42
0.0000001
 43
0.0000001
 44
0.0000000001
 40
0.0
 40
0.0
 40
0.0
 40
0.0
 40
0.1124047622
 40
0.1692718532
 40
0.2268057116
 40
0.2851611557
 40
0.3444733461
 40
0.4663441465
 40
0.5290590151
 40
0.5929651407
 40
0.7242611929
 40
0.8600743935
 40
1.0
 40
1.0
 40
1.0
 40
1.0
 10
1.6960093168
 20
4.2653563907
 30
0.0
 10
1.6960093168
 20
4.2604388459
 30
0.0
 10
1.696586014
 20
4.2530194568
 30
0.0
 10
1.6984212114
 20
4.2432631016
 30
0.0
 10
1.7003306295
 20
4.2359438076
 30
0.0
 10
1.7027548643
 20
4.2286668187
 30
0.0
 10
1.7066874486
 20
4.2189471951
 30
0.0
 10
1.7115449805
 20
4.2094201815
 30
0.0
 10
1.7171602218
 20
4.2001090162
 30
0.0
 10
1.7234049844
 20
4.1907070744
 30
0.0
 10
1.7321320569
 20
4.1791331957
 30
0.0
 10
1.7437598271
 20
4.1656341523
 30
0.0
 10
1.7521106309
 20
4.15692125
 30
0.0
 10
1.7564392146
 20
4.1525926663
 30
0.0
  0
SPLINE
  5
2F8
100
AcDbEntity
  8
0
100
AcDbSpline
 62
7
  6
CONTINUOUS
 70
0
 71
3
 72
15
 73
11
 74
0
 42
0.0000001
 43
0.0000001
 44
0.0000000001
 40
0.0
 40
0.0
 40
0.0
 40
0.0
 40
0.2498742709
 40
0.374866959
 40
0.4998887564
 40
0.6248929747
 40
0.6874102115
 40
0.7499537653
 40
0.8750361256
 40
1.0
 40
1.0
 40
1.0
 40
1.0
 10
2.159329419
 20
3.7015377685
 30
0.0
 10
2.1681054267
 20
3.719089784
 30
0.0
 10
2.1803720988
 20
3.7458998835
 30
0.0
 10
2.1941936037
 20
3.7826593225
 30
0.0
 10
2.2031070021
 20
3.8107458746
 30
0.0
 10
2.2091471197
 20
3.8345544429
 30
0.0
 10
2.213036066
 20
3.8538077472
 30
0.0
 10
2.216258909
 20
3.8731899838
 30
0.0
 10
2.219002486
 20
3.8976069937
 30
0.0
 10
2.2197593168
 20
3.9172512425
 30
0.0
 10
2.2197593168
 20
3.9270652174
 30
0.0
  0
SPLINE
  5
2F9
100
AcDbEntity
  8
0
100
AcDbSpline
 62
7
  6
CONTINUOUS
 70
0
 71
3
 72
15
 73
11
 74
0
 42
0.0000001
 43
0.0000001
 44
0.0000000001
 40
0.0
 40
0.0
 40
0.0
 40
0.0
 40
0.1249638868
 40
0.2500462927
 40
0.312589879
 40
0.3751071305
 40
0.5001113215
 40
0.6251330768
 40
0.7501257461
 40
1.0
 40
1.0
 40
1.0
 40
1.0
 10
1.6960093168
 20
3.9270652174
 30
0.0
 10
1.6960093168
 20
3.9172512416
 30
0.0
 10
1.6967661523
 20
3.8976069882
 30
0.0
 10
1.6995097352
 20
3.8731899722
 30
0.0
 10
1.7027325713
 20
3.8538077271
 30
0.0
 10
1.7066215117
 20
3.83455442
 30
0.0
 10
1.7126616301
 20
3.8107458561
 30
0.0
 10
1.7215750343
 20
3.7826593132
 30
0.0
 10
1.7353965401
 20
3.7458998813
 30
0.0
 10
1.7476632074
 20
3.7190897828
 30
0.0
 10
1.7564392146
 20
3.7015377685
 30
0.0
  0
SPLINE
  5
2FA
100
AcDbEntity
  8
0
100
AcDbSpline
 62
7
  6
CONTINUOUS
 70
0
 71
3
 72
15
 73
11
 74
0
 42
0.0000001
 43
0.0000001
 44
0.0000000001
 40
0.0
 40
0.0
 40
0.0
 40
0.0
 40
0.2498742698
 40
0.3748669572
 40
0.4998887531
 40
0.6248929704
 40
0.6874102077
 40
0.7499537628
 40
0.8750361249
 40
1.0
 40
1.0
 40
1.0
 40
1.0
 10
1.7564392146
 20
4.1525926663
 30
0.0
 10
1.7476632069
 20
4.1350406508
 30
0.0
 10
1.7353965348
 20
4.1082305514
 30
0.0
 10
1.7215750289
 20
4.071471113
 30
0.0
 10
1.7126616293
 20
4.0433845615
 30
0.0
 10
1.7066215111
 20
4.0195759933
 30
0.0
 10
1.7027325652
 20
4.0003226889
 30
0.0
 10
1.6995097231
 20
3.9809404518
 30
0.0
 10
1.6967661471
 20
3.9565234414
 30
0.0
 10
1.6960093168
 20
3.9368791923
 30
0.0
 10
1.6960093168
 20
3.9270652174
 30
0.0
  0
SPLINE
  5
2FB
100
AcDbEntity
  8
0
100
AcDbSpline
 62
7
  6
CONTINUOUS
 70
0
 71
3
 72
15
 73
11
 74
0
 42
0.0000001
 43
0.0000001
 44
0.0000000001
 40
0.0
 40
0.0
 40
0.0
 40
0.0
 40
0.1249649876
 40
0.2500492513
 40
0.3125935041
 40
0.3751103167
 40
0.5001105166
 40
0.6251267749
 40
0.7501184403
 40
1.0
 40
1.0
 40
1.0
 40
1.0
 10
2.2197593168
 20
3.9270652174
 30
0.0
 10
2.2197593168
 20
3.93687928
 30
0.0
 10
2.2190022939
 20
3.9565237662
 30
0.0
 10
2.2162585068
 20
3.9809410344
 30
0.0
 10
2.2130359127
 20
4.0003234844
 30
0.0
 10
2.2091472697
 20
4.0195765522
 30
0.0
 10
2.2031073525
 20
4.0433843695
 30
0.0
 10
2.1941940762
 20
4.0714700888
 30
0.0
 10
2.1803724472
 20
4.1082295396
 30
0.0
 10
2.1681056829
 20
4.1350401383
 30
0.0
 10
2.159329419
 20
4.1525926663
 30
0.0
  0
SPLINE
  5
2FC
100
AcDbEntity
  8
0
100
AcDbSpline
 62
7
  6
CONTINUOUS
 70
0
 71
3
 72
18
 73
14
 74
0
 42
0.0000001
 43
0.0000001
 44
0.0000000001
 40
0.0
 40
0.0
 40
0.0
 40
0.0
 40
0.1399288413
 40
0.2757466067
 40
0.407041796
 40
0.4709452667
 40
0.5336575367
 40
0.6555243375
 40
0.7148357656
 40
0.7731915124
 40
0.8307261803
 40
0.8875941854
 40
1.0
 40
1.0
 40
1.0
 40
1.0
 10
2.159329419
 20
4.1525926663
 30
0.0
 10
2.1636581026
 20
4.1569213499
 30
0.0
 10
2.1720091036
 20
4.1656345362
 30
0.0
 10
2.1836370511
 20
4.1791338245
 30
0.0
 10
2.1923641878
 20
4.1907077099
 30
0.0
 10
2.1986088445
 20
4.2001094001
 30
0.0
 10
2.2042239294
 20
4.2094201856
 30
0.0
 10
2.2090813152
 20
4.2189469202
 30
0.0
 10
2.2130136264
 20
4.2286664466
 30
0.0
 10
2.2154376823
 20
4.2359435083
 30
0.0
 10
2.2173471359
 20
4.2432628807
 30
0.0
 10
2.2191824762
 20
4.2530193294
 30
0.0
 10
2.2197593168
 20
4.2604388
 30
0.0
 10
2.2197593168
 20
4.2653563907
 30
0.0
  0
SPLINE
  5
2FD
100
AcDbEntity
  8
0
100
AcDbSpline
 62
7
  6
CONTINUOUS
 70
0
 71
3
 72
11
 73
7
 74
0
 42
0.0000001
 43
0.0000001
 44
0.0000000001
 40
0.0
 40
0.0
 40
0.0
 40
0.0
 40
0.241155399
 40
0.4873204808
 40
0.7399312079
 40
1.0
 40
1.0
 40
1.0
 40
1.0
 10
2.2186461925
 20
4.2800494719
 30
0.0
 10
2.218063803
 20
4.2839192179
 30
0.0
 10
2.2164386665
 20
4.2916777368
 30
0.0
 10
2.2127368886
 20
4.303120985
 30
0.0
 10
2.2078155333
 20
4.3144273661
 30
0.0
 10
2.203856992
 20
4.3217558841
 30
0.0
 10
2.2017186891
 20
4.3253943022
 30
0.0
  0
SPLINE
  5
2FE
100
AcDbEntity
  8
0
100
AcDbSpline
 62
7
  6
CONTINUOUS
 70
0
 71
3
 72
11
 73
7
 74
0
 42
0.0000001
 43
0.0000001
 44
0.0000000001
 40
0.0
 40
0.0
 40
0.0
 40
0.0
 40
0.2377227316
 40
0.4839275361
 40
0.7382666971
 40
1.0
 40
1.0
 40
1.0
 40
1.0
 10
2.2017186891
 20
4.3253943022
 30
0.0
 10
2.1989957302
 20
4.3300275387
 30
0.0
 10
2.1930181224
 20
4.3392079776
 30
0.0
 10
2.1828848785
 20
4.3524842026
 30
0.0
 10
2.1715951899
 20
4.3655157024
 30
0.0
 10
2.1635133285
 20
4.3739362057
 30
0.0
 10
2.159329419
 20
4.3781201152
 30
0.0
  0
SPLINE
  5
2FF
100
AcDbEntity
  8
0
100
AcDbSpline
 62
7
  6
CONTINUOUS
 70
0
 71
3
 72
15
 73
11
 74
0
 42
0.0000001
 43
0.0000001
 44
0.0000000001
 40
0.0
 40
0.0
 40
0.0
 40
0.0
 40
0.1153902391
 40
0.2321274036
 40
0.3511870915
 40
0.4733401144
 40
0.5991545273
 40
0.7288876136
 40
0.8625345521
 40
1.0
 40
1.0
 40
1.0
 40
1.0
 10
2.2197593168
 20
3.588774044
 30
0.0
 10
2.2197593168
 20
3.5927337987
 30
0.0
 10
2.2192614726
 20
3.6007073774
 30
0.0
 10
2.2170887005
 20
3.6125866267
 30
0.0
 10
2.2135492607
 20
3.6243740855
 30
0.0
 10
2.2087032334
 20
3.6360204202
 30
0.0
 10
2.2026711665
 20
3.6475090688
 30
0.0
 10
2.1955680427
 20
3.6588325181
 30
0.0
 10
2.1875041725
 20
3.6699865494
 30
0.0
 10
2.1816347438
 20
3.6772112402
 30
0.0
 10
2.1785743804
 20
3.6808010896
 30
0.0
  0
SPLINE
  5
300
100
AcDbEntity
  8
0
100
AcDbSpline
 62
7
  6
CONTINUOUS
 70
0
 71
3
 72
9
 73
5
 74
0
 42
0.0000001
 43
0.0000001
 44
0.0000000001
 40
0.0
 40
0.0
 40
0.0
 40
0.0
 40
0.2473279877
 40
1.0
 40
1.0
 40
1.0
 40
1.0
 10
2.1723568128
 20
3.6878740457
 30
0.0
 10
2.1713122312
 20
3.6890279893
 30
0.0
 10
2.1670564301
 20
3.6936643235
 30
0.0
 10
2.1626788466
 20
3.6981883408
 30
0.0
 10
2.159329419
 20
3.7015377685
 30
0.0
  0
SPLINE
  5
301
100
AcDbEntity
  8
0
100
AcDbSpline
 62
7
  6
CONTINUOUS
 70
0
 71
3
 72
12
 73
8
 74
0
 42
0.0000001
 43
0.0000001
 44
0.0000000001
 40
0.0
 40
0.0
 40
0.0
 40
0.0
 40
0.2404883503
 40
0.4853976943
 40
0.6105724215
 40
0.737931746
 40
1.0
 40
1.0
 40
1.0
 40
1.0
 10
1.6960093168
 20
3.588774044
 30
0.0
 10
1.6960093168
 20
3.583659173
 30
0.0
 10
1.6968449436
 20
3.5733200323
 30
0.0
 10
1.6998315339
 20
3.5606357895
 30
0.0
 10
1.7032947984
 20
3.5506317539
 30
0.0
 10
1.7075354685
 20
3.540535268
 30
0.0
 10
1.7114161404
 20
3.533194238
 30
0.0
 10
1.7142510809
 20
3.5283951875
 30
0.0
  0
SPLINE
  5
302
100
AcDbEntity
  8
0
100
AcDbSpline
 62
7
  6
CONTINUOUS
 70
0
 71
3
 72
11
 73
7
 74
0
 42
0.0000001
 43
0.0000001
 44
0.0000000001
 40
0.0
 40
0.0
 40
0.0
 40
0.0
 40
0.2378232983
 40
0.4840579998
 40
0.738357863
 40
1.0
 40
1.0
 40
1.0
 40
1.0
 10
1.7142510809
 20
3.5283951875
 30
0.0
 10
1.7169696537
 20
3.5237931267
 30
0.0
 10
1.7229297766
 20
3.5146744341
 30
0.0
 10
1.7330186234
 20
3.5014845614
 30
0.0
 10
1.7442474287
 20
3.4885365632
 30
0.0
 10
1.7522811581
 20
3.4801683761
 30
0.0
 10
1.7564392146
 20
3.4760103196
 30
0.0
  0
SPLINE
  5
303
100
AcDbEntity
  8
0
100
AcDbSpline
 62
7
  6
CONTINUOUS
 70
0
 71
3
 72
18
 73
14
 74
0
 42
0.0000001
 43
0.0000001
 44
0.0000000001
 40
0.0
 40
0.0
 40
0.0
 40
0.0
 40
0.1399256155
 40
0.2757388303
 40
0.4070348929
 40
0.4709410277
 40
0.533655911
 40
0.6555267356
 40
0.714838921
 40
0.7731943439
 40
0.8307281789
 40
0.8875952508
 40
1.0
 40
1.0
 40
1.0
 40
1.0
 10
1.7564392146
 20
3.7015377685
 30
0.0
 10
1.7521106306
 20
3.6972091845
 30
0.0
 10
1.7437598255
 20
3.688496282
 30
0.0
 10
1.7321320532
 20
3.6749972382
 30
0.0
 10
1.7234049808
 20
3.6634233573
 30
0.0
 10
1.7171602204
 20
3.6540214121
 30
0.0
 10
1.7115449809
 20
3.6447102433
 30
0.0
 10
1.7066874495
 20
3.6351832279
 30
0.0
 10
1.70275486
 20
3.6254636066
 30
0.0
 10
1.7003306204
 20
3.6181866214
 30
0.0
 10
1.6984212036
 20
3.6108673298
 30
0.0
 10
1.6965860101
 20
3.6011109762
 30
0.0
 10
1.6960093168
 20
3.5936915884
 30
0.0
 10
1.6960093168
 20
3.588774044
 30
0.0
  0
SPLINE
  5
304
100
AcDbEntity
  8
0
100
AcDbSpline
 62
7
  6
CONTINUOUS
 70
0
 71
3
 72
11
 73
7
 74
0
 42
0.0000001
 43
0.0000001
 44
0.0000000001
 40
0.0
 40
0.0
 40
0.0
 40
0.0
 40
0.1629722377
 40
0.3830999874
 40
0.6618982031
 40
1.0
 40
1.0
 40
1.0
 40
1.0
 10
2.4516115668
 20
4.5692968088
 30
0.0
 10
2.451863113
 20
4.5694405248
 30
0.0
 10
2.4524933713
 20
4.5697075622
 30
0.0
 10
2.4536170564
 20
4.5700571608
 30
0.0
 10
2.4550635066
 20
4.570410096
 30
0.0
 10
2.4561387795
 20
4.5706261775
 30
0.0
 10
2.456729559
 20
4.5707366747
 30
0.0
  0
SPLINE
  5
305
100
AcDbEntity
  8
0
100
AcDbSpline
 62
7
  6
CONTINUOUS
 70
0
 71
3
 72
20
 73
16
 74
0
 42
0.0000001
 43
0.0000001
 44
0.0000000001
 40
0.0
 40
0.0
 40
0.0
 40
0.0
 40
0.0092428379
 40
0.0200789942
 40
0.0465217646
 40
0.0792535285
 40
0.1181589412
 40
0.1631172042
 40
0.2139949242
 40
0.2706057819
 40
0.3327460654
 40
0.4727821329
 40
0.6321741121
 40
0.80872877
 40
1.0
 40
1.0
 40
1.0
 40
1.0
 10
2.456729559
 20
4.5707366747
 30
0.0
 10
2.4575474435
 20
4.5708896486
 30
0.0
 10
2.4593303607
 20
4.5711890845
 30
0.0
 10
2.4634763569
 20
4.5717826423
 30
0.0
 10
2.4697389724
 20
4.5725003594
 30
0.0
 10
2.4785303839
 20
4.5733218879
 30
0.0
 10
2.4889945051
 20
4.5741466306
 30
0.0
 10
2.5010961833
 20
4.5749743827
 30
0.0
 10
2.5147949132
 20
4.5758039068
 30
0.0
 10
2.5300428279
 20
4.5766351785
 30
0.0
 10
2.5533109565
 20
4.5777917058
 30
0.0
 10
2.5858295927
 20
4.5792134471
 30
0.0
 10
2.6286472136
 20
4.5808650987
 30
0.0
 10
2.6760801209
 20
4.5825202856
 30
0.0
 10
2.7091756944
 20
4.583588023
 30
0.0
 10
2.7263860354
 20
4.5841275717
 30
0.0
  0
SPLINE
  5
306
100
AcDbEntity
  8
0
100
AcDbSpline
 62
7
  6
CONTINUOUS
 70
0
 71
3
 72
40
 73
36
 74
0
 42
0.0000001
 43
0.0000001
 44
0.0000000001
 40
0.0
 40
0.0
 40
0.0
 40
0.0
 40
0.0800861251
 40
0.1640248648
 40
0.2504450573
 40
0.3379272848
 40
0.425040441
 40
0.5103549959
 40
0.5924761742
 40
0.6700535015
 40
0.7418241307
 40
0.7751553202
 40
0.8066032152
 40
0.8360407523
 40
0.8633416326
 40
0.8883948995
 40
0.9111047457
 40
0.9313762595
 40
0.949121061
 40
0.9570257085
 40
0.9642756753
 40
0.9708639663
 40
0.9767837433
 40
0.9820284094
 40
0.9865925942
 40
0.990474908
 40
0.9936760404
 40
0.9950221678
 40
0.9961996653
 40
0.9972100166
 40
0.9980557804
 40
0.9987416012
 40
0.9992766167
 40
0.9996807474
 40
1.0
 40
1.0
 40
1.0
 40
1.0
 10
2.7263860354
 20
4.5841275717
 30
0.0
 10
2.7463523606
 20
4.5847535212
 30
0.0
 10
2.7872468734
 20
4.5859920643
 30
0.0
 10
2.8496900686
 20
4.5877981459
 30
0.0
 10
2.9139788209
 20
4.5896049515
 30
0.0
 10
2.9790596691
 20
4.591412238
 30
0.0
 10
3.0438646357
 20
4.5932192984
 30
0.0
 10
3.1073318673
 20
4.5950258658
 30
0.0
 10
3.1684196023
 20
4.596831017
 30
0.0
 10
3.2261275357
 20
4.5986345506
 30
0.0
 10
3.2716679776
 20
4.6001699031
 30
0.0
 10
3.3057053926
 20
4.6014113429
 30
0.0
 10
3.3291886321
 20
4.6023189216
 30
0.0
 10
3.3511665514
 20
4.6032257545
 30
0.0
 10
3.3715480191
 20
4.6041318852
 30
0.0
 10
3.3902496249
 20
4.6050372211
 30
0.0
 10
3.4071957076
 20
4.6059413179
 30
0.0
 10
3.4223160154
 20
4.6068440473
 30
0.0
 10
3.4337439927
 20
4.6076220218
 30
0.0
 10
3.4419260185
 20
4.6082521799
 30
0.0
 10
3.4473304606
 20
4.6087058859
 30
0.0
 10
3.4522379752
 20
4.6091588653
 30
0.0
 10
3.4566430639
 20
4.6096108788
 30
0.0
 10
3.460540453
 20
4.6100616322
 30
0.0
 10
3.4639260688
 20
4.6105107027
 30
0.0
 10
3.4667969743
 20
4.610958112
 30
0.0
 10
3.4688638832
 20
4.6113477092
 30
0.0
 10
3.4702558212
 20
4.6116672241
 30
0.0
 10
3.471108217
 20
4.61189259
 30
0.0
 10
3.4718310442
 20
4.6121175429
 30
0.0
 10
3.4724244797
 20
4.6123420939
 30
0.0
 10
3.4728900331
 20
4.6125659656
 30
0.0
 10
3.4732290642
 20
4.6127909427
 30
0.0
 10
3.4734495055
 20
4.6130212245
 30
0.0
 10
3.4735093168
 20
4.6132018247
 30
0.0
 10
3.4735093168
 20
4.6132814568
 30
0.0
  0
SPLINE
  5
307
100
AcDbEntity
  8
0
100
AcDbSpline
 62
7
  6
CONTINUOUS
 70
0
 71
3
 72
30
 73
26
 74
0
 42
0.0000001
 43
0.0000001
 44
0.0000000001
 40
0.0
 40
0.0
 40
0.0
 40
0.0
 40
0.0017059332
 40
0.0039000925
 40
0.0065963836
 40
0.0098015929
 40
0.0177504495
 40
0.0277589841
 40
0.0398261217
 40
0.0539347709
 40
0.0700599706
 40
0.088175544
 40
0.1082546274
 40
0.1302698232
 40
0.1799612842
 40
0.2369002513
 40
0.3007208842
 40
0.3710047356
 40
0.4472719216
 40
0.5290318975
 40
0.6157342294
 40
0.7067959364
 40
0.8016224124
 40
0.8995740849
 40
1.0
 40
1.0
 40
1.0
 40
1.0
 10
2.4516316933
 20
4.6586615728
 30
0.0
 10
2.451830685
 20
4.6587742687
 30
0.0
 10
2.4523098856
 20
4.6589881505
 30
0.0
 10
2.4531480331
 20
4.6592712723
 30
0.0
 10
2.4541962039
 20
4.6595548583
 30
0.0
 10
2.4560078547
 20
4.6599628543
 30
0.0
 10
2.4588035097
 20
4.6604528392
 30
0.0
 10
2.462789791
 20
4.6610112972
 30
0.0
 10
2.4676083566
 20
4.6615716759
 30
0.0
 10
2.4732510616
 20
4.6621352504
 30
0.0
 10
2.4797077922
 20
4.6627021998
 30
0.0
 10
2.4869672389
 20
4.6632734177
 30
0.0
 10
2.4950180803
 20
4.6638497766
 30
0.0
 10
2.507295705
 20
4.6646599314
 30
0.0
 10
2.5245116733
 20
4.6656726274
 30
0.0
 10
2.5473313896
 20
4.6668462323
 30
0.0
 10
2.5729160445
 20
4.6679934085
 30
0.0
 10
2.6010950464
 20
4.6691148166
 30
0.0
 10
2.6316803648
 20
4.6702425232
 30
0.0
 10
2.664466783
 20
4.6714061175
 30
0.0
 10
2.6992369178
 20
4.6725915495
 30
0.0
 10
2.7357599138
 20
4.6737690027
 30
0.0
 10
2.7737926854
 20
4.6749134717
 30
0.0
 10
2.8130816546
 20
4.6760457702
 30
0.0
 10
2.8396643668
 20
4.6767988653
 30
0.0
 10
2.8531214805
 20
4.6771807233
 30
0.0
  0
LINE
  5
308
100
AcDbEntity
  8
0
100
AcDbLine
 62
7
  6
CONTINUOUS
 10
2.8531214805
 20
4.6771807233
 11
2.9537253759
 21
4.6800238145
  0
LINE
  5
309
100
AcDbEntity
  8
0
100
AcDbLine
 62
7
  6
CONTINUOUS
 10
2.9537253759
 20
4.6800238145
 11
2.9624315641
 21
4.6802680619
  0
LINE
  5
30A
100
AcDbEntity
  8
0
100
AcDbLine
 62
7
  6
CONTINUOUS
 10
3.0664895676
 20
4.68318152
 11
3.0717208917
 21
4.683328868
  0
SPLINE
  5
30B
100
AcDbEntity
  8
0
100
AcDbSpline
 62
7
  6
CONTINUOUS
 70
0
 71
3
 72
20
 73
16
 74
0
 42
0.0000001
 43
0.0000001
 44
0.0000000001
 40
0.0
 40
0.0
 40
0.0
 40
0.0
 40
0.1748613876
 40
0.2592521036
 40
0.3410752648
 40
0.4955145703
 40
0.5673939719
 40
0.6352575087
 40
0.7576869469
 40
0.8116672049
 40
0.8604969891
 40
0.9039426505
 40
0.9417896946
 40
0.9738640043
 40
1.0
 40
1.0
 40
1.0
 40
1.0
 10
3.0717208917
 20
4.683328868
 30
0.0
 10
3.094185007
 20
4.6839620515
 30
0.0
 10
3.127490411
 20
4.684909364
 30
0.0
 10
3.1713054681
 20
4.6862220141
 30
0.0
 10
3.2124952294
 20
4.6875162609
 30
0.0
 10
3.2520752817
 20
4.6888395163
 30
0.0
 10
3.2898603624
 20
4.6901578061
 30
0.0
 10
3.3235322506
 20
4.6913821955
 30
0.0
 10
3.3549013113
 20
4.692637978
 30
0.0
 10
3.3838160307
 20
4.6940197163
 30
0.0
 10
3.4025864575
 20
4.6950142645
 30
0.0
 10
3.4192809945
 20
4.6959949026
 30
0.0
 10
3.4338197796
 20
4.696948878
 30
0.0
 10
3.4461294397
 20
4.6978875424
 30
0.0
 10
3.4535794798
 20
4.6985776559
 30
0.0
 10
3.4569188314
 20
4.6989402174
 30
0.0
  0
SPLINE
  5
30C
100
AcDbEntity
  8
0
100
AcDbSpline
 62
7
  6
CONTINUOUS
 70
0
 71
3
 72
53
 73
49
 74
0
 42
0.0000001
 43
0.0000001
 44
0.0000000001
 40
0.0
 40
0.0
 40
0.0
 40
0.0
 40
0.0008618248
 40
0.0019818117
 40
0.003367354
 40
0.0050220155
 40
0.0069472878
 40
0.0091434688
 40
0.0143472718
 40
0.020628959
 40
0.0279815881
 40
0.0363971619
 40
0.0458627104
 40
0.0563514899
 40
0.0678339742
 40
0.0936611897
 40
0.1231035164
 40
0.155908024
 40
0.1918169089
 40
0.2305203449
 40
0.2716391765
 40
0.3147891784
 40
0.3595852326
 40
0.4056417163
 40
0.4999117441
 40
0.5942014614
 40
0.6402763627
 40
0.6850745857
 40
0.7282180752
 40
0.7693376032
 40
0.8080610217
 40
0.844012843
 40
0.8768337173
 40
0.9062648618
 40
0.9320864033
 40
0.9435745787
 40
0.9540767563
 40
0.9635647693
 40
0.9720106762
 40
0.9793870045
 40
0.9856756382
 40
0.9908749428
 40
0.9930667339
 40
0.9949873327
 40
0.9966378796
 40
0.9980203922
 40
0.9991385981
 40
1.0
 40
1.0
 40
1.0
 40
1.0
 10
3.4195954592
 20
4.6432253525
 30
0.0
 10
3.4193672381
 20
4.6430942293
 30
0.0
 10
3.4188127114
 20
4.6428456964
 30
0.0
 10
3.4178379821
 20
4.6425164297
 30
0.0
 10
3.4166106423
 20
4.6421850995
 30
0.0
 10
3.4151308633
 20
4.6418523001
 30
0.0
 10
3.4133984412
 20
4.6415184492
 30
0.0
 10
3.4105898503
 20
4.6410451928
 30
0.0
 10
3.4064508094
 20
4.6404672252
 30
0.0
 10
3.4007357668
 20
4.6398025755
 30
0.0
 10
3.3940344168
 20
4.6391357445
 30
0.0
 10
3.3863567542
 20
4.6384673159
 30
0.0
 10
3.3777181432
 20
4.6377983556
 30
0.0
 10
3.3681404485
 20
4.637128435
 30
0.0
 10
3.3535721032
 20
4.6361974204
 30
0.0
 10
3.3332175909
 20
4.6350503425
 30
0.0
 10
3.3063521005
 20
4.6337168859
 30
0.0
 10
3.2764043622
 20
4.6323802061
 30
0.0
 10
3.2436257314
 20
4.6310423807
 30
0.0
 10
3.208305913
 20
4.6297043485
 30
0.0
 10
3.1707731843
 20
4.6283647748
 30
0.0
 10
3.1313786499
 20
4.6270239275
 30
0.0
 10
3.0904753171
 20
4.6256821429
 30
0.0
 10
3.0339663261
 20
4.6238790027
 30
0.0
 10
2.9623473322
 20
4.6216566157
 30
0.0
 10
2.8907227193
 20
4.6194339655
 30
0.0
 10
2.8342014056
 20
4.6176313239
 30
0.0
 10
2.7932937721
 20
4.6162895376
 30
0.0
 10
2.7539003608
 20
4.6149484371
 30
0.0
 10
2.7163633183
 20
4.6136084235
 30
0.0
 10
2.6810240795
 20
4.6122698494
 30
0.0
 10
2.6482211681
 20
4.6109331725
 30
0.0
 10
2.6182587007
 20
4.6095968389
 30
0.0
 10
2.5913933924
 20
4.6082626734
 30
0.0
 10
2.5710423309
 20
4.6071150018
 30
0.0
 10
2.5564698867
 20
4.6061839052
 30
0.0
 10
2.5468794847
 20
4.6055137951
 30
0.0
 10
2.5382206109
 20
4.6048446934
 30
0.0
 10
2.5305194468
 20
4.6041769021
 30
0.0
 10
2.523799297
 20
4.6035108775
 30
0.0
 10
2.5180762014
 20
4.6028462726
 30
0.0
 10
2.5139377823
 20
4.6022680451
 30
0.0
 10
2.5111334294
 20
4.6017945487
 30
0.0
 10
2.5094051194
 20
4.6014606218
 30
0.0
 10
2.5079290611
 20
4.6011277192
 30
0.0
 10
2.5067045791
 20
4.600796276
 30
0.0
 10
2.5057315817
 20
4.6004668569
 30
0.0
 10
2.5051778249
 20
4.6002183108
 30
0.0
 10
2.5049497087
 20
4.6000872644
 30
0.0
  0
SPLINE
  5
30D
100
AcDbEntity
  8
0
100
AcDbSpline
 62
7
  6
CONTINUOUS
 70
0
 71
3
 72
11
 73
7
 74
0
 42
0.0000001
 43
0.0000001
 44
0.0000000001
 40
0.0
 40
0.0
 40
0.0
 40
0.0
 40
0.1781495961
 40
0.403408502
 40
0.6771243897
 40
1.0
 40
1.0
 40
1.0
 40
1.0
 10
3.4729167554
 20
4.674063465
 30
0.0
 10
3.4727443578
 20
4.6739633856
 30
0.0
 10
3.4723343877
 20
4.6737710276
 30
0.0
 10
3.4716216706
 20
4.6735127724
 30
0.0
 10
3.4707390739
 20
4.6732527935
 30
0.0
 10
3.4700910264
 20
4.6730919694
 30
0.0
 10
3.4697391252
 20
4.6730101733
 30
0.0
  0
SPLINE
  5
30E
100
AcDbEntity
  8
0
100
AcDbSpline
 62
7
  6
CONTINUOUS
 70
0
 71
3
 72
58
 73
54
 74
0
 42
0.0000001
 43
0.0000001
 44
0.0000000001
 40
0.0
 40
0.0
 40
0.0
 40
0.0
 40
0.0016050925
 40
0.0034810339
 40
0.0080473915
 40
0.0136953111
 40
0.0204127069
 40
0.0281859625
 40
0.0370007924
 40
0.0468406371
 40
0.0576820248
 40
0.0822686999
 40
0.1105522549
 40
0.1422764583
 40
0.1771619093
 40
0.2148989656
 40
0.2551511882
 40
0.2975641581
 40
0.3417566709
 40
0.3873391899
 40
0.4339038015
 40
0.4810379357
 40
0.5283222673
 40
0.5753352854
 40
0.6216602576
 40
0.6668841177
 40
0.710604927
 40
0.7524353514
 40
0.7920005482
 40
0.8289535628
 40
0.8629595628
 40
0.8937234926
 40
0.9209670565
 40
0.9331934945
 40
0.9444545569
 40
0.9547240677
 40
0.9639773136
 40
0.972196447
 40
0.9793659792
 40
0.9854709181
 40
0.9881197683
 40
0.9904975163
 40
0.9926038106
 40
0.9944388614
 40
0.996003354
 40
0.9972988455
 40
0.998328673
 40
0.9987462349
 40
0.9991009531
 40
0.999395789
 40
0.9996360056
 40
0.9998314242
 40
1.0
 40
1.0
 40
1.0
 40
1.0
 10
3.4697391252
 20
4.6730101733
 30
0.0
 10
3.4692073736
 20
4.6728865728
 30
0.0
 10
3.4680481552
 20
4.6726442185
 30
0.0
 10
3.4653533848
 20
4.6721633597
 30
0.0
 10
3.4612816157
 20
4.671581096
 30
0.0
 10
3.455560988
 20
4.6709162411
 30
0.0
 10
3.4487434348
 20
4.6702513304
 30
0.0
 10
3.440844396
 20
4.6695876751
 30
0.0
 10
3.4318798384
 20
4.6689272124
 30
0.0
 10
3.4218689838
 20
4.6682709023
 30
0.0
 10
3.406499401
 20
4.6673576387
 30
0.0
 10
3.3848589398
 20
4.6662274673
 30
0.0
 10
3.3561182338
 20
4.6648749639
 30
0.0
 10
3.3238717189
 20
4.6635090994
 30
0.0
 10
3.2884056984
 20
4.662184366
 30
0.0
 10
3.2500362023
 20
4.6608924875
 30
0.0
 10
3.2091058984
 20
4.6595757977
 30
0.0
 10
3.1659801788
 20
4.6582168424
 30
0.0
 10
3.1210406686
 20
4.6568567173
 30
0.0
 10
3.0746877145
 20
4.6555226029
 30
0.0
 10
3.0273334858
 20
4.6542016206
 30
0.0
 10
2.9794001359
 20
4.6528834404
 30
0.0
 10
2.9313144744
 20
4.6515557803
 30
0.0
 10
2.8835049179
 20
4.6501999974
 30
0.0
 10
2.8363968131
 20
4.6488321233
 30
0.0
 10
2.7904079679
 20
4.6474975696
 30
0.0
 10
2.7459473336
 20
4.6462018018
 30
0.0
 10
2.7034126549
 20
4.6448894445
 30
0.0
 10
2.6631826506
 20
4.6435273891
 30
0.0
 10
2.6256156863
 20
4.6421622655
 30
0.0
 10
2.5910427571
 20
4.6408384581
 30
0.0
 10
2.5597739318
 20
4.6395365827
 30
0.0
 10
2.5359123362
 20
4.6384063793
 30
0.0
 10
2.5186823636
 20
4.6374808081
 30
0.0
 10
2.5072204262
 20
4.6368098243
 30
0.0
 10
2.4967716877
 20
4.636137744
 30
0.0
 10
2.4873599398
 20
4.6354655047
 30
0.0
 10
2.479005452
 20
4.6347942375
 30
0.0
 10
2.471725543
 20
4.6341247842
 30
0.0
 10
2.4663403123
 20
4.6335459299
 30
0.0
 10
2.4625834897
 20
4.6330753499
 30
0.0
 10
2.4601806253
 20
4.632740017
 30
0.0
 10
2.4580573919
 20
4.6324055716
 30
0.0
 10
2.456214476
 20
4.6320721213
 30
0.0
 10
2.4546520611
 20
4.63174015
 30
0.0
 10
2.4533705951
 20
4.6314097657
 30
0.0
 10
2.4524822547
 20
4.6311204083
 30
0.0
 10
2.4519174616
 20
4.6308812364
 30
0.0
 10
2.4515944211
 20
4.6307147859
 30
0.0
 10
2.4513407312
 20
4.6305483309
 30
0.0
 10
2.451155542
 20
4.6303805916
 30
0.0
 10
2.4510381537
 20
4.6302083818
 30
0.0
 10
2.4510093168
 20
4.630083795
 30
0.0
 10
2.4510093168
 20
4.6300264587
 30
0.0
  0
SPLINE
  5
30F
100
AcDbEntity
  8
0
100
AcDbSpline
 62
7
  6
CONTINUOUS
 70
0
 71
3
 72
9
 73
5
 74
0
 42
0.0000001
 43
0.0000001
 44
0.0000000001
 40
0.0
 40
0.0
 40
0.0
 40
0.0
 40
0.4792469253
 40
1.0
 40
1.0
 40
1.0
 40
1.0
 10
3.1755445808
 20
5.1850245194
 30
0.0
 10
3.1725684142
 20
5.1842272981
 30
0.0
 10
3.1662772624
 20
5.1828593806
 30
0.0
 10
3.1598999104
 20
5.1819964425
 30
0.0
 10
3.1565688572
 20
5.1816606408
 30
0.0
  0
SPLINE
  5
310
100
AcDbEntity
  8
0
100
AcDbSpline
 62
7
  6
CONTINUOUS
 70
0
 71
3
 72
10
 73
6
 74
0
 42
0.0000001
 43
0.0000001
 44
0.0000000001
 40
0.0
 40
0.0
 40
0.0
 40
0.0
 40
0.2304703479
 40
0.4742514748
 40
1.0
 40
1.0
 40
1.0
 40
1.0
 10
3.1565688572
 20
5.1816606408
 30
0.0
 10
3.1537515514
 20
5.1813766296
 30
0.0
 10
3.1479364147
 20
5.1809593424
 30
0.0
 10
3.1356499516
 20
5.1806887991
 30
0.0
 10
3.1261911828
 20
5.1811232924
 30
0.0
 10
3.1197528786
 20
5.1816449952
 30
0.0
  0
SPLINE
  5
311
100
AcDbEntity
  8
0
100
AcDbSpline
 62
7
  6
CONTINUOUS
 70
0
 71
3
 72
9
 73
5
 74
0
 42
0.0000001
 43
0.0000001
 44
0.0000000001
 40
0.0
 40
0.0
 40
0.0
 40
0.0
 40
0.4821822784
 40
1.0
 40
1.0
 40
1.0
 40
1.0
 10
3.1197528786
 20
5.1816449952
 30
0.0
 10
3.1125692311
 20
5.182227094
 30
0.0
 10
3.0977163558
 20
5.1840164662
 30
0.0
 10
3.0829997161
 20
5.1866698589
 30
0.0
 10
3.0754163567
 20
5.1882183215
 30
0.0
  0
SPLINE
  5
312
100
AcDbEntity
  8
0
100
AcDbSpline
 62
7
  6
CONTINUOUS
 70
0
 71
3
 72
9
 73
5
 74
0
 42
0.0000001
 43
0.0000001
 44
0.0000000001
 40
0.0
 40
0.0
 40
0.0
 40
0.0
 40
0.4905618399
 40
1.0
 40
1.0
 40
1.0
 40
1.0
 10
3.0754163567
 20
5.1882183215
 30
0.0
 10
3.0669076044
 20
5.1899557419
 30
0.0
 10
3.0496527996
 20
5.1939462875
 30
0.0
 10
3.0325851007
 20
5.1986642516
 30
0.0
 10
3.0239390994
 20
5.2012293635
 30
0.0
  0
SPLINE
  5
313
100
AcDbEntity
  8
0
100
AcDbSpline
 62
7
  6
CONTINUOUS
 70
0
 71
3
 72
9
 73
5
 74
0
 42
0.0000001
 43
0.0000001
 44
0.0000000001
 40
0.0
 40
0.0
 40
0.0
 40
0.0
 40
0.2437234364
 40
1.0
 40
1.0
 40
1.0
 40
1.0
 10
2.7155266992
 20
5.7931061661
 30
0.0
 10
2.7162510789
 20
5.7933347403
 30
0.0
 10
2.7192341787
 20
5.7942376301
 30
0.0
 10
2.7222586672
 20
5.7950025364
 30
0.0
 10
2.7245605016
 20
5.7955095243
 30
0.0
  0
SPLINE
  5
314
100
AcDbEntity
  8
0
100
AcDbSpline
 62
7
  6
CONTINUOUS
 70
0
 71
3
 72
9
 73
5
 74
0
 42
0.0000001
 43
0.0000001
 44
0.0000000001
 40
0.0
 40
0.0
 40
0.0
 40
0.0
 40
0.4753762654
 40
1.0
 40
1.0
 40
1.0
 40
1.0
 10
2.7245605016
 20
5.7955095243
 30
0.0
 10
2.7296431093
 20
5.7966289884
 30
0.0
 10
2.7404993861
 20
5.7982580442
 30
0.0
 10
2.7514547604
 20
5.7987310372
 30
0.0
 10
2.7571983502
 20
5.7987374838
 30
0.0
  0
SPLINE
  5
315
100
AcDbEntity
  8
0
100
AcDbSpline
 62
7
  6
CONTINUOUS
 70
0
 71
3
 72
11
 73
7
 74
0
 42
0.0000001
 43
0.0000001
 44
0.0000000001
 40
0.0
 40
0.0
 40
0.0
 40
0.0
 40
0.285265241
 40
0.5461569909
 40
0.7838558085
 40
1.0
 40
1.0
 40
1.0
 40
1.0
 10
2.7753066719
 20
5.8094503793
 30
0.0
 10
2.7731434325
 20
5.8089471069
 30
0.0
 10
2.7690330826
 20
5.8078386305
 30
0.0
 10
2.7632862922
 20
5.8057599614
 30
0.0
 10
2.7582536362
 20
5.8033635761
 30
0.0
 10
2.7552442558
 20
5.8014920506
 30
0.0
 10
2.7538788363
 20
5.8005083776
 30
0.0
  0
LINE
  5
316
100
AcDbEntity
  8
0
100
AcDbLine
 62
7
  6
CONTINUOUS
 10
2.7538788363
 20
5.8005083776
 11
2.751440817
 21
5.7985818063
  0
SPLINE
  5
317
100
AcDbEntity
  8
0
100
AcDbSpline
 62
7
  6
CONTINUOUS
 70
0
 71
3
 72
17
 73
13
 74
0
 42
0.0000001
 43
0.0000001
 44
0.0000000001
 40
0.0
 40
0.0
 40
0.0
 40
0.0
 40
0.1038099157
 40
0.1592554101
 40
0.2167404045
 40
0.3369951149
 40
0.4630570196
 40
0.5278138614
 40
0.5934862146
 40
0.7270590794
 40
0.8628637716
 40
1.0
 40
1.0
 40
1.0
 40
1.0
 10
3.3450237725
 20
5.735504713
 30
0.0
 10
3.3500922158
 20
5.732749377
 30
0.0
 10
3.3580110969
 20
5.7287803502
 30
0.0
 10
3.3690163382
 20
5.7238820474
 30
0.0
 10
3.3810204771
 20
5.7189949569
 30
0.0
 10
3.3969568287
 20
5.7133861093
 30
0.0
 10
3.4135936876
 20
5.7086477826
 30
0.0
 10
3.427469057
 20
5.7053760474
 30
0.0
 10
3.4418500721
 20
5.7024616601
 30
0.0
 10
3.4602648582
 20
5.6996216414
 30
0.0
 10
3.482772448
 20
5.6975393468
 30
0.0
 10
3.4979445722
 20
5.6970652174
 30
0.0
 10
3.5055655643
 20
5.6970652174
 30
0.0
  0
SPLINE
  5
318
100
AcDbEntity
  8
0
100
AcDbSpline
 62
7
  6
CONTINUOUS
 70
0
 71
3
 72
16
 73
12
 74
0
 42
0.0000001
 43
0.0000001
 44
0.0000000001
 40
0.0
 40
0.0
 40
0.0
 40
0.0
 40
0.1372512612
 40
0.2730977992
 40
0.4066303997
 40
0.5369174585
 40
0.6629151022
 40
0.7831748668
 40
0.8406617601
 40
0.8961091628
 40
1.0
 40
1.0
 40
1.0
 40
1.0
 10
3.5055655643
 20
5.2908152174
 30
0.0
 10
3.4979374365
 20
5.2908152174
 30
0.0
 10
3.4827551961
 20
5.2903370147
 30
0.0
 10
3.4602393471
 20
5.2882457494
 30
0.0
 10
3.4382729559
 20
5.2848563773
 30
0.0
 10
3.4170903082
 20
5.2802410619
 30
0.0
 10
3.3969540667
 20
5.2744919101
 30
0.0
 10
3.3810235746
 20
5.2688715723
 30
0.0
 10
3.369015434
 20
5.2639901685
 30
0.0
 10
3.3579988479
 20
5.2591026429
 30
0.0
 10
3.350080383
 20
5.2551194305
 30
0.0
 10
3.3450116825
 20
5.252353988
 30
0.0
  0
SPLINE
  5
319
100
AcDbEntity
  8
0
100
AcDbSpline
 62
7
  6
CONTINUOUS
 70
0
 71
3
 72
10
 73
6
 74
0
 42
0.0000001
 43
0.0000001
 44
0.0000000001
 40
0.0
 40
0.0
 40
0.0
 40
0.0
 40
0.2303236836
 40
0.4740809298
 40
1.0
 40
1.0
 40
1.0
 40
1.0
 10
3.1565687805
 20
5.1816605709
 30
0.0
 10
3.1537532137
 20
5.1813776218
 30
0.0
 10
3.1479401459
 20
5.1809620416
 30
0.0
 10
3.1356538336
 20
5.1806927233
 30
0.0
 10
3.1261934215
 20
5.1811254902
 30
0.0
 10
3.119752919
 20
5.1816450187
 30
0.0
  0
SPLINE
  5
31A
100
AcDbEntity
  8
0
100
AcDbSpline
 62
7
  6
CONTINUOUS
 70
0
 71
3
 72
9
 73
5
 74
0
 42
0.0000001
 43
0.0000001
 44
0.0000000001
 40
0.0
 40
0.0
 40
0.0
 40
0.0
 40
0.4823284576
 40
1.0
 40
1.0
 40
1.0
 40
1.0
 10
3.119752919
 20
5.1816450187
 30
0.0
 10
3.1125667977
 20
5.1822246932
 30
0.0
 10
3.0977127696
 20
5.1840061871
 30
0.0
 10
3.0829960641
 20
5.1866625737
 30
0.0
 10
3.0754163459
 20
5.1882183853
 30
0.0
  0
SPLINE
  5
31B
100
AcDbEntity
  8
0
100
AcDbSpline
 62
7
  6
CONTINUOUS
 70
0
 71
3
 72
9
 73
5
 74
0
 42
0.0000001
 43
0.0000001
 44
0.0000000001
 40
0.0
 40
0.0
 40
0.0
 40
0.0
 40
0.4902035698
 40
1.0
 40
1.0
 40
1.0
 40
1.0
 10
3.0754163459
 20
5.1882183853
 30
0.0
 10
3.0669158072
 20
5.1899632044
 30
0.0
 10
3.0496689478
 20
5.1939862624
 30
0.0
 10
3.032600497
 20
5.1986949148
 30
0.0
 10
3.0239391183
 20
5.2012294673
 30
0.0
  0
SPLINE
  5
31C
100
AcDbEntity
  8
0
100
AcDbSpline
 62
7
  6
CONTINUOUS
 70
0
 71
3
 72
17
 73
13
 74
0
 42
0.0000001
 43
0.0000001
 44
0.0000000001
 40
0.0
 40
0.0
 40
0.0
 40
0.0
 40
0.1038099157
 40
0.1592554101
 40
0.2167404045
 40
0.3369951149
 40
0.4630570196
 40
0.5278138614
 40
0.5934862146
 40
0.7270590794
 40
0.8628637716
 40
1.0
 40
1.0
 40
1.0
 40
1.0
 10
2.579494861
 20
5.2523757218
 30
0.0
 10
2.5744264177
 20
5.2551310578
 30
0.0
 10
2.5665075366
 20
5.2591000845
 30
0.0
 10
2.5555022953
 20
5.2639983873
 30
0.0
 10
2.5434981564
 20
5.2688854779
 30
0.0
 10
2.5275618048
 20
5.2744943255
 30
0.0
 10
2.510924946
 20
5.2792326522
 30
0.0
 10
2.4970495765
 20
5.2825043874
 30
0.0
 10
2.4826685614
 20
5.2854187747
 30
0.0
 10
2.4642537753
 20
5.2882587934
 30
0.0
 10
2.4417461856
 20
5.290341088
 30
0.0
 10
2.4265740613
 20
5.2908152174
 30
0.0
 10
2.4189530692
 20
5.2908152174
 30
0.0
  0
SPLINE
  5
31D
100
AcDbEntity
  8
0
100
AcDbSpline
 62
7
  6
CONTINUOUS
 70
0
 71
3
 72
16
 73
12
 74
0
 42
0.0000001
 43
0.0000001
 44
0.0000000001
 40
0.0
 40
0.0
 40
0.0
 40
0.0
 40
0.1372512612
 40
0.2730977992
 40
0.4066303997
 40
0.5369174585
 40
0.6629151022
 40
0.7831748668
 40
0.8406617601
 40
0.8961091628
 40
1.0
 40
1.0
 40
1.0
 40
1.0
 10
2.4189530692
 20
5.6970652174
 30
0.0
 10
2.4265811971
 20
5.6970652174
 30
0.0
 10
2.4417634374
 20
5.6975434201
 30
0.0
 10
2.4642792865
 20
5.6996346854
 30
0.0
 10
2.4862456776
 20
5.7030240575
 30
0.0
 10
2.5074283254
 20
5.7076393729
 30
0.0
 10
2.5275645668
 20
5.7133885247
 30
0.0
 10
2.5434950589
 20
5.7190088625
 30
0.0
 10
2.5555031995
 20
5.7238902663
 30
0.0
 10
2.5665197856
 20
5.7287777919
 30
0.0
 10
2.5744382506
 20
5.7327610043
 30
0.0
 10
2.579506951
 20
5.7355264468
 30
0.0
  0
SPLINE
  5
31E
100
AcDbEntity
  8
0
100
AcDbSpline
 62
7
  6
CONTINUOUS
 70
0
 71
3
 72
9
 73
5
 74
0
 42
0.0000001
 43
0.0000001
 44
0.0000000001
 40
0.0
 40
0.0
 40
0.0
 40
0.0
 40
0.243612581
 40
1.0
 40
1.0
 40
1.0
 40
1.0
 10
2.7155269406
 20
5.7931075227
 30
0.0
 10
2.7162509368
 20
5.7933359119
 30
0.0
 10
2.7192338325
 20
5.7942384087
 30
0.0
 10
2.7222581445
 20
5.7950027209
 30
0.0
 10
2.7245601121
 20
5.7955096143
 30
0.0
  0
SPLINE
  5
31F
100
AcDbEntity
  8
0
100
AcDbSpline
 62
7
  6
CONTINUOUS
 70
0
 71
3
 72
9
 73
5
 74
0
 42
0.0000001
 43
0.0000001
 44
0.0000000001
 40
0.0
 40
0.0
 40
0.0
 40
0.0
 40
0.4759207334
 40
1.0
 40
1.0
 40
1.0
 40
1.0
 10
2.7245601121
 20
5.7955096143
 30
0.0
 10
2.7296487135
 20
5.7966301247
 30
0.0
 10
2.7405044645
 20
5.798262601
 30
0.0
 10
2.7514605882
 20
5.7987374838
 30
0.0
 10
2.7571983502
 20
5.7987374838
 30
0.0
  0
SPLINE
  5
320
100
AcDbEntity
  8
0
100
AcDbSpline
 62
7
  6
CONTINUOUS
 70
0
 71
3
 72
17
 73
13
 74
0
 42
0.0000001
 43
0.0000001
 44
0.0000000001
 40
0.0
 40
0.0
 40
0.0
 40
0.0
 40
0.1038099157
 40
0.1592554101
 40
0.2167404045
 40
0.3369951149
 40
0.4630570196
 40
0.5278138614
 40
0.5934862146
 40
0.7270590794
 40
0.8628637716
 40
1.0
 40
1.0
 40
1.0
 40
1.0
 10
3.6661073562
 20
5.2523757218
 30
0.0
 10
3.6610389128
 20
5.2551310578
 30
0.0
 10
3.6531200317
 20
5.2591000845
 30
0.0
 10
3.6421147904
 20
5.2639983873
 30
0.0
 10
3.6301106515
 20
5.2688854779
 30
0.0
 10
3.6141742999
 20
5.2744943255
 30
0.0
 10
3.5975374411
 20
5.2792326522
 30
0.0
 10
3.5836620717
 20
5.2825043874
 30
0.0
 10
3.5692810565
 20
5.2854187747
 30
0.0
 10
3.5508662704
 20
5.2882587934
 30
0.0
 10
3.5283586807
 20
5.290341088
 30
0.0
 10
3.5131865564
 20
5.2908152174
 30
0.0
 10
3.5055655643
 20
5.2908152174
 30
0.0
  0
SPLINE
  5
321
100
AcDbEntity
  8
0
100
AcDbSpline
 62
7
  6
CONTINUOUS
 70
0
 71
3
 72
16
 73
12
 74
0
 42
0.0000001
 43
0.0000001
 44
0.0000000001
 40
0.0
 40
0.0
 40
0.0
 40
0.0
 40
0.1372512612
 40
0.2730977992
 40
0.4066303997
 40
0.5369174585
 40
0.6629151022
 40
0.7831748668
 40
0.8406617601
 40
0.8961091628
 40
1.0
 40
1.0
 40
1.0
 40
1.0
 10
3.5055655643
 20
5.6970652174
 30
0.0
 10
3.5131936922
 20
5.6970652174
 30
0.0
 10
3.5283759326
 20
5.6975434201
 30
0.0
 10
3.5508917816
 20
5.6996346854
 30
0.0
 10
3.5728581728
 20
5.7030240575
 30
0.0
 10
3.5940408205
 20
5.7076393729
 30
0.0
 10
3.614177062
 20
5.7133885247
 30
0.0
 10
3.630107554
 20
5.7190088625
 30
0.0
 10
3.6421156947
 20
5.7238902663
 30
0.0
 10
3.6531322807
 20
5.7287777919
 30
0.0
 10
3.6610507457
 20
5.7327610043
 30
0.0
 10
3.6661194462
 20
5.7355264468
 30
0.0
  0
SPLINE
  5
322
100
AcDbEntity
  8
0
100
AcDbSpline
 62
7
  6
CONTINUOUS
 70
0
 71
3
 72
17
 73
13
 74
0
 42
0.0000001
 43
0.0000001
 44
0.0000000001
 40
0.0
 40
0.0
 40
0.0
 40
0.0
 40
0.1038099157
 40
0.1592554101
 40
0.2167404045
 40
0.3369951149
 40
0.4630570196
 40
0.5278138614
 40
0.5934862146
 40
0.7270590794
 40
0.8628637716
 40
1.0
 40
1.0
 40
1.0
 40
1.0
 10
2.2584112774
 20
5.735504713
 30
0.0
 10
2.2634797207
 20
5.732749377
 30
0.0
 10
2.2713986018
 20
5.7287803502
 30
0.0
 10
2.2824038431
 20
5.7238820474
 30
0.0
 10
2.294407982
 20
5.7189949569
 30
0.0
 10
2.3103443336
 20
5.7133861093
 30
0.0
 10
2.3269811924
 20
5.7086477826
 30
0.0
 10
2.3408565619
 20
5.7053760474
 30
0.0
 10
2.355237577
 20
5.7024616601
 30
0.0
 10
2.3736523631
 20
5.6996216414
 30
0.0
 10
2.3961599528
 20
5.6975393468
 30
0.0
 10
2.4113320771
 20
5.6970652174
 30
0.0
 10
2.4189530692
 20
5.6970652174
 30
0.0
  0
SPLINE
  5
323
100
AcDbEntity
  8
0
100
AcDbSpline
 62
7
  6
CONTINUOUS
 70
0
 71
3
 72
16
 73
12
 74
0
 42
0.0000001
 43
0.0000001
 44
0.0000000001
 40
0.0
 40
0.0
 40
0.0
 40
0.0
 40
0.1372512612
 40
0.2730977992
 40
0.4066303997
 40
0.5369174585
 40
0.6629151022
 40
0.7831748668
 40
0.8406617601
 40
0.8961091628
 40
1.0
 40
1.0
 40
1.0
 40
1.0
 10
2.4189530692
 20
5.2908152174
 30
0.0
 10
2.4113249413
 20
5.2908152174
 30
0.0
 10
2.396142701
 20
5.2903370147
 30
0.0
 10
2.373626852
 20
5.2882457494
 30
0.0
 10
2.3516604608
 20
5.2848563773
 30
0.0
 10
2.3304778131
 20
5.2802410619
 30
0.0
 10
2.3103415716
 20
5.2744919101
 30
0.0
 10
2.2944110795
 20
5.2688715723
 30
0.0
 10
2.2824029389
 20
5.2639901685
 30
0.0
 10
2.2713863528
 20
5.2591026429
 30
0.0
 10
2.2634678878
 20
5.2551194305
 30
0.0
 10
2.2583991874
 20
5.252353988
 30
0.0
  0
SPLINE
  5
324
100
AcDbEntity
  8
0
100
AcDbSpline
 62
7
  6
CONTINUOUS
 70
0
 71
3
 72
9
 73
5
 74
0
 42
0.0000001
 43
0.0000001
 44
0.0000000001
 40
0.0
 40
0.0
 40
0.0
 40
0.0
 40
0.5098237674
 40
1.0
 40
1.0
 40
1.0
 40
1.0
 10
3.0347949911
 20
5.7703013268
 30
0.0
 10
3.0447791597
 20
5.773897381
 30
0.0
 10
3.0645098237
 20
5.7805512748
 30
0.0
 10
3.0845582085
 20
5.7861992009
 30
0.0
 10
3.0944649619
 20
5.7886402687
 30
0.0
  0
SPLINE
  5
325
100
AcDbEntity
  8
0
100
AcDbSpline
 62
7
  6
CONTINUOUS
 70
0
 71
3
 72
10
 73
6
 74
0
 42
0.0000001
 43
0.0000001
 44
0.0000000001
 40
0.0
 40
0.0
 40
0.0
 40
0.0
 40
0.5176816514
 40
0.7636525403
 40
1.0
 40
1.0
 40
1.0
 40
1.0
 10
3.0944649619
 20
5.7886402687
 30
0.0
 10
3.1031050622
 20
5.7907692276
 30
0.0
 10
3.1159479395
 20
5.7935446539
 30
0.0
 10
3.1329247692
 20
5.7962572674
 30
0.0
 10
3.1411603544
 20
5.7972379631
 30
0.0
 10
3.1452044276
 20
5.7976257301
 30
0.0
  0
SPLINE
  5
326
100
AcDbEntity
  8
0
100
AcDbSpline
 62
7
  6
CONTINUOUS
 70
0
 71
3
 72
9
 73
5
 74
0
 42
0.0000001
 43
0.0000001
 44
0.0000000001
 40
0.0
 40
0.0
 40
0.0
 40
0.0
 40
0.2443475999
 40
1.0
 40
1.0
 40
1.0
 40
1.0
 10
2.8115958667
 20
5.7927664046
 30
0.0
 10
2.8138665955
 20
5.7923132055
 30
0.0
 10
2.823142909
 20
5.790375111
 30
0.0
 10
2.8323522812
 20
5.7881212966
 30
0.0
 10
2.8392700475
 20
5.7862715745
 30
0.0
  0
SPLINE
  5
327
100
AcDbEntity
  8
0
100
AcDbSpline
 62
7
  6
CONTINUOUS
 70
0
 71
3
 72
9
 73
5
 74
0
 42
0.0000001
 43
0.0000001
 44
0.0000000001
 40
0.0
 40
0.0
 40
0.0
 40
0.0
 40
0.492215503
 40
1.0
 40
1.0
 40
1.0
 40
1.0
 10
2.8392700475
 20
5.7862715745
 30
0.0
 10
2.847660087
 20
5.7840281854
 30
0.0
 10
2.8645895154
 20
5.7790307604
 30
0.0
 10
2.8812945921
 20
5.7733372689
 30
0.0
 10
2.8897239934
 20
5.7703012024
 30
0.0
  0
SPLINE
  5
328
100
AcDbEntity
  8
0
100
AcDbSpline
 62
7
  6
CONTINUOUS
 70
0
 71
3
 72
9
 73
5
 74
0
 42
0.0000001
 43
0.0000001
 44
0.0000000001
 40
0.0
 40
0.0
 40
0.0
 40
0.0
 40
0.2472991025
 40
1.0
 40
1.0
 40
1.0
 40
1.0
 10
2.8897239934
 20
5.7703012024
 30
0.0
 10
2.8936079457
 20
5.7689022943
 30
0.0
 10
2.9094534283
 20
5.7636495738
 30
0.0
 10
2.9258827672
 20
5.7600950053
 30
0.0
 10
2.9383589573
 20
5.7586042042
 30
0.0
  0
SPLINE
  5
329
100
AcDbEntity
  8
0
100
AcDbSpline
 62
7
  6
CONTINUOUS
 70
0
 71
3
 72
9
 73
5
 74
0
 42
0.0000001
 43
0.0000001
 44
0.0000000001
 40
0.0
 40
0.0
 40
0.0
 40
0.0
 40
0.5097981476
 40
1.0
 40
1.0
 40
1.0
 40
1.0
 10
2.9005793424
 20
5.2012294827
 30
0.0
 10
2.8919169096
 20
5.198694623
 30
0.0
 10
2.874846435
 20
5.1939854291
 30
0.0
 10
2.857597507
 20
5.1899620048
 30
0.0
 10
2.8490959712
 20
5.1882170897
 30
0.0
  0
SPLINE
  5
32A
100
AcDbEntity
  8
0
100
AcDbSpline
 62
7
  6
CONTINUOUS
 70
0
 71
3
 72
9
 73
5
 74
0
 42
0.0000001
 43
0.0000001
 44
0.0000000001
 40
0.0
 40
0.0
 40
0.0
 40
0.0
 40
0.5176700521
 40
1.0
 40
1.0
 40
1.0
 40
1.0
 10
2.8490959712
 20
5.1882170897
 30
0.0
 10
2.8415172758
 20
5.1866615849
 30
0.0
 10
2.8268025196
 20
5.1840057311
 30
0.0
 10
2.811950481
 20
5.1822245842
 30
0.0
 10
2.8047653039
 20
5.181644995
 30
0.0
  0
SPLINE
  5
32B
100
AcDbEntity
  8
0
100
AcDbSpline
 62
7
  6
CONTINUOUS
 70
0
 71
3
 72
10
 73
6
 74
0
 42
0.0000001
 43
0.0000001
 44
0.0000000001
 40
0.0
 40
0.0
 40
0.0
 40
0.0
 40
0.5259377089
 40
0.769690519
 40
1.0
 40
1.0
 40
1.0
 40
1.0
 10
2.8047653039
 20
5.181644995
 30
0.0
 10
2.7983210556
 20
5.1811251726
 30
0.0
 10
2.7888552751
 20
5.1806923548
 30
0.0
 10
2.7765622679
 20
5.1809626942
 30
0.0
 10
2.7707462954
 20
5.1813791376
 30
0.0
 10
2.7679294046
 20
5.1816626176
 30
0.0
  0
SPLINE
  5
32C
100
AcDbEntity
  8
0
100
AcDbSpline
 62
7
  6
CONTINUOUS
 70
0
 71
3
 72
11
 73
7
 74
0
 42
0.0000001
 43
0.0000001
 44
0.0000000001
 40
0.0
 40
0.0
 40
0.0
 40
0.0
 40
0.2105855243
 40
0.4459389855
 40
0.7084688783
 40
1.0
 40
1.0
 40
1.0
 40
1.0
 10
3.1729866094
 20
5.7986601924
 30
0.0
 10
3.1715862268
 20
5.7998672919
 30
0.0
 10
3.168393832
 20
5.8021651667
 30
0.0
 10
3.1628786482
 20
5.805073601
 30
0.0
 10
3.1564017213
 20
5.8075773249
 30
0.0
 10
3.1517043067
 20
5.8088712986
 30
0.0
 10
3.149211056
 20
5.8094498011
 30
0.0
  0
SPLINE
  5
32D
100
AcDbEntity
  8
0
100
AcDbSpline
 62
7
  6
CONTINUOUS
 70
0
 71
3
 72
9
 73
5
 74
0
 42
0.0000001
 43
0.0000001
 44
0.0000000001
 40
0.0
 40
0.0
 40
0.0
 40
0.0
 40
0.5094566127
 40
1.0
 40
1.0
 40
1.0
 40
1.0
 10
3.0347949389
 20
5.7703013097
 30
0.0
 10
3.044756021
 20
5.7739398092
 30
0.0
 10
3.0644856236
 20
5.7806068128
 30
0.0
 10
3.0845474424
 20
5.7862093219
 30
0.0
 10
3.0944649619
 20
5.7886402687
 30
0.0
  0
SPLINE
  5
32E
100
AcDbEntity
  8
0
100
AcDbSpline
 62
7
  6
CONTINUOUS
 70
0
 71
3
 72
10
 73
6
 74
0
 42
0.0000001
 43
0.0000001
 44
0.0000000001
 40
0.0
 40
0.0
 40
0.0
 40
0.0
 40
0.5178367129
 40
0.7637485384
 40
1.0
 40
1.0
 40
1.0
 40
1.0
 10
3.0944649619
 20
5.7886402687
 30
0.0
 10
3.1031100964
 20
5.7907593331
 30
0.0
 10
3.1159545086
 20
5.7935320448
 30
0.0
 10
3.1329299393
 20
5.7962516624
 30
0.0
 10
3.1411622286
 20
5.7972363951
 30
0.0
 10
3.1452044303
 20
5.7976257274
 30
0.0
  0
SPLINE
  5
32F
100
AcDbEntity
  8
0
100
AcDbSpline
 62
7
  6
CONTINUOUS
 70
0
 71
3
 72
12
 73
8
 74
0
 42
0.0000001
 43
0.0000001
 44
0.0000000001
 40
0.0
 40
0.0
 40
0.0
 40
0.0
 40
0.2833614821
 40
0.4169044744
 40
0.5448438659
 40
0.7835822176
 40
1.0
 40
1.0
 40
1.0
 40
1.0
 10
3.1452044303
 20
5.7976257274
 30
0.0
 10
3.1512554885
 20
5.7982085463
 30
0.0
 10
3.1601942542
 20
5.7987610925
 30
0.0
 10
3.1718861082
 20
5.7987457833
 30
0.0
 10
3.1826091868
 20
5.7982495733
 30
0.0
 10
3.1950537073
 20
5.7967674302
 30
0.0
 10
3.2045808218
 20
5.7944911476
 30
0.0
 10
3.2090090567
 20
5.7930957314
 30
0.0
  0
SPLINE
  5
330
100
AcDbEntity
  8
0
100
AcDbSpline
 62
7
  6
CONTINUOUS
 70
0
 71
3
 72
9
 73
5
 74
0
 42
0.0000001
 43
0.0000001
 44
0.0000000001
 40
0.0
 40
0.0
 40
0.0
 40
0.0
 40
0.2473472755
 40
1.0
 40
1.0
 40
1.0
 40
1.0
 10
2.8897239635
 20
5.7703012147
 30
0.0
 10
2.8936095546
 20
5.7689046194
 30
0.0
 10
2.9094565591
 20
5.7636577067
 30
0.0
 10
2.9258838982
 20
5.760096896
 30
0.0
 10
2.9383589167
 20
5.7586042242
 30
0.0
  0
SPLINE
  5
331
100
AcDbEntity
  8
0
100
AcDbSpline
 62
7
  6
CONTINUOUS
 70
0
 71
3
 72
9
 73
5
 74
0
 42
0.0000001
 43
0.0000001
 44
0.0000000001
 40
0.0
 40
0.0
 40
0.0
 40
0.0
 40
0.2525321535
 40
1.0
 40
1.0
 40
1.0
 40
1.0
 10
2.9859058936
 20
5.7585740381
 30
0.0
 10
2.9901139998
 20
5.759071682
 30
0.0
 10
3.006712849
 20
5.7615748023
 30
0.0
 10
3.0229939367
 20
5.7660532004
 30
0.0
 10
3.0347949387
 20
5.7703013109
 30
0.0
  0
SPLINE
  5
332
100
AcDbEntity
  8
0
100
AcDbSpline
 62
7
  6
CONTINUOUS
 70
0
 71
3
 72
9
 73
5
 74
0
 42
0.0000001
 43
0.0000001
 44
0.0000000001
 40
0.0
 40
0.0
 40
0.0
 40
0.0
 40
0.4808228165
 40
1.0
 40
1.0
 40
1.0
 40
1.0
 10
2.7571983502
 20
5.7987374838
 30
0.0
 10
2.7632777006
 20
5.7987310016
 30
0.0
 10
2.7759233867
 20
5.7981486992
 30
0.0
 10
2.7884891008
 20
5.7966584908
 30
0.0
 10
2.7949806736
 20
5.7956841068
 30
0.0
  0
SPLINE
  5
333
100
AcDbEntity
  8
0
100
AcDbSpline
 62
7
  6
CONTINUOUS
 70
0
 71
3
 72
9
 73
5
 74
0
 42
0.0000001
 43
0.0000001
 44
0.0000000001
 40
0.0
 40
0.0
 40
0.0
 40
0.0
 40
0.2443120991
 40
1.0
 40
1.0
 40
1.0
 40
1.0
 10
2.811595043
 20
5.792764365
 30
0.0
 10
2.8138653378
 20
5.7923106024
 30
0.0
 10
2.8231412109
 20
5.7903699017
 30
0.0
 10
2.8323504405
 20
5.7881159573
 30
0.0
 10
2.8392700417
 20
5.7862715494
 30
0.0
  0
SPLINE
  5
334
100
AcDbEntity
  8
0
100
AcDbSpline
 62
7
  6
CONTINUOUS
 70
0
 71
3
 72
9
 73
5
 74
0
 42
0.0000001
 43
0.0000001
 44
0.0000000001
 40
0.0
 40
0.0
 40
0.0
 40
0.0
 40
0.4924633212
 40
1.0
 40
1.0
 40
1.0
 40
1.0
 10
2.8392700417
 20
5.7862715494
 30
0.0
 10
2.8476662418
 20
5.7840335567
 30
0.0
 10
2.8646044588
 20
5.7790651402
 30
0.0
 10
2.8813088703
 20
5.7733645732
 30
0.0
 10
2.8897239458
 20
5.7703012184
 30
0.0
  0
SPLINE
  5
335
100
AcDbEntity
  8
0
100
AcDbSpline
 62
7
  6
CONTINUOUS
 70
0
 71
3
 72
9
 73
5
 74
0
 42
0.0000001
 43
0.0000001
 44
0.0000000001
 40
0.0
 40
0.0
 40
0.0
 40
0.0
 40
0.5094380253
 40
1.0
 40
1.0
 40
1.0
 40
1.0
 10
2.9005793711
 20
5.2012293249
 30
0.0
 10
2.891932396
 20
5.19866375
 30
0.0
 10
2.8748626718
 20
5.1939452147
 30
0.0
 10
2.8576057529
 20
5.1899544951
 30
0.0
 10
2.8490959595
 20
5.188217023
 30
0.0
  0
SPLINE
  5
336
100
AcDbEntity
  8
0
100
AcDbSpline
 62
7
  6
CONTINUOUS
 70
0
 71
3
 72
9
 73
5
 74
0
 42
0.0000001
 43
0.0000001
 44
0.0000000001
 40
0.0
 40
0.0
 40
0.0
 40
0.0
 40
0.5178168693
 40
1.0
 40
1.0
 40
1.0
 40
1.0
 10
2.8490959595
 20
5.188217023
 30
0.0
 10
2.8415136046
 20
5.186668909
 30
0.0
 10
2.8267989132
 20
5.1840160643
 30
0.0
 10
2.8119480314
 20
5.1822269975
 30
0.0
 10
2.8047653377
 20
5.1816449753
 30
0.0
  0
SPLINE
  5
337
100
AcDbEntity
  8
0
100
AcDbSpline
 62
7
  6
CONTINUOUS
 70
0
 71
3
 72
10
 73
6
 74
0
 42
0.0000001
 43
0.0000001
 44
0.0000000001
 40
0.0
 40
0.0
 40
0.0
 40
0.0
 40
0.5257674489
 40
0.7695441333
 40
1.0
 40
1.0
 40
1.0
 40
1.0
 10
2.8047653377
 20
5.1816449753
 30
0.0
 10
2.7983232852
 20
5.1811229681
 30
0.0
 10
2.7888591428
 20
5.1806884271
 30
0.0
 10
2.7765659833
 20
5.1809600036
 30
0.0
 10
2.7707479437
 20
5.1813781567
 30
0.0
 10
2.7679293159
 20
5.1816626977
 30
0.0
  0
SPLINE
  5
338
100
AcDbEntity
  8
0
100
AcDbSpline
 62
7
  6
CONTINUOUS
 70
0
 71
3
 72
9
 73
5
 74
0
 42
0.0000001
 43
0.0000001
 44
0.0000000001
 40
0.0
 40
0.0
 40
0.0
 40
0.0
 40
0.5207338626
 40
1.0
 40
1.0
 40
1.0
 40
1.0
 10
2.7679293159
 20
5.1816626977
 30
0.0
 10
2.7646019106
 20
5.1819985998
 30
0.0
 10
2.758231327
 20
5.1828613711
 30
0.0
 10
2.7519468313
 20
5.1842281832
 30
0.0
 10
2.7489736579
 20
5.1850246209
 30
0.0
  0
SPLINE
  5
339
100
AcDbEntity
  8
0
100
AcDbSpline
 62
7
  6
CONTINUOUS
 70
0
 71
3
 72
17
 73
13
 74
0
 42
0.0000001
 43
0.0000001
 44
0.0000000001
 40
0.0
 40
0.0
 40
0.0
 40
0.0
 40
0.0435004114
 40
0.0899103434
 40
0.1392142739
 40
0.1913816788
 40
0.3040999531
 40
0.4273608619
 40
0.5600274865
 40
0.7007979778
 40
0.8480560401
 40
1.0
 40
1.0
 40
1.0
 40
1.0
 10
3.149211056
 20
5.8094498011
 30
0.0
 10
3.1473032573
 20
5.8098924627
 30
0.0
 10
3.1433309896
 20
5.8106849629
 30
0.0
 10
3.1371256146
 20
5.8115837945
 30
0.0
 10
3.1304962368
 20
5.8122244924
 30
0.0
 10
3.1208641868
 20
5.8127391361
 30
0.0
 10
3.1078788736
 20
5.8126435126
 30
0.0
 10
3.0913155461
 20
5.8114597097
 30
0.0
 10
3.0735838301
 20
5.8092636925
 30
0.0
 10
3.0549039235
 20
5.806101942
 30
0.0
 10
3.0354986254
 20
5.8021103134
 30
0.0
 10
3.0223834576
 20
5.7990288078
 30
0.0
 10
3.0157417094
 20
5.7973904418
 30
0.0
  0
SPLINE
  5
33A
100
AcDbEntity
  8
0
100
AcDbSpline
 62
9
  6
CONTINUOUS
 70
0
 71
3
 72
11
 73
7
 74
0
 42
0.0000001
 43
0.0000001
 44
0.0000000001
 40
0.0
 40
0.0
 40
0.0
 40
0.0
 40
0.2567391439
 40
0.5079607349
 40
0.7552031178
 40
1.0
 40
1.0
 40
1.0
 40
1.0
 10
2.5795532228
 20
5.2523438993
 30
0.0
 10
2.5847072595
 20
5.249542486
 30
0.0
 10
2.5952302881
 20
5.2445717212
 30
0.0
 10
2.6116529474
 20
5.2391370206
 30
0.0
 10
2.6283600875
 20
5.2358550798
 30
0.0
 10
2.6396155362
 20
5.2351160419
 30
0.0
 10
2.6452088453
 20
5.2351160419
 30
0.0
  0
SPLINE
  5
33B
100
AcDbEntity
  8
0
100
AcDbSpline
 62
9
  6
CONTINUOUS
 70
0
 71
3
 72
15
 73
11
 74
0
 42
0.0000001
 43
0.0000001
 44
0.0000000001
 40
0.0
 40
0.0
 40
0.0
 40
0.0
 40
0.1024075718
 40
0.206315304
 40
0.3152259022
 40
0.4317272224
 40
0.5572064245
 40
0.6927800006
 40
0.8398877246
 40
1.0
 40
1.0
 40
1.0
 40
1.0
 10
2.9622608115
 20
5.8308152174
 30
0.0
 10
2.9600378632
 20
5.8308151876
 30
0.0
 10
2.955551013
 20
5.8304642537
 30
0.0
 10
2.9488736474
 20
5.82885814
 30
0.0
 10
2.9422156924
 20
5.8261966305
 30
0.0
 10
2.9355347134
 20
5.8225033647
 30
0.0
 10
2.9288308195
 20
5.8177630947
 30
0.0
 10
2.9221241548
 20
5.811955301
 30
0.0
 10
2.9153817368
 20
5.8050945052
 30
0.0
 10
2.9110020406
 20
5.8000609303
 30
0.0
 10
2.9087779373
 20
5.7973902146
 30
0.0
  0
SPLINE
  5
33C
100
AcDbEntity
  8
0
100
AcDbSpline
 62
9
  6
CONTINUOUS
 70
0
 71
3
 72
30
 73
26
 74
0
 42
0.0000001
 43
0.0000001
 44
0.0000000001
 40
0.0
 40
0.0
 40
0.0
 40
0.0
 40
0.0532796637
 40
0.1093862881
 40
0.1386013039
 40
0.1685745762
 40
0.1992904115
 40
0.2307175695
 40
0.2628067967
 40
0.2954995613
 40
0.3623979516
 40
0.3964686538
 40
0.4308258836
 40
0.5000042547
 40
0.5691832144
 40
0.6035411606
 40
0.6376128501
 40
0.7045139929
 40
0.7372084596
 40
0.7692995732
 40
0.8314125903
 40
0.8613881003
 40
0.8906053856
 40
0.9467164759
 40
1.0
 40
1.0
 40
1.0
 40
1.0
 10
3.6661132736
 20
5.2523718584
 30
0.0
 10
3.65735365
 20
5.2571382469
 30
0.0
 10
3.64028444
 20
5.2686787663
 30
0.0
 10
3.6215054473
 20
5.2867411392
 30
0.0
 10
3.6077308563
 20
5.303373164
 30
0.0
 10
3.5979562617
 20
5.3170891585
 30
0.0
 10
3.5889438124
 20
5.3318030361
 30
0.0
 10
3.5807430609
 20
5.3474319452
 30
0.0
 10
3.5733922688
 20
5.3638840082
 30
0.0
 10
3.5647155852
 20
5.3869656863
 30
0.0
 10
3.5580119384
 20
5.4111362031
 30
0.0
 10
3.5532712123
 20
5.4360270643
 30
0.0
 10
3.5498329994
 20
5.4615644135
 30
0.0
 10
3.5481251235
 20
5.4939113056
 30
0.0
 10
3.5498279091
 20
5.5262586112
 30
0.0
 10
3.5532620434
 20
5.5517969169
 30
0.0
 10
3.5579989282
 20
5.576689457
 30
0.0
 10
3.5646984425
 20
5.6008615504
 30
0.0
 10
3.5733721465
 20
5.6239470914
 30
0.0
 10
3.5830610226
 20
5.6456442378
 30
0.0
 10
3.5945172752
 20
5.6659609735
 30
0.0
 10
3.6077004734
 20
5.6844675803
 30
0.0
 10
3.6214728131
 20
5.7011046092
 30
0.0
 10
3.6402486768
 20
5.7191725591
 30
0.0
 10
3.6573161175
 20
5.7307185725
 30
0.0
 10
3.6660750379
 20
5.7354877642
 30
0.0
  0
SPLINE
  5
33D
100
AcDbEntity
  8
0
100
AcDbSpline
 62
9
  6
CONTINUOUS
 70
0
 71
3
 72
30
 73
26
 74
0
 42
0.0000001
 43
0.0000001
 44
0.0000000001
 40
0.0
 40
0.0
 40
0.0
 40
0.0
 40
0.0532796637
 40
0.1093862881
 40
0.1386013039
 40
0.1685745762
 40
0.1992904115
 40
0.2307175695
 40
0.2628067967
 40
0.2954995613
 40
0.3623979516
 40
0.3964686538
 40
0.4308258836
 40
0.5000042547
 40
0.5691832144
 40
0.6035411606
 40
0.6376128501
 40
0.7045139929
 40
0.7372084596
 40
0.7692995732
 40
0.8314125903
 40
0.8613881003
 40
0.8906053856
 40
0.9467164759
 40
1.0
 40
1.0
 40
1.0
 40
1.0
 10
2.25840536
 20
5.7355085764
 30
0.0
 10
2.2671649836
 20
5.7307421878
 30
0.0
 10
2.2842341935
 20
5.7192016685
 30
0.0
 10
2.3030131862
 20
5.7011392956
 30
0.0
 10
2.3167877773
 20
5.6845072708
 30
0.0
 10
2.3265623719
 20
5.6707912763
 30
0.0
 10
2.3355748211
 20
5.6560773987
 30
0.0
 10
2.3437755726
 20
5.6404484896
 30
0.0
 10
2.3511263647
 20
5.6239964266
 30
0.0
 10
2.3598030484
 20
5.6009147485
 30
0.0
 10
2.3665066952
 20
5.5767442317
 30
0.0
 10
2.3712474212
 20
5.5518533705
 30
0.0
 10
2.3746856342
 20
5.5263160213
 30
0.0
 10
2.37639351
 20
5.4939691292
 30
0.0
 10
2.3746907244
 20
5.4616218236
 30
0.0
 10
2.3712565902
 20
5.4360835179
 30
0.0
 10
2.3665197053
 20
5.4111909778
 30
0.0
 10
2.359820191
 20
5.3870188844
 30
0.0
 10
2.351146487
 20
5.3639333434
 30
0.0
 10
2.3414576109
 20
5.342236197
 30
0.0
 10
2.3300013584
 20
5.3219194613
 30
0.0
 10
2.3168181602
 20
5.3034128545
 30
0.0
 10
2.3030458204
 20
5.2867758256
 30
0.0
 10
2.2842699567
 20
5.2687078756
 30
0.0
 10
2.2672025161
 20
5.2571618623
 30
0.0
 10
2.2584435956
 20
5.2523926706
 30
0.0
  0
SPLINE
  5
33E
100
AcDbEntity
  8
0
100
AcDbSpline
 62
7
  6
CONTINUOUS
 70
0
 71
3
 72
15
 73
11
 74
0
 42
0.0000001
 43
0.0000001
 44
0.0000000001
 40
0.0
 40
0.0
 40
0.0
 40
0.0
 40
0.1233135956
 40
0.2481136658
 40
0.3738361564
 40
0.5000000141
 40
0.6261638634
 40
0.7518863434
 40
0.8766864129
 40
1.0
 40
1.0
 40
1.0
 40
1.0
 10
2.9087771169
 20
5.797390402
 30
0.0
 10
2.9130881927
 20
5.7963269612
 30
0.0
 10
2.9218252831
 20
5.7944337515
 30
0.0
 10
2.9351317814
 20
5.7923496317
 30
0.0
 10
2.9486441657
 20
5.7910705375
 30
0.0
 10
2.9622594178
 20
5.7906470469
 30
0.0
 10
2.9758746702
 20
5.7910705284
 30
0.0
 10
2.989387053
 20
5.7923496352
 30
0.0
 10
3.002693547
 20
5.7944337781
 30
0.0
 10
3.0114306344
 20
5.796326999
 30
0.0
 10
3.0157417094
 20
5.7973904418
 30
0.0
  0
SPLINE
  5
33F
100
AcDbEntity
  8
0
100
AcDbSpline
 62
7
  6
CONTINUOUS
 70
0
 71
3
 72
12
 73
8
 74
0
 42
0.0000001
 43
0.0000001
 44
0.0000000001
 40
0.0
 40
0.0
 40
0.0
 40
0.0
 40
0.2763986448
 40
0.5386683342
 40
0.781437775
 40
0.8940549809
 40
1.0
 40
1.0
 40
1.0
 40
1.0
 10
2.9087771169
 20
5.797390402
 30
0.0
 10
2.8996021558
 20
5.7996536468
 30
0.0
 10
2.881653288
 20
5.8038006228
 30
0.0
 10
2.8553794202
 20
5.8086989764
 30
0.0
 10
2.8344142632
 20
5.8113785581
 30
0.0
 10
2.818675284
 20
5.8124659951
 30
0.0
 10
2.8112019356
 20
5.8126599081
 30
0.0
 10
2.8075797084
 20
5.8126599081
 30
0.0
  0
SPLINE
  5
340
100
AcDbEntity
  8
0
100
AcDbSpline
 62
7
  6
CONTINUOUS
 70
0
 71
3
 72
11
 73
7
 74
0
 42
0.0000001
 43
0.0000001
 44
0.0000000001
 40
0.0
 40
0.0
 40
0.0
 40
0.0
 40
0.2766940011
 40
0.5359622975
 40
0.777173705
 40
1.0
 40
1.0
 40
1.0
 40
1.0
 10
2.8075797084
 20
5.8126599081
 30
0.0
 10
2.804582494
 20
5.8126599081
 30
0.0
 10
2.7987757291
 20
5.812534851
 30
0.0
 10
2.7903745145
 20
5.8119393112
 30
0.0
 10
2.7825977185
 20
5.8109508866
 30
0.0
 10
2.7776575952
 20
5.8099973159
 30
0.0
 10
2.7753066719
 20
5.8094503793
 30
0.0
  0
SPLINE
  5
341
100
AcDbEntity
  8
0
100
AcDbSpline
 62
9
  6
CONTINUOUS
 70
0
 71
3
 72
15
 73
11
 74
0
 42
0.0000001
 43
0.0000001
 44
0.0000000001
 40
0.0
 40
0.0
 40
0.0
 40
0.0
 40
0.1583787937
 40
0.3049454722
 40
0.4404883191
 40
0.5660335154
 40
0.682903522
 40
0.7927695699
 40
0.8976752218
 40
1.0
 40
1.0
 40
1.0
 40
1.0
 10
3.0157410982
 20
5.7973903253
 30
0.0
 10
3.0135660925
 20
5.8000524281
 30
0.0
 10
3.0092361126
 20
5.8050650331
 30
0.0
 10
3.0025085152
 20
5.8118699564
 30
0.0
 10
2.9957998749
 20
5.8176561314
 30
0.0
 10
2.989101784
 20
5.8224171004
 30
0.0
 10
2.9824051563
 20
5.8261445249
 30
0.0
 10
2.9757009881
 20
5.8288266123
 30
0.0
 10
2.968986811
 20
5.8304483888
 30
0.0
 10
2.9644812805
 20
5.830814043
 30
0.0
 10
2.9622602964
 20
5.830815217
 30
0.0
  0
SPLINE
  5
342
100
AcDbEntity
  8
0
100
AcDbSpline
 62
9
  6
CONTINUOUS
 70
0
 71
3
 72
13
 73
9
 74
0
 42
0.0000001
 43
0.0000001
 44
0.0000000001
 40
0.0
 40
0.0
 40
0.0
 40
0.0
 40
0.2882938019
 40
0.5557429552
 40
0.6789910718
 40
0.7943600463
 40
0.9014799258
 40
1.0
 40
1.0
 40
1.0
 40
1.0
 10
3.1072647185
 20
5.5822062899
 30
0.0
 10
3.1033808208
 20
5.6012684672
 30
0.0
 10
3.0938818783
 20
5.6376255481
 30
0.0
 10
3.0783897836
 20
5.6807929056
 30
0.0
 10
3.0651207589
 20
5.7122650175
 30
0.0
 10
3.055243048
 20
5.7334080666
 30
0.0
 10
3.0452601209
 20
5.752639114
 30
0.0
 10
3.0382930026
 20
5.7646479627
 30
0.0
 10
3.0347949964
 20
5.7703013287
 30
0.0
  0
SPLINE
  5
343
100
AcDbEntity
  8
0
100
AcDbSpline
 62
9
  6
CONTINUOUS
 70
0
 71
3
 72
21
 73
17
 74
0
 42
0.0000001
 43
0.0000001
 44
0.0000000001
 40
0.0
 40
0.0
 40
0.0
 40
0.0
 40
0.0536948368
 40
0.1077882484
 40
0.1625177968
 40
0.218111894
 40
0.274809585
 40
0.3328254239
 40
0.4533485818
 40
0.5805220633
 40
0.6466828539
 40
0.7144894186
 40
0.7838806952
 40
0.8547429131
 40
0.9268630667
 40
1.0
 40
1.0
 40
1.0
 40
1.0
 10
3.2793097883
 20
5.7527643929
 30
0.0
 10
3.2746513641
 20
5.7527643929
 30
0.0
 10
3.2652922762
 20
5.7522530717
 30
0.0
 10
3.2513522413
 20
5.7499759943
 30
0.0
 10
3.2375685299
 20
5.7462030206
 30
0.0
 10
3.2240389817
 20
5.7409457408
 30
0.0
 10
3.2108445738
 20
5.7342432676
 30
0.0
 10
3.1935825954
 20
5.7233068037
 30
0.0
 10
3.1732283064
 20
5.7060799919
 30
0.0
 10
3.1554760194
 20
5.6852885971
 30
0.0
 10
3.1427027185
 20
5.666558872
 30
0.0
 10
3.1337876298
 20
5.6513174925
 30
0.0
 10
3.1257213596
 20
5.6351553474
 30
0.0
 10
3.1185548355
 20
5.6181681286
 30
0.0
 10
3.1123237983
 20
5.6004726407
 30
0.0
 10
3.1088412868
 20
5.5883525087
 30
0.0
 10
3.1072646686
 20
5.5822063346
 30
0.0
  0
SPLINE
  5
344
100
AcDbEntity
  8
0
100
AcDbSpline
 62
9
  6
CONTINUOUS
 70
0
 71
3
 72
15
 73
11
 74
0
 42
0.0000001
 43
0.0000001
 44
0.0000000001
 40
0.0
 40
0.0
 40
0.0
 40
0.0
 40
0.1191688087
 40
0.2433395901
 40
0.3708404166
 40
0.5000000489
 40
0.6291596741
 40
0.7566604804
 40
0.880831231
 40
1.0
 40
1.0
 40
1.0
 40
1.0
 10
3.1072647213
 20
5.5822062657
 30
0.0
 10
3.0958284063
 20
5.5805373522
 30
0.0
 10
3.0724037308
 20
5.5776098733
 30
0.0
 10
3.0365697255
 20
5.574455391
 30
0.0
 10
2.9996793625
 20
5.5725032662
 30
0.0
 10
2.9622592277
 20
5.5718280189
 30
0.0
 10
2.9248390958
 20
5.5725033213
 30
0.0
 10
2.8879487413
 20
5.5744555001
 30
0.0
 10
2.8521147493
 20
5.5776100341
 30
0.0
 10
2.8286900849
 20
5.5805375462
 30
0.0
 10
2.8172537761
 20
5.5822064756
 30
0.0
  0
SPLINE
  5
345
100
AcDbEntity
  8
0
100
AcDbSpline
 62
9
  6
CONTINUOUS
 70
0
 71
3
 72
21
 73
17
 74
0
 42
0.0000001
 43
0.0000001
 44
0.0000000001
 40
0.0
 40
0.0
 40
0.0
 40
0.0
 40
0.0731369333
 40
0.1452570869
 40
0.2161193048
 40
0.2855105814
 40
0.3533171461
 40
0.4194779367
 40
0.5466514182
 40
0.6671745761
 40
0.725190415
 40
0.781888106
 40
0.8374822032
 40
0.8922117516
 40
0.9463051632
 40
1.0
 40
1.0
 40
1.0
 40
1.0
 10
2.8172539649
 20
5.5822063346
 30
0.0
 10
2.8156773468
 20
5.5883525087
 30
0.0
 10
2.8121948352
 20
5.6004726407
 30
0.0
 10
2.8059637981
 20
5.6181681286
 30
0.0
 10
2.7987972739
 20
5.6351553474
 30
0.0
 10
2.7907310037
 20
5.6513174925
 30
0.0
 10
2.781815915
 20
5.666558872
 30
0.0
 10
2.7690426141
 20
5.6852885971
 30
0.0
 10
2.7512903272
 20
5.7060799919
 30
0.0
 10
2.7309360381
 20
5.7233068037
 30
0.0
 10
2.7136740597
 20
5.7342432676
 30
0.0
 10
2.7004796519
 20
5.7409457408
 30
0.0
 10
2.6869501036
 20
5.7462030206
 30
0.0
 10
2.6731663922
 20
5.7499759943
 30
0.0
 10
2.6592263573
 20
5.7522530717
 30
0.0
 10
2.6498672695
 20
5.7527643929
 30
0.0
 10
2.6452088453
 20
5.7527643929
 30
0.0
  0
SPLINE
  5
346
100
AcDbEntity
  8
0
100
AcDbSpline
 62
9
  6
CONTINUOUS
 70
0
 71
3
 72
19
 73
15
 74
0
 42
0.0000001
 43
0.0000001
 44
0.0000000001
 40
0.0
 40
0.0
 40
0.0
 40
0.0
 40
0.091873295
 40
0.192423316
 40
0.2460912656
 40
0.302078753
 40
0.3604264619
 40
0.4211773153
 40
0.4843766826
 40
0.550076261
 40
0.689255779
 40
0.7629192039
 40
0.8393402501
 40
1.0
 40
1.0
 40
1.0
 40
1.0
 10
2.8897239458
 20
5.7703012184
 30
0.0
 10
2.886413566
 20
5.7650583859
 30
0.0
 10
2.8798526533
 20
5.7538409342
 30
0.0
 10
2.8721942094
 20
5.73909809
 30
0.0
 10
2.8660093481
 20
5.7263300023
 30
0.0
 10
2.8612455087
 20
5.7160401916
 30
0.0
 10
2.8564732787
 20
5.7052295808
 30
0.0
 10
2.8517065306
 20
5.6938866446
 30
0.0
 10
2.8469589755
 20
5.6819995394
 30
0.0
 10
2.8405536366
 20
5.6650781227
 30
0.0
 10
2.8344534977
 20
5.647288733
 30
0.0
 10
2.8287853218
 20
5.6286055811
 30
0.0
 10
2.8231991172
 20
5.6083896246
 30
0.0
 10
2.8195088314
 20
5.5928121183
 30
0.0
 10
2.8172539649
 20
5.5822063346
 30
0.0
  0
SPLINE
  5
347
100
AcDbEntity
  8
0
100
AcDbSpline
 62
9
  6
CONTINUOUS
 70
0
 71
3
 72
11
 73
7
 74
0
 42
0.0000001
 43
0.0000001
 44
0.0000000001
 40
0.0
 40
0.0
 40
0.0
 40
0.0
 40
0.2447894749
 40
0.4920277326
 40
0.7432509041
 40
1.0
 40
1.0
 40
1.0
 40
1.0
 10
2.6452088453
 20
5.7527643929
 30
0.0
 10
2.6396108554
 20
5.7527643929
 30
0.0
 10
2.6283458902
 20
5.7520241071
 30
0.0
 10
2.611624942
 20
5.7487366745
 30
0.0
 10
2.595189241
 20
5.7432928878
 30
0.0
 10
2.5846585418
 20
5.7383140176
 30
0.0
 10
2.5795009111
 20
5.735508089
 30
0.0
  0
SPLINE
  5
348
100
AcDbEntity
  8
0
100
AcDbSpline
 62
9
  6
CONTINUOUS
 70
0
 71
3
 72
23
 73
19
 74
0
 42
0.0000001
 43
0.0000001
 44
0.0000000001
 40
0.0
 40
0.0
 40
0.0
 40
0.0
 40
0.0850467355
 40
0.1670730145
 40
0.2459329819
 40
0.3214956542
 40
0.393799525
 40
0.4629727647
 40
0.5291279549
 40
0.5923573592
 40
0.6527238197
 40
0.7102819857
 40
0.7650845863
 40
0.8171834243
 40
0.8666409733
 40
0.9135339473
 40
0.957951869
 40
1.0
 40
1.0
 40
1.0
 40
1.0
 10
2.8172539649
 20
5.4056741002
 30
0.0
 10
2.8185797164
 20
5.3995188327
 30
0.0
 10
2.8213364958
 20
5.3874590535
 30
0.0
 10
2.8258561516
 20
5.3698192551
 30
0.0
 10
2.8306524084
 20
5.3529813587
 30
0.0
 10
2.8357004447
 20
5.3369704613
 30
0.0
 10
2.8409473841
 20
5.3217808083
 30
0.0
 10
2.8463295376
 20
5.3073802077
 30
0.0
 10
2.8517898289
 20
5.2937305441
 30
0.0
 10
2.8572673641
 20
5.2807932358
 30
0.0
 10
2.8627458323
 20
5.2685504567
 30
0.0
 10
2.8682102955
 20
5.2569879041
 30
0.0
 10
2.8736463047
 20
5.246092007
 30
0.0
 10
2.8790355589
 20
5.2358459021
 30
0.0
 10
2.8843884035
 20
5.2262456693
 30
0.0
 10
2.8897252926
 20
5.217292061
 30
0.0
 10
2.8950644316
 20
5.2089846362
 30
0.0
 10
2.8987355697
 20
5.2037375781
 30
0.0
 10
2.9005793711
 20
5.2012293249
 30
0.0
  0
SPLINE
  5
349
100
AcDbEntity
  8
0
100
AcDbSpline
 62
9
  6
CONTINUOUS
 70
0
 71
3
 72
21
 73
17
 74
0
 42
0.0000001
 43
0.0000001
 44
0.0000000001
 40
0.0
 40
0.0
 40
0.0
 40
0.0
 40
0.0536948368
 40
0.1077882484
 40
0.1625177968
 40
0.218111894
 40
0.274809585
 40
0.3328254239
 40
0.4533485818
 40
0.5805220633
 40
0.6466828539
 40
0.7144894186
 40
0.7838806952
 40
0.8547429131
 40
0.9268630667
 40
1.0
 40
1.0
 40
1.0
 40
1.0
 10
2.6452088453
 20
5.2351160419
 30
0.0
 10
2.6498672695
 20
5.2351160419
 30
0.0
 10
2.6592263573
 20
5.235627363
 30
0.0
 10
2.6731663922
 20
5.2379044405
 30
0.0
 10
2.6869501036
 20
5.2416774142
 30
0.0
 10
2.7004796519
 20
5.246934694
 30
0.0
 10
2.7136740597
 20
5.2536371672
 30
0.0
 10
2.7309360381
 20
5.2645736311
 30
0.0
 10
2.7512903272
 20
5.2818004429
 30
0.0
 10
2.7690426141
 20
5.3025918377
 30
0.0
 10
2.781815915
 20
5.3213215628
 30
0.0
 10
2.7907310037
 20
5.3365629423
 30
0.0
 10
2.7987972739
 20
5.3527250874
 30
0.0
 10
2.8059637981
 20
5.3697123062
 30
0.0
 10
2.8121948352
 20
5.3874077941
 30
0.0
 10
2.8156773468
 20
5.3995279261
 30
0.0
 10
2.8172539649
 20
5.4056741002
 30
0.0
  0
SPLINE
  5
34A
100
AcDbEntity
  8
0
100
AcDbSpline
 62
9
  6
CONTINUOUS
 70
0
 71
3
 72
15
 73
11
 74
0
 42
0.0000001
 43
0.0000001
 44
0.0000000001
 40
0.0
 40
0.0
 40
0.0
 40
0.0
 40
0.1191687741
 40
0.2433395279
 40
0.3708403358
 40
0.499999961
 40
0.6291595919
 40
0.756660416
 40
0.8808311945
 40
1.0
 40
1.0
 40
1.0
 40
1.0
 10
2.817253885
 20
5.4056740486
 30
0.0
 10
2.8286901904
 20
5.407342975
 30
0.0
 10
2.8521148476
 20
5.410270481
 30
0.0
 10
2.887948828
 20
5.413425005
 30
0.0
 10
2.9248391699
 20
5.4153771731
 30
0.0
 10
2.9622592882
 20
5.4160524642
 30
0.0
 10
2.9996794087
 20
5.4153772052
 30
0.0
 10
3.0365697567
 20
5.4134250684
 30
0.0
 10
3.0724037468
 20
5.410270574
 30
0.0
 10
3.0958284119
 20
5.4073430869
 30
0.0
 10
3.1072647217
 20
5.4056741694
 30
0.0
  0
SPLINE
  5
34B
100
AcDbEntity
  8
0
100
AcDbSpline
 62
9
  6
CONTINUOUS
 70
0
 71
3
 72
11
 73
7
 74
0
 42
0.0000001
 43
0.0000001
 44
0.0000000001
 40
0.0
 40
0.0
 40
0.0
 40
0.0
 40
0.2567391439
 40
0.5079607349
 40
0.7552031178
 40
1.0
 40
1.0
 40
1.0
 40
1.0
 10
3.3449654107
 20
5.7355365355
 30
0.0
 10
3.339811374
 20
5.7383379488
 30
0.0
 10
3.3292883454
 20
5.7433087136
 30
0.0
 10
3.3128656861
 20
5.7487434142
 30
0.0
 10
3.296158546
 20
5.752025355
 30
0.0
 10
3.2849030974
 20
5.7527643929
 30
0.0
 10
3.2793097883
 20
5.7527643929
 30
0.0
  0
SPLINE
  5
34C
100
AcDbEntity
  8
0
100
AcDbSpline
 62
9
  6
CONTINUOUS
 70
0
 71
3
 72
21
 73
17
 74
0
 42
0.0000001
 43
0.0000001
 44
0.0000000001
 40
0.0
 40
0.0
 40
0.0
 40
0.0
 40
0.0731369333
 40
0.1452570869
 40
0.2161193048
 40
0.2855105814
 40
0.3533171461
 40
0.4194779367
 40
0.5466514182
 40
0.6671745761
 40
0.725190415
 40
0.781888106
 40
0.8374822032
 40
0.8922117516
 40
0.9463051632
 40
1.0
 40
1.0
 40
1.0
 40
1.0
 10
3.1072646686
 20
5.4056741002
 30
0.0
 10
3.1088412868
 20
5.3995279261
 30
0.0
 10
3.1123237983
 20
5.3874077941
 30
0.0
 10
3.1185548355
 20
5.3697123062
 30
0.0
 10
3.1257213596
 20
5.3527250874
 30
0.0
 10
3.1337876298
 20
5.3365629423
 30
0.0
 10
3.1427027185
 20
5.3213215628
 30
0.0
 10
3.1554760194
 20
5.3025918377
 30
0.0
 10
3.1732283064
 20
5.2818004429
 30
0.0
 10
3.1935825954
 20
5.2645736311
 30
0.0
 10
3.2108445738
 20
5.2536371672
 30
0.0
 10
3.2240389817
 20
5.246934694
 30
0.0
 10
3.2375685299
 20
5.2416774142
 30
0.0
 10
3.2513522413
 20
5.2379044405
 30
0.0
 10
3.2652922762
 20
5.235627363
 30
0.0
 10
3.2746513641
 20
5.2351160419
 30
0.0
 10
3.2793097883
 20
5.2351160419
 30
0.0
  0
SPLINE
  5
34D
100
AcDbEntity
  8
0
100
AcDbSpline
 62
9
  6
CONTINUOUS
 70
0
 71
3
 72
14
 73
10
 74
0
 42
0.0000001
 43
0.0000001
 44
0.0000000001
 40
0.0
 40
0.0
 40
0.0
 40
0.0
 40
0.0928231447
 40
0.1959206894
 40
0.3089641223
 40
0.4315643067
 40
0.5631603815
 40
0.7026674895
 40
1.0
 40
1.0
 40
1.0
 40
1.0
 10
3.0239392484
 20
5.2012295424
 30
0.0
 10
3.0279419794
 20
5.20681392
 30
0.0
 10
3.0359140122
 20
5.218945076
 30
0.0
 10
3.0472685368
 20
5.2388092188
 30
0.0
 10
3.0585576135
 20
5.261209269
 30
0.0
 10
3.0696741159
 20
5.2860235989
 30
0.0
 10
3.0804950988
 20
5.3130928315
 30
0.0
 10
3.0943917459
 20
5.352812396
 30
0.0
 10
3.1028705291
 20
5.3841088422
 30
0.0
 10
3.1072644514
 20
5.405674239
 30
0.0
  0
SPLINE
  5
34E
100
AcDbEntity
  8
0
100
AcDbSpline
 62
9
  6
CONTINUOUS
 70
0
 71
3
 72
11
 73
7
 74
0
 42
0.0000001
 43
0.0000001
 44
0.0000000001
 40
0.0
 40
0.0
 40
0.0
 40
0.0
 40
0.2447894749
 40
0.4920277326
 40
0.7432509041
 40
1.0
 40
1.0
 40
1.0
 40
1.0
 10
3.2793097883
 20
5.2351160419
 30
0.0
 10
3.2849077781
 20
5.2351160419
 30
0.0
 10
3.2961727433
 20
5.2358563277
 30
0.0
 10
3.3128936915
 20
5.2391437603
 30
0.0
 10
3.3293293925
 20
5.244587547
 30
0.0
 10
3.3398600918
 20
5.2495664172
 30
0.0
 10
3.3450177225
 20
5.2523723457
 30
0.0
  0
SPLINE
  5
34F
100
AcDbEntity
  8
0
100
AcDbSpline
 62
9
  6
CONTINUOUS
 70
0
 71
3
 72
21
 73
17
 74
0
 42
0.0000001
 43
0.0000001
 44
0.0000000001
 40
0.0
 40
0.0
 40
0.0
 40
0.0
 40
0.0666788101
 40
0.1320348035
 40
0.1960360998
 40
0.258747069
 40
0.3807999409
 40
0.4406190826
 40
0.5000002492
 40
0.5593814614
 40
0.6192006879
 40
0.7412535279
 40
0.8039642607
 40
0.8679652769
 40
0.9333211
 40
1.0
 40
1.0
 40
1.0
 40
1.0
 10
3.1072635212
 20
5.58220547
 30
0.0
 10
3.1095986076
 20
5.5786750603
 30
0.0
 10
3.1141009258
 20
5.5716023256
 30
0.0
 10
3.1203141829
 20
5.5608148145
 30
0.0
 10
3.1258218482
 20
5.5499277553
 30
0.0
 10
3.1320263285
 20
5.5353984366
 30
0.0
 10
3.1364981752
 20
5.5204388353
 30
0.0
 10
3.1388244251
 20
5.5052814687
 30
0.0
 10
3.1394272035
 20
5.4939401677
 30
0.0
 10
3.138824405
 20
5.4825988625
 30
0.0
 10
3.1364981368
 20
5.4674414928
 30
0.0
 10
3.1320262955
 20
5.4524819031
 30
0.0
 10
3.125821828
 20
5.4379526164
 30
0.0
 10
3.1203141772
 20
5.4270655988
 30
0.0
 10
3.1141009248
 20
5.4162781114
 30
0.0
 10
3.1095986082
 20
5.4092053819
 30
0.0
 10
3.1072635201
 20
5.4056749664
 30
0.0
  0
SPLINE
  5
350
100
AcDbEntity
  8
0
100
AcDbSpline
 62
9
  6
CONTINUOUS
 70
0
 71
3
 72
21
 73
17
 74
0
 42
0.0000001
 43
0.0000001
 44
0.0000000001
 40
0.0
 40
0.0
 40
0.0
 40
0.0
 40
0.0586345935
 40
0.1180600985
 40
0.1784729606
 40
0.2400672974
 40
0.3030997396
 40
0.3676069097
 40
0.500000339
 40
0.632393639
 40
0.6969004902
 40
0.7599328385
 40
0.8215271235
 40
0.881939931
 40
0.941365408
 40
1.0
 40
1.0
 40
1.0
 40
1.0
 10
2.8172539649
 20
5.4056741002
 30
0.0
 10
2.8151997411
 20
5.4087774606
 30
0.0
 10
2.8111585041
 20
5.4150899451
 30
0.0
 10
2.8054315579
 20
5.4248676114
 30
0.0
 10
2.8000856399
 20
5.4350735522
 30
0.0
 10
2.7952568868
 20
5.4457885547
 30
0.0
 10
2.7911132211
 20
5.4570694729
 30
0.0
 10
2.7867424448
 20
5.4729956731
 30
0.0
 10
2.7843157647
 20
5.4939402721
 30
0.0
 10
2.7867424698
 20
5.5148848442
 30
0.0
 10
2.7911132356
 20
5.5308110133
 30
0.0
 10
2.7952569462
 20
5.5420918829
 30
0.0
 10
2.8000856549
 20
5.5528068901
 30
0.0
 10
2.8054315703
 20
5.5630128239
 30
0.0
 10
2.8111585268
 20
5.5727904778
 30
0.0
 10
2.8151997537
 20
5.579102966
 30
0.0
 10
2.8172539649
 20
5.5822063346
 30
0.0
  0
ENDSEC
  0
SECTION
  2
OBJECTS
  0
DICTIONARY
  5
C
100
AcDbDictionary
280
0
281
1
  3
ACAD_GROUP
350
D
  3
ACAD_MLINESTYLE
350
17
  3
ACAD_LAYOUT
350
1A
  3
ACAD_PLOTSETTINGS
350
19
  3
ACAD_PLOTSTYLENAME
350
E
  0
DICTIONARY
  5
D
102
{ACAD_REACTORS
330
C
102
}
100
AcDbDictionary
280
0
281
1
  0
ACDBDICTIONARYWDFLT
  5
E
102
{ACAD_REACTORS
330
C
102
}
100
AcDbDictionary
281
1
  3
Normal
350
F
100
AcDbDictionaryWithDefault
340
F
  0
DICTIONARY
  5
17
102
{ACAD_REACTORS
330
C
102
}
100
AcDbDictionary
280
0
281
1
  3
Standard
350
18
  0
DICTIONARY
  5
19
102
{ACAD_REACTORS
330
C
102
}
100
AcDbDictionary
281
1
  0
DICTIONARY
  5
1A
102
{ACAD_REACTORS
330
C
102
}
100
AcDbDictionary
281
1
  3
Model
350
351
  3
Layout1
350
352
  0
ACDBPLACEHOLDER
  5
F
102
{ACAD_REACTORS
330
E
102
}
  0
MLINESTYLE
  5
18
102
{ACAD_REACTORS
330
17
102
}
100
AcDbMlineStyle
  2
STANDARD
 70
0
  3

 62
256
 51
90.0
 52
90.0
 71
2
 49
0.5
 62
256
  6
BYLAYER
 49
-0.5
 62
256
  6
BYLAYER
  0
LAYOUT
  5
351
102
{ACAD_REACTORS
330
1A
102
}
100
AcDbPlotSettings
  1

  2
none_device
  4
ANSI_A_(11.00_x_8.50_Inches)
  6

 40
0.0
 41
0.0
 42
0.0
 43
0.0
 44
279.4
 45
215.9
 46
0.0
 47
0.0
 48
0.0
 49
0.0
140
0.0
141
0.0
142
1.0
143
1.0
 70
1024
 72
0
 73
0
 74
0
  7

 75
0
147
1.0
148
0.0
149
0.0
100
AcDbLayout
  1
Model
 70
0
 71
0
 10
0.0
 20
0.0
 11
11.0
 21
8.5
 12
0.0
 22
0.0
 32
0.0
 14
0.0
 24
0.0
 34
0.0
 15
0.0
 25
0.0
 35
0.0
146
0.0
 13
0.0
 23
0.0
 33
0.0
 16
1.0
 26
0.0
 36
0.0
 17
0.0
 27
1.0
 37
0.0
 76
0
330
21D
345
0
346
0
  0
LAYOUT
  5
352
102
{ACAD_REACTORS
330
1A
102
}
100
AcDbPlotSettings
  1

  2
none_device
  4
ANSI_A_(11.00_x_8.50_Inches)
  6

 40
0.0
 41
0.0
 42
0.0
 43
0.0
 44
279.4
 45
215.9
 46
0.0
 47
0.0
 48
0.0
 49
0.0
140
0.0
141
0.0
142
1.0
143
1.0
 70
0
 72
0
 73
0
 74
0
  7

 75
0
147
1.0
148
0.0
149
0.0
100
AcDbLayout
  1
Layout1
 70
0
 71
1
 10
0.0
 20
0.0
 11
11.0
 21
8.5
 12
0.0
 22
0.0
 32
0.0
 14
0.0
 24
0.0
 34
0.0
 15
0.0
 25
0.0
 35
0.0
146
0.0
 13
0.0
 23
0.0
 33
0.0
 16
1.0
 26
0.0
 36
0.0
 17
0.0
 27
1.0
 37
0.0
 76
0
330
21E
345
0
346
0
  0
ENDSEC
  0
EOF
