999
DXF file: C:\Prowork\plots\417_front.dxf
999
Pro/ENGINEER 2018500 by Parametric Technology Corporation
  0
SECTION
  2
HEADER
  9
$ACADVER
  1
AC1032
  9
$DWGCODEPAGE
  3
ANSI_1252
  9
$EXTMAX
 10
11.0
 20
8.5
 30
0.0
  9
$EXTMIN
 10
0.0
 20
0.0
 30
0.0
  9
$LIMMIN
 10
0.0
 20
0.0
  9
$LIMMAX
 10
11.0
 20
8.5
  9
$VIEWCTR
 10
5.5
 20
4.25
  9
$VIEWSIZE
 40
8.5
  9
$CLAYER
  8
0
  9
$LTSCALE
 40
0.605
  9
$CELTYPE
  6
BYLAYER
  9
$DIMSCALE
 40
1.0
  9
$DIMASZ
 40
0.1
  9
$DIMEXO
 40
0.0625
  9
$DIMDLI
 40
0.418
  9
$DIMEXE
 40
0.125
  9
$DIMCEN
 40
0.099
  9
$DIMLFAC
 40
1.0
  9
$DIMBLK
  1
_FILLED
  9
$DIMALT
 70
1
  9
$DIMALTD
 70
2
  9
$DIMALTTD
 70
2
  9
$DIMALTF
 40
25.4
  9
$DIMTXT
 40
0.08
  9
$DIMTOL
 70
1
  9
$DIMLIM
 70
0
  9
$DIMTFAC
 40
1.0
  9
$DIMTP
 40
0.001
  9
$DIMTM
 40
0.001
  9
$DIMGAP
 40
0.09
  9
$DIMDSEP
 70
46
  9
$AUNITS
 70
0
  9
$PDMODE
 70
3
  9
$PDSIZE
 40
0.06
  9
$HANDSEED
  5
2B5
  9
$TILEMODE
 70
1
  9
$MEASUREMENT
 70
0
  9
$INSUNITS
 70
1
  0
ENDSEC
  0
SECTION
  2
CLASSES
  0
CLASS
  1
ACDBDICTIONARYWDFLT
  2
AcDbDictionaryWithDefault
  3
AutoCAD 2000
 90
0
 91
1
280
0
281
0
  0
CLASS
  1
ACDBPLACEHOLDER
  2
AcDbPlaceHolder
  3
AutoCAD 2000
 90
0
 91
1
280
0
281
0
  0
CLASS
  1
LAYOUT
  2
AcDbLayout
  3
AutoCAD 2000
 90
0
 91
0
280
0
281
0
  0
ENDSEC
  0
SECTION
  2
TABLES
  0
TABLE
  2
VPORT
  5
8
100
AcDbSymbolTable
 70
2
  0
VPORT
  5
1F4
100
AcDbSymbolTableRecord
100
AcDbViewportTableRecord
  2
*ACTIVE
 70
0
 10
0.0
 20
0.0
 11
1.0
 21
1.0
 12
5.5
 22
4.25
 13
0.0
 23
0.0
 14
1.0
 24
1.0
 15
0.0
 25
0.0
 16
0.0
 26
0.0
 36
1.0
 17
0.0
 27
0.0
 37
0.0
 40
8.5
 41
1.2941176471
 42
50.0
 43
0.0
 44
0.0
 50
0.0
 51
0.0
 71
0
 72
100
 73
1
 74
1
 75
0
 76
0
 77
0
 78
0
  0
ENDTAB
  0
TABLE
  2
LTYPE
  5
5
100
AcDbSymbolTable
 70
6
  0
LTYPE
  5
14
100
AcDbSymbolTableRecord
100
AcDbLinetypeTableRecord
  2
BYBLOCK
 70
0
  3

 72
65
 73
0
 40
0.0
  0
LTYPE
  5
15
100
AcDbSymbolTableRecord
100
AcDbLinetypeTableRecord
  2
BYLAYER
 70
0
  3

 72
65
 73
0
 40
0.0
  0
LTYPE
  5
16
100
AcDbSymbolTableRecord
100
AcDbLinetypeTableRecord
  2
CONTINUOUS
 70
64
  3
Solid line
 72
65
 73
0
 40
0.0
  0
LTYPE
  5
1F5
100
AcDbSymbolTableRecord
100
AcDbLinetypeTableRecord
  2
CENTER
 70
64
  3
____ _ ____ _ ____ _ ____ _ ____ _ ____ _ ____
 72
65
 73
4
 40
0.6
 49
0.375
 74
0
 49
-0.075
 74
0
 49
0.075
 74
0
 49
-0.075
 74
0
  0
LTYPE
  5
1F6
100
AcDbSymbolTableRecord
100
AcDbLinetypeTableRecord
  2
HIDDEN
 70
64
  3
- - - - - - - - - - - - - - - - - - - -
 72
65
 73
2
 40
0.2
 49
0.1
 74
0
 49
-0.1
 74
0
  0
LTYPE
  5
1F7
100
AcDbSymbolTableRecord
100
AcDbLinetypeTableRecord
  2
PHANTOM
 70
64
  3
_____ _ _ _____ _ _ _____ _ _ _____
 72
65
 73
6
 40
0.8
 49
0.45
 74
0
 49
-0.05
 74
0
 49
0.1
 74
0
 49
-0.05
 74
0
 49
0.1
 74
0
 49
-0.05
 74
0
  0
LTYPE
  5
1F8
100
AcDbSymbolTableRecord
100
AcDbLinetypeTableRecord
  2
DOT
 70
64
  3
. . . . . . . . . . . . . . . . . . . .
 72
65
 73
2
 40
0.2
 49
0.1
 74
0
 49
-0.1
 74
0
  0
LTYPE
  5
1F9
100
AcDbSymbolTableRecord
100
AcDbLinetypeTableRecord
  2
DASHED
 70
64
  3
- - - - - - - - - - - - - - - - - - - -
 72
65
 73
2
 40
0.2
 49
0.1
 74
0
 49
-0.1
 74
0
  0
ENDTAB
  0
TABLE
  2
LAYER
  5
2
100
AcDbSymbolTable
 70
36
  0
LAYER
  5
10
100
AcDbSymbolTableRecord
100
AcDbLayerTableRecord
  2
0
 70
0
 62
7
  6
CONTINUOUS
370
-3
390
F
  0
LAYER
  5
1FA
100
AcDbSymbolTableRecord
100
AcDbLayerTableRecord
  2
DEFAULT_1
 70
0
 62
7
  6
CENTER
370
-3
390
F
  0
LAYER
  5
1FB
100
AcDbSymbolTableRecord
100
AcDbLayerTableRecord
  2
DEFAULT_2
 70
0
 62
8
  6
HIDDEN
370
-3
390
F
  0
LAYER
  5
1FC
100
AcDbSymbolTableRecord
100
AcDbLayerTableRecord
  2
DEFAULT_3
 70
0
 62
7
  6
PHANTOM
370
-3
390
F
  0
LAYER
  5
1FD
100
AcDbSymbolTableRecord
100
AcDbLayerTableRecord
  2
50350
 70
0
 62
7
  6
CONTINUOUS
370
-3
390
F
  0
LAYER
  5
1FE
100
AcDbSymbolTableRecord
100
AcDbLayerTableRecord
  2
50355
 70
0
 62
7
  6
CONTINUOUS
370
-3
390
F
  0
LAYER
  5
1FF
100
AcDbSymbolTableRecord
100
AcDbLayerTableRecord
  2
50359
 70
0
 62
7
  6
CONTINUOUS
370
-3
390
F
  0
LAYER
  5
200
100
AcDbSymbolTableRecord
100
AcDbLayerTableRecord
  2
50674
 70
0
 62
7
  6
CONTINUOUS
370
-3
390
F
  0
LAYER
  5
201
100
AcDbSymbolTableRecord
100
AcDbLayerTableRecord
  2
50675
 70
0
 62
7
  6
CONTINUOUS
370
-3
390
F
  0
LAYER
  5
202
100
AcDbSymbolTableRecord
100
AcDbLayerTableRecord
  2
50677
 70
0
 62
7
  6
CONTINUOUS
370
-3
390
F
  0
LAYER
  5
203
100
AcDbSymbolTableRecord
100
AcDbLayerTableRecord
  2
50685
 70
0
 62
7
  6
CONTINUOUS
370
-3
390
F
  0
LAYER
  5
204
100
AcDbSymbolTableRecord
100
AcDbLayerTableRecord
  2
50686
 70
0
 62
7
  6
CONTINUOUS
370
-3
390
F
  0
LAYER
  5
205
100
AcDbSymbolTableRecord
100
AcDbLayerTableRecord
  2
50854
 70
0
 62
7
  6
CONTINUOUS
370
-3
390
F
  0
LAYER
  5
206
100
AcDbSymbolTableRecord
100
AcDbLayerTableRecord
  2
6-417
 70
0
 62
7
  6
CONTINUOUS
370
-3
390
F
  0
LAYER
  5
207
100
AcDbSymbolTableRecord
100
AcDbLayerTableRecord
  2
92073
 70
0
 62
7
  6
CONTINUOUS
370
-3
390
F
  0
LAYER
  5
208
100
AcDbSymbolTableRecord
100
AcDbLayerTableRecord
  2
DEFAULT_COORDINATE_SYSTEM
 70
0
 62
7
  6
CONTINUOUS
370
-3
390
F
  0
LAYER
  5
209
100
AcDbSymbolTableRecord
100
AcDbLayerTableRecord
  2
DEFAULT_DATUM_AXES
 70
0
 62
7
  6
CONTINUOUS
370
-3
390
F
  0
LAYER
  5
20A
100
AcDbSymbolTableRecord
100
AcDbLayerTableRecord
  2
DEFAULT_DATUM_PLANES
 70
0
 62
7
  6
CONTINUOUS
370
-3
390
F
  0
LAYER
  5
20B
100
AcDbSymbolTableRecord
100
AcDbLayerTableRecord
  2
INTF_50350
 70
0
 62
7
  6
CONTINUOUS
370
-3
390
F
  0
LAYER
  5
20C
100
AcDbSymbolTableRecord
100
AcDbLayerTableRecord
  2
INTF_50355
 70
0
 62
7
  6
CONTINUOUS
370
-3
390
F
  0
LAYER
  5
20D
100
AcDbSymbolTableRecord
100
AcDbLayerTableRecord
  2
INTF_50359
 70
0
 62
7
  6
CONTINUOUS
370
-3
390
F
  0
LAYER
  5
20E
100
AcDbSymbolTableRecord
100
AcDbLayerTableRecord
  2
INTF_50674
 70
0
 62
7
  6
CONTINUOUS
370
-3
390
F
  0
LAYER
  5
20F
100
AcDbSymbolTableRecord
100
AcDbLayerTableRecord
  2
INTF_50675
 70
0
 62
7
  6
CONTINUOUS
370
-3
390
F
  0
LAYER
  5
210
100
AcDbSymbolTableRecord
100
AcDbLayerTableRecord
  2
INTF_50677
 70
0
 62
7
  6
CONTINUOUS
370
-3
390
F
  0
LAYER
  5
211
100
AcDbSymbolTableRecord
100
AcDbLayerTableRecord
  2
INTF_50685
 70
0
 62
7
  6
CONTINUOUS
370
-3
390
F
  0
LAYER
  5
212
100
AcDbSymbolTableRecord
100
AcDbLayerTableRecord
  2
INTF_50686
 70
0
 62
7
  6
CONTINUOUS
370
-3
390
F
  0
LAYER
  5
213
100
AcDbSymbolTableRecord
100
AcDbLayerTableRecord
  2
INTF_50854
 70
0
 62
7
  6
CONTINUOUS
370
-3
390
F
  0
LAYER
  5
214
100
AcDbSymbolTableRecord
100
AcDbLayerTableRecord
  2
INTF_92073
 70
0
 62
7
  6
CONTINUOUS
370
-3
390
F
  0
LAYER
  5
215
100
AcDbSymbolTableRecord
100
AcDbLayerTableRecord
  2
INTF_BLANK
 70
0
 62
7
  6
CONTINUOUS
370
-3
390
F
  0
LAYER
  5
216
100
AcDbSymbolTableRecord
100
AcDbLayerTableRecord
  2
NONE
 70
0
 62
7
  6
CONTINUOUS
370
-3
390
F
  0
LAYER
  5
217
100
AcDbSymbolTableRecord
100
AcDbLayerTableRecord
  2
PLATED_SURFACE
 70
0
 62
7
  6
CONTINUOUS
370
-3
390
F
  0
LAYER
  5
218
100
AcDbSymbolTableRecord
100
AcDbLayerTableRecord
  2
_BLACK_HOLE
 70
0
 62
7
  6
CONTINUOUS
370
-3
390
F
  0
ENDTAB
  0
TABLE
  2
STYLE
  5
3
100
AcDbSymbolTable
 70
1
  0
STYLE
  5
11
100
AcDbSymbolTableRecord
100
AcDbTextStyleTableRecord
  2
STANDARD
 70
0
 40
0.0
 41
0.8
 50
0.0
 71
0
 42
0.2
  3
txt
  4

  0
STYLE
  5
219
100
AcDbSymbolTableRecord
100
AcDbTextStyleTableRecord
  2
TEXTSTYLE_1
 70
0
 40
0.0
 41
0.8
 50
0.0
 71
0
 42
0.2
  3
gdt
  4

  0
ENDTAB
  0
TABLE
  2
VIEW
  5
6
100
AcDbSymbolTable
 70
0
  0
ENDTAB
  0
TABLE
  2
UCS
  5
7
100
AcDbSymbolTable
 70
0
  0
ENDTAB
  0
TABLE
  2
APPID
  5
9
100
AcDbSymbolTable
 70
1
  0
APPID
  5
21A
100
AcDbSymbolTableRecord
100
AcDbRegAppTableRecord
  2
ACAD
 70
0
  0
ENDTAB
  0
TABLE
  2
BLOCK_RECORD
  5
1
100
AcDbSymbolTable
 70
0
  0
BLOCK_RECORD
  5
21B
100
AcDbSymbolTableRecord
100
AcDbBlockTableRecord
  2
*Model_Space
  0
BLOCK_RECORD
  5
21C
100
AcDbSymbolTableRecord
100
AcDbBlockTableRecord
  2
*Paper_Space
  0
BLOCK_RECORD
  5
21D
100
AcDbSymbolTableRecord
100
AcDbBlockTableRecord
  2
_FILLED
  0
ENDTAB
  0
TABLE
  2
DIMSTYLE
  5
A
100
AcDbSymbolTable
 70
1
100
AcDbDimStyleTable
 71
0
  0
DIMSTYLE
105
21E
100
AcDbSymbolTableRecord
100
AcDbDimStyleTableRecord
  2
STANDARD
 70
0
  3

  4

 40
1.0
 41
0.1
 42
0.0625
 43
0.38
 44
0.125
 45
0.0
 46
0.0
 47
0.001
 48
0.001
140
0.08
141
0.09
142
0.0
143
25.4
144
1.0
145
0.0
146
1.0
147
0.09
 71
1.0
 72
0.0
 73
1
 74
1
 75
0
 76
0
 77
0
 78
4
 79
1
170
1
171
2
172
0
173
0
174
0
175
0
176
0
177
0
178
0
270
2
179
3
271
3
272
3
273
2
274
2
275
0
280
0
281
0
282
0
283
1
284
4
285
0
286
0
287
3
288
0
340
11
278
46
341
21D
342
21D
343
21D
344
21D
  0
ENDTAB
  0
ENDSEC
  0
SECTION
  2
BLOCKS
  0
BLOCK
  5
20
100
AcDbEntity
  8
0
100
AcDbBlockBegin
  2
*Model_Space
 70
0
 10
0.0
 20
0.0
 30
0.0
  3
*Model_Space
  1

  0
ENDBLK
  5
21
100
AcDbEntity
  8
0
100
AcDbBlockEnd
  0
BLOCK
  5
1C
100
AcDbEntity
  8
0
100
AcDbBlockBegin
  2
*Paper_Space
 70
0
 10
0.0
 20
0.0
 30
0.0
  3
*Paper_Space
  1

  0
ENDBLK
  5
1D
100
AcDbEntity
  8
0
100
AcDbBlockEnd
  0
BLOCK
  5
21F
100
AcDbEntity
  8
0
100
AcDbBlockBegin
  2
_FILLED
 70
64
 10
0.0
 20
0.0
  3
_FILLED
  1

  0
SOLID
  5
220
100
AcDbEntity
  8
0
  6
BYBLOCK
 62
0
100
AcDbTrace
 10
0.0
 20
0.0
 11
-1.0
 21
0.2
 12
-1.0
 22
-0.2
 13
-1.0
 23
-0.2
  0
ENDBLK
  5
221
100
AcDbEntity
  8
0
  6
BYBLOCK
 62
0
100
AcDbBlockEnd
  0
ENDSEC
  0
SECTION
  2
ENTITIES
  0
MTEXT
  5
222
100
AcDbEntity
  8
0
100
AcDbMText
 62
7
  6
CONTINUOUS
  7
STANDARD
 71
1
 72
1
 10
9.483443323
 20
0.5025582298
 30
0.0
 11
1.0
 21
0.0
 31
0.0
 73
2
 44
0.9
  1
SCALE: 1.25
 40
0.08
 41
0.704
  0
LINE
  5
223
100
AcDbEntity
  8
0
100
AcDbLine
 62
7
  6
CONTINUOUS
 10
0.0
 20
0.0
 11
0.0
 21
8.5
  0
LINE
  5
224
100
AcDbEntity
  8
0
100
AcDbLine
 62
7
  6
CONTINUOUS
 10
0.0
 20
0.0
 11
11.0
 21
0.0
  0
LINE
  5
225
100
AcDbEntity
  8
0
100
AcDbLine
 62
7
  6
CONTINUOUS
 10
0.0
 20
8.5
 11
11.0
 21
8.5
  0
LINE
  5
226
100
AcDbEntity
  8
0
100
AcDbLine
 62
7
  6
CONTINUOUS
 10
11.0
 20
0.0
 11
11.0
 21
8.5
  0
LWPOLYLINE
  5
227
100
AcDbEntity
  8
0
100
AcDbPolyline
 62
7
  6
CONTINUOUS
 90
12
 70
0
 10
5.0676914013
 20
5.5983863036
 10
5.0631329799
 20
5.5967014969
 10
5.0579751212
 20
5.5941444422
 10
5.0531831701
 20
5.5910391598
 10
5.0488140212
 20
5.587442414
 10
5.0448559392
 20
5.5833479114
 10
5.0413872784
 20
5.5788271699
 10
5.038473457
 20
5.5739753007
 10
5.0361123412
 20
5.5687884834
 10
5.0343586099
 20
5.5633736297
 10
5.0332368715
 20
5.5578309211
 10
5.0327562422
 20
5.5524451428
  0
LINE
  5
228
100
AcDbEntity
  8
0
100
AcDbLine
 62
7
  6
CONTINUOUS
 10
5.1548913043
 20
4.9792786795
 11
5.3086413043
 21
5.0509734819
  0
LINE
  5
229
100
AcDbEntity
  8
0
100
AcDbLine
 62
7
  6
CONTINUOUS
 10
5.9334670158
 20
3.3322234819
 11
5.4700655929
 21
3.3322234819
  0
LINE
  5
22A
100
AcDbEntity
  8
0
100
AcDbLine
 62
7
  6
CONTINUOUS
 10
5.0327562181
 20
5.5524451436
 11
5.0248913043
 21
5.3272234819
  0
LINE
  5
22B
100
AcDbEntity
  8
0
100
AcDbLine
 62
7
  6
CONTINUOUS
 10
5.1905163043
 20
4.5108087417
 11
5.1911047446
 21
4.5114910613
  0
LINE
  5
22C
100
AcDbEntity
  8
0
100
AcDbLine
 62
7
  6
CONTINUOUS
 10
5.2444337551
 20
4.6316374536
 11
5.1911366216
 21
4.6008218553
  0
LINE
  5
22D
100
AcDbEntity
  8
0
100
AcDbLine
 62
7
  6
CONTINUOUS
 10
5.2444497134
 20
4.5422793152
 11
5.1911048192
 21
4.5114350765
  0
LINE
  5
22E
100
AcDbEntity
  8
0
100
AcDbLine
 62
7
  6
CONTINUOUS
 10
5.4700655929
 20
3.3322234819
 11
5.1423913043
 21
3.6598977705
  0
LINE
  5
22F
100
AcDbEntity
  8
0
100
AcDbLine
 62
7
  6
CONTINUOUS
 10
5.1423913043
 20
3.6598977705
 11
5.1423913043
 21
4.1232991934
  0
LINE
  5
230
100
AcDbEntity
  8
0
100
AcDbLine
 62
7
  6
CONTINUOUS
 10
5.1548913043
 20
4.6991107135
 11
5.1548913043
 21
4.9792630822
  0
LINE
  5
231
100
AcDbEntity
  8
0
100
AcDbLine
 62
7
  6
CONTINUOUS
 10
5.1642663043
 20
4.6947234819
 11
5.1642663043
 21
4.6634734819
  0
LINE
  5
232
100
AcDbEntity
  8
0
100
AcDbLine
 62
9
  6
CONTINUOUS
 10
5.1861413043
 20
4.9478704691
 11
5.1861413043
 21
4.7305033266
  0
LINE
  5
233
100
AcDbEntity
  8
0
100
AcDbLine
 62
7
  6
CONTINUOUS
 10
5.1905163043
 20
4.4884734819
 11
5.1905163043
 21
4.510758556
  0
LINE
  5
234
100
AcDbEntity
  8
0
100
AcDbLine
 62
7
  6
CONTINUOUS
 10
5.1905163043
 20
4.5722751681
 11
5.1905163043
 21
4.6001061665
  0
LINE
  5
235
100
AcDbEntity
  8
0
100
AcDbLine
 62
7
  6
CONTINUOUS
 10
5.2542663043
 20
4.2351741934
 11
5.2542663043
 21
4.4884734819
  0
LINE
  5
236
100
AcDbEntity
  8
0
100
AcDbLine
 62
7
  6
CONTINUOUS
 10
5.1423913043
 20
4.1232991934
 11
5.2542663043
 21
4.2351741934
  0
LINE
  5
237
100
AcDbEntity
  8
0
100
AcDbLine
 62
7
  6
CONTINUOUS
 10
5.7017663043
 20
3.4405435841
 11
5.3111413043
 21
3.666071033
  0
LINE
  5
238
100
AcDbEntity
  8
0
100
AcDbLine
 62
7
  6
CONTINUOUS
 10
5.3086413043
 20
5.0509734819
 11
5.3086413043
 21
5.0822234819
  0
LINE
  5
239
100
AcDbEntity
  8
0
100
AcDbLine
 62
7
  6
CONTINUOUS
 10
5.3111413043
 20
3.666071033
 11
5.3111413043
 21
4.1171259308
  0
LINE
  5
23A
100
AcDbEntity
  8
0
100
AcDbLine
 62
9
  6
CONTINUOUS
 10
5.422614512
 20
5.5502089873
 11
5.4165941816
 21
5.3272234819
  0
LINE
  5
23B
100
AcDbEntity
  8
0
100
AcDbLine
 62
7
  6
CONTINUOUS
 10
6.2392663043
 20
4.6947234819
 11
6.2486413043
 21
4.6990951162
  0
LINE
  5
23C
100
AcDbEntity
  8
0
100
AcDbLine
 62
7
  6
CONTINUOUS
 10
5.4667663043
 20
5.3272234819
 11
5.4667663043
 21
5.0822234819
  0
LINE
  5
23D
100
AcDbEntity
  8
0
100
AcDbLine
 62
7
  6
CONTINUOUS
 10
6.1590746593
 20
4.5854174576
 11
6.2124151118
 21
4.616259687
  0
LINE
  5
23E
100
AcDbEntity
  8
0
100
AcDbLine
 62
7
  6
CONTINUOUS
 10
5.3111413043
 20
4.1171259308
 11
5.7017663043
 21
4.3426533797
  0
LINE
  5
23F
100
AcDbEntity
  8
0
100
AcDbLine
 62
7
  6
CONTINUOUS
 10
5.4723547797
 20
3.8309734819
 11
5.9311781146
 21
3.8309734819
  0
LINE
  5
240
100
AcDbEntity
  8
0
100
AcDbLine
 62
7
  6
CONTINUOUS
 10
5.4662665107
 20
3.8622234819
 11
5.9372657952
 21
3.8622234819
  0
LINE
  5
241
100
AcDbEntity
  8
0
100
AcDbLine
 62
7
  6
CONTINUOUS
 10
5.4645678089
 20
3.8915984819
 11
5.9389647998
 21
3.8915984819
  0
LINE
  5
242
100
AcDbEntity
  8
0
100
AcDbLine
 62
7
  6
CONTINUOUS
 10
5.5365970335
 20
3.8915984819
 11
5.5702558877
 21
3.8622234819
  0
LINE
  5
243
100
AcDbEntity
  8
0
100
AcDbLine
 62
9
  6
CONTINUOUS
 10
5.6705163043
 20
4.7305033266
 11
5.6705163043
 21
4.9478704691
  0
LINE
  5
244
100
AcDbEntity
  8
0
100
AcDbLine
 62
7
  6
CONTINUOUS
 10
5.6820788043
 20
5.7249120107
 11
5.6820788043
 21
5.7411089108
  0
LINE
  5
245
100
AcDbEntity
  8
0
100
AcDbLine
 62
7
  6
CONTINUOUS
 10
5.7017663043
 20
5.7022512501
 11
5.7017663043
 21
5.6928580678
  0
LINE
  5
246
100
AcDbEntity
  8
0
100
AcDbLine
 62
7
  6
CONTINUOUS
 10
5.7214538043
 20
5.7249120107
 11
5.7214538043
 21
5.7411089108
  0
LINE
  5
247
100
AcDbEntity
  8
0
100
AcDbLine
 62
7
  6
CONTINUOUS
 10
5.1905163043
 20
4.6616138738
 11
5.1910966555
 21
4.6609425938
  0
LINE
  5
248
100
AcDbEntity
  8
0
100
AcDbLine
 62
9
  6
CONTINUOUS
 10
5.7330163043
 20
4.9478704691
 11
5.7330163043
 21
4.7305033266
  0
LINE
  5
249
100
AcDbEntity
  8
0
100
AcDbLine
 62
9
  6
CONTINUOUS
 10
5.9809206503
 20
5.5502091466
 11
5.9869384271
 21
5.3272234819
  0
LINE
  5
24A
100
AcDbEntity
  8
0
100
AcDbLine
 62
7
  6
CONTINUOUS
 10
5.9367663043
 20
5.0822234819
 11
5.9367663043
 21
5.3272234819
  0
LINE
  5
24B
100
AcDbEntity
  8
0
100
AcDbLine
 62
7
  6
CONTINUOUS
 10
5.833276721
 20
3.8622234819
 11
5.8669355752
 21
3.8915984819
  0
LINE
  5
24C
100
AcDbEntity
  8
0
100
AcDbLine
 62
7
  6
CONTINUOUS
 10
5.7017663043
 20
4.3426533797
 11
6.0923913043
 21
4.1171259308
  0
LINE
  5
24D
100
AcDbEntity
  8
0
100
AcDbLine
 62
7
  6
CONTINUOUS
 10
5.1911339005
 20
4.5715638092
 11
5.243115792
 21
4.5415079299
  0
LINE
  5
24E
100
AcDbEntity
  8
0
100
AcDbLine
 62
7
  6
CONTINUOUS
 10
5.1910966537
 20
4.6609412378
 11
5.2431063728
 21
4.6308698765
  0
LINE
  5
24F
100
AcDbEntity
  8
0
100
AcDbLine
 62
7
  6
CONTINUOUS
 10
6.0923913043
 20
4.1171259308
 11
6.0923913043
 21
3.666071033
  0
LINE
  5
250
100
AcDbEntity
  8
0
100
AcDbLine
 62
7
  6
CONTINUOUS
 10
6.0948913043
 20
5.0509734819
 11
6.0948913043
 21
5.0822234819
  0
LINE
  5
251
100
AcDbEntity
  8
0
100
AcDbLine
 62
7
  6
CONTINUOUS
 10
6.1492663043
 20
4.4884734819
 11
6.1492663043
 21
4.2351741934
  0
LINE
  5
252
100
AcDbEntity
  8
0
100
AcDbLine
 62
7
  6
CONTINUOUS
 10
5.2542663043
 20
4.4509734819
 11
6.1492663043
 21
4.4509734819
  0
LINE
  5
253
100
AcDbEntity
  8
0
100
AcDbLine
 62
7
  6
CONTINUOUS
 10
6.2129982032
 20
4.4884734819
 11
6.1492663043
 21
4.4884734819
  0
LINE
  5
254
100
AcDbEntity
  8
0
100
AcDbLine
 62
7
  6
CONTINUOUS
 10
5.2542663043
 20
4.4884734819
 11
5.1905344055
 21
4.4884734819
  0
LINE
  5
255
100
AcDbEntity
  8
0
100
AcDbLine
 62
7
  6
CONTINUOUS
 10
5.1642663043
 20
4.6947234819
 11
5.1548913043
 21
4.6990951162
  0
LINE
  5
256
100
AcDbEntity
  8
0
100
AcDbLine
 62
7
  6
CONTINUOUS
 10
6.1492663043
 20
4.2351741934
 11
6.2611413043
 21
4.1232991934
  0
LINE
  5
257
100
AcDbEntity
  8
0
100
AcDbLine
 62
7
  6
CONTINUOUS
 10
6.2130163043
 20
4.4884734819
 11
6.2130163043
 21
4.555423608
  0
LINE
  5
258
100
AcDbEntity
  8
0
100
AcDbLine
 62
7
  6
CONTINUOUS
 10
6.2130163043
 20
4.6169506898
 11
6.2130163043
 21
4.6448000751
  0
LINE
  5
259
100
AcDbEntity
  8
0
100
AcDbLine
 62
9
  6
CONTINUOUS
 10
6.2173913043
 20
4.7305033266
 11
6.2173913043
 21
4.9478704691
  0
LINE
  5
25A
100
AcDbEntity
  8
0
100
AcDbLine
 62
7
  6
CONTINUOUS
 10
6.2392663043
 20
4.6634734819
 11
6.2392663043
 21
4.6947234819
  0
LINE
  5
25B
100
AcDbEntity
  8
0
100
AcDbLine
 62
7
  6
CONTINUOUS
 10
6.2486413043
 20
4.9792630822
 11
6.2486413043
 21
4.6991107135
  0
LINE
  5
25C
100
AcDbEntity
  8
0
100
AcDbLine
 62
7
  6
CONTINUOUS
 10
6.2611413043
 20
4.1232991934
 11
6.2611413043
 21
3.6598977705
  0
LINE
  5
25D
100
AcDbEntity
  8
0
100
AcDbLine
 62
7
  6
CONTINUOUS
 10
6.0923913043
 20
3.666071033
 11
5.7017663043
 21
3.4405435841
  0
LINE
  5
25E
100
AcDbEntity
  8
0
100
AcDbLine
 62
7
  6
CONTINUOUS
 10
5.7951990221
 20
4.6561144869
 11
5.6089761539
 21
4.650292797
  0
LINE
  5
25F
100
AcDbEntity
  8
0
100
AcDbLine
 62
7
  6
CONTINUOUS
 10
6.2392663043
 20
4.6634734819
 11
5.1642663043
 21
4.6634734819
  0
LINE
  5
260
100
AcDbEntity
  8
0
100
AcDbLine
 62
7
  6
CONTINUOUS
 10
6.3707763906
 20
5.5524451434
 11
6.3786413043
 21
5.3272234819
  0
LINE
  5
261
100
AcDbEntity
  8
0
100
AcDbLine
 62
7
  6
CONTINUOUS
 10
6.2611413043
 20
3.6598977705
 11
5.9334670158
 21
3.3322234819
  0
LINE
  5
262
100
AcDbEntity
  8
0
100
AcDbLine
 62
7
  6
CONTINUOUS
 10
6.2392663043
 20
4.6947234819
 11
5.1642663043
 21
4.6947234819
  0
LINE
  5
263
100
AcDbEntity
  8
0
100
AcDbLine
 62
7
  6
CONTINUOUS
 10
6.212407394
 20
4.5561238299
 11
6.1604097037
 21
4.5861895088
  0
LINE
  5
264
100
AcDbEntity
  8
0
100
AcDbLine
 62
7
  6
CONTINUOUS
 10
6.2124043505
 20
4.6455103901
 11
6.1813315352
 21
4.6634734819
  0
LWPOLYLINE
  5
265
100
AcDbEntity
  8
0
100
AcDbPolyline
 62
7
  6
CONTINUOUS
 90
12
 70
0
 10
6.3707763666
 20
5.5524451425
 10
6.3702957371
 20
5.5578309223
 10
6.3691739985
 20
5.563373631
 10
6.367420267
 20
5.5687884848
 10
6.365059151
 20
5.5739753021
 10
6.3621453294
 20
5.5788271712
 10
6.3586766685
 20
5.5833479125
 10
6.3547185864
 20
5.5874424149
 10
6.3503494374
 20
5.5910391605
 10
6.3455574865
 20
5.5941444426
 10
6.340399628
 20
5.596701497
 10
6.3358412075
 20
5.5983863033
  0
LINE
  5
266
100
AcDbEntity
  8
0
100
AcDbLine
 62
7
  6
CONTINUOUS
 10
5.3086413043
 20
5.0509734819
 11
6.0948913043
 21
5.0509734819
  0
LINE
  5
267
100
AcDbEntity
  8
0
100
AcDbLine
 62
7
  6
CONTINUOUS
 10
6.0948595625
 20
5.0822234819
 11
5.3086730462
 21
5.0822234819
  0
LINE
  5
268
100
AcDbEntity
  8
0
100
AcDbLine
 62
7
  6
CONTINUOUS
 10
6.2486413043
 20
4.9792786795
 11
6.0948913043
 21
5.0509734819
  0
LINE
  5
269
100
AcDbEntity
  8
0
100
AcDbLine
 62
7
  6
CONTINUOUS
 10
6.3786401785
 20
5.3272234819
 11
5.0248924302
 21
5.3272234819
  0
LINE
  5
26A
100
AcDbEntity
  8
0
100
AcDbLine
 62
7
  6
CONTINUOUS
 10
5.4955199576
 20
5.6858640455
 11
5.514148778
 21
5.687072642
  0
LINE
  5
26B
100
AcDbEntity
  8
0
100
AcDbLine
 62
9
  6
CONTINUOUS
 10
5.8905301245
 20
5.702270051
 11
5.5130024842
 21
5.702270051
  0
LINE
  5
26C
100
AcDbEntity
  8
0
100
AcDbLine
 62
7
  6
CONTINUOUS
 10
5.907784572
 20
5.6858860993
 11
5.9080163043
 21
5.6858713656
  0
ARC
  5
26D
100
AcDbEntity
  8
0
100
AcDbCircle
 62
9
  6
CONTINUOUS
 10
5.038922463
 20
-0.6243600896
 40
6.1864790369
100
AcDbArc
 50
86.4441723132
 51
86.7567223966
  0
ARC
  5
26E
100
AcDbEntity
  8
0
100
AcDbCircle
 62
9
  6
CONTINUOUS
 10
5.2047864734
 20
2.5555198067
 40
3.0026009296
100
AcDbArc
 50
85.8397398996
 51
86.4837614115
  0
ARC
  5
26F
100
AcDbEntity
  8
0
100
AcDbCircle
 62
7
  6
CONTINUOUS
 10
4.3515232393
 20
55.8052375948
 40
51.2898062927
100
AcDbArc
 50
271.6002005995
 51
271.7707390518
  0
ARC
  5
270
100
AcDbEntity
  8
0
100
AcDbCircle
 62
7
  6
CONTINUOUS
 10
5.7016771047
 20
2.6503317874
 40
3.0425262817
100
AcDbArc
 50
89.9983202242
 51
93.3638612289
  0
ARC
  5
271
100
AcDbEntity
  8
0
100
AcDbCircle
 62
7
  6
CONTINUOUS
 10
5.7017618405
 20
5.1965936653
 40
0.528684874
100
AcDbArc
 50
89.9995162394
 51
92.133625621
  0
ARC
  5
272
100
AcDbEntity
  8
0
100
AcDbCircle
 62
7
  6
CONTINUOUS
 10
5.5196413043
 20
5.6890984819
 40
0.01475
100
AcDbArc
 50
116.9106905226
 51
190.1352312112
  0
ARC
  5
273
100
AcDbEntity
  8
0
100
AcDbCircle
 62
7
  6
CONTINUOUS
 10
5.7058083586
 20
2.5858122334
 40
3.1071770978
100
AcDbArc
 50
93.3701001438
 51
93.5364127069
  0
ARC
  5
274
100
AcDbEntity
  8
0
100
AcDbCircle
 62
7
  6
CONTINUOUS
 10
5.7018508331
 20
2.6502363454
 40
3.042621822
100
AcDbArc
 50
86.635636962
 51
90.0015917653
  0
ARC
  5
275
100
AcDbEntity
  8
0
100
AcDbCircle
 62
7
  6
CONTINUOUS
 10
5.7039253524
 20
2.6857283881
 40
3.0070690494
100
AcDbArc
 50
86.1128019461
 51
86.6354097756
  0
ARC
  5
276
100
AcDbEntity
  8
0
100
AcDbCircle
 62
7
  6
CONTINUOUS
 10
5.7017663043
 20
3.5872234819
 40
2.10875
100
AcDbArc
 50
72.5010966174
 51
84.3871122433
  0
ARC
  5
277
100
AcDbEntity
  8
0
100
AcDbCircle
 62
7
  6
CONTINUOUS
 10
5.7017663043
 20
3.5872234819
 40
2.10875
100
AcDbArc
 50
95.6128877567
 51
107.4989033736
  0
ARC
  5
278
100
AcDbEntity
  8
0
100
AcDbCircle
 62
7
  6
CONTINUOUS
 10
5.7017663043
 20
3.8915984819
 40
1.5
100
AcDbArc
 50
106.7761573699
 51
73.2199149136
  0
ARC
  5
279
100
AcDbEntity
  8
0
100
AcDbCircle
 62
7
  6
CONTINUOUS
 10
5.7017663043
 20
3.8915984819
 40
0.65625
100
AcDbArc
 50
132.997518843
 51
47.002481157
  0
CIRCLE
  5
27A
100
AcDbEntity
  8
0
100
AcDbCircle
 62
7
  6
CONTINUOUS
 10
5.7017663043
 20
3.8915984819
 40
0.390625
  0
CIRCLE
  5
27B
100
AcDbEntity
  8
0
100
AcDbCircle
 62
7
  6
CONTINUOUS
 10
5.7017663043
 20
3.8915984819
 40
0.23875
  0
CIRCLE
  5
27C
100
AcDbEntity
  8
0
100
AcDbCircle
 62
7
  6
CONTINUOUS
 10
5.7017663043
 20
3.8915984819
 40
0.2375
  0
ARC
  5
27D
100
AcDbEntity
  8
0
100
AcDbCircle
 62
7
  6
CONTINUOUS
 10
5.7017697312
 20
5.1964562815
 40
0.5288222357
100
AcDbArc
 50
88.5778144207
 51
90.0000082045
  0
ARC
  5
27E
100
AcDbEntity
  8
0
100
AcDbCircle
 62
7
  6
CONTINUOUS
 10
5.701781838
 20
5.1969359061
 40
0.5283424584
100
AcDbArc
 50
87.8661922492
 51
88.5778360227
  0
ARC
  5
27F
100
AcDbEntity
  8
0
100
AcDbCircle
 62
7
  6
CONTINUOUS
 10
5.7017663043
 20
5.3302764448
 40
0.4171462847
100
AcDbArc
 50
63.0893094774
 51
71.2473120572
  0
ARC
  5
280
100
AcDbEntity
  8
0
100
AcDbCircle
 62
7
  6
CONTINUOUS
 10
5.7017663043
 20
5.3302764448
 40
0.4171462847
100
AcDbArc
 50
108.7526879428
 51
116.9106905226
  0
ARC
  5
281
100
AcDbEntity
  8
0
100
AcDbCircle
 62
7
  6
CONTINUOUS
 10
5.7017663043
 20
5.3302764448
 40
0.4166814433
100
AcDbArc
 50
99.6113601359
 51
108.7211665166
  0
ARC
  5
282
100
AcDbEntity
  8
0
100
AcDbCircle
 62
7
  6
CONTINUOUS
 10
5.7017663043
 20
5.3302764448
 40
0.4166814433
100
AcDbArc
 50
71.2788334834
 51
80.3886398641
  0
ARC
  5
283
100
AcDbEntity
  8
0
100
AcDbCircle
 62
7
  6
CONTINUOUS
 10
5.8838913043
 20
5.6890984819
 40
0.01475
100
AcDbArc
 50
349.8649253336
 51
63.0893094774
  0
ARC
  5
284
100
AcDbEntity
  8
0
100
AcDbCircle
 62
9
  6
CONTINUOUS
 10
6.3766664146
 20
-0.8278930367
 40
6.3903678935
100
AcDbArc
 50
93.2479554179
 51
93.5505123961
  0
ARC
  5
285
100
AcDbEntity
  8
0
100
AcDbCircle
 62
9
  6
CONTINUOUS
 10
6.1989384109
 20
2.5526600069
 40
3.0054670888
100
AcDbArc
 50
93.5165470806
 51
94.1599120593
  0
SPLINE
  5
286
100
AcDbEntity
  8
0
100
AcDbSpline
 62
7
  6
CONTINUOUS
 70
0
 71
3
 72
11
 73
7
 74
0
 42
0.0000001
 43
0.0000001
 44
0.0000000001
 40
0.0
 40
0.0
 40
0.0
 40
0.0
 40
0.1850627992
 40
0.4013196495
 40
0.6692889575
 40
1.0
 40
1.0
 40
1.0
 40
1.0
 10
6.213011662
 20
4.5554793559
 30
0.0
 10
6.2130116682
 20
4.5555385604
 30
0.0
 10
6.2129806838
 20
4.5556677523
 30
0.0
 10
6.2128554277
 20
4.5558452243
 30
0.0
 10
6.2126582899
 20
4.5560180016
 30
0.0
 10
6.2124960769
 20
4.556120923
 30
0.0
 10
6.2124042097
 20
4.5561734014
 30
0.0
  0
SPLINE
  5
287
100
AcDbEntity
  8
0
100
AcDbSpline
 62
7
  6
CONTINUOUS
 70
0
 71
3
 72
11
 73
7
 74
0
 42
0.0000001
 43
0.0000001
 44
0.0000000001
 40
0.0
 40
0.0
 40
0.0
 40
0.0
 40
0.1848711927
 40
0.4011122027
 40
0.6691622845
 40
1.0
 40
1.0
 40
1.0
 40
1.0
 10
6.2130136476
 20
4.6169427584
 30
0.0
 10
6.2130136857
 20
4.6168842534
 30
0.0
 10
6.2129830999
 20
4.6167565184
 30
0.0
 10
6.2128594533
 20
4.6165808577
 30
0.0
 10
6.2126647772
 20
4.6164094883
 30
0.0
 10
6.21250455
 20
4.6163071942
 30
0.0
 10
6.2124137971
 20
4.6162549867
 30
0.0
  0
SPLINE
  5
288
100
AcDbEntity
  8
0
100
AcDbSpline
 62
7
  6
CONTINUOUS
 70
0
 71
3
 72
11
 73
7
 74
0
 42
0.0000001
 43
0.0000001
 44
0.0000000001
 40
0.0
 40
0.0
 40
0.0
 40
0.0
 40
0.1867046272
 40
0.403634423
 40
0.6710447712
 40
1.0
 40
1.0
 40
1.0
 40
1.0
 10
6.2130120738
 20
4.6447967386
 30
0.0
 10
6.2130121126
 20
4.6448573755
 30
0.0
 10
6.2129812832
 20
4.6449893242
 30
0.0
 10
6.212855664
 20
4.6451712481
 30
0.0
 10
6.2126575183
 20
4.6453481433
 30
0.0
 10
6.2124942337
 20
4.6454534333
 30
0.0
 10
6.212401808
 20
4.6455070196
 30
0.0
  0
SPLINE
  5
289
100
AcDbEntity
  8
0
100
AcDbSpline
 62
7
  6
CONTINUOUS
 70
0
 71
3
 72
11
 73
7
 74
0
 42
0.0000001
 43
0.0000001
 44
0.0000000001
 40
0.0
 40
0.0
 40
0.0
 40
0.0
 40
0.1845289362
 40
0.4005553503
 40
0.668702799
 40
1.0
 40
1.0
 40
1.0
 40
1.0
 10
5.1905209466
 20
4.5722244575
 30
0.0
 10
5.190520941
 20
4.5721648123
 30
0.0
 10
5.190552447
 20
4.5720345359
 30
0.0
 10
5.1906795622
 20
4.5718558422
 30
0.0
 10
5.1908794977
 20
4.5716818898
 30
0.0
 10
5.1910439367
 20
4.5715783068
 30
0.0
 10
5.1911370817
 20
4.5715254748
 30
0.0
  0
SPLINE
  5
28A
100
AcDbEntity
  8
0
100
AcDbSpline
 62
7
  6
CONTINUOUS
 70
0
 71
3
 72
11
 73
7
 74
0
 42
0.0000001
 43
0.0000001
 44
0.0000000001
 40
0.0
 40
0.0
 40
0.0
 40
0.0
 40
0.1843624718
 40
0.4003174544
 40
0.6685205885
 40
1.0
 40
1.0
 40
1.0
 40
1.0
 10
5.1905209468
 20
4.6001500067
 30
0.0
 10
5.190520942
 20
4.6002097897
 30
0.0
 10
5.1905526133
 20
4.6003404051
 30
0.0
 10
5.190680313
 20
4.6005194793
 30
0.0
 10
5.1908811268
 20
4.6006937983
 30
0.0
 10
5.1910462644
 20
4.6007975878
 30
0.0
 10
5.1911398103
 20
4.6008505301
 30
0.0
  0
SPLINE
  5
28B
100
AcDbEntity
  8
0
100
AcDbSpline
 62
7
  6
CONTINUOUS
 70
0
 71
3
 72
20
 73
16
 74
0
 42
0.0000001
 43
0.0000001
 44
0.0000000001
 40
0.0
 40
0.0
 40
0.0
 40
0.0
 40
0.2077594513
 40
0.3964800933
 40
0.5616527522
 40
0.6342831831
 40
0.6999797858
 40
0.7586061708
 40
0.810093086
 40
0.8544888717
 40
0.8921374028
 40
0.92383544
 40
0.950903669
 40
0.975397022
 40
1.0
 40
1.0
 40
1.0
 40
1.0
 10
5.1861413043
 20
4.9478704691
 30
0.0
 10
5.1839126214
 20
4.9473241075
 30
0.0
 10
5.1796407166
 20
4.9463551859
 30
0.0
 10
5.1735375253
 20
4.9452349956
 30
0.0
 10
5.1688626639
 20
4.9446250648
 30
0.0
 10
5.1655185709
 20
4.9443810534
 30
0.0
 10
5.1633432827
 20
4.9443186917
 30
0.0
 10
5.1614009405
 20
4.9443683265
 30
0.0
 10
5.1597002942
 20
4.9445295006
 30
0.0
 10
5.1582481681
 20
4.9448025437
 30
0.0
 10
5.1570479897
 20
4.9451883989
 30
0.0
 10
5.1560988446
 20
4.9456866273
 30
0.0
 10
5.1554013678
 20
4.9463049851
 30
0.0
 10
5.1549754351
 20
4.9470501119
 30
0.0
 10
5.1548913043
 20
4.9475987324
 30
0.0
 10
5.1548913043
 20
4.9478704691
 30
0.0
  0
SPLINE
  5
28C
100
AcDbEntity
  8
0
100
AcDbSpline
 62
7
  6
CONTINUOUS
 70
0
 71
3
 72
21
 73
17
 74
0
 42
0.0000001
 43
0.0000001
 44
0.0000000001
 40
0.0
 40
0.0
 40
0.0
 40
0.0
 40
0.1253760655
 40
0.187954867
 40
0.2504635353
 40
0.3129088151
 40
0.3753006934
 40
0.437657917
 40
0.4999999969
 40
0.5623420755
 40
0.6246992967
 40
0.687091174
 40
0.7495364535
 40
0.8120451216
 40
0.8746239267
 40
1.0
 40
1.0
 40
1.0
 40
1.0
 10
5.6705163043
 20
4.9478704691
 30
0.0
 10
5.6506431064
 20
4.9527423836
 30
0.0
 10
5.6206772352
 20
4.9593758418
 30
0.0
 10
5.5804400342
 20
4.9665989851
 30
0.0
 10
5.5501667837
 20
4.9711308818
 30
0.0
 10
5.5197987712
 20
4.9747273021
 30
0.0
 10
5.4893547558
 20
4.9773426541
 30
0.0
 10
5.4588559259
 20
4.9789231171
 30
0.0
 10
5.4283288062
 20
4.9794480562
 30
0.0
 10
5.3978016867
 20
4.9789231195
 30
0.0
 10
5.3673028578
 20
4.9773426519
 30
0.0
 10
5.336858843
 20
4.974727301
 30
0.0
 10
5.3064908304
 20
4.9711308834
 30
0.0
 10
5.2762175796
 20
4.9665989848
 30
0.0
 10
5.235980377
 20
4.9593758406
 30
0.0
 10
5.2060145036
 20
4.9527423839
 30
0.0
 10
5.1861413043
 20
4.9478704691
 30
0.0
  0
SPLINE
  5
28D
100
AcDbEntity
  8
0
100
AcDbSpline
 62
7
  6
CONTINUOUS
 70
0
 71
3
 72
20
 73
16
 74
0
 42
0.0000001
 43
0.0000001
 44
0.0000000001
 40
0.0
 40
0.0
 40
0.0
 40
0.0
 40
0.2077618731
 40
0.3964874702
 40
0.5616651639
 40
0.6342946683
 40
0.6999880064
 40
0.7586098004
 40
0.8100918553
 40
0.8544838098
 40
0.8921318381
 40
0.9238316804
 40
0.9509021988
 40
0.9753968583
 40
1.0
 40
1.0
 40
1.0
 40
1.0
 10
5.1861413043
 20
4.7305033266
 30
0.0
 10
5.1839126017
 20
4.731049693
 30
0.0
 10
5.1796406242
 20
4.7320186089
 30
0.0
 10
5.1735373086
 20
4.7331387766
 30
0.0
 10
5.1688623703
 20
4.7337487779
 30
0.0
 10
5.1655182812
 20
4.7339928413
 30
0.0
 10
5.1633430962
 20
4.7340552171
 30
0.0
 10
5.1614009001
 20
4.7340055749
 30
0.0
 10
5.1597004067
 20
4.7338443766
 30
0.0
 10
5.1582484006
 20
4.7335712655
 30
0.0
 10
5.1570482692
 20
4.733185375
 30
0.0
 10
5.1560990891
 20
4.7326871433
 30
0.0
 10
5.1554015228
 20
4.7320688086
 30
0.0
 10
5.1549754746
 20
4.7313237017
 30
0.0
 10
5.1548913043
 20
4.7307750643
 30
0.0
 10
5.1548913043
 20
4.7305033266
 30
0.0
  0
SPLINE
  5
28E
100
AcDbEntity
  8
0
100
AcDbSpline
 62
7
  6
CONTINUOUS
 70
0
 71
3
 72
20
 73
16
 74
0
 42
0.0000001
 43
0.0000001
 44
0.0000000001
 40
0.0
 40
0.0
 40
0.0
 40
0.0
 40
0.024603115
 40
0.0490969486
 40
0.0761658857
 40
0.1078646085
 40
0.1455135576
 40
0.1899095165
 40
0.2413969901
 40
0.3000241048
 40
0.3657212438
 40
0.4383516125
 40
0.6035221619
 40
0.7922411559
 40
1.0
 40
1.0
 40
1.0
 40
1.0
 10
6.2486413043
 20
4.9478704691
 30
0.0
 10
6.2486413043
 20
4.9475987309
 30
0.0
 10
6.2485571661
 20
4.9470501035
 30
0.0
 10
6.2481312135
 20
4.9463049715
 30
0.0
 10
6.2474337172
 20
4.9456866056
 30
0.0
 10
6.2464845554
 20
4.9451883668
 30
0.0
 10
6.2452843657
 20
4.9448025013
 30
0.0
 10
6.243832227
 20
4.9445294542
 30
0.0
 10
6.2421315623
 20
4.9443683014
 30
0.0
 10
6.2401891997
 20
4.9443186932
 30
0.0
 10
6.2380138993
 20
4.9443810813
 30
0.0
 10
6.2346698268
 20
4.9446251146
 30
0.0
 10
6.2299950072
 20
4.9452350293
 30
0.0
 10
6.2238918618
 20
4.9463551991
 30
0.0
 10
6.2196199805
 20
4.9473241092
 30
0.0
 10
6.2173913043
 20
4.9478704691
 30
0.0
  0
SPLINE
  5
28F
100
AcDbEntity
  8
0
100
AcDbSpline
 62
7
  6
CONTINUOUS
 70
0
 71
3
 72
21
 73
17
 74
0
 42
0.0000001
 43
0.0000001
 44
0.0000000001
 40
0.0
 40
0.0
 40
0.0
 40
0.0
 40
0.1253760655
 40
0.187954867
 40
0.2504635353
 40
0.3129088151
 40
0.3753006934
 40
0.437657917
 40
0.4999999969
 40
0.5623420755
 40
0.6246992967
 40
0.687091174
 40
0.7495364535
 40
0.8120451216
 40
0.8746239267
 40
1.0
 40
1.0
 40
1.0
 40
1.0
 10
6.2173913043
 20
4.9478704691
 30
0.0
 10
6.1975181064
 20
4.9527423836
 30
0.0
 10
6.1675522352
 20
4.9593758418
 30
0.0
 10
6.1273150342
 20
4.9665989851
 30
0.0
 10
6.0970417837
 20
4.9711308818
 30
0.0
 10
6.0666737712
 20
4.9747273021
 30
0.0
 10
6.0362297558
 20
4.9773426541
 30
0.0
 10
6.0057309259
 20
4.9789231171
 30
0.0
 10
5.9752038062
 20
4.9794480562
 30
0.0
 10
5.9446766867
 20
4.9789231195
 30
0.0
 10
5.9141778578
 20
4.9773426519
 30
0.0
 10
5.883733843
 20
4.974727301
 30
0.0
 10
5.8533658304
 20
4.9711308834
 30
0.0
 10
5.8230925796
 20
4.9665989848
 30
0.0
 10
5.782855377
 20
4.9593758406
 30
0.0
 10
5.7528895036
 20
4.9527423839
 30
0.0
 10
5.7330163043
 20
4.9478704691
 30
0.0
  0
SPLINE
  5
290
100
AcDbEntity
  8
0
100
AcDbSpline
 62
7
  6
CONTINUOUS
 70
0
 71
3
 72
11
 73
7
 74
0
 42
0.0000001
 43
0.0000001
 44
0.0000000001
 40
0.0
 40
0.0
 40
0.0
 40
0.0
 40
0.2352681434
 40
0.4829265093
 40
0.7392599635
 40
1.0
 40
1.0
 40
1.0
 40
1.0
 10
5.6705163043
 20
4.9478704691
 30
0.0
 10
5.6729169528
 20
4.9472819501
 30
0.0
 10
5.6778893801
 20
4.9462514747
 30
0.0
 10
5.6855826549
 20
4.9451542989
 30
0.0
 10
5.6935933831
 20
4.9444863943
 30
0.0
 10
5.6990269622
 20
4.9443368136
 30
0.0
 10
5.7017663043
 20
4.9443368136
 30
0.0
  0
SPLINE
  5
291
100
AcDbEntity
  8
0
100
AcDbSpline
 62
7
  6
CONTINUOUS
 70
0
 71
3
 72
11
 73
7
 74
0
 42
0.0000001
 43
0.0000001
 44
0.0000000001
 40
0.0
 40
0.0
 40
0.0
 40
0.0
 40
0.2607404029
 40
0.5170742706
 40
0.7647321989
 40
1.0
 40
1.0
 40
1.0
 40
1.0
 10
5.7017663043
 20
4.9443368136
 30
0.0
 10
5.7045056504
 20
4.9443368136
 30
0.0
 10
5.7099392377
 20
4.9444863926
 30
0.0
 10
5.7179499699
 20
4.9451542967
 30
0.0
 10
5.7256432405
 20
4.9462514751
 30
0.0
 10
5.7306156594
 20
4.947281951
 30
0.0
 10
5.7330163043
 20
4.9478704691
 30
0.0
  0
SPLINE
  5
292
100
AcDbEntity
  8
0
100
AcDbSpline
 62
7
  6
CONTINUOUS
 70
0
 71
3
 72
11
 73
7
 74
0
 42
0.0000001
 43
0.0000001
 44
0.0000000001
 40
0.0
 40
0.0
 40
0.0
 40
0.0
 40
0.2607404
 40
0.5170742727
 40
0.764732197
 40
1.0
 40
1.0
 40
1.0
 40
1.0
 10
5.7017663043
 20
4.7340369821
 30
0.0
 10
5.6990269584
 20
4.7340369821
 30
0.0
 10
5.6935933712
 20
4.7338873972
 30
0.0
 10
5.6855826393
 20
4.7332194952
 30
0.0
 10
5.6778893678
 20
4.7321223222
 30
0.0
 10
5.6729169493
 20
4.7310918447
 30
0.0
 10
5.6705163043
 20
4.7305033266
 30
0.0
  0
SPLINE
  5
293
100
AcDbEntity
  8
0
100
AcDbSpline
 62
7
  6
CONTINUOUS
 70
0
 71
3
 72
21
 73
17
 74
0
 42
0.0000001
 43
0.0000001
 44
0.0000000001
 40
0.0
 40
0.0
 40
0.0
 40
0.0
 40
0.1253760651
 40
0.1879548664
 40
0.2504635347
 40
0.3129088145
 40
0.3753006928
 40
0.4376579165
 40
0.4999999963
 40
0.562342075
 40
0.6246992961
 40
0.6870911734
 40
0.7495364528
 40
0.812045121
 40
0.8746239262
 40
1.0
 40
1.0
 40
1.0
 40
1.0
 10
5.1861413043
 20
4.7305033266
 30
0.0
 10
5.2060145023
 20
4.7256314121
 30
0.0
 10
5.2359803735
 20
4.7189979548
 30
0.0
 10
5.2762175746
 20
4.7117748126
 30
0.0
 10
5.3064908251
 20
4.7072429161
 30
0.0
 10
5.3368588375
 20
4.7036464953
 30
0.0
 10
5.3673028529
 20
4.7010311425
 30
0.0
 10
5.3978016828
 20
4.6994506792
 30
0.0
 10
5.4283288025
 20
4.6989257395
 30
0.0
 10
5.458855922
 20
4.6994506756
 30
0.0
 10
5.4893547509
 20
4.7010311428
 30
0.0
 10
5.5197987658
 20
4.703646493
 30
0.0
 10
5.5501667784
 20
4.7072429102
 30
0.0
 10
5.5804400292
 20
4.711774809
 30
0.0
 10
5.6206772318
 20
4.7189979542
 30
0.0
 10
5.6506431051
 20
4.7256314118
 30
0.0
 10
5.6705163043
 20
4.7305033266
 30
0.0
  0
LINE
  5
294
100
AcDbEntity
  8
0
100
AcDbLine
 62
7
  6
CONTINUOUS
 10
5.7017663043
 20
4.533144088
 11
5.7837981827
 21
4.5354334404
  0
LINE
  5
295
100
AcDbEntity
  8
0
100
AcDbLine
 62
7
  6
CONTINUOUS
 10
5.9363940057
 20
4.5399236467
 11
5.9393804964
 21
4.5400172604
  0
SPLINE
  5
296
100
AcDbEntity
  8
0
100
AcDbSpline
 62
7
  6
CONTINUOUS
 70
0
 71
3
 72
32
 73
28
 74
0
 42
0.0000001
 43
0.0000001
 44
0.0000000001
 40
0.0
 40
0.0
 40
0.0
 40
0.0
 40
0.2154926975
 40
0.3160263993
 40
0.4111009344
 40
0.5002746543
 40
0.5831591237
 40
0.6593691797
 40
0.7285334125
 40
0.7903554714
 40
0.8445659881
 40
0.8908983809
 40
0.9110390637
 40
0.9291392016
 40
0.9451836151
 40
0.9591581927
 40
0.9710506594
 40
0.9808521794
 40
0.9849682434
 40
0.9885626268
 40
0.9916399695
 40
0.9942081199
 40
0.9962807188
 40
0.9978841045
 40
0.9985272442
 40
0.9990802554
 40
1.0
 40
1.0
 40
1.0
 40
1.0
 10
5.9393804964
 20
4.5400172604
 30
0.0
 10
5.9590961095
 20
4.5406363401
 30
0.0
 10
5.9880087103
 20
4.5415748552
 30
0.0
 10
6.0256162776
 20
4.5428894226
 30
0.0
 10
6.0516663087
 20
4.5438520284
 30
0.0
 10
6.0760996528
 20
4.5448141194
 30
0.0
 10
6.0988048274
 20
4.5457753218
 30
0.0
 10
6.1196767021
 20
4.5467353818
 30
0.0
 10
6.1386184277
 20
4.5476945832
 30
0.0
 10
6.1555436803
 20
4.5486519157
 30
0.0
 10
6.1703753792
 20
4.5496066091
 30
0.0
 10
6.1813917316
 20
4.5504323709
 30
0.0
 10
6.18910404
 20
4.5511049947
 30
0.0
 10
6.1940499564
 20
4.551584971
 30
0.0
 10
6.1984285835
 20
4.5520640579
 30
0.0
 10
6.2022353725
 20
4.5525417748
 30
0.0
 10
6.2054656866
 20
4.5530178459
 30
0.0
 10
6.2077923233
 20
4.5534322311
 30
0.0
 10
6.2093590744
 20
4.5537719556
 30
0.0
 10
6.2103173405
 20
4.5540112612
 30
0.0
 10
6.2111290332
 20
4.5542498958
 30
0.0
 10
6.2117950544
 20
4.5544875757
 30
0.0
 10
6.2123158805
 20
4.5547244134
 30
0.0
 10
6.2126540861
 20
4.5549339198
 30
0.0
 10
6.2128436368
 20
4.5551080442
 30
0.0
 10
6.2129639607
 20
4.5552599201
 30
0.0
 10
6.2130116532
 20
4.5553951662
 30
0.0
 10
6.213011662
 20
4.5554793559
 30
0.0
  0
SPLINE
  5
297
100
AcDbEntity
  8
0
100
AcDbSpline
 62
7
  6
CONTINUOUS
 70
0
 71
3
 72
11
 73
7
 74
0
 42
0.0000001
 43
0.0000001
 44
0.0000000001
 40
0.0
 40
0.0
 40
0.0
 40
0.0
 40
0.2607379565
 40
0.5170743054
 40
0.764734989
 40
1.0
 40
1.0
 40
1.0
 40
1.0
 10
5.7017663043
 20
4.7340369821
 30
0.0
 10
5.7045056248
 20
4.7340369821
 30
0.0
 10
5.7099392139
 20
4.7338874273
 30
0.0
 10
5.717949973
 20
4.7332194913
 30
0.0
 10
5.7256432741
 20
4.7321223401
 30
0.0
 10
5.7306156877
 20
4.7310918378
 30
0.0
 10
5.7330163043
 20
4.7305033266
 30
0.0
  0
SPLINE
  5
298
100
AcDbEntity
  8
0
100
AcDbSpline
 62
7
  6
CONTINUOUS
 70
0
 71
3
 72
21
 73
17
 74
0
 42
0.0000001
 43
0.0000001
 44
0.0000000001
 40
0.0
 40
0.0
 40
0.0
 40
0.0
 40
0.1253760651
 40
0.1879548664
 40
0.2504635347
 40
0.3129088145
 40
0.3753006928
 40
0.4376579165
 40
0.4999999963
 40
0.562342075
 40
0.6246992961
 40
0.6870911734
 40
0.7495364528
 40
0.812045121
 40
0.8746239262
 40
1.0
 40
1.0
 40
1.0
 40
1.0
 10
5.7330163043
 20
4.7305033266
 30
0.0
 10
5.7528895023
 20
4.7256314121
 30
0.0
 10
5.7828553735
 20
4.7189979548
 30
0.0
 10
5.8230925746
 20
4.7117748126
 30
0.0
 10
5.8533658251
 20
4.7072429161
 30
0.0
 10
5.8837338375
 20
4.7036464953
 30
0.0
 10
5.9141778529
 20
4.7010311425
 30
0.0
 10
5.9446766828
 20
4.6994506792
 30
0.0
 10
5.9752038025
 20
4.6989257395
 30
0.0
 10
6.005730922
 20
4.6994506756
 30
0.0
 10
6.0362297509
 20
4.7010311428
 30
0.0
 10
6.0666737658
 20
4.703646493
 30
0.0
 10
6.0970417784
 20
4.7072429102
 30
0.0
 10
6.1273150292
 20
4.711774809
 30
0.0
 10
6.1675522318
 20
4.7189979542
 30
0.0
 10
6.1975181051
 20
4.7256314118
 30
0.0
 10
6.2173913043
 20
4.7305033266
 30
0.0
  0
SPLINE
  5
299
100
AcDbEntity
  8
0
100
AcDbSpline
 62
7
  6
CONTINUOUS
 70
0
 71
3
 72
20
 73
16
 74
0
 42
0.0000001
 43
0.0000001
 44
0.0000000001
 40
0.0
 40
0.0
 40
0.0
 40
0.0
 40
0.2077592335
 40
0.3964795075
 40
0.5616518063
 40
0.6342822199
 40
0.699978883
 40
0.7586053357
 40
0.8100922744
 40
0.8544880333
 40
0.892136627
 40
0.9238348447
 40
0.9509033315
 40
0.9753969256
 40
1.0
 40
1.0
 40
1.0
 40
1.0
 10
6.2173913043
 20
4.7305033266
 30
0.0
 10
6.2196199858
 20
4.7310496878
 30
0.0
 10
6.2238918879
 20
4.7320186
 30
0.0
 10
6.2299950748
 20
4.7331387687
 30
0.0
 10
6.2346699296
 20
4.733748695
 30
0.0
 10
6.2380140188
 20
4.7339927241
 30
0.0
 10
6.2401893085
 20
4.734055103
 30
0.0
 10
6.2421316535
 20
4.7340054855
 30
0.0
 10
6.2438323026
 20
4.7338443254
 30
0.0
 10
6.245284431
 20
4.7335712863
 30
0.0
 10
6.2464846113
 20
4.7331854267
 30
0.0
 10
6.2474337587
 20
4.7326871894
 30
0.0
 10
6.2481312373
 20
4.7320688219
 30
0.0
 10
6.2485571718
 20
4.7313236887
 30
0.0
 10
6.2486413043
 20
4.7307750644
 30
0.0
 10
6.2486413043
 20
4.7305033266
 30
0.0
  0
SPLINE
  5
29A
100
AcDbEntity
  8
0
100
AcDbSpline
 62
7
  6
CONTINUOUS
 70
0
 71
3
 72
16
 73
12
 74
0
 42
0.0000001
 43
0.0000001
 44
0.0000000001
 40
0.0
 40
0.0
 40
0.0
 40
0.0
 40
0.2149361777
 40
0.4026802692
 40
0.5634610794
 40
0.6976607747
 40
0.80596242
 40
0.8897101371
 40
0.9232747786
 40
0.9521102183
 40
1.0
 40
1.0
 40
1.0
 40
1.0
 10
5.1950958273
 20
4.6634734819
 30
0.0
 10
5.1947380704
 20
4.6633999235
 30
0.0
 10
5.1940692836
 20
4.6632547541
 30
0.0
 10
5.1931399488
 20
4.6630234353
 30
0.0
 10
5.1923523521
 20
4.6627932721
 30
0.0
 10
5.1917057242
 20
4.6625643985
 30
0.0
 10
5.191199734
 20
4.6623365058
 30
0.0
 10
5.190870827
 20
4.6621349251
 30
0.0
 10
5.1906862088
 20
4.6619671804
 30
0.0
 10
5.1905689452
 20
4.6618208966
 30
0.0
 10
5.1905221415
 20
4.6616902568
 30
0.0
 10
5.1905219034
 20
4.6616088781
 30
0.0
  0
SPLINE
  5
29B
100
AcDbEntity
  8
0
100
AcDbSpline
 62
7
  6
CONTINUOUS
 70
0
 71
3
 72
37
 73
33
 74
0
 42
0.0000001
 43
0.0000001
 44
0.0000000001
 40
0.0
 40
0.0
 40
0.0
 40
0.0
 40
0.0977490715
 40
0.1947185388
 40
0.2898052118
 40
0.3820443654
 40
0.4705929694
 40
0.5546224802
 40
0.6333347623
 40
0.7059449707
 40
0.7717631443
 40
0.8301644379
 40
0.856399122
 40
0.8805775703
 40
0.9026444856
 40
0.9225446812
 40
0.9402237349
 40
0.9556409425
 40
0.9687699394
 40
0.9744689356
 40
0.9795873149
 40
0.9841228667
 40
0.9880740288
 40
0.9914403514
 40
0.9942242355
 40
0.9964337448
 40
0.9973282913
 40
0.9980872292
 40
0.9987169486
 40
0.9992287149
 40
0.9996435336
 40
1.0
 40
1.0
 40
1.0
 40
1.0
 10
5.7017663043
 20
4.6224853645
 30
0.0
 10
5.7184530077
 20
4.6229598869
 30
0.0
 10
5.7516938582
 20
4.6238864682
 30
0.0
 10
5.8011676059
 20
4.6252496847
 30
0.0
 10
5.849699971
 20
4.6266146883
 30
0.0
 10
5.896793252
 20
4.6279934893
 30
0.0
 10
5.9419969817
 20
4.629385054
 30
0.0
 10
5.9848890232
 20
4.630790243
 30
0.0
 10
6.0250577164
 20
4.6321910419
 30
0.0
 10
6.0621152776
 20
4.6335649878
 30
0.0
 10
6.0957022717
 20
4.6349213757
 30
0.0
 10
6.1213698423
 20
4.636099695
 30
0.0
 10
6.1399274786
 20
4.6370748161
 30
0.0
 10
6.1522853123
 20
4.6377826982
 30
0.0
 10
6.1635595004
 20
4.6384893169
 30
0.0
 10
6.1737216976
 20
4.6391905476
 30
0.0
 10
6.1827460925
 20
4.6398810974
 30
0.0
 10
6.1906112077
 20
4.6405607043
 30
0.0
 10
6.1964306213
 20
4.6411452734
 30
0.0
 10
6.2004924436
 20
4.6416213258
 30
0.0
 10
6.2030923075
 20
4.6419616795
 30
0.0
 10
6.2053907512
 20
4.6423027668
 30
0.0
 10
6.2073860529
 20
4.6426450015
 30
0.0
 10
6.209077079
 20
4.6429884368
 30
0.0
 10
6.2104628367
 20
4.6433334596
 30
0.0
 10
6.2114227626
 20
4.6436377865
 30
0.0
 10
6.2120326467
 20
4.6438904728
 30
0.0
 10
6.2123810873
 20
4.6440665568
 30
0.0
 10
6.2126545832
 20
4.6442428689
 30
0.0
 10
6.2128541512
 20
4.6444206781
 30
0.0
 10
6.2129807694
 20
4.6446033361
 30
0.0
 10
6.2130120349
 20
4.6447358617
 30
0.0
 10
6.2130120738
 20
4.6447967386
 30
0.0
  0
SPLINE
  5
29C
100
AcDbEntity
  8
0
100
AcDbSpline
 62
7
  6
CONTINUOUS
 70
0
 71
3
 72
38
 73
34
 74
0
 42
0.0000001
 43
0.0000001
 44
0.0000000001
 40
0.0
 40
0.0
 40
0.0
 40
0.0
 40
0.0977498781
 40
0.1947217662
 40
0.2898121394
 40
0.3820541308
 40
0.4706046995
 40
0.5546352933
 40
0.6333490872
 40
0.7059622476
 40
0.7717825749
 40
0.8301861404
 40
0.8564207692
 40
0.880598266
 40
0.902664207
 40
0.9225644112
 40
0.9402453261
 40
0.9556647998
 40
0.9687963252
 40
0.9744967242
 40
0.9796165615
 40
0.9841535413
 40
0.9881059323
 40
0.9914729668
 40
0.9942561111
 40
0.9954309429
 40
0.9964632151
 40
0.9973553418
 40
0.998111081
 40
0.998736654
 40
0.9992431016
 40
0.9996512491
 40
1.0
 40
1.0
 40
1.0
 40
1.0
 10
5.7017663043
 20
4.5945597232
 30
0.0
 10
5.6850796425
 20
4.594093296
 30
0.0
 10
5.6518390379
 20
4.593167373
 30
0.0
 10
5.6023659569
 20
4.5917809782
 30
0.0
 10
5.5538338841
 20
4.5903935627
 30
0.0
 10
5.5067406051
 20
4.5890045685
 30
0.0
 10
5.4615368833
 20
4.5876162267
 30
0.0
 10
5.4186445297
 20
4.5862291113
 30
0.0
 10
5.3784753193
 20
4.5848438521
 30
0.0
 10
5.3414178747
 20
4.5834600349
 30
0.0
 10
5.3078314589
 20
4.5820783406
 30
0.0
 10
5.2821641946
 20
4.580892225
 30
0.0
 10
5.2636061089
 20
4.5799305725
 30
0.0
 10
5.2512481702
 20
4.5792359085
 30
0.0
 10
5.239973794
 20
4.5785420243
 30
0.0
 10
5.2298111062
 20
4.5778491396
 30
0.0
 10
5.2207862705
 20
4.5771575604
 30
0.0
 10
5.2129210945
 20
4.5764673733
 30
0.0
 10
5.207102029
 20
4.5758700811
 30
0.0
 10
5.2030405715
 20
4.5753839874
 30
0.0
 10
5.2004408695
 20
4.5750372697
 30
0.0
 10
5.1981425481
 20
4.5746911706
 30
0.0
 10
5.1961471783
 20
4.5743459813
 30
0.0
 10
5.1944563159
 20
4.5740018956
 30
0.0
 10
5.1932411037
 20
4.5737022948
 30
0.0
 10
5.1924247339
 20
4.5734571238
 30
0.0
 10
5.1919243722
 20
4.5732840187
 30
0.0
 10
5.1915002241
 20
4.5731112337
 30
0.0
 10
5.1911519045
 20
4.5729387134
 30
0.0
 10
5.190878569
 20
4.5727662291
 30
0.0
 10
5.1906791417
 20
4.5725925121
 30
0.0
 10
5.19055238
 20
4.5724140723
 30
0.0
 10
5.1905209523
 20
4.5722840152
 30
0.0
 10
5.1905209466
 20
4.5722244575
 30
0.0
  0
SPLINE
  5
29D
100
AcDbEntity
  8
0
100
AcDbSpline
 62
7
  6
CONTINUOUS
 70
0
 71
3
 72
25
 73
21
 74
0
 42
0.0000001
 43
0.0000001
 44
0.0000000001
 40
0.0
 40
0.0
 40
0.0
 40
0.0
 40
0.0021150111
 40
0.0046580805
 40
0.0110728059
 40
0.0193014822
 40
0.0293640652
 40
0.0412620946
 40
0.054991105
 40
0.0879105402
 40
0.1280489331
 40
0.1753198845
 40
0.2296024698
 40
0.2907157483
 40
0.3584705351
 40
0.4326766498
 40
0.5131356357
 40
0.5995973021
 40
0.7894417223
 40
1.0
 40
1.0
 40
1.0
 40
1.0
 10
5.1911080387
 20
4.5114910511
 30
0.0
 10
5.1912316408
 20
4.5115628717
 30
0.0
 10
5.19151422
 20
4.5117031771
 30
0.0
 10
5.1922095466
 20
4.5119811799
 30
0.0
 10
5.1933240098
 20
4.5123153347
 30
0.0
 10
5.1949502767
 20
4.5126959363
 30
0.0
 10
5.1969551221
 20
4.5130783928
 30
0.0
 10
5.1993367511
 20
4.5134627779
 30
0.0
 10
5.2032560853
 20
4.5140102652
 30
0.0
 10
5.2090847773
 20
4.5146767116
 30
0.0
 10
5.2171819627
 20
4.5154420775
 30
0.0
 10
5.2267283122
 20
4.5162101625
 30
0.0
 10
5.237696068
 20
4.5169803787
 30
0.0
 10
5.2500512191
 20
4.5177522229
 30
0.0
 10
5.2637552685
 20
4.5185252322
 30
0.0
 10
5.278768732
 20
4.5192990437
 30
0.0
 10
5.2950481091
 20
4.5200732382
 30
0.0
 10
5.3191382773
 20
4.5211396326
 30
0.0
 10
5.3520191256
 20
4.5224578228
 30
0.0
 10
5.3790646111
 20
4.523437874
 30
0.0
 10
5.3932875812
 20
4.5239339477
 30
0.0
  0
LINE
  5
29E
100
AcDbEntity
  8
0
100
AcDbLine
 62
7
  6
CONTINUOUS
 10
5.3932875812
 20
4.5239339477
 11
5.3946545156
 21
4.523981564
  0
SPLINE
  5
29F
100
AcDbEntity
  8
0
100
AcDbSpline
 62
7
  6
CONTINUOUS
 70
0
 71
3
 72
11
 73
7
 74
0
 42
0.0000001
 43
0.0000001
 44
0.0000000001
 40
0.0
 40
0.0
 40
0.0
 40
0.0
 40
0.2264315314
 40
0.4728529984
 40
0.7331026661
 40
1.0
 40
1.0
 40
1.0
 40
1.0
 10
5.3946545156
 20
4.523981564
 30
0.0
 10
5.4178307797
 20
4.5247878769
 30
0.0
 10
5.466232986
 20
4.5263676904
 30
0.0
 10
5.5412808572
 20
4.5286218069
 30
0.0
 10
5.6204745634
 20
4.5308856808
 30
0.0
 10
5.6744421137
 20
4.5323881745
 30
0.0
 10
5.7017663043
 20
4.533144088
 30
0.0
  0
SPLINE
  5
2A0
100
AcDbEntity
  8
0
100
AcDbSpline
 62
7
  6
CONTINUOUS
 70
0
 71
3
 72
30
 73
26
 74
0
 42
0.0000001
 43
0.0000001
 44
0.0000000001
 40
0.0
 40
0.0
 40
0.0
 40
0.0
 40
0.0015935377
 40
0.0037129196
 40
0.0063736913
 40
0.0095830354
 40
0.0133426484
 40
0.017651988
 40
0.0279131914
 40
0.0403498754
 40
0.0549408812
 40
0.0716629402
 40
0.090481528
 40
0.1113485762
 40
0.1342148163
 40
0.1857464574
 40
0.2446352423
 40
0.3103311742
 40
0.382261091
 40
0.4597676093
 40
0.5421323907
 40
0.6286263334
 40
0.7184914254
 40
0.8109574451
 40
1.0
 40
1.0
 40
1.0
 40
1.0
 10
5.1911398103
 20
4.6008505301
 30
0.0
 10
5.1913761969
 20
4.6009843132
 30
0.0
 10
5.1919604875
 20
4.6012348932
 30
0.0
 10
5.192996118
 20
4.6015641176
 30
0.0
 10
5.1943177734
 20
4.6018957512
 30
0.0
 10
5.195925185
 20
4.6022290802
 30
0.0
 10
5.1978184786
 20
4.602563615
 30
0.0
 10
5.2009066836
 20
4.6030387939
 30
0.0
 10
5.2054741456
 20
4.6036182572
 30
0.0
 10
5.2117952873
 20
4.6042842532
 30
0.0
 10
5.2192226518
 20
4.6049526138
 30
0.0
 10
5.2277413943
 20
4.605622729
 30
0.0
 10
5.2373327224
 20
4.6062938581
 30
0.0
 10
5.2479735358
 20
4.6069660465
 30
0.0
 10
5.2641845613
 20
4.6079009139
 30
0.0
 10
5.286874306
 20
4.6090524199
 30
0.0
 10
5.3168636566
 20
4.6103891206
 30
0.0
 10
5.3503328354
 20
4.6117289631
 30
0.0
 10
5.3869776508
 20
4.6130697831
 30
0.0
 10
5.4264653674
 20
4.6144120067
 30
0.0
 10
5.4684367597
 20
4.6157572144
 30
0.0
 10
5.5125156019
 20
4.6171053785
 30
0.0
 10
5.5583170169
 20
4.6184520033
 30
0.0
 10
5.62159216
 20
4.6202471061
 30
0.0
 10
5.6695570451
 20
4.6215694248
 30
0.0
 10
5.7017663043
 20
4.6224853645
 30
0.0
  0
SPLINE
  5
2A1
100
AcDbEntity
  8
0
100
AcDbSpline
 62
7
  6
CONTINUOUS
 70
0
 71
3
 72
53
 73
49
 74
0
 42
0.0000001
 43
0.0000001
 44
0.0000000001
 40
0.0
 40
0.0
 40
0.0
 40
0.0
 40
0.0008567581
 40
0.0019704242
 40
0.0033489948
 40
0.0049966332
 40
0.0069157691
 40
0.0091079442
 40
0.014315133
 40
0.0206222203
 40
0.0280148285
 40
0.0364680402
 40
0.0459561955
 40
0.0564532783
 40
0.0679330741
 40
0.0937380101
 40
0.123167935
 40
0.1560130771
 40
0.1919751783
 40
0.2306924554
 40
0.2718017995
 40
0.3149409574
 40
0.3597471413
 40
0.4058299926
 40
0.5001166316
 40
0.5943763217
 40
0.640435586
 40
0.685241241
 40
0.7283965197
 40
0.7695119567
 40
0.8082044784
 40
0.8441059748
 40
0.8769187692
 40
0.9063667998
 40
0.9321889335
 40
0.9436656344
 40
0.9541467672
 40
0.9636033266
 40
0.9720144687
 40
0.9793683112
 40
0.9856539764
 40
0.9908616462
 40
0.9930588262
 40
0.9949840328
 40
0.9966377771
 40
0.9980219504
 40
0.9991401953
 40
1.0
 40
1.0
 40
1.0
 40
1.0
 10
6.1590758819
 20
4.5854174797
 30
0.0
 10
6.1588494506
 20
4.5852863462
 30
0.0
 10
6.1582987678
 20
4.5850376835
 30
0.0
 10
6.1573299726
 20
4.5847083181
 30
0.0
 10
6.1561090551
 20
4.5843769336
 30
0.0
 10
6.1546355693
 20
4.5840440941
 30
0.0
 10
6.152908469
 20
4.5837102282
 30
0.0
 10
6.1501020059
 20
4.5832365862
 30
0.0
 10
6.145955305
 20
4.5826583117
 30
0.0
 10
6.1402189581
 20
4.5819945749
 30
0.0
 10
6.133485849
 20
4.5813286271
 30
0.0
 10
6.1257773707
 20
4.5806605673
 30
0.0
 10
6.1171177187
 20
4.5799912675
 30
0.0
 10
6.1075313278
 20
4.5793210008
 30
0.0
 10
6.0929679751
 20
4.5783897402
 30
0.0
 10
6.0726247642
 20
4.5772418939
 30
0.0
 10
6.0457572504
 20
4.5759078097
 30
0.0
 10
6.0157842929
 20
4.5745725141
 30
0.0
 10
5.9829724373
 20
4.5732354513
 30
0.0
 10
5.9476347606
 20
4.5718964691
 30
0.0
 10
5.9101037127
 20
4.5705564231
 30
0.0
 10
5.8707119661
 20
4.5692154147
 30
0.0
 10
5.829800438
 20
4.5678738831
 30
0.0
 10
5.7732747246
 20
4.5660711771
 30
0.0
 10
5.7016511756
 20
4.563848439
 30
0.0
 10
5.6300348221
 20
4.5616260608
 30
0.0
 10
5.5735247351
 20
4.5598226363
 30
0.0
 10
5.5326156589
 20
4.5584808472
 30
0.0
 10
5.493217277
 20
4.557140097
 30
0.0
 10
5.4556869864
 20
4.5558005992
 30
0.0
 10
5.420373506
 20
4.5544623634
 30
0.0
 10
5.3875976815
 20
4.5531239748
 30
0.0
 10
5.3576476581
 20
4.5517875813
 30
0.0
 10
5.3307791997
 20
4.5504544186
 30
0.0
 10
5.3104260908
 20
4.5493073408
 30
0.0
 10
5.2958632922
 20
4.5483762343
 30
0.0
 10
5.2862923777
 20
4.5477063276
 30
0.0
 10
5.2776601706
 20
4.5470370492
 30
0.0
 10
5.2699862015
 20
4.5463684497
 30
0.0
 10
5.263284559
 20
4.545701657
 30
0.0
 10
5.2575666737
 20
4.5450371017
 30
0.0
 10
5.2534248494
 20
4.5444592804
 30
0.0
 10
5.2506147369
 20
4.5439860822
 30
0.0
 10
5.2488822821
 20
4.5436522846
 30
0.0
 10
5.2474032185
 20
4.5433195163
 30
0.0
 10
5.2461771172
 20
4.5429882552
 30
0.0
 10
5.2452040086
 20
4.5426590637
 30
0.0
 10
5.2446507219
 20
4.5424105003
 30
0.0
 10
5.2444232401
 20
4.542279325
 30
0.0
  0
SPLINE
  5
2A2
100
AcDbEntity
  8
0
100
AcDbSpline
 62
7
  6
CONTINUOUS
 70
0
 71
3
 72
31
 73
27
 74
0
 42
0.0000001
 43
0.0000001
 44
0.0000000001
 40
0.0
 40
0.0
 40
0.0
 40
0.0
 40
0.0015796751
 40
0.0036864937
 40
0.0063357914
 40
0.0095328755
 40
0.0132792311
 40
0.0175747236
 40
0.0278082699
 40
0.0402206449
 40
0.054794139
 40
0.0714987126
 40
0.0902942795
 40
0.1111395655
 40
0.1339927307
 40
0.1588064496
 40
0.1855198564
 40
0.244393603
 40
0.3100966564
 40
0.3820284679
 40
0.4595504179
 40
0.5419542579
 40
0.628483919
 40
0.7183733007
 40
0.8108449474
 40
1.0
 40
1.0
 40
1.0
 40
1.0
 10
6.2124137971
 20
4.6162549867
 30
0.0
 10
6.2121803913
 20
4.616120715
 30
0.0
 10
6.211601476
 20
4.6158688219
 30
0.0
 10
6.2105735332
 20
4.6155366503
 30
0.0
 10
6.209259371
 20
4.615200276
 30
0.0
 10
6.2076595975
 20
4.6148607714
 30
0.0
 10
6.2057742305
 20
4.6145193301
 30
0.0
 10
6.2026968524
 20
4.6140340134
 30
0.0
 10
6.1981417695
 20
4.6134435288
 30
0.0
 10
6.1918327773
 20
4.6127710613
 30
0.0
 10
6.1844146023
 20
4.6121078044
 30
0.0
 10
6.1759041465
 20
4.6114519295
 30
0.0
 10
6.1663217385
 20
4.6107974048
 30
0.0
 10
6.1556893047
 20
4.6101392298
 30
0.0
 10
6.1440297898
 20
4.6094715079
 30
0.0
 10
6.1313692086
 20
4.6087903081
 30
0.0
 10
6.1125741763
 20
4.6078414305
 30
0.0
 10
6.0868119311
 20
4.6066643086
 30
0.0
 10
6.053341421
 20
4.605332165
 30
0.0
 10
6.0166893401
 20
4.6040162674
 30
0.0
 10
5.9771892954
 20
4.6026846482
 30
0.0
 10
5.9352001617
 20
4.6013346385
 30
0.0
 10
5.8911020682
 20
4.5999772192
 30
0.0
 10
5.8452870927
 20
4.5986179341
 30
0.0
 10
5.7819846455
 20
4.5967957761
 30
0.0
 10
5.7339971007
 20
4.5954606415
 30
0.0
 10
5.7017663043
 20
4.5945597232
 30
0.0
  0
SPLINE
  5
2A3
100
AcDbEntity
  8
0
100
AcDbSpline
 62
7
  6
CONTINUOUS
 70
0
 71
3
 72
11
 73
7
 74
0
 42
0.0000001
 43
0.0000001
 44
0.0000000001
 40
0.0
 40
0.0
 40
0.0
 40
0.0
 40
0.2235580658
 40
0.4675872086
 40
0.7278385975
 40
1.0
 40
1.0
 40
1.0
 40
1.0
 10
6.0048122622
 20
4.6634733912
 30
0.0
 10
5.9891957349
 20
4.6628265072
 30
0.0
 10
5.9565293471
 20
4.6615539341
 30
0.0
 10
5.9056754647
 20
4.6597345668
 30
0.0
 10
5.8514215572
 20
4.6579131182
 30
0.0
 10
5.8142174484
 20
4.6567177263
 30
0.0
 10
5.7951990221
 20
4.6561144869
 30
0.0
  0
SPLINE
  5
2A4
100
AcDbEntity
  8
0
100
AcDbSpline
 62
7
  6
CONTINUOUS
 70
0
 71
3
 72
29
 73
25
 74
0
 42
0.0000001
 43
0.0000001
 44
0.0000000001
 40
0.0
 40
0.0
 40
0.0
 40
0.0
 40
0.1971361846
 40
0.291481778
 40
0.3821742553
 40
0.4685995204
 40
0.5501883008
 40
0.6263820652
 40
0.6966468743
 40
0.7605371222
 40
0.8176277708
 40
0.8675205345
 40
0.889672281
 40
0.9099147676
 40
0.9282137874
 40
0.9445356351
 40
0.9588504612
 40
0.9711423242
 40
0.9814008272
 40
0.9896201885
 40
0.9929665451
 40
0.9958069205
 40
0.9981472424
 40
1.0
 40
1.0
 40
1.0
 40
1.0
 10
5.6089761539
 20
4.650292797
 30
0.0
 10
5.584984944
 20
4.6495324625
 30
0.0
 10
5.5495125727
 20
4.6483897113
 30
0.0
 10
5.5030056782
 20
4.6468176416
 30
0.0
 10
5.4699727524
 20
4.6456565829
 30
0.0
 10
5.4384940613
 20
4.6444963894
 30
0.0
 10
5.4087819522
 20
4.6433371786
 30
0.0
 10
5.3810390858
 20
4.6421788683
 30
0.0
 10
5.3554531986
 20
4.6410207098
 30
0.0
 10
5.3321957942
 20
4.6398642943
 30
0.0
 10
5.3114221399
 20
4.6387105891
 30
0.0
 10
5.2957298382
 20
4.6377168531
 30
0.0
 10
5.2845218719
 20
4.6369108603
 30
0.0
 10
5.2771545801
 20
4.6363311438
 30
0.0
 10
5.2704994802
 20
4.635752141
 30
0.0
 10
5.2645690448
 20
4.635174065
 30
0.0
 10
5.2593738592
 20
4.6345969171
 30
0.0
 10
5.2549217544
 20
4.6340218698
 30
0.0
 10
5.2512189051
 20
4.6334493434
 30
0.0
 10
5.2486077943
 20
4.6329490704
 30
0.0
 10
5.2469027898
 20
4.632535666
 30
0.0
 10
5.2459045792
 20
4.6322481927
 30
0.0
 10
5.2450969141
 20
4.631962166
 30
0.0
 10
5.2446313616
 20
4.6317487252
 30
0.0
 10
5.2444351206
 20
4.6316374556
 30
0.0
  0
SPLINE
  5
2A5
100
AcDbEntity
  8
0
100
AcDbSpline
 62
7
  6
CONTINUOUS
 70
0
 71
3
 72
39
 73
35
 74
0
 42
0.0000001
 43
0.0000001
 44
0.0000000001
 40
0.0
 40
0.0
 40
0.0
 40
0.0
 40
0.0312020201
 40
0.0624676473
 40
0.0937393061
 40
0.1249949803
 40
0.1562446126
 40
0.1874936294
 40
0.218744414
 40
0.2499953496
 40
0.2812444787
 40
0.3124950115
 40
0.3437466634
 40
0.374997088
 40
0.4062481106
 40
0.4374991092
 40
0.4687488899
 40
0.4999999994
 40
0.5312511122
 40
0.5625008983
 40
0.5937519005
 40
0.6250029209
 40
0.656253329
 40
0.6875049667
 40
0.7187555135
 40
0.7500046904
 40
0.7812556596
 40
0.8125064062
 40
0.8437553011
 40
0.875004867
 40
0.9062606282
 40
0.9375324547
 40
0.9687980849
 40
1.0
 40
1.0
 40
1.0
 40
1.0
 10
5.7017663043
 20
3.6528484819
 30
0.0
 10
5.7095639355
 20
3.6528857287
 30
0.0
 10
5.7251815403
 20
3.6536909436
 30
0.0
 10
5.7483926303
 20
3.6571013289
 30
0.0
 10
5.7711821934
 20
3.6627488506
 30
0.0
 10
5.7932860423
 20
3.6706539572
 30
0.0
 10
5.8144970258
 20
3.680695519
 30
0.0
 10
5.8346204929
 20
3.6927676074
 30
0.0
 10
5.8534633915
 20
3.7067544027
 30
0.0
 10
5.8708554221
 20
3.72250867
 30
0.0
 10
5.8866206104
 20
3.739891902
 30
0.0
 10
5.9005942838
 20
3.7587451654
 30
0.0
 10
5.9126619744
 20
3.7788716901
 30
0.0
 10
5.9226973409
 20
3.8000857409
 30
0.0
 10
5.9305966841
 20
3.8221835653
 30
0.0
 10
5.9363043006
 20
3.8449458707
 30
0.0
 10
5.9397487283
 20
3.8681593981
 30
0.0
 10
5.9408938931
 20
3.8915985569
 30
0.0
 10
5.9397487055
 20
3.9150377151
 30
0.0
 10
5.9363042806
 20
3.9382512461
 30
0.0
 10
5.9305966408
 20
3.9610135482
 30
0.0
 10
5.9226972792
 20
3.9831113613
 30
0.0
 10
5.9126619098
 20
4.004325402
 30
0.0
 10
5.9005941901
 20
4.0244519051
 30
0.0
 10
5.8866204993
 20
4.0433051679
 30
0.0
 10
5.8708553307
 20
4.0606884493
 30
0.0
 10
5.853463302
 20
4.0764427368
 30
0.0
 10
5.8346203949
 20
4.0904294759
 30
0.0
 10
5.8144968525
 20
4.1025013359
 30
0.0
 10
5.7932858091
 20
4.1125426996
 30
0.0
 10
5.7711820073
 20
4.1204480016
 30
0.0
 10
5.7483926299
 20
4.1260964954
 30
0.0
 10
5.7251815829
 20
4.1295074857
 30
0.0
 10
5.7095639131
 20
4.1303120355
 30
0.0
 10
5.7017663043
 20
4.1303484819
 30
0.0
  0
SPLINE
  5
2A6
100
AcDbEntity
  8
0
100
AcDbSpline
 62
7
  6
CONTINUOUS
 70
0
 71
3
 72
39
 73
35
 74
0
 42
0.0000001
 43
0.0000001
 44
0.0000000001
 40
0.0
 40
0.0
 40
0.0
 40
0.0
 40
0.0312020201
 40
0.0624676473
 40
0.0937393061
 40
0.1249949803
 40
0.1562446126
 40
0.1874936294
 40
0.218744414
 40
0.2499953496
 40
0.2812444787
 40
0.3124950115
 40
0.3437466634
 40
0.374997088
 40
0.4062481106
 40
0.4374991092
 40
0.4687488899
 40
0.4999999994
 40
0.5312511122
 40
0.5625008983
 40
0.5937519005
 40
0.6250029209
 40
0.656253329
 40
0.6875049667
 40
0.7187555135
 40
0.7500046904
 40
0.7812556596
 40
0.8125064062
 40
0.8437553011
 40
0.875004867
 40
0.9062606282
 40
0.9375324547
 40
0.9687980849
 40
1.0
 40
1.0
 40
1.0
 40
1.0
 10
5.7017663043
 20
4.1303484819
 30
0.0
 10
5.6939686732
 20
4.1303112352
 30
0.0
 10
5.6783510684
 20
4.1295060203
 30
0.0
 10
5.6551399784
 20
4.1260956349
 30
0.0
 10
5.6323504153
 20
4.1204481132
 30
0.0
 10
5.6102465664
 20
4.1125430066
 30
0.0
 10
5.5890355829
 20
4.1025014448
 30
0.0
 10
5.5689121158
 20
4.0904293565
 30
0.0
 10
5.5500692172
 20
4.0764425611
 30
0.0
 10
5.5326771866
 20
4.0606882939
 30
0.0
 10
5.5169119983
 20
4.0433050619
 30
0.0
 10
5.5029383249
 20
4.0244517984
 30
0.0
 10
5.4908706343
 20
4.0043252737
 30
0.0
 10
5.4808352678
 20
3.9831112229
 30
0.0
 10
5.4729359246
 20
3.9610133985
 30
0.0
 10
5.4672283081
 20
3.9382510932
 30
0.0
 10
5.4637838804
 20
3.9150375657
 30
0.0
 10
5.4626387156
 20
3.8915984069
 30
0.0
 10
5.4637839032
 20
3.8681592487
 30
0.0
 10
5.4672283281
 20
3.8449457177
 30
0.0
 10
5.4729359679
 20
3.8221834157
 30
0.0
 10
5.4808353295
 20
3.8000856026
 30
0.0
 10
5.4908706989
 20
3.7788715618
 30
0.0
 10
5.5029384186
 20
3.7587450588
 30
0.0
 10
5.5169121094
 20
3.7398917959
 30
0.0
 10
5.532677278
 20
3.7225085145
 30
0.0
 10
5.5500693067
 20
3.7067542271
 30
0.0
 10
5.5689122138
 20
3.692767488
 30
0.0
 10
5.5890357562
 20
3.6806956279
 30
0.0
 10
5.6102467996
 20
3.6706542642
 30
0.0
 10
5.6323506014
 20
3.6627489622
 30
0.0
 10
5.6551399787
 20
3.6571004685
 30
0.0
 10
5.6783510258
 20
3.6536894782
 30
0.0
 10
5.6939686956
 20
3.6528849283
 30
0.0
 10
5.7017663043
 20
3.6528484819
 30
0.0
  0
SPLINE
  5
2A7
100
AcDbEntity
  8
0
100
AcDbSpline
 62
7
  6
CONTINUOUS
 70
0
 71
3
 72
24
 73
20
 74
0
 42
0.0000001
 43
0.0000001
 44
0.0000000001
 40
0.0
 40
0.0
 40
0.0
 40
0.0
 40
0.1904300244
 40
0.3743983819
 40
0.4613173061
 40
0.5437064459
 40
0.6208175492
 40
0.6919112738
 40
0.7563062193
 40
0.8135144963
 40
0.8631270351
 40
0.9048042922
 40
0.9384142508
 40
0.9523136316
 40
0.9644021283
 40
0.9748554582
 40
0.9839552146
 40
0.9921361728
 40
1.0
 40
1.0
 40
1.0
 40
1.0
 10
5.6321954044
 20
5.7411089108
 30
0.0
 10
5.6354020013
 20
5.74165192
 30
0.0
 10
5.6417243599
 20
5.7426157428
 30
0.0
 10
5.6495494983
 20
5.7435471303
 30
0.0
 10
5.6555593758
 20
5.7440838387
 30
0.0
 10
5.6597584733
 20
5.7443695432
 30
0.0
 10
5.6636931831
 20
5.744544514
 30
0.0
 10
5.6673240445
 20
5.7446071549
 30
0.0
 10
5.6706153441
 20
5.7445557525
 30
0.0
 10
5.6735357931
 20
5.7443926643
 30
0.0
 10
5.6760590298
 20
5.7441211583
 30
0.0
 10
5.6781604087
 20
5.7437445381
 30
0.0
 10
5.6796296122
 20
5.7433225483
 30
0.0
 10
5.6805643594
 20
5.7429159538
 30
0.0
 10
5.6811058601
 20
5.7426059262
 30
0.0
 10
5.6815331986
 20
5.7422711806
 30
0.0
 10
5.681845261
 20
5.7419095877
 30
0.0
 10
5.6820370528
 20
5.7415191854
 30
0.0
 10
5.6820788043
 20
5.7412432127
 30
0.0
 10
5.6820788043
 20
5.7411089108
 30
0.0
  0
SPLINE
  5
2A8
100
AcDbEntity
  8
0
100
AcDbSpline
 62
7
  6
CONTINUOUS
 70
0
 71
3
 72
24
 73
20
 74
0
 42
0.0000001
 43
0.0000001
 44
0.0000000001
 40
0.0
 40
0.0
 40
0.0
 40
0.0
 40
0.0078638363
 40
0.0160448515
 40
0.0251447253
 40
0.0355982156
 40
0.0476868864
 40
0.0615864223
 40
0.0951965081
 40
0.1368738029
 40
0.1864865445
 40
0.2436950962
 40
0.3080902816
 40
0.3791842947
 40
0.4562957282
 40
0.5386849885
 40
0.62560357
 40
0.8095706154
 40
1.0
 40
1.0
 40
1.0
 40
1.0
 10
5.7214538043
 20
5.7411089108
 30
0.0
 10
5.7214538043
 20
5.7412432128
 30
0.0
 10
5.7214955581
 20
5.7415191867
 30
0.0
 10
5.7216873572
 20
5.741909589
 30
0.0
 10
5.7219994286
 20
5.7422711815
 30
0.0
 10
5.7224267764
 20
5.7426059272
 30
0.0
 10
5.7229682862
 20
5.7429159556
 30
0.0
 10
5.7239030411
 20
5.743322551
 30
0.0
 10
5.7253722476
 20
5.743744548
 30
0.0
 10
5.7274736321
 20
5.7441211721
 30
0.0
 10
5.7299968778
 20
5.7443926739
 30
0.0
 10
5.7329173387
 20
5.7445557565
 30
0.0
 10
5.7362086515
 20
5.7446071548
 30
0.0
 10
5.7398395268
 20
5.7445445093
 30
0.0
 10
5.7437742482
 20
5.7443695332
 30
0.0
 10
5.7479733465
 20
5.7440838262
 30
0.0
 10
5.7539831971
 20
5.7435471239
 30
0.0
 10
5.7618082951
 20
5.7426157409
 30
0.0
 10
5.7681306188
 20
5.7416519181
 30
0.0
 10
5.7713372043
 20
5.7411089108
 30
0.0
  0
SPLINE
  5
2A9
100
AcDbEntity
  8
0
100
AcDbSpline
 62
9
  6
CONTINUOUS
 70
0
 71
3
 72
49
 73
45
 74
0
 42
0.0000001
 43
0.0000001
 44
0.0000000001
 40
0.0
 40
0.0
 40
0.0
 40
0.0
 40
0.00000398
 40
0.0000159195
 40
0.0000358176
 40
0.0000636732
 40
0.0001432524
 40
0.0002546486
 40
0.0003978532
 40
0.0005728578
 40
0.0007796537
 40
0.0010182324
 40
0.0015907043
 40
0.0022902054
 40
0.0031166674
 40
0.0040700225
 40
0.0051502028
 40
0.0063571406
 40
0.0091510176
 40
0.0124511132
 40
0.0162568885
 40
0.020567806
 40
0.0253833297
 40
0.0307029251
 40
0.0365260591
 40
0.0496808167
 40
0.0648433694
 40
0.0820092195
 40
0.1011695931
 40
0.1223124598
 40
0.1454257878
 40
0.170497634
 40
0.1975161479
 40
0.226469574
 40
0.2573462541
 40
0.3248213267
 40
0.399821168
 40
0.4822090375
 40
0.5718550889
 40
0.6193619192
 40
0.6686374923
 40
0.7723990816
 40
0.8829273688
 40
1.0
 40
1.0
 40
1.0
 40
1.0
 10
5.0327562181
 20
5.5524451436
 30
0.0
 10
5.0327560995
 20
5.5524446859
 30
0.0
 10
5.0327594234
 20
5.552446013
 30
0.0
 10
5.0327622805
 20
5.5524451565
 30
0.0
 10
5.0327701408
 20
5.5524463045
 30
0.0
 10
5.0327847536
 20
5.5524469605
 30
0.0
 10
5.0328110444
 20
5.5524490617
 30
0.0
 10
5.0328504794
 20
5.5524516671
 30
0.0
 10
5.0329014634
 20
5.5524552433
 30
0.0
 10
5.0329636641
 20
5.5524595106
 30
0.0
 10
5.0330372025
 20
5.5524645661
 30
0.0
 10
5.0331578408
 20
5.552472817
 30
0.0
 10
5.033336888
 20
5.5524849994
 30
0.0
 10
5.0335856219
 20
5.5525017998
 30
0.0
 10
5.0338795139
 20
5.5525215081
 30
0.0
 10
5.0342185413
 20
5.5525440774
 30
0.0
 10
5.0346026833
 20
5.5525694623
 30
0.0
 10
5.0352050292
 20
5.5526089711
 30
0.0
 10
5.0360705868
 20
5.5526650791
 30
0.0
 10
5.0372443224
 20
5.5527400177
 30
0.0
 10
5.0385980053
 20
5.552825118
 30
0.0
 10
5.0401314654
 20
5.5529200139
 30
0.0
 10
5.0418445324
 20
5.5530243387
 30
0.0
 10
5.0437370362
 20
5.5531377264
 30
0.0
 10
5.0466186658
 20
5.5533075294
 30
0.0
 10
5.050668012
 20
5.5535399191
 30
0.0
 10
5.0560633009
 20
5.5538388598
 30
0.0
 10
5.0621716313
 20
5.5541654293
 30
0.0
 10
5.0689902273
 20
5.5545147634
 30
0.0
 10
5.0765154562
 20
5.5548807414
 30
0.0
 10
5.0847432625
 20
5.5552575341
 30
0.0
 10
5.0936695862
 20
5.5556392104
 30
0.0
 10
5.1032903663
 20
5.5560198322
 30
0.0
 10
5.1136015407
 20
5.5563935876
 30
0.0
 10
5.1287177508
 20
5.5568891048
 30
0.0
 10
5.1493049412
 20
5.5574559989
 30
0.0
 10
5.1760151539
 20
5.5579582996
 30
0.0
 10
5.2053634393
 20
5.5581858207
 30
0.0
 10
5.2314461946
 20
5.558057774
 30
0.0
 10
5.2535921679
 20
5.5577212672
 30
0.0
 10
5.2774116416
 20
5.5571838013
 30
0.0
 10
5.3087081053
 20
5.5561540528
 30
0.0
 10
5.3480378419
 20
5.5544272232
 30
0.0
 10
5.3750401209
 20
5.5529964385
 30
0.0
 10
5.3889265228
 20
5.5522101587
 30
0.0
  0
SPLINE
  5
2AA
100
AcDbEntity
  8
0
100
AcDbSpline
 62
9
  6
CONTINUOUS
 70
0
 71
3
 72
15
 73
11
 74
0
 42
0.0000001
 43
0.0000001
 44
0.0000000001
 40
0.0
 40
0.0
 40
0.0
 40
0.0
 40
0.130427623
 40
0.2650751814
 40
0.4009553273
 40
0.5345645559
 40
0.662853076
 40
0.7838082454
 40
0.8961119143
 40
1.0
 40
1.0
 40
1.0
 40
1.0
 10
5.9809164569
 20
5.5502089024
 30
0.0
 10
5.9807644056
 20
5.5528721956
 30
0.0
 10
5.980115524
 20
5.5582708463
 30
0.0
 10
5.9781221465
 20
5.5662494594
 30
0.0
 10
5.9750231832
 20
5.5739414006
 30
0.0
 10
5.9709310867
 20
5.5810097354
 30
0.0
 10
5.9659450382
 20
5.587092919
 30
0.0
 10
5.960346534
 20
5.5919834652
 30
0.0
 10
5.9543711448
 20
5.5955026674
 30
0.0
 10
5.9501769284
 20
5.5970012675
 30
0.0
 10
5.9481137273
 20
5.5975092571
 30
0.0
  0
SPLINE
  5
2AB
100
AcDbEntity
  8
0
100
AcDbSpline
 62
9
  6
CONTINUOUS
 70
0
 71
3
 72
45
 73
41
 74
0
 42
0.0000001
 43
0.0000001
 44
0.0000000001
 40
0.0
 40
0.0
 40
0.0
 40
0.0
 40
0.1170708021
 40
0.2276013677
 40
0.3313732234
 40
0.4281658902
 40
0.5178151565
 40
0.600197962
 40
0.6751876557
 40
0.7426536574
 40
0.8024797881
 40
0.8294980484
 40
0.8545704812
 40
0.877684983
 40
0.8988293251
 40
0.9179911607
 40
0.9351581246
 40
0.9503212732
 40
0.9634761864
 40
0.9692992644
 40
0.9746187321
 40
0.9794340701
 40
0.9837447577
 40
0.9875502732
 40
0.9908500936
 40
0.9936436951
 40
0.9948504997
 40
0.9959305526
 40
0.9968837879
 40
0.9977101397
 40
0.9984095421
 40
0.9989819291
 40
0.9994272346
 40
0.9996022111
 40
0.9997453924
 40
0.9998567703
 40
0.9999363363
 40
0.9999641874
 40
0.9999840823
 40
1.0
 40
1.0
 40
1.0
 40
1.0
 10
6.0145926791
 20
5.5524681796
 30
0.0
 10
6.0284750889
 20
5.5533211716
 30
0.0
 10
6.0554763064
 20
5.5547915149
 30
0.0
 10
6.0948135116
 20
5.5563952066
 30
0.0
 10
6.1317598936
 20
5.5574213796
 30
0.0
 10
6.1662353658
 20
5.5579575278
 30
0.0
 10
6.1981734914
 20
5.558085346
 30
0.0
 10
6.2275207471
 20
5.5578836975
 30
0.0
 10
6.2542292509
 20
5.5574313831
 30
0.0
 10
6.2782535601
 20
5.5568095185
 30
0.0
 10
6.2965761121
 20
5.5561896493
 30
0.0
 10
6.309861985
 20
5.5556632419
 30
0.0
 10
6.3187884467
 20
5.5552780769
 30
0.0
 10
6.3270164873
 20
5.5548958825
 30
0.0
 10
6.33454199
 20
5.5545236914
 30
0.0
 10
6.3413608382
 20
5.5541683603
 30
0.0
 10
6.3474693698
 20
5.5538371972
 30
0.0
 10
6.3528647984
 20
5.5535356519
 30
0.0
 10
6.3569142193
 20
5.5533023034
 30
0.0
 10
6.3597958726
 20
5.553132385
 30
0.0
 10
6.3616883644
 20
5.5530191596
 30
0.0
 10
6.3634014089
 20
5.5529151965
 30
0.0
 10
6.3649348384
 20
5.552820816
 30
0.0
 10
6.3662884853
 20
5.5527363396
 30
0.0
 10
6.3674621819
 20
5.5526620881
 30
0.0
 10
6.3683277078
 20
5.552606594
 30
0.0
 10
6.3689300287
 20
5.5525675708
 30
0.0
 10
6.3693141518
 20
5.5525425198
 30
0.0
 10
6.3696531614
 20
5.5525202655
 30
0.0
 10
6.3699470376
 20
5.5525008504
 30
0.0
 10
6.3701957557
 20
5.552484307
 30
0.0
 10
6.370399306
 20
5.5524706974
 30
0.0
 10
6.3705406666
 20
5.5524611496
 30
0.0
 10
6.3706311843
 20
5.5524550657
 30
0.0
 10
6.3706820528
 20
5.5524515219
 30
0.0
 10
6.3707217736
 20
5.5524490486
 30
0.0
 10
6.3707474647
 20
5.5524468119
 30
0.0
 10
6.3707628804
 20
5.5524464031
 30
0.0
 10
6.3707698551
 20
5.5524447899
 30
0.0
 10
6.3707752038
 20
5.5524466157
 30
0.0
 10
6.3707763906
 20
5.5524451434
 30
0.0
  0
SPLINE
  5
2AC
100
AcDbEntity
  8
0
100
AcDbSpline
 62
9
  6
CONTINUOUS
 70
0
 71
3
 72
48
 73
44
 74
0
 42
0.0000001
 43
0.0000001
 44
0.0000000001
 40
0.0
 40
0.0
 40
0.0
 40
0.0
 40
0.0000039792
 40
0.0000159165
 40
0.000035811
 40
0.0000636615
 40
0.0001432266
 40
0.0002546036
 40
0.0003977842
 40
0.00057276
 40
0.0007795229
 40
0.0010180645
 40
0.0015904507
 40
0.0022898528
 40
0.0031162044
 40
0.0040694398
 40
0.005149493
 40
0.0063562982
 40
0.0091499012
 40
0.0124497238
 40
0.0162552417
 40
0.0205659319
 40
0.0253812724
 40
0.0307007423
 40
0.0365238221
 40
0.049678737
 40
0.0648418831
 40
0.0820088416
 40
0.1011706775
 40
0.1223150253
 40
0.1454295368
 40
0.1705019819
 40
0.1975202555
 40
0.2264723829
 40
0.2573465231
 40
0.3248125451
 40
0.3998022665
 40
0.4821850856
 40
0.5718343264
 40
0.668626913
 40
0.7723986941
 40
0.882929213
 40
1.0
 40
1.0
 40
1.0
 40
1.0
 10
5.032756218
 20
5.5524451404
 30
0.0
 10
5.03275607
 20
5.5524446914
 30
0.0
 10
5.0327594652
 20
5.5524459931
 30
0.0
 10
5.032762253
 20
5.5524451528
 30
0.0
 10
5.0327701518
 20
5.5524462787
 30
0.0
 10
5.0327847397
 20
5.552446922
 30
0.0
 10
5.0328110464
 20
5.5524489835
 30
0.0
 10
5.03285047
 20
5.5524515406
 30
0.0
 10
5.0329014538
 20
5.5524550517
 30
0.0
 10
5.0329636491
 20
5.5524592432
 30
0.0
 10
5.0330371831
 20
5.5524642106
 30
0.0
 10
5.0331578136
 20
5.5524723212
 30
0.0
 10
5.0333368503
 20
5.5524843039
 30
0.0
 10
5.0335855698
 20
5.5525008422
 30
0.0
 10
5.0338794459
 20
5.5525202591
 30
0.0
 10
5.0342184559
 20
5.5525425132
 30
0.0
 10
5.0346025795
 20
5.5525675647
 30
0.0
 10
5.0352049013
 20
5.5526065886
 30
0.0
 10
5.0360704286
 20
5.552662084
 30
0.0
 10
5.0372441271
 20
5.5527363373
 30
0.0
 10
5.0385977761
 20
5.5528208156
 30
0.0
 10
5.0401312081
 20
5.5529151981
 30
0.0
 10
5.0418442552
 20
5.5530191631
 30
0.0
 10
5.0437367496
 20
5.5531323901
 30
0.0
 10
5.0466184067
 20
5.5533023103
 30
0.0
 10
5.050667832
 20
5.5535356596
 30
0.0
 10
5.0560632658
 20
5.5538372026
 30
0.0
 10
5.0621718033
 20
5.5541683594
 30
0.0
 10
5.0689906591
 20
5.5545236875
 30
0.0
 10
5.0765161717
 20
5.5548958775
 30
0.0
 10
5.0847442247
 20
5.5552780705
 30
0.0
 10
5.0936706991
 20
5.5556632445
 30
0.0
 10
5.1032914738
 20
5.5560444055
 30
0.0
 10
5.1136024295
 20
5.556414591
 30
0.0
 10
5.128717688
 20
5.5568984627
 30
0.0
 10
5.1493035214
 20
5.5574314242
 30
0.0
 10
5.1760120518
 20
5.5578837308
 30
0.0
 10
5.2053593434
 20
5.5580854187
 30
0.0
 10
5.2372974916
 20
5.5579576183
 30
0.0
 10
5.2717729796
 20
5.5574214691
 30
0.0
 10
5.3087193767
 20
5.5563952755
 30
0.0
 10
5.3480566068
 20
5.5547915591
 30
0.0
 10
5.3750578453
 20
5.5533212038
 30
0.0
 10
5.388940268
 20
5.5524682085
 30
0.0
  0
SPLINE
  5
2AD
100
AcDbEntity
  8
0
100
AcDbSpline
 62
9
  6
CONTINUOUS
 70
0
 71
3
 72
29
 73
25
 74
0
 42
0.0000001
 43
0.0000001
 44
0.0000000001
 40
0.0
 40
0.0
 40
0.0
 40
0.0
 40
0.0002561466
 40
0.0010241704
 40
0.002303465
 40
0.0040934258
 40
0.006393449
 40
0.0092029326
 40
0.0163478779
 40
0.0255234708
 40
0.0367249417
 40
0.0499475421
 40
0.0651865455
 40
0.0824357695
 40
0.1016831796
 40
0.146119043
 40
0.1983886708
 40
0.2583889909
 40
0.3260103175
 40
0.4011096559
 40
0.483539708
 40
0.5731585438
 40
0.7733084025
 40
1.0
 40
1.0
 40
1.0
 40
1.0
 10
6.3358412591
 20
5.5983862871
 30
0.0
 10
6.3358081652
 20
5.5983878789
 30
0.0
 10
6.3356761876
 20
5.5983998569
 30
0.0
 10
6.3353789136
 20
5.5984196437
 30
0.0
 10
6.3348839471
 20
5.5984568201
 30
0.0
 10
6.3341911903
 20
5.5985060327
 30
0.0
 10
6.3333010008
 20
5.5985693325
 30
0.0
 10
6.3317197649
 20
5.598679848
 30
0.0
 10
6.3292511081
 20
5.5988489229
 30
0.0
 10
6.3256990507
 20
5.5990855432
 30
0.0
 10
6.3213620715
 20
5.5993664325
 30
0.0
 10
6.31624183
 20
5.5996884681
 30
0.0
 10
6.3103401834
 20
5.6000486259
 30
0.0
 10
6.30365992
 20
5.600443576
 30
0.0
 10
6.2932081006
 20
5.6010343265
 30
0.0
 10
6.2782296104
 20
5.6018078532
 30
0.0
 10
6.2579794503
 20
5.6027013266
 30
0.0
 10
6.2347254089
 20
5.6035337232
 30
0.0
 10
6.2085128101
 20
5.6042373287
 30
0.0
 10
6.1793933163
 20
5.6047179301
 30
0.0
 10
6.1474247322
 20
5.6048820557
 30
0.0
 10
6.0992815345
 20
5.604540975
 30
0.0
 10
6.0324943671
 20
5.6027222548
 30
0.0
 10
5.9773607279
 20
5.5996076588
 30
0.0
 10
5.9481137128
 20
5.5975092347
 30
0.0
  0
SPLINE
  5
2AE
100
AcDbEntity
  8
0
100
AcDbSpline
 62
9
  6
CONTINUOUS
 70
0
 71
3
 72
34
 73
30
 74
0
 42
0.0000001
 43
0.0000001
 44
0.0000000001
 40
0.0
 40
0.0
 40
0.0
 40
0.0
 40
0.2266884147
 40
0.330185658
 40
0.4268435456
 40
0.516462415
 40
0.5988921851
 40
0.6739910837
 40
0.7416119701
 40
0.8016119742
 40
0.8538814037
 40
0.8983171474
 40
0.9175645149
 40
0.9348137011
 40
0.9500526678
 40
0.9632752323
 40
0.9744766685
 40
0.9836522283
 40
0.9874788155
 40
0.9907971433
 40
0.9936066123
 40
0.9959066217
 40
0.9976965693
 40
0.9984000814
 40
0.9989758517
 40
0.9994238044
 40
0.9997438639
 40
0.9999359544
 40
1.0
 40
1.0
 40
1.0
 40
1.0
 10
5.4554188708
 20
5.5975092412
 30
0.0
 10
5.4261721299
 20
5.5996076612
 30
0.0
 10
5.3835219605
 20
5.6020168715
 30
0.0
 10
5.3283406048
 20
5.6038851756
 30
0.0
 10
5.2908649012
 20
5.6046357714
 30
0.0
 10
5.2561079605
 20
5.6048820818
 30
0.0
 10
5.2241393389
 20
5.6047179424
 30
0.0
 10
5.1950198529
 20
5.6042373393
 30
0.0
 10
5.168807287
 20
5.6035337265
 30
0.0
 10
5.1455532595
 20
5.6027013271
 30
0.0
 10
5.1253030862
 20
5.6018078532
 30
0.0
 10
5.110324572
 20
5.6010343273
 30
0.0
 10
5.0998727291
 20
5.6004435776
 30
0.0
 10
5.0931924496
 20
5.6000486277
 30
0.0
 10
5.0872907887
 20
5.5996884708
 30
0.0
 10
5.0821705393
 20
5.5993664329
 30
0.0
 10
5.077833546
 20
5.5990855497
 30
0.0
 10
5.0747097754
 20
5.5988774433
 30
0.0
 10
5.0726035879
 20
5.5987340223
 30
0.0
 10
5.0713191184
 20
5.5986453543
 30
0.0
 10
5.0702314606
 20
5.5985692781
 30
0.0
 10
5.0693417769
 20
5.5985061861
 30
0.0
 10
5.0687221537
 20
5.5984617719
 30
0.0
 10
5.0683280006
 20
5.5984330685
 30
0.0
 10
5.0681013845
 20
5.5984167617
 30
0.0
 10
5.0679378288
 20
5.5984041318
 30
0.0
 10
5.0677918148
 20
5.5983947417
 30
0.0
 10
5.0677563705
 20
5.5983896293
 30
0.0
 10
5.0676830775
 20
5.5983867313
 30
0.0
 10
5.0676913498
 20
5.5983862873
 30
0.0
  0
SPLINE
  5
2AF
100
AcDbEntity
  8
0
100
AcDbSpline
 62
9
  6
CONTINUOUS
 70
0
 71
3
 72
21
 73
17
 74
0
 42
0.0000001
 43
0.0000001
 44
0.0000000001
 40
0.0
 40
0.0
 40
0.0
 40
0.0
 40
0.0483420525
 40
0.1021779683
 40
0.1608184321
 40
0.2235657462
 40
0.2896932828
 40
0.3583754507
 40
0.4999993729
 40
0.6416235594
 40
0.7103058033
 40
0.7764331521
 40
0.839179968
 40
0.8978200693
 40
0.9516563281
 40
1.0
 40
1.0
 40
1.0
 40
1.0
 10
5.9481137404
 20
5.5975092539
 30
0.0
 10
5.9401921816
 20
5.5969409059
 30
0.0
 10
5.9234315166
 20
5.5959798724
 30
0.0
 10
5.8970305927
 20
5.5949500947
 30
0.0
 10
5.868253034
 20
5.5941974228
 30
0.0
 10
5.8374512125
 20
5.5936672484
 30
0.0
 10
5.8049972441
 20
5.5933048153
 30
0.0
 10
5.7595839369
 20
5.5930053819
 30
0.0
 10
5.7017665826
 20
5.5929182623
 30
0.0
 10
5.6439492158
 20
5.5930053953
 30
0.0
 10
5.5985358835
 20
5.5933048245
 30
0.0
 10
5.5660820153
 20
5.5936672434
 30
0.0
 10
5.5352803655
 20
5.5941973913
 30
0.0
 10
5.5065028914
 20
5.5949500445
 30
0.0
 10
5.4801017047
 20
5.5959798323
 30
0.0
 10
5.4633407184
 20
5.5969408935
 30
0.0
 10
5.4554188941
 20
5.5975092582
 30
0.0
  0
SPLINE
  5
2B0
100
AcDbEntity
  8
0
100
AcDbSpline
 62
9
  6
CONTINUOUS
 70
0
 71
3
 72
27
 73
23
 74
0
 42
0.0000001
 43
0.0000001
 44
0.0000000001
 40
0.0
 40
0.0
 40
0.0
 40
0.0
 40
0.1170747929
 40
0.227605004
 40
0.331368264
 40
0.3806445736
 40
0.4281520655
 40
0.5177992093
 40
0.6001878712
 40
0.6751882112
 40
0.7426634903
 40
0.8024934074
 40
0.8545832897
 40
0.8988387202
 40
0.9179986187
 40
0.9351639171
 40
0.9503258378
 40
0.9634798829
 40
0.9746218187
 40
0.9794369168
 40
0.9837473891
 40
1.0
 40
1.0
 40
1.0
 40
1.0
 10
6.014606317
 20
5.5522099641
 30
0.0
 10
6.0284929663
 20
5.5529962051
 30
0.0
 10
6.0554957092
 20
5.554426961
 30
0.0
 10
6.0948260934
 20
5.5561538546
 30
0.0
 10
6.1261230414
 20
5.5571837015
 30
0.0
 10
6.1499428575
 20
5.5577212503
 30
0.0
 10
6.1720891067
 20
5.5580578123
 30
0.0
 10
6.1981721431
 20
5.5581858717
 30
0.0
 10
6.2275206828
 20
5.5579583507
 30
0.0
 10
6.2542310611
 20
5.5574558939
 30
0.0
 10
6.278256754
 20
5.5567945468
 30
0.0
 10
6.2995571677
 20
5.5560624341
 30
0.0
 10
6.3180955908
 20
5.5553011876
 30
0.0
 10
6.3318034748
 20
5.5546550857
 30
0.0
 10
6.3413631656
 20
5.5541653124
 30
0.0
 10
6.347473856
 20
5.5538385851
 30
0.0
 10
6.3528609254
 20
5.5535401769
 30
0.0
 10
6.357565076
 20
5.5532700146
 30
0.0
 10
6.3609563636
 20
5.5530690867
 30
0.0
 10
6.3634639811
 20
5.5529159298
 30
0.0
 10
6.3659668787
 20
5.5527627084
 30
0.0
 10
6.372703552
 20
5.5523255899
 30
0.0
 10
6.3707763905
 20
5.5524451434
 30
0.0
  0
SPLINE
  5
2B1
100
AcDbEntity
  8
0
100
AcDbSpline
 62
9
  6
CONTINUOUS
 70
0
 71
3
 72
23
 73
19
 74
0
 42
0.0000001
 43
0.0000001
 44
0.0000000001
 40
0.0
 40
0.0
 40
0.0
 40
0.0
 40
0.0481975012
 40
0.1019789792
 40
0.1606159552
 40
0.2233726493
 40
0.2895074792
 40
0.3582272822
 40
0.4286788662
 40
0.5000012872
 40
0.5713236629
 40
0.6417751135
 40
0.7104947086
 40
0.7766292714
 40
0.8393856186
 40
0.8980220998
 40
0.9518029748
 40
1.0
 40
1.0
 40
1.0
 40
1.0
 10
5.4226145123
 20
5.5502089979
 30
0.0
 10
5.4315680186
 20
5.5496313203
 30
0.0
 10
5.450527788
 20
5.5486474718
 30
0.0
 10
5.4804086082
 20
5.547579651
 30
0.0
 10
5.5130090315
 20
5.5467899152
 30
0.0
 10
5.5479138449
 20
5.5462306912
 30
0.0
 10
5.5846980193
 20
5.5458509189
 30
0.0
 10
5.6229157591
 20
5.5456100952
 30
0.0
 10
5.6620996986
 20
5.5454808455
 30
0.0
 10
5.7017682938
 20
5.5454367593
 30
0.0
 10
5.7414368642
 20
5.5454808582
 30
0.0
 10
5.7806207317
 20
5.5456101167
 30
0.0
 10
5.8188383582
 20
5.5458509511
 30
0.0
 10
5.8556223794
 20
5.5462307346
 30
0.0
 10
5.8905269862
 20
5.5467899764
 30
0.0
 10
5.9231271398
 20
5.5475797444
 30
0.0
 10
5.9530076653
 20
5.5486476108
 30
0.0
 10
5.9719672325
 20
5.5496314746
 30
0.0
 10
5.9809206503
 20
5.5502091466
 30
0.0
  0
SPLINE
  5
2B2
100
AcDbEntity
  8
0
100
AcDbSpline
 62
9
  6
CONTINUOUS
 70
0
 71
3
 72
15
 73
11
 74
0
 42
0.0000001
 43
0.0000001
 44
0.0000000001
 40
0.0
 40
0.0
 40
0.0
 40
0.0
 40
0.130100446
 40
0.2645020934
 40
0.4002435921
 40
0.533825045
 40
0.6621954187
 40
0.783315588
 40
0.8958456757
 40
1.0
 40
1.0
 40
1.0
 40
1.0
 10
5.4226161418
 20
5.5502089027
 30
0.0
 10
5.4227678122
 20
5.5528655125
 30
0.0
 10
5.4234143426
 20
5.558252521
 30
0.0
 10
5.4254008355
 20
5.5662177081
 30
0.0
 10
5.4284914009
 20
5.5739038113
 30
0.0
 10
5.4325768476
 20
5.5809739322
 30
0.0
 10
5.4375603315
 20
5.5870649949
 30
0.0
 10
5.4431619597
 20
5.5919668425
 30
0.0
 10
5.4491469102
 20
5.5954966758
 30
0.0
 10
5.4533503959
 20
5.5969999538
 30
0.0
 10
5.4554188827
 20
5.5975092442
 30
0.0
  0
ENDSEC
  0
SECTION
  2
OBJECTS
  0
DICTIONARY
  5
C
100
AcDbDictionary
280
0
281
1
  3
ACAD_GROUP
350
D
  3
ACAD_MLINESTYLE
350
17
  3
ACAD_LAYOUT
350
1A
  3
ACAD_PLOTSETTINGS
350
19
  3
ACAD_PLOTSTYLENAME
350
E
  0
DICTIONARY
  5
D
102
{ACAD_REACTORS
330
C
102
}
100
AcDbDictionary
280
0
281
1
  0
ACDBDICTIONARYWDFLT
  5
E
102
{ACAD_REACTORS
330
C
102
}
100
AcDbDictionary
281
1
  3
Normal
350
F
100
AcDbDictionaryWithDefault
340
F
  0
DICTIONARY
  5
17
102
{ACAD_REACTORS
330
C
102
}
100
AcDbDictionary
280
0
281
1
  3
Standard
350
18
  0
DICTIONARY
  5
19
102
{ACAD_REACTORS
330
C
102
}
100
AcDbDictionary
281
1
  0
DICTIONARY
  5
1A
102
{ACAD_REACTORS
330
C
102
}
100
AcDbDictionary
281
1
  3
Model
350
2B3
  3
Layout1
350
2B4
  0
ACDBPLACEHOLDER
  5
F
102
{ACAD_REACTORS
330
E
102
}
  0
MLINESTYLE
  5
18
102
{ACAD_REACTORS
330
17
102
}
100
AcDbMlineStyle
  2
STANDARD
 70
0
  3

 62
256
 51
90.0
 52
90.0
 71
2
 49
0.5
 62
256
  6
BYLAYER
 49
-0.5
 62
256
  6
BYLAYER
  0
LAYOUT
  5
2B3
102
{ACAD_REACTORS
330
1A
102
}
100
AcDbPlotSettings
  1

  2
none_device
  4
ANSI_A_(11.00_x_8.50_Inches)
  6

 40
0.0
 41
0.0
 42
0.0
 43
0.0
 44
279.4
 45
215.9
 46
0.0
 47
0.0
 48
0.0
 49
0.0
140
0.0
141
0.0
142
1.0
143
1.0
 70
1024
 72
0
 73
0
 74
0
  7

 75
0
147
1.0
148
0.0
149
0.0
100
AcDbLayout
  1
Model
 70
0
 71
0
 10
0.0
 20
0.0
 11
11.0
 21
8.5
 12
0.0
 22
0.0
 32
0.0
 14
0.0
 24
0.0
 34
0.0
 15
0.0
 25
0.0
 35
0.0
146
0.0
 13
0.0
 23
0.0
 33
0.0
 16
1.0
 26
0.0
 36
0.0
 17
0.0
 27
1.0
 37
0.0
 76
0
330
21B
345
0
346
0
  0
LAYOUT
  5
2B4
102
{ACAD_REACTORS
330
1A
102
}
100
AcDbPlotSettings
  1

  2
none_device
  4
ANSI_A_(11.00_x_8.50_Inches)
  6

 40
0.0
 41
0.0
 42
0.0
 43
0.0
 44
279.4
 45
215.9
 46
0.0
 47
0.0
 48
0.0
 49
0.0
140
0.0
141
0.0
142
1.0
143
1.0
 70
0
 72
0
 73
0
 74
0
  7

 75
0
147
1.0
148
0.0
149
0.0
100
AcDbLayout
  1
Layout1
 70
0
 71
1
 10
0.0
 20
0.0
 11
11.0
 21
8.5
 12
0.0
 22
0.0
 32
0.0
 14
0.0
 24
0.0
 34
0.0
 15
0.0
 25
0.0
 35
0.0
146
0.0
 13
0.0
 23
0.0
 33
0.0
 16
1.0
 26
0.0
 36
0.0
 17
0.0
 27
1.0
 37
0.0
 76
0
330
21C
345
0
346
0
  0
ENDSEC
  0
EOF
