999
DXF file: C:\Prowork\plots\417_right.dxf
999
Pro/ENGINEER 2018500 by Parametric Technology Corporation
  0
SECTION
  2
HEADER
  9
$ACADVER
  1
AC1032
  9
$DWGCODEPAGE
  3
ANSI_1252
  9
$EXTMAX
 10
11.0
 20
8.5
 30
0.0
  9
$EXTMIN
 10
0.0
 20
0.0
 30
0.0
  9
$LIMMIN
 10
0.0
 20
0.0
  9
$LIMMAX
 10
11.0
 20
8.5
  9
$VIEWCTR
 10
5.5
 20
4.25
  9
$VIEWSIZE
 40
8.5
  9
$CLAYER
  8
0
  9
$LTSCALE
 40
0.605
  9
$CELTYPE
  6
BYLAYER
  9
$DIMSCALE
 40
1.0
  9
$DIMASZ
 40
0.1
  9
$DIMEXO
 40
0.0625
  9
$DIMDLI
 40
0.418
  9
$DIMEXE
 40
0.125
  9
$DIMCEN
 40
0.099
  9
$DIMLFAC
 40
1.0
  9
$DIMBLK
  1
_FILLED
  9
$DIMALT
 70
1
  9
$DIMALTD
 70
2
  9
$DIMALTTD
 70
2
  9
$DIMALTF
 40
25.4
  9
$DIMTXT
 40
0.08
  9
$DIMTOL
 70
1
  9
$DIMLIM
 70
0
  9
$DIMTFAC
 40
1.0
  9
$DIMTP
 40
0.001
  9
$DIMTM
 40
0.001
  9
$DIMGAP
 40
0.09
  9
$DIMDSEP
 70
46
  9
$AUNITS
 70
0
  9
$PDMODE
 70
3
  9
$PDSIZE
 40
0.06
  9
$HANDSEED
  5
300
  9
$TILEMODE
 70
1
  9
$MEASUREMENT
 70
0
  9
$INSUNITS
 70
1
  0
ENDSEC
  0
SECTION
  2
CLASSES
  0
CLASS
  1
ACDBDICTIONARYWDFLT
  2
AcDbDictionaryWithDefault
  3
AutoCAD 2000
 90
0
 91
1
280
0
281
0
  0
CLASS
  1
ACDBPLACEHOLDER
  2
AcDbPlaceHolder
  3
AutoCAD 2000
 90
0
 91
1
280
0
281
0
  0
CLASS
  1
LAYOUT
  2
AcDbLayout
  3
AutoCAD 2000
 90
0
 91
0
280
0
281
0
  0
ENDSEC
  0
SECTION
  2
TABLES
  0
TABLE
  2
VPORT
  5
8
100
AcDbSymbolTable
 70
2
  0
VPORT
  5
1F4
100
AcDbSymbolTableRecord
100
AcDbViewportTableRecord
  2
*ACTIVE
 70
0
 10
0.0
 20
0.0
 11
1.0
 21
1.0
 12
5.5
 22
4.25
 13
0.0
 23
0.0
 14
1.0
 24
1.0
 15
0.0
 25
0.0
 16
0.0
 26
0.0
 36
1.0
 17
0.0
 27
0.0
 37
0.0
 40
8.5
 41
1.2941176471
 42
50.0
 43
0.0
 44
0.0
 50
0.0
 51
0.0
 71
0
 72
100
 73
1
 74
1
 75
0
 76
0
 77
0
 78
0
  0
ENDTAB
  0
TABLE
  2
LTYPE
  5
5
100
AcDbSymbolTable
 70
6
  0
LTYPE
  5
14
100
AcDbSymbolTableRecord
100
AcDbLinetypeTableRecord
  2
BYBLOCK
 70
0
  3

 72
65
 73
0
 40
0.0
  0
LTYPE
  5
15
100
AcDbSymbolTableRecord
100
AcDbLinetypeTableRecord
  2
BYLAYER
 70
0
  3

 72
65
 73
0
 40
0.0
  0
LTYPE
  5
16
100
AcDbSymbolTableRecord
100
AcDbLinetypeTableRecord
  2
CONTINUOUS
 70
64
  3
Solid line
 72
65
 73
0
 40
0.0
  0
LTYPE
  5
1F5
100
AcDbSymbolTableRecord
100
AcDbLinetypeTableRecord
  2
CENTER
 70
64
  3
____ _ ____ _ ____ _ ____ _ ____ _ ____ _ ____
 72
65
 73
4
 40
0.6
 49
0.375
 74
0
 49
-0.075
 74
0
 49
0.075
 74
0
 49
-0.075
 74
0
  0
LTYPE
  5
1F6
100
AcDbSymbolTableRecord
100
AcDbLinetypeTableRecord
  2
HIDDEN
 70
64
  3
- - - - - - - - - - - - - - - - - - - -
 72
65
 73
2
 40
0.2
 49
0.1
 74
0
 49
-0.1
 74
0
  0
LTYPE
  5
1F7
100
AcDbSymbolTableRecord
100
AcDbLinetypeTableRecord
  2
PHANTOM
 70
64
  3
_____ _ _ _____ _ _ _____ _ _ _____
 72
65
 73
6
 40
0.8
 49
0.45
 74
0
 49
-0.05
 74
0
 49
0.1
 74
0
 49
-0.05
 74
0
 49
0.1
 74
0
 49
-0.05
 74
0
  0
LTYPE
  5
1F8
100
AcDbSymbolTableRecord
100
AcDbLinetypeTableRecord
  2
DOT
 70
64
  3
. . . . . . . . . . . . . . . . . . . .
 72
65
 73
2
 40
0.2
 49
0.1
 74
0
 49
-0.1
 74
0
  0
LTYPE
  5
1F9
100
AcDbSymbolTableRecord
100
AcDbLinetypeTableRecord
  2
DASHED
 70
64
  3
- - - - - - - - - - - - - - - - - - - -
 72
65
 73
2
 40
0.2
 49
0.1
 74
0
 49
-0.1
 74
0
  0
ENDTAB
  0
TABLE
  2
LAYER
  5
2
100
AcDbSymbolTable
 70
36
  0
LAYER
  5
10
100
AcDbSymbolTableRecord
100
AcDbLayerTableRecord
  2
0
 70
0
 62
7
  6
CONTINUOUS
370
-3
390
F
  0
LAYER
  5
1FA
100
AcDbSymbolTableRecord
100
AcDbLayerTableRecord
  2
DEFAULT_1
 70
0
 62
7
  6
CENTER
370
-3
390
F
  0
LAYER
  5
1FB
100
AcDbSymbolTableRecord
100
AcDbLayerTableRecord
  2
DEFAULT_2
 70
0
 62
8
  6
HIDDEN
370
-3
390
F
  0
LAYER
  5
1FC
100
AcDbSymbolTableRecord
100
AcDbLayerTableRecord
  2
DEFAULT_3
 70
0
 62
7
  6
PHANTOM
370
-3
390
F
  0
LAYER
  5
1FD
100
AcDbSymbolTableRecord
100
AcDbLayerTableRecord
  2
50350
 70
0
 62
7
  6
CONTINUOUS
370
-3
390
F
  0
LAYER
  5
1FE
100
AcDbSymbolTableRecord
100
AcDbLayerTableRecord
  2
50355
 70
0
 62
7
  6
CONTINUOUS
370
-3
390
F
  0
LAYER
  5
1FF
100
AcDbSymbolTableRecord
100
AcDbLayerTableRecord
  2
50359
 70
0
 62
7
  6
CONTINUOUS
370
-3
390
F
  0
LAYER
  5
200
100
AcDbSymbolTableRecord
100
AcDbLayerTableRecord
  2
50674
 70
0
 62
7
  6
CONTINUOUS
370
-3
390
F
  0
LAYER
  5
201
100
AcDbSymbolTableRecord
100
AcDbLayerTableRecord
  2
50675
 70
0
 62
7
  6
CONTINUOUS
370
-3
390
F
  0
LAYER
  5
202
100
AcDbSymbolTableRecord
100
AcDbLayerTableRecord
  2
50677
 70
0
 62
7
  6
CONTINUOUS
370
-3
390
F
  0
LAYER
  5
203
100
AcDbSymbolTableRecord
100
AcDbLayerTableRecord
  2
50685
 70
0
 62
7
  6
CONTINUOUS
370
-3
390
F
  0
LAYER
  5
204
100
AcDbSymbolTableRecord
100
AcDbLayerTableRecord
  2
50686
 70
0
 62
7
  6
CONTINUOUS
370
-3
390
F
  0
LAYER
  5
205
100
AcDbSymbolTableRecord
100
AcDbLayerTableRecord
  2
50854
 70
0
 62
7
  6
CONTINUOUS
370
-3
390
F
  0
LAYER
  5
206
100
AcDbSymbolTableRecord
100
AcDbLayerTableRecord
  2
6-417
 70
0
 62
7
  6
CONTINUOUS
370
-3
390
F
  0
LAYER
  5
207
100
AcDbSymbolTableRecord
100
AcDbLayerTableRecord
  2
92073
 70
0
 62
7
  6
CONTINUOUS
370
-3
390
F
  0
LAYER
  5
208
100
AcDbSymbolTableRecord
100
AcDbLayerTableRecord
  2
DEFAULT_COORDINATE_SYSTEM
 70
0
 62
7
  6
CONTINUOUS
370
-3
390
F
  0
LAYER
  5
209
100
AcDbSymbolTableRecord
100
AcDbLayerTableRecord
  2
DEFAULT_DATUM_AXES
 70
0
 62
7
  6
CONTINUOUS
370
-3
390
F
  0
LAYER
  5
20A
100
AcDbSymbolTableRecord
100
AcDbLayerTableRecord
  2
DEFAULT_DATUM_PLANES
 70
0
 62
7
  6
CONTINUOUS
370
-3
390
F
  0
LAYER
  5
20B
100
AcDbSymbolTableRecord
100
AcDbLayerTableRecord
  2
INTF_50350
 70
0
 62
7
  6
CONTINUOUS
370
-3
390
F
  0
LAYER
  5
20C
100
AcDbSymbolTableRecord
100
AcDbLayerTableRecord
  2
INTF_50355
 70
0
 62
7
  6
CONTINUOUS
370
-3
390
F
  0
LAYER
  5
20D
100
AcDbSymbolTableRecord
100
AcDbLayerTableRecord
  2
INTF_50359
 70
0
 62
7
  6
CONTINUOUS
370
-3
390
F
  0
LAYER
  5
20E
100
AcDbSymbolTableRecord
100
AcDbLayerTableRecord
  2
INTF_50674
 70
0
 62
7
  6
CONTINUOUS
370
-3
390
F
  0
LAYER
  5
20F
100
AcDbSymbolTableRecord
100
AcDbLayerTableRecord
  2
INTF_50675
 70
0
 62
7
  6
CONTINUOUS
370
-3
390
F
  0
LAYER
  5
210
100
AcDbSymbolTableRecord
100
AcDbLayerTableRecord
  2
INTF_50677
 70
0
 62
7
  6
CONTINUOUS
370
-3
390
F
  0
LAYER
  5
211
100
AcDbSymbolTableRecord
100
AcDbLayerTableRecord
  2
INTF_50685
 70
0
 62
7
  6
CONTINUOUS
370
-3
390
F
  0
LAYER
  5
212
100
AcDbSymbolTableRecord
100
AcDbLayerTableRecord
  2
INTF_50686
 70
0
 62
7
  6
CONTINUOUS
370
-3
390
F
  0
LAYER
  5
213
100
AcDbSymbolTableRecord
100
AcDbLayerTableRecord
  2
INTF_50854
 70
0
 62
7
  6
CONTINUOUS
370
-3
390
F
  0
LAYER
  5
214
100
AcDbSymbolTableRecord
100
AcDbLayerTableRecord
  2
INTF_92073
 70
0
 62
7
  6
CONTINUOUS
370
-3
390
F
  0
LAYER
  5
215
100
AcDbSymbolTableRecord
100
AcDbLayerTableRecord
  2
INTF_BLANK
 70
0
 62
7
  6
CONTINUOUS
370
-3
390
F
  0
LAYER
  5
216
100
AcDbSymbolTableRecord
100
AcDbLayerTableRecord
  2
NONE
 70
0
 62
7
  6
CONTINUOUS
370
-3
390
F
  0
LAYER
  5
217
100
AcDbSymbolTableRecord
100
AcDbLayerTableRecord
  2
PLATED_SURFACE
 70
0
 62
7
  6
CONTINUOUS
370
-3
390
F
  0
LAYER
  5
218
100
AcDbSymbolTableRecord
100
AcDbLayerTableRecord
  2
_BLACK_HOLE
 70
0
 62
7
  6
CONTINUOUS
370
-3
390
F
  0
ENDTAB
  0
TABLE
  2
STYLE
  5
3
100
AcDbSymbolTable
 70
1
  0
STYLE
  5
11
100
AcDbSymbolTableRecord
100
AcDbTextStyleTableRecord
  2
STANDARD
 70
0
 40
0.0
 41
0.8
 50
0.0
 71
0
 42
0.2
  3
txt
  4

  0
STYLE
  5
219
100
AcDbSymbolTableRecord
100
AcDbTextStyleTableRecord
  2
TEXTSTYLE_1
 70
0
 40
0.0
 41
0.8
 50
0.0
 71
0
 42
0.2
  3
gdt
  4

  0
ENDTAB
  0
TABLE
  2
VIEW
  5
6
100
AcDbSymbolTable
 70
0
  0
ENDTAB
  0
TABLE
  2
UCS
  5
7
100
AcDbSymbolTable
 70
0
  0
ENDTAB
  0
TABLE
  2
APPID
  5
9
100
AcDbSymbolTable
 70
1
  0
APPID
  5
21A
100
AcDbSymbolTableRecord
100
AcDbRegAppTableRecord
  2
ACAD
 70
0
  0
ENDTAB
  0
TABLE
  2
BLOCK_RECORD
  5
1
100
AcDbSymbolTable
 70
0
  0
BLOCK_RECORD
  5
21B
100
AcDbSymbolTableRecord
100
AcDbBlockTableRecord
  2
*Model_Space
  0
BLOCK_RECORD
  5
21C
100
AcDbSymbolTableRecord
100
AcDbBlockTableRecord
  2
*Paper_Space
  0
BLOCK_RECORD
  5
21D
100
AcDbSymbolTableRecord
100
AcDbBlockTableRecord
  2
_FILLED
  0
ENDTAB
  0
TABLE
  2
DIMSTYLE
  5
A
100
AcDbSymbolTable
 70
1
100
AcDbDimStyleTable
 71
0
  0
DIMSTYLE
105
21E
100
AcDbSymbolTableRecord
100
AcDbDimStyleTableRecord
  2
STANDARD
 70
0
  3

  4

 40
1.0
 41
0.1
 42
0.0625
 43
0.38
 44
0.125
 45
0.0
 46
0.0
 47
0.001
 48
0.001
140
0.08
141
0.09
142
0.0
143
25.4
144
1.0
145
0.0
146
1.0
147
0.09
 71
1.0
 72
0.0
 73
1
 74
1
 75
0
 76
0
 77
0
 78
4
 79
1
170
1
171
2
172
0
173
0
174
0
175
0
176
0
177
0
178
0
270
2
179
3
271
3
272
3
273
2
274
2
275
0
280
0
281
0
282
0
283
1
284
4
285
0
286
0
287
3
288
0
340
11
278
46
341
21D
342
21D
343
21D
344
21D
  0
ENDTAB
  0
ENDSEC
  0
SECTION
  2
BLOCKS
  0
BLOCK
  5
20
100
AcDbEntity
  8
0
100
AcDbBlockBegin
  2
*Model_Space
 70
0
 10
0.0
 20
0.0
 30
0.0
  3
*Model_Space
  1

  0
ENDBLK
  5
21
100
AcDbEntity
  8
0
100
AcDbBlockEnd
  0
BLOCK
  5
1C
100
AcDbEntity
  8
0
100
AcDbBlockBegin
  2
*Paper_Space
 70
0
 10
0.0
 20
0.0
 30
0.0
  3
*Paper_Space
  1

  0
ENDBLK
  5
1D
100
AcDbEntity
  8
0
100
AcDbBlockEnd
  0
BLOCK
  5
21F
100
AcDbEntity
  8
0
100
AcDbBlockBegin
  2
_FILLED
 70
64
 10
0.0
 20
0.0
  3
_FILLED
  1

  0
SOLID
  5
220
100
AcDbEntity
  8
0
  6
BYBLOCK
 62
0
100
AcDbTrace
 10
0.0
 20
0.0
 11
-1.0
 21
0.2
 12
-1.0
 22
-0.2
 13
-1.0
 23
-0.2
  0
ENDBLK
  5
221
100
AcDbEntity
  8
0
  6
BYBLOCK
 62
0
100
AcDbBlockEnd
  0
ENDSEC
  0
SECTION
  2
ENTITIES
  0
MTEXT
  5
222
100
AcDbEntity
  8
0
100
AcDbMText
 62
7
  6
CONTINUOUS
  7
STANDARD
 71
1
 72
1
 10
9.3220302795
 20
0.5025582298
 30
0.0
 11
1.0
 21
0.0
 31
0.0
 73
2
 44
0.9
  1
SCALE: 1.25
 40
0.08
 41
0.704
  0
LINE
  5
223
100
AcDbEntity
  8
0
100
AcDbLine
 62
7
  6
CONTINUOUS
 10
0.0
 20
0.0
 11
0.0
 21
8.5
  0
LINE
  5
224
100
AcDbEntity
  8
0
100
AcDbLine
 62
7
  6
CONTINUOUS
 10
0.0
 20
0.0
 11
11.0
 21
0.0
  0
LINE
  5
225
100
AcDbEntity
  8
0
100
AcDbLine
 62
7
  6
CONTINUOUS
 10
0.0
 20
8.5
 11
11.0
 21
8.5
  0
LINE
  5
226
100
AcDbEntity
  8
0
100
AcDbLine
 62
7
  6
CONTINUOUS
 10
11.0
 20
0.0
 11
11.0
 21
8.5
  0
LINE
  5
227
100
AcDbEntity
  8
0
100
AcDbLine
 62
7
  6
CONTINUOUS
 10
1.831491071
 20
5.2341560364
 11
1.8238703416
 21
5.0159268981
  0
LINE
  5
228
100
AcDbEntity
  8
0
100
AcDbLine
 62
7
  6
CONTINUOUS
 10
1.7882453416
 20
3.9709096351
 11
1.7882453416
 21
3.1896941611
  0
LINE
  5
229
100
AcDbEntity
  8
0
100
AcDbLine
 62
9
  6
CONTINUOUS
 10
1.9637814015
 20
5.2389125627
 11
1.9588396262
 21
5.0159268981
  0
LINE
  5
22A
100
AcDbEntity
  8
0
100
AcDbLine
 62
7
  6
CONTINUOUS
 10
2.3119953416
 20
3.9709096351
 11
2.3119953416
 21
3.1896941611
  0
LINE
  5
22B
100
AcDbEntity
  8
0
100
AcDbLine
 62
7
  6
CONTINUOUS
 10
2.4326872683
 20
4.4227403983
 11
2.4326872683
 21
4.6330402297
  0
LINE
  5
22C
100
AcDbEntity
  8
0
100
AcDbLine
 62
9
  6
CONTINUOUS
 10
2.4410606806
 20
4.6365738853
 11
2.4410606806
 21
4.4192067427
  0
LINE
  5
22D
100
AcDbEntity
  8
0
100
AcDbLine
 62
7
  6
CONTINUOUS
 10
2.5169953416
 20
4.3834268981
 11
2.5169953416
 21
4.3521768981
  0
LINE
  5
22E
100
AcDbEntity
  8
0
100
AcDbLine
 62
7
  6
CONTINUOUS
 10
2.5432453416
 20
4.3111887807
 11
2.5432453416
 21
4.2832631394
  0
LINE
  5
22F
100
AcDbEntity
  8
0
100
AcDbLine
 62
7
  6
CONTINUOUS
 10
2.5432453416
 20
4.2218475042
 11
2.5432453416
 21
4.1396768981
  0
LINE
  5
230
100
AcDbEntity
  8
0
100
AcDbLine
 62
7
  6
CONTINUOUS
 10
2.5582453416
 20
4.1396768981
 11
2.5582453416
 21
3.0209268981
  0
LINE
  5
231
100
AcDbEntity
  8
0
100
AcDbLine
 62
7
  6
CONTINUOUS
 10
2.6613703416
 20
4.7709268981
 11
2.6613703416
 21
4.7396768981
  0
LINE
  5
232
100
AcDbEntity
  8
0
100
AcDbLine
 62
7
  6
CONTINUOUS
 10
1.7882453416
 20
3.1896768981
 11
1.8486752394
 21
3.1292470003
  0
LINE
  5
233
100
AcDbEntity
  8
0
100
AcDbLine
 62
7
  6
CONTINUOUS
 10
2.370581821
 20
3.2667276359
 11
2.392298664
 21
3.2292026553
  0
LINE
  5
234
100
AcDbEntity
  8
0
100
AcDbLine
 62
7
  6
CONTINUOUS
 10
2.4331205447
 20
3.2666790905
 11
2.4548477242
 21
3.2291304187
  0
LINE
  5
235
100
AcDbEntity
  8
0
100
AcDbLine
 62
7
  6
CONTINUOUS
 10
2.3122438877
 20
3.2593623917
 11
2.3296711678
 21
3.229234741
  0
LINE
  5
236
100
AcDbEntity
  8
0
100
AcDbLine
 62
9
  6
CONTINUOUS
 10
2.7207147172
 20
4.4192067427
 11
2.7207147172
 21
4.6365738853
  0
LINE
  5
237
100
AcDbEntity
  8
0
100
AcDbLine
 62
9
  6
CONTINUOUS
 10
2.774841305
 20
4.6365738853
 11
2.774841305
 21
4.4192067427
  0
LINE
  5
238
100
AcDbEntity
  8
0
100
AcDbLine
 62
7
  6
CONTINUOUS
 10
2.8072701154
 20
4.1771768981
 11
2.8072701154
 21
4.1396768981
  0
LINE
  5
239
100
AcDbEntity
  8
0
100
AcDbLine
 62
7
  6
CONTINUOUS
 10
2.8194953416
 20
5.0159268981
 11
2.8194953416
 21
4.7709268981
  0
LINE
  5
23A
100
AcDbEntity
  8
0
100
AcDbLine
 62
7
  6
CONTINUOUS
 10
2.3609858468
 20
3.9313751378
 11
2.3398722857
 21
3.8948862308
  0
LINE
  5
23B
100
AcDbEntity
  8
0
100
AcDbLine
 62
7
  6
CONTINUOUS
 10
2.4235909413
 20
3.9314371906
 11
2.4024090209
 21
3.8948368409
  0
LINE
  5
23C
100
AcDbEntity
  8
0
100
AcDbLine
 62
7
  6
CONTINUOUS
 10
1.7882453416
 20
3.9709268981
 11
1.8486752394
 21
4.0313567959
  0
LWPOLYLINE
  5
23D
100
AcDbEntity
  8
0
100
AcDbPolyline
 62
7
  6
CONTINUOUS
 90
11
 70
0
 10
1.8624614258
 20
5.2786606942
 10
1.8572678422
 20
5.276168423
 10
1.8524382761
 20
5.2731259243
 10
1.8479596862
 20
5.2695282178
 10
1.8439210266
 20
5.2654379324
 10
1.8404011131
 20
5.2609437034
 10
1.8373972449
 20
5.2560418318
 10
1.8349786773
 20
5.2508344974
 10
1.8331828247
 20
5.245420605
 10
1.8320065968
 20
5.2397794524
 10
1.8314911431
 20
5.2341560338
  0
LINE
  5
23E
100
AcDbEntity
  8
0
100
AcDbLine
 62
7
  6
CONTINUOUS
 10
2.4029667632
 20
3.8938732447
 11
2.3812460268
 21
3.9314046098
  0
LINE
  5
23F
100
AcDbEntity
  8
0
100
AcDbLine
 62
7
  6
CONTINUOUS
 10
2.3404279248
 20
3.8939261063
 11
2.3206461368
 21
3.9281124743
  0
LINE
  5
240
100
AcDbEntity
  8
0
100
AcDbLine
 62
7
  6
CONTINUOUS
 10
3.0348078416
 20
5.4298123269
 11
3.0348078416
 21
5.4136154268
  0
LINE
  5
241
100
AcDbEntity
  8
0
100
AcDbLine
 62
7
  6
CONTINUOUS
 10
3.0741828416
 20
5.4136154268
 11
3.0741828416
 21
5.4298123269
  0
LINE
  5
242
100
AcDbEntity
  8
0
100
AcDbLine
 62
7
  6
CONTINUOUS
 10
2.3499567225
 20
3.2291626863
 11
2.3711392992
 21
3.2657644821
  0
LINE
  5
243
100
AcDbEntity
  8
0
100
AcDbLine
 62
7
  6
CONTINUOUS
 10
2.4125608762
 20
3.2292263504
 11
2.4336764354
 21
3.2657185308
  0
LINE
  5
244
100
AcDbEntity
  8
0
100
AcDbLine
 62
7
  6
CONTINUOUS
 10
2.5432453416
 20
4.2218475042
 11
2.543844377
 21
4.2225359014
  0
LINE
  5
245
100
AcDbEntity
  8
0
100
AcDbLine
 62
7
  6
CONTINUOUS
 10
2.5432453416
 20
4.3111887807
 11
2.5438645258
 21
4.3118829829
  0
LINE
  5
246
100
AcDbEntity
  8
0
100
AcDbLine
 62
7
  6
CONTINUOUS
 10
2.3926203781
 20
3.2287393981
 11
2.392109821
 21
3.2292023811
  0
LINE
  5
247
100
AcDbEntity
  8
0
100
AcDbLine
 62
7
  6
CONTINUOUS
 10
2.3301203244
 20
3.2287393981
 11
2.3295811326
 21
3.2292346039
  0
LINE
  5
248
100
AcDbEntity
  8
0
100
AcDbLine
 62
7
  6
CONTINUOUS
 10
3.2894953416
 20
5.0159268981
 11
3.2894953416
 21
4.7709268981
  0
LINE
  5
249
100
AcDbEntity
  8
0
100
AcDbLine
 62
7
  6
CONTINUOUS
 10
3.3017205679
 20
4.1396768981
 11
3.3017205679
 21
4.1771768981
  0
LINE
  5
24A
100
AcDbEntity
  8
0
100
AcDbLine
 62
9
  6
CONTINUOUS
 10
3.3341493783
 20
4.4192067427
 11
3.3341493783
 21
4.6365738853
  0
LINE
  5
24B
100
AcDbEntity
  8
0
100
AcDbLine
 62
9
  6
CONTINUOUS
 10
3.388275966
 20
4.6365738853
 11
3.388275966
 21
4.4192067427
  0
LINE
  5
24C
100
AcDbEntity
  8
0
100
AcDbLine
 62
7
  6
CONTINUOUS
 10
3.4476203416
 20
4.7396768981
 11
3.4476203416
 21
4.7709268981
  0
LINE
  5
24D
100
AcDbEntity
  8
0
100
AcDbLine
 62
7
  6
CONTINUOUS
 10
2.4551203662
 20
3.2287393981
 11
2.4546513283
 21
3.2291301568
  0
LINE
  5
24E
100
AcDbEntity
  8
0
100
AcDbLine
 62
7
  6
CONTINUOUS
 10
2.2515654438
 20
4.0313567959
 11
2.3119953416
 21
3.9709268981
  0
LINE
  5
24F
100
AcDbEntity
  8
0
100
AcDbLine
 62
7
  6
CONTINUOUS
 10
3.5657453416
 20
4.1396768981
 11
3.5657453416
 21
4.2665181375
  0
LINE
  5
250
100
AcDbEntity
  8
0
100
AcDbLine
 62
7
  6
CONTINUOUS
 10
3.5657453416
 20
4.3279851698
 11
3.5657453416
 21
4.3521768981
  0
LINE
  5
251
100
AcDbEntity
  8
0
100
AcDbLine
 62
7
  6
CONTINUOUS
 10
3.5919953416
 20
4.3834268981
 11
3.5919953416
 21
4.3521768981
  0
LINE
  5
252
100
AcDbEntity
  8
0
100
AcDbLine
 62
7
  6
CONTINUOUS
 10
3.6544953416
 20
3.0209268981
 11
3.6544953416
 21
4.1396768981
  0
LINE
  5
253
100
AcDbEntity
  8
0
100
AcDbLine
 62
9
  6
CONTINUOUS
 10
3.6679300026
 20
4.4192067427
 11
3.6679300026
 21
4.6365738853
  0
LINE
  5
254
100
AcDbEntity
  8
0
100
AcDbLine
 62
7
  6
CONTINUOUS
 10
3.6763034149
 20
4.4227403983
 11
3.6763034149
 21
4.6330402297
  0
LINE
  5
255
100
AcDbEntity
  8
0
100
AcDbLine
 62
7
  6
CONTINUOUS
 10
3.5657453416
 20
4.3279818217
 11
3.5651547368
 21
4.3272957531
  0
LINE
  5
256
100
AcDbEntity
  8
0
100
AcDbLine
 62
7
  6
CONTINUOUS
 10
2.2515654438
 20
3.1292470003
 11
2.3119953416
 21
3.1896768981
  0
LINE
  5
257
100
AcDbEntity
  8
0
100
AcDbLine
 62
7
  6
CONTINUOUS
 10
2.5971421002
 20
4.3426751206
 11
2.5438645405
 21
4.3118722045
  0
LINE
  5
258
100
AcDbEntity
  8
0
100
AcDbLine
 62
7
  6
CONTINUOUS
 10
2.5971863451
 20
4.2533239438
 11
2.543844451
 21
4.2224809254
  0
LINE
  5
259
100
AcDbEntity
  8
0
100
AcDbLine
 62
7
  6
CONTINUOUS
 10
2.4409186059
 20
4.6368785655
 11
2.6613703416
 21
4.7396768981
  0
LINE
  5
25A
100
AcDbEntity
  8
0
100
AcDbLine
 62
7
  6
CONTINUOUS
 10
2.4326872683
 20
4.6330402297
 11
2.4410606806
 21
4.6365738853
  0
LINE
  5
25B
100
AcDbEntity
  8
0
100
AcDbLine
 62
7
  6
CONTINUOUS
 10
2.3809299591
 20
3.9318643981
 11
2.3814385967
 21
3.9314048884
  0
LINE
  5
25C
100
AcDbEntity
  8
0
100
AcDbLine
 62
7
  6
CONTINUOUS
 10
4.0169953416
 20
4.0821365002
 11
4.0169953416
 21
3.0784672959
  0
LINE
  5
25D
100
AcDbEntity
  8
0
100
AcDbLine
 62
7
  6
CONTINUOUS
 10
4.2774999079
 20
5.2341475677
 11
4.2851203416
 21
5.0159268981
  0
LINE
  5
25E
100
AcDbEntity
  8
0
100
AcDbLine
 62
9
  6
CONTINUOUS
 10
4.1452124067
 20
5.2389124034
 11
4.150151057
 21
5.0159268981
  0
LINE
  5
25F
100
AcDbEntity
  8
0
100
AcDbLine
 62
7
  6
CONTINUOUS
 10
3.511810048
 20
4.2964620513
 11
3.5651547226
 21
4.3273062902
  0
LINE
  5
260
100
AcDbEntity
  8
0
100
AcDbLine
 62
7
  6
CONTINUOUS
 10
3.5919953416
 20
4.3834268981
 11
3.6680720773
 21
4.4189020625
  0
LINE
  5
261
100
AcDbEntity
  8
0
100
AcDbLine
 62
7
  6
CONTINUOUS
 10
3.6679300026
 20
4.4192067427
 11
3.6763034149
 21
4.4227403983
  0
LINE
  5
262
100
AcDbEntity
  8
0
100
AcDbLine
 62
7
  6
CONTINUOUS
 10
3.6725530241
 20
4.4211630544
 11
3.673702104
 21
4.4216455489
  0
LINE
  5
263
100
AcDbEntity
  8
0
100
AcDbLine
 62
7
  6
CONTINUOUS
 10
3.6762013778
 20
4.4226993609
 11
3.6763034149
 21
4.4227403983
  0
LINE
  5
264
100
AcDbEntity
  8
0
100
AcDbLine
 62
7
  6
CONTINUOUS
 10
4.2774994253
 20
5.2341593246
 11
4.2769840722
 21
5.2397795491
  0
LINE
  5
265
100
AcDbEntity
  8
0
100
AcDbLine
 62
7
  6
CONTINUOUS
 10
2.5438559955
 20
4.2826161376
 11
2.5958513072
 21
4.2525519
  0
LWPOLYLINE
  5
266
100
AcDbEntity
  8
0
100
AcDbPolyline
 62
7
  6
CONTINUOUS
 90
10
 70
0
 10
4.2769840722
 20
5.2397795491
 10
4.2758078277
 20
5.24542072
 10
4.2740119564
 20
5.2508346227
 10
4.2715933697
 20
5.25604196
 10
4.2685894838
 20
5.2609438279
 10
4.2650695562
 20
5.2654380467
 10
4.2610308875
 20
5.2695283168
 10
4.2565522937
 20
5.2731260053
 10
4.2517227305
 20
5.2761684842
 10
4.2465291603
 20
5.2786607342
  0
LINE
  5
267
100
AcDbEntity
  8
0
100
AcDbLine
 62
7
  6
CONTINUOUS
 10
2.4326872683
 20
4.4227403983
 11
2.5169953416
 21
4.3834268981
  0
LINE
  5
268
100
AcDbEntity
  8
0
100
AcDbLine
 62
7
  6
CONTINUOUS
 10
2.5780666402
 20
4.3521768981
 11
2.5958208437
 21
4.3419111203
  0
LINE
  5
269
100
AcDbEntity
  8
0
100
AcDbLine
 62
7
  6
CONTINUOUS
 10
2.5582453416
 20
3.0209268981
 11
3.6544953416
 21
3.0209268981
  0
LINE
  5
26A
100
AcDbEntity
  8
0
100
AcDbLine
 62
7
  6
CONTINUOUS
 10
4.0169953416
 20
3.0784268981
 11
3.6544953416
 21
3.0784268981
  0
LINE
  5
26B
100
AcDbEntity
  8
0
100
AcDbLine
 62
7
  6
CONTINUOUS
 10
2.2515654438
 20
3.1292470003
 11
1.8486752394
 21
3.1292470003
  0
LINE
  5
26C
100
AcDbEntity
  8
0
100
AcDbLine
 62
7
  6
CONTINUOUS
 10
9.8919953416
 20
3.1490518981
 11
8.6794953416
 21
3.1490518981
  0
LINE
  5
26D
100
AcDbEntity
  8
0
100
AcDbLine
 62
7
  6
CONTINUOUS
 10
7.3092249796
 20
3.1490518981
 11
4.0169953416
 21
3.1490518981
  0
LINE
  5
26E
100
AcDbEntity
  8
0
100
AcDbLine
 62
7
  6
CONTINUOUS
 10
2.4326872683
 20
4.4227403983
 11
2.4327895035
 21
4.4226991709
  0
LINE
  5
26F
100
AcDbEntity
  8
0
100
AcDbLine
 62
7
  6
CONTINUOUS
 10
2.4327895035
 20
4.4226991709
 11
2.4410606806
 21
4.4192067427
  0
LINE
  5
270
100
AcDbEntity
  8
0
100
AcDbLine
 62
7
  6
CONTINUOUS
 10
3.5651288919
 20
4.2671760712
 11
3.5131443207
 21
4.2972336456
  0
LINE
  5
271
100
AcDbEntity
  8
0
100
AcDbLine
 62
7
  6
CONTINUOUS
 10
2.3301203244
 20
3.2287393981
 11
2.3496799494
 21
3.2287393981
  0
LINE
  5
272
100
AcDbEntity
  8
0
100
AcDbLine
 62
7
  6
CONTINUOUS
 10
2.3926203781
 20
3.2287393981
 11
2.4121799398
 21
3.2287393981
  0
LINE
  5
273
100
AcDbEntity
  8
0
100
AcDbLine
 62
7
  6
CONTINUOUS
 10
2.4551203662
 20
3.2287393981
 11
2.5582453416
 21
3.2287393981
  0
LINE
  5
274
100
AcDbEntity
  8
0
100
AcDbLine
 62
7
  6
CONTINUOUS
 10
2.5582453416
 20
3.3486011866
 11
3.6544953416
 21
3.3486011866
  0
LINE
  5
275
100
AcDbEntity
  8
0
100
AcDbLine
 62
7
  6
CONTINUOUS
 10
2.2515654438
 20
3.3547744492
 11
1.8486752394
 21
3.3547744492
  0
LINE
  5
276
100
AcDbEntity
  8
0
100
AcDbLine
 62
7
  6
CONTINUOUS
 10
3.6679300026
 20
4.6365738853
 11
3.6763034149
 21
4.6330402297
  0
LINE
  5
277
100
AcDbEntity
  8
0
100
AcDbLine
 62
7
  6
CONTINUOUS
 10
3.4476203416
 20
4.7396768981
 11
3.6763034149
 21
4.6330402297
  0
LINE
  5
278
100
AcDbEntity
  8
0
100
AcDbLine
 62
7
  6
CONTINUOUS
 10
1.8486752394
 20
3.805829347
 11
2.2515654438
 21
3.805829347
  0
LINE
  5
279
100
AcDbEntity
  8
0
100
AcDbLine
 62
7
  6
CONTINUOUS
 10
2.5582453416
 20
3.8120026095
 11
3.6544953416
 21
3.8120026095
  0
LINE
  5
27A
100
AcDbEntity
  8
0
100
AcDbLine
 62
7
  6
CONTINUOUS
 10
3.6544953416
 20
3.9238776095
 11
2.5582453416
 21
3.9238776095
  0
LINE
  5
27B
100
AcDbEntity
  8
0
100
AcDbLine
 62
7
  6
CONTINUOUS
 10
2.5582453416
 20
3.9318643981
 11
2.4238703864
 21
3.9318643981
  0
LINE
  5
27C
100
AcDbEntity
  8
0
100
AcDbLine
 62
7
  6
CONTINUOUS
 10
2.3809299591
 20
3.9318643981
 11
2.3613703534
 21
3.9318643981
  0
LINE
  5
27D
100
AcDbEntity
  8
0
100
AcDbLine
 62
7
  6
CONTINUOUS
 10
2.3119953416
 20
3.9318643981
 11
2.3182565257
 21
3.9318643981
  0
LINE
  5
27E
100
AcDbEntity
  8
0
100
AcDbLine
 62
7
  6
CONTINUOUS
 10
9.8919953416
 20
4.0115518981
 11
8.6794953416
 21
4.0115518981
  0
LINE
  5
27F
100
AcDbEntity
  8
0
100
AcDbLine
 62
7
  6
CONTINUOUS
 10
7.3092249796
 20
4.0115518981
 11
4.0169953416
 21
4.0115518981
  0
LINE
  5
280
100
AcDbEntity
  8
0
100
AcDbLine
 62
7
  6
CONTINUOUS
 10
2.2515654438
 20
4.0313567959
 11
1.8486752394
 21
4.0313567959
  0
LINE
  5
281
100
AcDbEntity
  8
0
100
AcDbLine
 62
7
  6
CONTINUOUS
 10
4.0169953416
 20
4.0821768981
 11
3.6544953416
 21
4.0821768981
  0
LINE
  5
282
100
AcDbEntity
  8
0
100
AcDbLine
 62
7
  6
CONTINUOUS
 10
7.3092249796
 20
2.9240518981
 11
8.6794953416
 21
2.0803018981
  0
LINE
  5
283
100
AcDbEntity
  8
0
100
AcDbLine
 62
7
  6
CONTINUOUS
 10
7.3092249796
 20
4.2365518981
 11
8.6794953416
 21
5.0803018981
  0
LINE
  5
284
100
AcDbEntity
  8
0
100
AcDbLine
 62
7
  6
CONTINUOUS
 10
3.6544953416
 20
4.1396768981
 11
3.3017205679
 21
4.1396768981
  0
LINE
  5
285
100
AcDbEntity
  8
0
100
AcDbLine
 62
7
  6
CONTINUOUS
 10
2.5432453416
 20
4.1396768981
 11
2.8072701154
 21
4.1396768981
  0
LINE
  5
286
100
AcDbEntity
  8
0
100
AcDbLine
 62
7
  6
CONTINUOUS
 10
3.301720568
 20
4.1771768981
 11
2.8072701152
 21
4.1771768981
  0
LINE
  5
287
100
AcDbEntity
  8
0
100
AcDbLine
 62
7
  6
CONTINUOUS
 10
3.5919948521
 20
4.3521768981
 11
2.5169958311
 21
4.3521768981
  0
LINE
  5
288
100
AcDbEntity
  8
0
100
AcDbLine
 62
7
  6
CONTINUOUS
 10
3.5919953416
 20
4.3834268981
 11
2.5169953416
 21
4.3834268981
  0
LINE
  5
289
100
AcDbEntity
  8
0
100
AcDbLine
 62
7
  6
CONTINUOUS
 10
2.6613703416
 20
4.7396768981
 11
3.4476203416
 21
4.7396768981
  0
LINE
  5
28A
100
AcDbEntity
  8
0
100
AcDbLine
 62
7
  6
CONTINUOUS
 10
3.4476203416
 20
4.7709268981
 11
2.6613703416
 21
4.7709268981
  0
LWPOLYLINE
  5
28B
100
AcDbEntity
  8
0
100
AcDbPolyline
 62
7
  6
CONTINUOUS
 90
3
 70
0
 10
4.2465291601
 20
5.2786607343
 10
4.2410369348
 20
5.2805521363
 10
4.2361822922
 20
5.281656754
  0
LINE
  5
28C
100
AcDbEntity
  8
0
100
AcDbLine
 62
7
  6
CONTINUOUS
 10
7.3092249796
 20
2.9240518981
 11
7.3092249796
 21
4.2365518981
  0
LINE
  5
28D
100
AcDbEntity
  8
0
100
AcDbLine
 62
7
  6
CONTINUOUS
 10
4.2850841176
 20
5.0159268981
 11
1.8239065656
 21
5.0159268981
  0
LINE
  5
28E
100
AcDbEntity
  8
0
100
AcDbLine
 62
7
  6
CONTINUOUS
 10
2.8484094444
 20
5.3815503243
 11
2.8629237306
 21
5.3806034017
  0
LINE
  5
28F
100
AcDbEntity
  8
0
100
AcDbLine
 62
7
  6
CONTINUOUS
 10
2.8482453416
 20
5.3815615824
 11
2.8491663889
 21
5.3814829717
  0
LINE
  5
290
100
AcDbEntity
  8
0
100
AcDbLine
 62
7
  6
CONTINUOUS
 10
3.2379346026
 20
5.3801027084
 11
3.2605811209
 21
5.3815502453
  0
LINE
  5
291
100
AcDbEntity
  8
0
100
AcDbLine
 62
7
  6
CONTINUOUS
 10
3.2379349596
 20
5.3800920313
 11
3.2460896999
 21
5.3806051457
  0
LINE
  5
292
100
AcDbEntity
  8
0
100
AcDbLine
 62
7
  6
CONTINUOUS
 10
3.2524836304
 20
5.3810138962
 11
3.257069488
 21
5.3813007894
  0
LINE
  5
293
100
AcDbEntity
  8
0
100
AcDbLine
 62
9
  6
CONTINUOUS
 10
3.2432962078
 20
5.3909546662
 11
2.8656944754
 21
5.3909546662
  0
LINE
  5
294
100
AcDbEntity
  8
0
100
AcDbLine
 62
7
  6
CONTINUOUS
 10
3.2598267714
 20
5.3814833187
 11
3.2607453416
 21
5.381561484
  0
LINE
  5
295
100
AcDbEntity
  8
0
100
AcDbLine
 62
7
  6
CONTINUOUS
 10
3.2605811209
 20
5.3815502453
 11
3.2607453416
 21
5.381561484
  0
LWPOLYLINE
  5
296
100
AcDbEntity
  8
0
100
AcDbPolyline
 62
7
  6
CONTINUOUS
 90
3
 70
0
 10
1.8728083912
 20
5.281656754
 10
1.867953676
 20
5.2805521159
 10
1.862461426
 20
5.2786606943
  0
LINE
  5
297
100
AcDbEntity
  8
0
100
AcDbLine
 62
7
  6
CONTINUOUS
 10
8.6794953416
 20
5.0803018981
 11
8.6794953416
 21
2.0803018981
  0
LINE
  5
298
100
AcDbEntity
  8
0
100
AcDbLine
 62
7
  6
CONTINUOUS
 10
9.8919953416
 20
4.0115518981
 11
9.8919953416
 21
3.1490518981
  0
ARC
  5
299
100
AcDbEntity
  8
0
100
AcDbCircle
 62
7
  6
CONTINUOUS
 10
2.0405861535
 20
3.1377647287
 40
0.3025331545
100
AcDbArc
 50
40.4486333452
 51
40.9917741357
  0
ARC
  5
29A
100
AcDbEntity
  8
0
100
AcDbCircle
 62
7
  6
CONTINUOUS
 10
2.2127952072
 20
3.2421738861
 40
0.0992041888
100
AcDbArc
 50
353.1616501494
 51
357.5109829534
  0
ARC
  5
29B
100
AcDbEntity
  8
0
100
AcDbCircle
 62
7
  6
CONTINUOUS
 10
2.2157293461
 20
3.2420166853
 40
0.0962659957
100
AcDbArc
 50
357.5286176155
 51
359.9964523731
  0
ARC
  5
29C
100
AcDbEntity
  8
0
100
AcDbCircle
 62
7
  6
CONTINUOUS
 10
2.2103048306
 20
3.91814206
 40
0.1017111213
100
AcDbArc
 50
6.8333818113
 51
8.563049721
  0
ARC
  5
29D
100
AcDbEntity
  8
0
100
AcDbCircle
 62
7
  6
CONTINUOUS
 10
2.2145412285
 20
3.9185684621
 40
0.0974541163
100
AcDbArc
 50
0.0144684662
 51
6.8808180087
  0
ARC
  5
29E
100
AcDbEntity
  8
0
100
AcDbCircle
 62
7
  6
CONTINUOUS
 10
3.0544953416
 20
-1.4440731019
 40
6.82875
100
AcDbArc
 50
91.7307782453
 51
99.9649595851
  0
ARC
  5
29F
100
AcDbEntity
  8
0
100
AcDbCircle
 62
7
  6
CONTINUOUS
 10
3.0544953416
 20
-1.4440731019
 40
6.82875
100
AcDbArc
 50
80.0350404138
 51
88.2692217547
  0
ARC
  5
2A0
100
AcDbEntity
  8
0
100
AcDbCircle
 62
7
  6
CONTINUOUS
 10
3.0544953457
 20
8.4169442808
 40
3.0423752637
100
AcDbArc
 50
266.5437810257
 51
273.4567295801
  0
ARC
  5
2A1
100
AcDbEntity
  8
0
100
AcDbCircle
 62
7
  6
CONTINUOUS
 10
3.0501133003
 20
8.3546456646
 40
2.9799274013
100
AcDbArc
 50
266.3984899874
 51
266.5556702229
  0
ARC
  5
2A2
100
AcDbEntity
  8
0
100
AcDbCircle
 62
7
  6
CONTINUOUS
 10
3.0544953416
 20
4.8850990321
 40
0.5288829522
100
AcDbArc
 50
87.866689923
 51
92.133310077
  0
ARC
  5
2A3
100
AcDbEntity
  8
0
100
AcDbCircle
 62
7
  6
CONTINUOUS
 10
3.0544953416
 20
5.018979861
 40
0.4171462847
100
AcDbArc
 50
63.0893094774
 51
71.2473120572
  0
ARC
  5
2A4
100
AcDbEntity
  8
0
100
AcDbCircle
 62
7
  6
CONTINUOUS
 10
3.0544953416
 20
5.018979861
 40
0.4171462847
100
AcDbArc
 50
108.7526879428
 51
116.9106905226
  0
ARC
  5
2A5
100
AcDbEntity
  8
0
100
AcDbCircle
 62
7
  6
CONTINUOUS
 10
3.0544953416
 20
5.018979861
 40
0.4166814433
100
AcDbArc
 50
71.2788334834
 51
80.3886398641
  0
ARC
  5
2A6
100
AcDbEntity
  8
0
100
AcDbCircle
 62
7
  6
CONTINUOUS
 10
3.0544953416
 20
5.018979861
 40
0.4166814433
100
AcDbArc
 50
99.6113601359
 51
108.7211665166
  0
ARC
  5
2A7
100
AcDbEntity
  8
0
100
AcDbCircle
 62
7
  6
CONTINUOUS
 10
3.5281029955
 20
4.683616329
 40
0.2958120079
100
AcDbArc
 50
268.2227064055
 51
275.344750226
  0
ARC
  5
2A8
100
AcDbEntity
  8
0
100
AcDbCircle
 62
7
  6
CONTINUOUS
 10
3.2366203416
 20
5.3778018981
 40
0.01475
100
AcDbArc
 50
12.2242061526
 51
63.0893094774
  0
ARC
  5
2A9
100
AcDbEntity
  8
0
100
AcDbCircle
 62
7
  6
CONTINUOUS
 10
2.8723703416
 20
5.3778018981
 40
0.01475
100
AcDbArc
 50
116.9106905226
 51
167.7794957628
  0
ARC
  5
2AA
100
AcDbEntity
  8
0
100
AcDbCircle
 62
9
  6
CONTINUOUS
 10
3.0768315529
 20
38.3703019259
 40
33.1291608905
100
AcDbArc
 50
269.4522516389
 51
269.9613846476
  0
ARC
  5
2AB
100
AcDbEntity
  8
0
100
AcDbCircle
 62
9
  6
CONTINUOUS
 10
3.0734068582
 20
37.7010284369
 40
32.4598853815
100
AcDbArc
 50
269.4470028131
 51
269.9666334733
  0
ARC
  5
2AC
100
AcDbEntity
  8
0
100
AcDbCircle
 62
9
  6
CONTINUOUS
 10
3.0475863518
 20
35.3557827463
 40
30.1146349812
100
AcDbArc
 50
270.0131607929
 51
270.5733056854
  0
ARC
  5
2AD
100
AcDbEntity
  8
0
100
AcDbCircle
 62
9
  6
CONTINUOUS
 10
3.0485347441
 20
35.1704749417
 40
29.9293269774
100
AcDbArc
 50
270.0114267051
 51
270.5750397733
  0
ARC
  5
2AE
100
AcDbEntity
  8
0
100
AcDbCircle
 62
7
  6
CONTINUOUS
 10
22.5137430092
 20
4.2173724405
 40
20.2091929594
100
AcDbArc
 50
181.5547775207
 51
181.7942583667
  0
LINE
  5
2AF
100
AcDbEntity
  8
0
100
AcDbLine
 62
7
  6
CONTINUOUS
 10
2.3184613771
 20
3.9317821957
 11
2.3187027213
 21
3.9314750909
  0
SPLINE
  5
2B0
100
AcDbEntity
  8
0
100
AcDbSpline
 62
7
  6
CONTINUOUS
 70
0
 71
3
 72
11
 73
7
 74
0
 42
0.0000001
 43
0.0000001
 44
0.0000000001
 40
0.0
 40
0.0
 40
0.0
 40
0.0
 40
0.2616341759
 40
0.5159308868
 40
0.7621682597
 40
1.0
 40
1.0
 40
1.0
 40
1.0
 10
1.8486752394
 20
4.0313567959
 30
0.0
 10
1.8445195323
 20
4.0272010887
 30
0.0
 10
1.8364901819
 20
4.018837648
 30
0.0
 10
1.8252669262
 20
4.0058972334
 30
0.0
 10
1.8151821345
 20
3.9927152345
 30
0.0
 10
1.8092236033
 20
3.9836021936
 30
0.0
 10
1.8065054387
 20
3.9790029903
 30
0.0
  0
SPLINE
  5
2B1
100
AcDbEntity
  8
0
100
AcDbSpline
 62
7
  6
CONTINUOUS
 70
0
 71
3
 72
9
 73
5
 74
0
 42
0.0000001
 43
0.0000001
 44
0.0000000001
 40
0.0
 40
0.0
 40
0.0
 40
0.0
 40
0.2562806232
 40
1.0
 40
1.0
 40
1.0
 40
1.0
 10
1.8065054387
 20
3.9790029903
 30
0.0
 10
1.8053003076
 20
3.9769638782
 30
0.0
 10
1.800759357
 20
3.9689149066
 30
0.0
 10
1.7969122413
 20
3.960459779
 30
0.0
 10
1.794606617
 20
3.9539843566
 30
0.0
  0
SPLINE
  5
2B2
100
AcDbEntity
  8
0
100
AcDbSpline
 62
7
  6
CONTINUOUS
 70
0
 71
3
 72
10
 73
6
 74
0
 42
0.0000001
 43
0.0000001
 44
0.0000000001
 40
0.0
 40
0.0
 40
0.0
 40
0.0
 40
0.5056633067
 40
0.7536885928
 40
1.0
 40
1.0
 40
1.0
 40
1.0
 10
1.794606617
 20
3.9539843566
 30
0.0
 10
1.7925650776
 20
3.9482506251
 30
0.0
 10
1.790162759
 20
3.9394470334
 30
0.0
 10
1.7885233626
 20
3.9275117642
 30
0.0
 10
1.7882453416
 20
3.9215577625
 30
0.0
 10
1.7882453416
 20
3.9185930714
 30
0.0
  0
SPLINE
  5
2B3
100
AcDbEntity
  8
0
100
AcDbSpline
 62
7
  6
CONTINUOUS
 70
0
 71
3
 72
11
 73
7
 74
0
 42
0.0000001
 43
0.0000001
 44
0.0000000001
 40
0.0
 40
0.0
 40
0.0
 40
0.0
 40
0.2617278932
 40
0.5160648526
 40
0.76227146
 40
1.0
 40
1.0
 40
1.0
 40
1.0
 10
2.2515654438
 20
3.1292470003
 30
0.0
 10
2.2557477771
 20
3.1334293335
 30
0.0
 10
2.2638267026
 20
3.1418466505
 30
0.0
 10
2.275112677
 20
3.1548730592
 30
0.0
 10
2.2852432176
 20
3.1681440037
 30
0.0
 10
2.2912197738
 20
3.1773206552
 30
0.0
 10
2.2939424712
 20
3.1819519779
 30
0.0
  0
SPLINE
  5
2B4
100
AcDbEntity
  8
0
100
AcDbSpline
 62
7
  6
CONTINUOUS
 70
0
 71
3
 72
9
 73
5
 74
0
 42
0.0000001
 43
0.0000001
 44
0.0000000001
 40
0.0
 40
0.0
 40
0.0
 40
0.0
 40
0.256150517
 40
1.0
 40
1.0
 40
1.0
 40
1.0
 10
2.2939424712
 20
3.1819519779
 30
0.0
 10
2.2951188274
 20
3.1839529661
 30
0.0
 10
2.2995550811
 20
3.1918537489
 30
0.0
 10
2.3033207787
 20
3.2001446862
 30
0.0
 10
2.3055886509
 20
3.2064922483
 30
0.0
  0
SPLINE
  5
2B5
100
AcDbEntity
  8
0
100
AcDbSpline
 62
7
  6
CONTINUOUS
 70
0
 71
3
 72
9
 73
5
 74
0
 42
0.0000001
 43
0.0000001
 44
0.0000000001
 40
0.0
 40
0.0
 40
0.0
 40
0.0
 40
0.5049779951
 40
1.0
 40
1.0
 40
1.0
 40
1.0
 10
2.3055886509
 20
3.2064922483
 30
0.0
 10
2.3069807327
 20
3.2103885551
 30
0.0
 10
2.3093439978
 20
3.2182520838
 30
0.0
 10
2.3108112446
 20
3.2263346282
 30
0.0
 10
2.3112936608
 20
3.2303617857
 30
0.0
  0
SPLINE
  5
2B6
100
AcDbEntity
  8
0
100
AcDbSpline
 62
7
  6
CONTINUOUS
 70
0
 71
3
 72
18
 73
14
 74
0
 42
0.0000001
 43
0.0000001
 44
0.0000000001
 40
0.0
 40
0.0
 40
0.0
 40
0.0
 40
0.1124048195
 40
0.169272016
 40
0.2268060154
 40
0.2851616014
 40
0.3444738534
 40
0.4663446161
 40
0.5290594692
 40
0.5929656206
 40
0.7242616333
 40
0.8600745728
 40
1.0
 40
1.0
 40
1.0
 40
1.0
 10
1.7882453416
 20
3.9185930714
 30
0.0
 10
1.7882453416
 20
3.9136755242
 30
0.0
 10
1.7888220608
 20
3.9062561289
 30
0.0
 10
1.7906572803
 20
3.8964997652
 30
0.0
 10
1.7925667048
 20
3.8891804562
 30
0.0
 10
1.7949909107
 20
3.8819034425
 30
0.0
 10
1.7989234662
 20
3.8721837991
 30
0.0
 10
1.8037810092
 20
3.8626567893
 30
0.0
 10
1.8093962705
 20
3.853345638
 30
0.0
 10
1.8156410547
 20
3.8439437127
 30
0.0
 10
1.8243681262
 20
3.8323698499
 30
0.0
 10
1.8359958746
 20
3.8188708164
 30
0.0
 10
1.8443466614
 20
3.810157925
 30
0.0
 10
1.8486752394
 20
3.805829347
 30
0.0
  0
SPLINE
  5
2B7
100
AcDbEntity
  8
0
100
AcDbSpline
 62
7
  6
CONTINUOUS
 70
0
 71
3
 72
15
 73
11
 74
0
 42
0.0000001
 43
0.0000001
 44
0.0000000001
 40
0.0
 40
0.0
 40
0.0
 40
0.0
 40
0.2498739081
 40
0.3748665046
 40
0.4998881936
 40
0.6248923537
 40
0.6874097074
 40
0.7499534645
 40
0.8750360777
 40
1.0
 40
1.0
 40
1.0
 40
1.0
 10
2.2515654438
 20
3.3547744492
 30
0.0
 10
2.2603414387
 20
3.372326439
 30
0.0
 10
2.2726080751
 20
3.3991365151
 30
0.0
 10
2.2864295817
 20
3.4358959047
 30
0.0
 10
2.2953430247
 20
3.4639824209
 30
0.0
 10
2.3013831545
 20
3.4877909833
 30
0.0
 10
2.3052720696
 20
3.5070443151
 30
0.0
 10
2.3084948732
 20
3.5264266034
 30
0.0
 10
2.3112384838
 20
3.5508436471
 30
0.0
 10
2.3119953416
 20
3.5704879195
 30
0.0
 10
2.3119953416
 20
3.5803018981
 30
0.0
  0
SPLINE
  5
2B8
100
AcDbEntity
  8
0
100
AcDbSpline
 62
7
  6
CONTINUOUS
 70
0
 71
3
 72
15
 73
11
 74
0
 42
0.0000001
 43
0.0000001
 44
0.0000000001
 40
0.0
 40
0.0
 40
0.0
 40
0.0
 40
0.1249639347
 40
0.2500465934
 40
0.312590383
 40
0.3751077516
 40
0.5001118844
 40
0.6251335312
 40
0.7501261089
 40
1.0
 40
1.0
 40
1.0
 40
1.0
 10
1.7882453416
 20
3.5803018981
 30
0.0
 10
1.7882453416
 20
3.5704879186
 30
0.0
 10
1.7890022043
 20
3.5508436416
 30
0.0
 10
1.7917458206
 20
3.5264265917
 30
0.0
 10
1.7949686175
 20
3.507044295
 30
0.0
 10
1.7988575266
 20
3.4877909604
 30
0.0
 10
1.8048976572
 20
3.4639824024
 30
0.0
 10
1.813811106
 20
3.4358958954
 30
0.0
 10
1.8276326134
 20
3.3991365128
 30
0.0
 10
1.8398992451
 20
3.3723264378
 30
0.0
 10
1.8486752394
 20
3.3547744492
 30
0.0
  0
SPLINE
  5
2B9
100
AcDbEntity
  8
0
100
AcDbSpline
 62
7
  6
CONTINUOUS
 70
0
 71
3
 72
15
 73
11
 74
0
 42
0.0000001
 43
0.0000001
 44
0.0000000001
 40
0.0
 40
0.0
 40
0.0
 40
0.0
 40
0.249873907
 40
0.3748665027
 40
0.4998881902
 40
0.6248923493
 40
0.6874097035
 40
0.7499534619
 40
0.875036077
 40
1.0
 40
1.0
 40
1.0
 40
1.0
 10
1.8486752394
 20
3.805829347
 30
0.0
 10
1.8398992445
 20
3.7882773572
 30
0.0
 10
1.8276326081
 20
3.7614672812
 30
0.0
 10
1.8138111006
 20
3.7247078921
 30
0.0
 10
1.8048976564
 20
3.6966213765
 30
0.0
 10
1.7988575261
 20
3.6728128143
 30
0.0
 10
1.7949686114
 20
3.6535594824
 30
0.0
 10
1.7917458086
 20
3.6341771936
 30
0.0
 10
1.789002199
 20
3.6097601493
 30
0.0
 10
1.7882453416
 20
3.5901158767
 30
0.0
 10
1.7882453416
 20
3.5803018981
 30
0.0
  0
SPLINE
  5
2BA
100
AcDbEntity
  8
0
100
AcDbSpline
 62
7
  6
CONTINUOUS
 70
0
 71
3
 72
15
 73
11
 74
0
 42
0.0000001
 43
0.0000001
 44
0.0000000001
 40
0.0
 40
0.0
 40
0.0
 40
0.0
 40
0.1249649969
 40
0.2500493632
 40
0.3125937112
 40
0.375110593
 40
0.5001108274
 40
0.625127114
 40
0.7501187377
 40
1.0
 40
1.0
 40
1.0
 40
1.0
 10
2.3119953416
 20
3.5803018981
 30
0.0
 10
2.3119953416
 20
3.5901159613
 30
0.0
 10
2.3112383079
 20
3.6097604563
 30
0.0
 10
2.3084945066
 20
3.6341777383
 30
0.0
 10
2.3052719281
 20
3.6535602119
 30
0.0
 10
2.3013832963
 20
3.672813298
 30
0.0
 10
2.2953433693
 20
3.6966211239
 30
0.0
 10
2.2864300683
 20
3.7247068369
 30
0.0
 10
2.2726084415
 20
3.7614662617
 30
0.0
 10
2.2603416973
 20
3.78827684
 30
0.0
 10
2.2515654438
 20
3.805829347
 30
0.0
  0
SPLINE
  5
2BB
100
AcDbEntity
  8
0
100
AcDbSpline
 62
7
  6
CONTINUOUS
 70
0
 71
3
 72
18
 73
14
 74
0
 42
0.0000001
 43
0.0000001
 44
0.0000000001
 40
0.0
 40
0.0
 40
0.0
 40
0.0
 40
0.1399287006
 40
0.2757462579
 40
0.4070414278
 40
0.4709449525
 40
0.5336572558
 40
0.6555241042
 40
0.7148355788
 40
0.7731913959
 40
0.8307261247
 40
0.8875941707
 40
1.0
 40
1.0
 40
1.0
 40
1.0
 10
2.2515654438
 20
3.805829347
 30
0.0
 10
2.255894123
 20
3.8101580261
 30
0.0
 10
2.2642451121
 20
3.8188712024
 30
0.0
 10
2.2758730449
 20
3.8323704816
 30
0.0
 10
2.2846001792
 20
3.8439443584
 30
0.0
 10
2.2908448483
 20
3.8533460437
 30
0.0
 10
2.2964599461
 20
3.862656828
 30
0.0
 10
2.3013173405
 20
3.872183565
 30
0.0
 10
2.3052496415
 20
3.8819031034
 30
0.0
 10
2.307673686
 20
3.8891801767
 30
0.0
 10
2.3095831427
 20
3.8964995557
 30
0.0
 10
2.3114184921
 20
3.9062560075
 30
0.0
 10
2.3119953416
 20
3.9136754802
 30
0.0
 10
2.3119953416
 20
3.9185930714
 30
0.0
  0
SPLINE
  5
2BC
100
AcDbEntity
  8
0
100
AcDbSpline
 62
7
  6
CONTINUOUS
 70
0
 71
3
 72
21
 73
17
 74
0
 42
0.0000001
 43
0.0000001
 44
0.0000000001
 40
0.0
 40
0.0
 40
0.0
 40
0.0
 40
0.1283573461
 40
0.1915367313
 40
0.2540930442
 40
0.3161013256
 40
0.3776635895
 40
0.4389114898
 40
0.4999999972
 40
0.5610885034
 40
0.6223364017
 40
0.6838986646
 40
0.7459069448
 40
0.8084632581
 40
0.8716426471
 40
1.0
 40
1.0
 40
1.0
 40
1.0
 10
3.6679300026
 20
4.6365738853
 30
0.0
 10
3.6565657329
 20
4.6413992935
 30
0.0
 10
3.639344858
 20
4.6480169106
 30
0.0
 10
3.6160015542
 20
4.6552804551
 30
0.0
 10
3.5985145204
 20
4.6598185236
 30
0.0
 10
3.5809692776
 20
4.6634209383
 30
0.0
 10
3.5633767609
 20
4.6660414649
 30
0.0
 10
3.545748728
 20
4.6676255589
 30
0.0
 10
3.5281029854
 20
4.6681517522
 30
0.0
 10
3.5104572428
 20
4.6676255613
 30
0.0
 10
3.4928292106
 20
4.6660414627
 30
0.0
 10
3.4752366943
 20
4.6634209372
 30
0.0
 10
3.4576914511
 20
4.6598185251
 30
0.0
 10
3.4402044175
 20
4.6552804547
 30
0.0
 10
3.4168611129
 20
4.6480169095
 30
0.0
 10
3.3996402363
 20
4.6413992937
 30
0.0
 10
3.388275966
 20
4.6365738853
 30
0.0
  0
SPLINE
  5
2BD
100
AcDbEntity
  8
0
100
AcDbSpline
 62
7
  6
CONTINUOUS
 70
0
 71
3
 72
16
 73
12
 74
0
 42
0.0000001
 43
0.0000001
 44
0.0000000001
 40
0.0
 40
0.0
 40
0.0
 40
0.0
 40
0.0414928635
 40
0.0864896839
 40
0.1867275723
 40
0.2999956745
 40
0.425002408
 40
0.5598828694
 40
0.7025611205
 40
0.8503149695
 40
1.0
 40
1.0
 40
1.0
 40
1.0
 10
3.388275966
 20
4.6365738853
 30
0.0
 10
3.3875785258
 20
4.6362777436
 30
0.0
 10
3.3860978057
 20
4.6357228896
 30
0.0
 10
3.3828273072
 20
4.6347509033
 30
0.0
 10
3.3781885518
 20
4.6338232835
 30
0.0
 10
3.3720349912
 20
4.6331711362
 30
0.0
 10
3.3652182926
 20
4.6329665739
 30
0.0
 10
3.3578667275
 20
4.6332056791
 30
0.0
 10
3.3501267439
 20
4.6338927804
 30
0.0
 10
3.3421638975
 20
4.6350038066
 30
0.0
 10
3.3368232083
 20
4.6360062148
 30
0.0
 10
3.3341493783
 20
4.6365738853
 30
0.0
  0
SPLINE
  5
2BE
100
AcDbEntity
  8
0
100
AcDbSpline
 62
7
  6
CONTINUOUS
 70
0
 71
3
 72
21
 73
17
 74
0
 42
0.0000001
 43
0.0000001
 44
0.0000000001
 40
0.0
 40
0.0
 40
0.0
 40
0.0
 40
0.1249829184
 40
0.187483904
 40
0.2499875878
 40
0.3124911231
 40
0.3749920801
 40
0.4374943675
 40
0.4999999968
 40
0.562505625
 40
0.6250079099
 40
0.6875088659
 40
0.7500124009
 40
0.8125160845
 40
0.8750170736
 40
1.0
 40
1.0
 40
1.0
 40
1.0
 10
3.3341493783
 20
4.6365738853
 30
0.0
 10
3.3111710295
 20
4.6414523295
 30
0.0
 10
3.2765489213
 20
4.6480876731
 30
0.0
 10
3.2301178316
 20
4.6553053062
 30
0.0
 10
3.1951639691
 20
4.659836343
 30
0.0
 10
3.160101426
 20
4.6634319662
 30
0.0
 10
3.1249518379
 20
4.6660466502
 30
0.0
 10
3.0897397925
 20
4.6676266549
 30
0.0
 10
3.0544953437
 20
4.6681514375
 30
0.0
 10
3.0192508953
 20
4.6676266573
 30
0.0
 10
2.984038851
 20
4.666046648
 30
0.0
 10
2.9488892636
 20
4.6634319651
 30
0.0
 10
2.9138267204
 20
4.6598363446
 30
0.0
 10
2.8788728576
 20
4.6553053059
 30
0.0
 10
2.8324417658
 20
4.6480876719
 30
0.0
 10
2.7978196552
 20
4.6414523298
 30
0.0
 10
2.774841305
 20
4.6365738853
 30
0.0
  0
SPLINE
  5
2BF
100
AcDbEntity
  8
0
100
AcDbSpline
 62
7
  6
CONTINUOUS
 70
0
 71
3
 72
16
 73
12
 74
0
 42
0.0000001
 43
0.0000001
 44
0.0000000001
 40
0.0
 40
0.0
 40
0.0
 40
0.0
 40
0.1496857223
 40
0.2974411564
 40
0.4401210749
 40
0.5750017064
 40
0.700007665
 40
0.8132746582
 40
0.9135110686
 40
0.9585073483
 40
1.0
 40
1.0
 40
1.0
 40
1.0
 10
2.774841305
 20
4.6365738853
 30
0.0
 10
2.7721674627
 20
4.6360062122
 30
0.0
 10
2.7668267334
 20
4.6350037926
 30
0.0
 10
2.7588638172
 20
4.6338927471
 30
0.0
 10
2.751123772
 20
4.633205627
 30
0.0
 10
2.7437721848
 20
4.6329665706
 30
0.0
 10
2.7369555205
 20
4.6331711899
 30
0.0
 10
2.7308020206
 20
4.6338233159
 30
0.0
 10
2.7261633199
 20
4.6347509194
 30
0.0
 10
2.7228928606
 20
4.6357228948
 30
0.0
 10
2.7214121538
 20
4.6362777451
 30
0.0
 10
2.7207147172
 20
4.6365738853
 30
0.0
  0
SPLINE
  5
2C0
100
AcDbEntity
  8
0
100
AcDbSpline
 62
7
  6
CONTINUOUS
 70
0
 71
3
 72
21
 73
17
 74
0
 42
0.0000001
 43
0.0000001
 44
0.0000000001
 40
0.0
 40
0.0
 40
0.0
 40
0.0
 40
0.1283573461
 40
0.1915367313
 40
0.2540930442
 40
0.3161013256
 40
0.3776635895
 40
0.4389114898
 40
0.4999999972
 40
0.5610885034
 40
0.6223364017
 40
0.6838986646
 40
0.7459069448
 40
0.8084632581
 40
0.8716426471
 40
1.0
 40
1.0
 40
1.0
 40
1.0
 10
2.7207147172
 20
4.6365738853
 30
0.0
 10
2.7093504475
 20
4.6413992935
 30
0.0
 10
2.6921295726
 20
4.6480169106
 30
0.0
 10
2.6687862688
 20
4.6552804551
 30
0.0
 10
2.651299235
 20
4.6598185236
 30
0.0
 10
2.6337539922
 20
4.6634209383
 30
0.0
 10
2.6161614755
 20
4.6660414649
 30
0.0
 10
2.5985334426
 20
4.6676255589
 30
0.0
 10
2.5808877
 20
4.6681517522
 30
0.0
 10
2.5632419574
 20
4.6676255613
 30
0.0
 10
2.5456139252
 20
4.6660414627
 30
0.0
 10
2.5280214089
 20
4.6634209372
 30
0.0
 10
2.5104761658
 20
4.6598185251
 30
0.0
 10
2.4929891321
 20
4.6552804547
 30
0.0
 10
2.4696458275
 20
4.6480169095
 30
0.0
 10
2.452424951
 20
4.6413992937
 30
0.0
 10
2.4410606806
 20
4.6365738853
 30
0.0
  0
SPLINE
  5
2C1
100
AcDbEntity
  8
0
100
AcDbSpline
 62
7
  6
CONTINUOUS
 70
0
 71
3
 72
12
 73
8
 74
0
 42
0.0000001
 43
0.0000001
 44
0.0000000001
 40
0.0
 40
0.0
 40
0.0
 40
0.0
 40
0.071526581
 40
0.1578385395
 40
0.3761860008
 40
0.65671377
 40
1.0
 40
1.0
 40
1.0
 40
1.0
 10
2.5438482431
 20
4.2225334095
 30
0.0
 10
2.5439778766
 20
4.2226073872
 30
0.0
 10
2.5442746635
 20
4.2227517822
 30
0.0
 10
2.5450060813
 20
4.223038025
 30
0.0
 10
2.5461796583
 20
4.2233822258
 30
0.0
 10
2.547892886
 20
4.2237749615
 30
0.0
 10
2.5491728319
 20
4.2240141913
 30
0.0
 10
2.5498785968
 20
4.2241368565
 30
0.0
  0
SPLINE
  5
2C2
100
AcDbEntity
  8
0
100
AcDbSpline
 62
7
  6
CONTINUOUS
 70
0
 71
3
 72
19
 73
15
 74
0
 42
0.0000001
 43
0.0000001
 44
0.0000000001
 40
0.0
 40
0.0
 40
0.0
 40
0.0
 40
0.0097693078
 40
0.021097091
 40
0.0484165886
 40
0.0818830849
 40
0.1213754078
 40
0.1667671402
 40
0.2179283241
 40
0.3368482872
 40
0.4764980597
 40
0.6350495783
 40
0.8103235393
 40
1.0
 40
1.0
 40
1.0
 40
1.0
 10
2.5498785968
 20
4.2241368565
 30
0.0
 10
2.5507420061
 20
4.2242869211
 30
0.0
 10
2.5526116927
 20
4.224581547
 30
0.0
 10
2.5569155774
 20
4.2251661048
 30
0.0
 10
2.5633464076
 20
4.2258753169
 30
0.0
 10
2.5723053227
 20
4.2266879548
 30
0.0
 10
2.5828908353
 20
4.227503396
 30
0.0
 10
2.5950674161
 20
4.2283215063
 30
0.0
 10
2.6143621747
 20
4.2294728349
 30
0.0
 10
2.6421112748
 20
4.2308808485
 30
0.0
 10
2.6794937927
 20
4.232508171
 30
0.0
 10
2.7219355768
 20
4.2341392909
 30
0.0
 10
2.7688677449
 20
4.2357750922
 30
0.0
 10
2.8015885513
 20
4.236830195
 30
0.0
 10
2.8185950735
 20
4.2373633392
 30
0.0
  0
SPLINE
  5
2C3
100
AcDbEntity
  8
0
100
AcDbSpline
 62
7
  6
CONTINUOUS
 70
0
 71
3
 72
40
 73
36
 74
0
 42
0.0000001
 43
0.0000001
 44
0.0000000001
 40
0.0
 40
0.0
 40
0.0
 40
0.0
 40
0.0800799009
 40
0.1640197604
 40
0.2504364823
 40
0.3379193513
 40
0.4250314326
 40
0.5103472141
 40
0.5924673061
 40
0.6700481027
 40
0.7418158535
 40
0.7751488928
 40
0.8066008027
 40
0.8360371843
 40
0.8633353413
 40
0.8883916558
 40
0.9111044293
 40
0.9313732516
 40
0.9491174995
 40
0.9570233022
 40
0.9642746466
 40
0.9708639892
 40
0.9767839451
 40
0.9820275143
 40
0.9865907681
 40
0.9904728524
 40
0.9936742579
 40
0.9950206473
 40
0.9961984558
 40
0.9972091402
 40
0.9980552307
 40
0.9987413405
 40
0.9992765707
 40
0.9996807983
 40
1.0
 40
1.0
 40
1.0
 40
1.0
 10
2.8185950735
 20
4.2373633392
 30
0.0
 10
2.8385605662
 20
4.2379892453
 30
0.0
 10
2.8794552707
 20
4.2392280496
 30
0.0
 10
2.9418985808
 20
4.2410339601
 30
0.0
 10
3.0061892167
 20
4.2428409744
 30
0.0
 10
3.0712714369
 20
4.2446482016
 30
0.0
 10
3.136078932
 20
4.246455411
 30
0.0
 10
3.1995482179
 20
4.2482619436
 30
0.0
 10
3.2606390496
 20
4.2500672595
 30
0.0
 10
3.3183489439
 20
4.2518706382
 30
0.0
 10
3.363891625
 20
4.2534063213
 30
0.0
 10
3.3979310123
 20
4.2546477567
 30
0.0
 10
3.4214162804
 20
4.2555551699
 30
0.0
 10
3.443395028
 20
4.2564619636
 30
0.0
 10
3.4637770184
 20
4.2573682058
 30
0.0
 10
3.4824801091
 20
4.2582735729
 30
0.0
 10
3.4994276224
 20
4.2591777117
 30
0.0
 10
3.5145483636
 20
4.2600810085
 30
0.0
 10
3.5259762266
 20
4.2608590262
 30
0.0
 10
3.5341590608
 20
4.2614889619
 30
0.0
 10
3.5395646114
 20
4.2619424809
 30
0.0
 10
3.5444729788
 20
4.2623952291
 30
0.0
 10
3.548878288
 20
4.262846983
 30
0.0
 10
3.5527753791
 20
4.2632975343
 30
0.0
 10
3.5561605577
 20
4.2637465601
 30
0.0
 10
3.5590313308
 20
4.2641940655
 30
0.0
 10
3.5610983639
 20
4.2645838273
 30
0.0
 10
3.5624905355
 20
4.2649034972
 30
0.0
 10
3.5633431663
 20
4.2651289826
 30
0.0
 10
3.5640662405
 20
4.2653540477
 30
0.0
 10
3.564659916
 20
4.2655786961
 30
0.0
 10
3.5651256849
 20
4.2658026384
 30
0.0
 10
3.5654648857
 20
4.2660276536
 30
0.0
 10
3.5656854549
 20
4.2662579088
 30
0.0
 10
3.5657453416
 20
4.2664385152
 30
0.0
 10
3.5657453416
 20
4.2665181375
 30
0.0
  0
SPLINE
  5
2C4
100
AcDbEntity
  8
0
100
AcDbSpline
 62
7
  6
CONTINUOUS
 70
0
 71
3
 72
9
 73
5
 74
0
 42
0.0000001
 43
0.0000001
 44
0.0000000001
 40
0.0
 40
0.0
 40
0.0
 40
0.0
 40
0.4954539125
 40
1.0
 40
1.0
 40
1.0
 40
1.0
 10
2.3108821384
 20
3.9332866079
 30
0.0
 10
2.3103532903
 20
3.936800463
 30
0.0
 10
2.3089168799
 20
3.9438412377
 30
0.0
 10
2.3068049911
 20
3.9507074493
 30
0.0
 10
2.3055873862
 20
3.9541150856
 30
0.0
  0
SPLINE
  5
2C5
100
AcDbEntity
  8
0
100
AcDbSpline
 62
7
  6
CONTINUOUS
 70
0
 71
3
 72
9
 73
5
 74
0
 42
0.0000001
 43
0.0000001
 44
0.0000000001
 40
0.0
 40
0.0
 40
0.0
 40
0.0
 40
0.2443506544
 40
1.0
 40
1.0
 40
1.0
 40
1.0
 10
2.3055873862
 20
3.9541150856
 30
0.0
 10
2.3048423289
 20
3.956200232
 30
0.0
 10
2.3015592693
 20
3.9646498192
 30
0.0
 10
2.2974118309
 20
3.9727505865
 30
0.0
 10
2.2939414385
 20
3.9786535816
 30
0.0
  0
SPLINE
  5
2C6
100
AcDbEntity
  8
0
100
AcDbSpline
 62
7
  6
CONTINUOUS
 70
0
 71
3
 72
11
 73
7
 74
0
 42
0.0000001
 43
0.0000001
 44
0.0000000001
 40
0.0
 40
0.0
 40
0.0
 40
0.0
 40
0.2377289774
 40
0.483935734
 40
0.7382725393
 40
1.0
 40
1.0
 40
1.0
 40
1.0
 10
2.2939414385
 20
3.9786535816
 30
0.0
 10
2.291218763
 20
3.9832847409
 30
0.0
 10
2.2852422944
 20
3.9924610697
 30
0.0
 10
2.2751119823
 20
4.0057315667
 30
0.0
 10
2.2638263218
 20
4.0187575465
 30
0.0
 10
2.2557476442
 20
4.0271745955
 30
0.0
 10
2.2515654438
 20
4.0313567959
 30
0.0
  0
SPLINE
  5
2C7
100
AcDbEntity
  8
0
100
AcDbSpline
 62
7
  6
CONTINUOUS
 70
0
 71
3
 72
28
 73
24
 74
0
 42
0.0000001
 43
0.0000001
 44
0.0000000001
 40
0.0
 40
0.0
 40
0.0
 40
0.0
 40
0.0017063832
 40
0.003901155
 40
0.0065981035
 40
0.009803903
 40
0.0177533106
 40
0.0277608415
 40
0.0398258957
 40
0.0539361374
 40
0.0700651558
 40
0.0881843464
 40
0.108264468
 40
0.1302758826
 40
0.179963802
 40
0.2369101971
 40
0.3007253772
 40
0.3710091871
 40
0.4472844588
 40
0.5290356615
 40
0.6157376602
 40
0.8016221561
 40
1.0
 40
1.0
 40
1.0
 40
1.0
 10
2.5438684393
 20
4.3118977898
 30
0.0
 10
2.5440676047
 20
4.3120103389
 30
0.0
 10
2.5445471464
 20
4.3122238982
 30
0.0
 10
2.5453857585
 20
4.3125065787
 30
0.0
 10
2.5464343872
 20
4.312789752
 30
0.0
 10
2.5482465496
 20
4.3131972446
 30
0.0
 10
2.5510424832
 20
4.3136869959
 30
0.0
 10
2.5550286563
 20
4.3142460663
 30
0.0
 10
2.5598471748
 20
4.3148084518
 30
0.0
 10
2.5654904798
 20
4.3153751211
 30
0.0
 10
2.5719486793
 20
4.3159452107
 30
0.0
 10
2.5792096948
 20
4.3165185461
 30
0.0
 10
2.5872613091
 20
4.3170949885
 30
0.0
 10
2.5995394054
 20
4.3179004436
 30
0.0
 10
2.6167575518
 20
4.3189002128
 30
0.0
 10
2.6395793893
 20
4.320063679
 30
0.0
 10
2.6651658209
 20
4.3212225303
 30
0.0
 10
2.6933466817
 20
4.3223634519
 30
0.0
 10
2.7239341636
 20
4.3234976176
 30
0.0
 10
2.7567238261
 20
4.3246408903
 30
0.0
 10
2.8042013603
 20
4.3262370886
 30
0.0
 10
2.8673098721
 20
4.3282326791
 30
0.0
 10
2.918805753
 20
4.3296818318
 30
0.0
 10
2.9453909488
 20
4.330424452
 30
0.0
  0
LINE
  5
2C8
100
AcDbEntity
  8
0
100
AcDbLine
 62
7
  6
CONTINUOUS
 10
2.9453909488
 20
4.330424452
 11
2.9489893715
 21
4.3305249351
  0
LINE
  5
2C9
100
AcDbEntity
  8
0
100
AcDbLine
 62
7
  6
CONTINUOUS
 10
2.9489893715
 20
4.3305249351
 11
3.054671022
 21
4.3335051502
  0
LINE
  5
2CA
100
AcDbEntity
  8
0
100
AcDbLine
 62
7
  6
CONTINUOUS
 10
3.054671022
 20
4.3335051502
 11
3.0711799198
 21
4.3339744015
  0
LINE
  5
2CB
100
AcDbEntity
  8
0
100
AcDbLine
 62
7
  6
CONTINUOUS
 10
3.0711799198
 20
4.3339744015
 11
3.1525436405
 21
4.3362523654
  0
LINE
  5
2CC
100
AcDbEntity
  8
0
100
AcDbLine
 62
7
  6
CONTINUOUS
 10
3.1525436405
 20
4.3362523654
 11
3.1639895467
 21
4.3365701061
  0
SPLINE
  5
2CD
100
AcDbEntity
  8
0
100
AcDbSpline
 62
7
  6
CONTINUOUS
 70
0
 71
3
 72
20
 73
16
 74
0
 42
0.0000001
 43
0.0000001
 44
0.0000000001
 40
0.0
 40
0.0
 40
0.0
 40
0.0
 40
0.1748664929
 40
0.3410765191
 40
0.419958758
 40
0.4955155736
 40
0.6352596439
 40
0.6987929957
 40
0.75767972
 40
0.8116626443
 40
0.8604982853
 40
0.9039446693
 40
0.9417927962
 40
0.9738678528
 40
1.0
 40
1.0
 40
1.0
 40
1.0
 10
3.1639895467
 20
4.3365701061
 30
0.0
 10
3.1864526584
 20
4.3371946293
 30
0.0
 10
3.2302665917
 20
4.3384247248
 30
0.0
 10
3.2842086738
 20
4.3401052786
 30
0.0
 10
3.3253925641
 20
4.3414569506
 30
0.0
 10
3.3631762408
 20
4.3427251679
 30
0.0
 10
3.398987095
 20
4.3439736771
 30
0.0
 10
3.4326516347
 20
4.3452917744
 30
0.0
 10
3.4552997416
 20
4.3462721947
 30
0.0
 10
3.4760566292
 20
4.3472634317
 30
0.0
 10
3.4948268931
 20
4.3482533103
 30
0.0
 10
3.5115213873
 20
4.3492274047
 30
0.0
 10
3.5260592848
 20
4.3501813016
 30
0.0
 10
3.5383674434
 20
4.3511226713
 30
0.0
 10
3.5458162789
 20
4.3518144206
 30
0.0
 10
3.5491548562
 20
4.3521768981
 30
0.0
  0
SPLINE
  5
2CE
100
AcDbEntity
  8
0
100
AcDbSpline
 62
7
  6
CONTINUOUS
 70
0
 71
3
 72
15
 73
11
 74
0
 42
0.0000001
 43
0.0000001
 44
0.0000000001
 40
0.0
 40
0.0
 40
0.0
 40
0.0
 40
0.1153901808
 40
0.232127364
 40
0.3511871366
 40
0.4733402028
 40
0.5991546261
 40
0.7288877659
 40
0.8625347337
 40
1.0
 40
1.0
 40
1.0
 40
1.0
 10
2.3119953416
 20
3.2420107247
 30
0.0
 10
2.3119953416
 20
3.2459704877
 30
0.0
 10
2.3114974881
 20
3.2539440862
 30
0.0
 10
2.3093246914
 20
3.2658233642
 30
0.0
 10
2.3057852475
 20
3.2776108601
 30
0.0
 10
2.3009392147
 20
3.2892572342
 30
0.0
 10
2.2949071118
 20
3.3007459074
 30
0.0
 10
2.2878039445
 20
3.3120693745
 30
0.0
 10
2.2797400387
 20
3.3232234202
 30
0.0
 10
2.2738705934
 20
3.3304481222
 30
0.0
 10
2.2708102238
 20
3.3340379745
 30
0.0
  0
SPLINE
  5
2CF
100
AcDbEntity
  8
0
100
AcDbSpline
 62
7
  6
CONTINUOUS
 70
0
 71
3
 72
9
 73
5
 74
0
 42
0.0000001
 43
0.0000001
 44
0.0000000001
 40
0.0
 40
0.0
 40
0.0
 40
0.0
 40
0.2462546747
 40
1.0
 40
1.0
 40
1.0
 40
1.0
 10
2.2689393166
 20
3.336211554
 30
0.0
 10
2.2675702459
 20
3.3377870873
 30
0.0
 10
2.2619458819
 20
3.3441287083
 30
0.0
 10
2.2560829835
 20
3.3502569095
 30
0.0
 10
2.2515654438
 20
3.3547744492
 30
0.0
  0
SPLINE
  5
2D0
100
AcDbEntity
  8
0
100
AcDbSpline
 62
7
  6
CONTINUOUS
 70
0
 71
3
 72
10
 73
6
 74
0
 42
0.0000001
 43
0.0000001
 44
0.0000000001
 40
0.0
 40
0.0
 40
0.0
 40
0.0
 40
0.2463105482
 40
0.4943353996
 40
1.0
 40
1.0
 40
1.0
 40
1.0
 10
1.7882453416
 20
3.2420107247
 30
0.0
 10
1.7882453416
 20
3.2390456603
 30
0.0
 10
1.7885234348
 20
3.2330909027
 30
0.0
 10
1.7901632496
 20
3.2211541142
 30
0.0
 10
1.7925661645
 20
3.2123494392
 30
0.0
 10
1.7946081903
 20
3.2066150282
 30
0.0
  0
SPLINE
  5
2D1
100
AcDbEntity
  8
0
100
AcDbSpline
 62
7
  6
CONTINUOUS
 70
0
 71
3
 72
9
 73
5
 74
0
 42
0.0000001
 43
0.0000001
 44
0.0000000001
 40
0.0
 40
0.0
 40
0.0
 40
0.0
 40
0.2442364076
 40
1.0
 40
1.0
 40
1.0
 40
1.0
 10
1.7946081903
 20
3.2066150282
 30
0.0
 10
1.7953654664
 20
3.2044884474
 30
0.0
 10
1.7987097674
 20
3.1958684142
 30
0.0
 10
1.8029531047
 20
3.1876111525
 30
0.0
 10
1.8065072733
 20
3.1815976941
 30
0.0
  0
SPLINE
  5
2D2
100
AcDbEntity
  8
0
100
AcDbSpline
 62
7
  6
CONTINUOUS
 70
0
 71
3
 72
11
 73
7
 74
0
 42
0.0000001
 43
0.0000001
 44
0.0000000001
 40
0.0
 40
0.0
 40
0.0
 40
0.0
 40
0.2378325417
 40
0.4840701788
 40
0.7383666002
 40
1.0
 40
1.0
 40
1.0
 40
1.0
 10
1.8065072733
 20
3.1815976941
 30
0.0
 10
1.8092253969
 20
3.176998778
 30
0.0
 10
1.8151837692
 20
3.1678863048
 30
0.0
 10
1.8252681548
 20
3.1547050952
 30
0.0
 10
1.8364908549
 20
3.1417654389
 30
0.0
 10
1.8445197672
 20
3.1334024725
 30
0.0
 10
1.8486752394
 20
3.1292470003
 30
0.0
  0
SPLINE
  5
2D3
100
AcDbEntity
  8
0
100
AcDbSpline
 62
7
  6
CONTINUOUS
 70
0
 71
3
 72
18
 73
14
 74
0
 42
0.0000001
 43
0.0000001
 44
0.0000000001
 40
0.0
 40
0.0
 40
0.0
 40
0.0
 40
0.1399254361
 40
0.2757383899
 40
0.4070344129
 40
0.4709405736
 40
0.5336554414
 40
0.6555262284
 40
0.7148384753
 40
0.7731940401
 40
0.830728016
 40
0.8875951935
 40
1.0
 40
1.0
 40
1.0
 40
1.0
 10
1.8486752394
 20
3.3547744492
 30
0.0
 10
1.8443466611
 20
3.3504458709
 30
0.0
 10
1.8359958729
 20
3.3417329792
 30
0.0
 10
1.8243681225
 20
3.3282339454
 30
0.0
 10
1.8156410511
 20
3.3166600804
 30
0.0
 10
1.8093962692
 20
3.3072581517
 30
0.0
 10
1.8037810096
 20
3.2979469968
 30
0.0
 10
1.7989234671
 20
3.2884199852
 30
0.0
 10
1.7949909063
 20
3.2787003442
 30
0.0
 10
1.7925666957
 20
3.2714233342
 30
0.0
 10
1.7906572724
 20
3.2641040276
 30
0.0
 10
1.788822057
 20
3.2543476654
 30
0.0
 10
1.7882453416
 20
3.2469282714
 30
0.0
 10
1.7882453416
 20
3.2420107247
 30
0.0
  0
SPLINE
  5
2D4
100
AcDbEntity
  8
0
100
AcDbSpline
 62
7
  6
CONTINUOUS
 70
0
 71
3
 72
53
 73
49
 74
0
 42
0.0000001
 43
0.0000001
 44
0.0000000001
 40
0.0
 40
0.0
 40
0.0
 40
0.0
 40
0.0008622894
 40
0.0019819215
 40
0.0033661611
 40
0.0050183614
 40
0.006940106
 40
0.009132101
 40
0.014327251
 40
0.0206027537
 40
0.0279550826
 40
0.0363783312
 40
0.0458519399
 40
0.0563465092
 40
0.0678322898
 40
0.0936577367
 40
0.1230888726
 40
0.1558868136
 40
0.1918054544
 40
0.2305159194
 40
0.2716350245
 40
0.3147797789
 40
0.3595711491
 40
0.4056298196
 40
0.4999068481
 40
0.5941940315
 40
0.6402641964
 40
0.6850629811
 40
0.7282119218
 40
0.7693360189
 40
0.8080588002
 40
0.8440029017
 40
0.8768196115
 40
0.9062575823
 40
0.9320866066
 40
0.9435761563
 40
0.9540777404
 40
0.9635630564
 40
0.9720040293
 40
0.9793740294
 40
0.9856606701
 40
0.9908619978
 40
0.9930557708
 40
0.9949787118
 40
0.9966317446
 40
0.9980166681
 40
0.9991369885
 40
1.0
 40
1.0
 40
1.0
 40
1.0
 10
3.5118215695
 20
4.2964620322
 30
0.0
 10
3.5115931526
 20
4.2963309686
 30
0.0
 10
3.5110386019
 20
4.2960824662
 30
0.0
 10
3.5100642862
 20
4.2957531286
 30
0.0
 10
3.5088382752
 20
4.2954217534
 30
0.0
 10
3.5073608034
 20
4.2950888921
 30
0.0
 10
3.5056315689
 20
4.2947549862
 30
0.0
 10
3.5028280789
 20
4.2942816513
 30
0.0
 10
3.498694945
 20
4.2937035596
 30
0.0
 10
3.4929845932
 20
4.2930388993
 30
0.0
 10
3.4862829145
 20
4.2923721185
 30
0.0
 10
3.4786005296
 20
4.2917041717
 30
0.0
 10
3.4699553823
 20
4.291035248
 30
0.0
 10
3.4603725063
 20
4.2903652831
 30
0.0
 10
3.4458020193
 20
4.2894342886
 30
0.0
 10
3.4254506082
 20
4.2882870929
 30
0.0
 10
3.3985912839
 20
4.2869533379
 30
0.0
 10
3.3686461952
 20
4.2856165917
 30
0.0
 10
3.3358646387
 20
4.2842793281
 30
0.0
 10
3.3005398502
 20
4.2829411655
 30
0.0
 10
3.2630067516
 20
4.2816014386
 30
0.0
 10
3.2236154356
 20
4.280260532
 30
0.0
 10
3.182714743
 20
4.2789187959
 30
0.0
 10
3.1262047495
 20
4.2771158636
 30
0.0
 10
3.0545842112
 20
4.2748932655
 30
0.0
 10
2.9829601562
 20
4.2726708196
 30
0.0
 10
2.9264412756
 20
4.2708680868
 30
0.0
 10
2.8855335304
 20
4.2695262082
 30
0.0
 10
2.8461371513
 20
4.2681850862
 30
0.0
 10
2.8085974911
 20
4.2668451572
 30
0.0
 10
2.7732596407
 20
4.265506768
 30
0.0
 10
2.7404607825
 20
4.2641699563
 30
0.0
 10
2.7105000773
 20
4.2628333164
 30
0.0
 10
2.6836318428
 20
4.2614992804
 30
0.0
 10
2.6632761123
 20
4.2603517616
 30
0.0
 10
2.648701236
 20
4.2594206865
 30
0.0
 10
2.6391114805
 20
4.2587506411
 30
0.0
 10
2.6304551808
 20
4.2580815871
 30
0.0
 10
2.6227583409
 20
4.2574138551
 30
0.0
 10
2.6160423392
 20
4.2567474839
 30
0.0
 10
2.6103212305
 20
4.2560828009
 30
0.0
 10
2.6061822175
 20
4.2555046234
 30
0.0
 10
2.6033759082
 20
4.2550311934
 30
0.0
 10
2.6016454954
 20
4.254697256
 30
0.0
 10
2.6001671834
 20
4.2543643505
 30
0.0
 10
2.5989404924
 20
4.2540329165
 30
0.0
 10
2.5979655178
 20
4.2537035256
 30
0.0
 10
2.5974105147
 20
4.2534550005
 30
0.0
 10
2.5971818371
 20
4.2533239484
 30
0.0
  0
SPLINE
  5
2D5
100
AcDbEntity
  8
0
100
AcDbSpline
 62
7
  6
CONTINUOUS
 70
0
 71
3
 72
11
 73
7
 74
0
 42
0.0000001
 43
0.0000001
 44
0.0000000001
 40
0.0
 40
0.0
 40
0.0
 40
0.0
 40
0.1784673684
 40
0.4038349673
 40
0.677444989
 40
1.0
 40
1.0
 40
1.0
 40
1.0
 10
3.5651527582
 20
4.3273000939
 30
0.0
 10
3.5649816926
 20
4.3272007915
 30
0.0
 10
3.5645753134
 20
4.327009831
 30
0.0
 10
3.5638692462
 20
4.3267533193
 30
0.0
 10
3.5629956111
 20
4.3264951162
 30
0.0
 10
3.5623543243
 20
4.3263353535
 30
0.0
 10
3.5620061851
 20
4.3262541064
 30
0.0
  0
SPLINE
  5
2D6
100
AcDbEntity
  8
0
100
AcDbSpline
 62
7
  6
CONTINUOUS
 70
0
 71
3
 72
58
 73
54
 74
0
 42
0.0000001
 43
0.0000001
 44
0.0000000001
 40
0.0
 40
0.0
 40
0.0
 40
0.0
 40
0.0015995685
 40
0.0034700554
 40
0.0080257675
 40
0.0136634445
 40
0.0203710343
 40
0.0281349454
 40
0.0369409139
 40
0.0467723937
 40
0.0576059238
 40
0.0821784609
 40
0.1104500373
 40
0.1421644371
 40
0.1770423001
 40
0.2147739033
 40
0.2550227396
 40
0.2974342939
 40
0.341627358
 40
0.3872123156
 40
0.4337810008
 40
0.4809205975
 40
0.5282116105
 40
0.5752323809
 40
0.6215659309
 40
0.6667988863
 40
0.7105290414
 40
0.7523689861
 40
0.7919437163
 40
0.8289060663
 40
0.8629209739
 40
0.8936931964
 40
0.9209443247
 40
0.9331742128
 40
0.9444384858
 40
0.9547109554
 40
0.9639668868
 40
0.9721884127
 40
0.9793600386
 40
0.9854667671
 40
0.9881163965
 40
0.9904948447
 40
0.9926017581
 40
0.9944373465
 40
0.9960022948
 40
0.9972981599
 40
0.9983282784
 40
0.9987459547
 40
0.9991007666
 40
0.9993956759
 40
0.999635946
 40
0.9998314003
 40
1.0
 40
1.0
 40
1.0
 40
1.0
 10
3.5620061851
 20
4.3262541064
 30
0.0
 10
3.5614763564
 20
4.3261304573
 30
0.0
 10
3.5603209253
 20
4.3258880391
 30
0.0
 10
3.5576335603
 20
4.3254070543
 30
0.0
 10
3.5535707209
 20
4.3248246763
 30
0.0
 10
3.5478604393
 20
4.3241596729
 30
0.0
 10
3.5410527319
 20
4.3234945795
 30
0.0
 10
3.5331630209
 20
4.322830739
 30
0.0
 10
3.5242072537
 20
4.3221701349
 30
0.0
 10
3.5142046396
 20
4.3215137545
 30
0.0
 10
3.4988449253
 20
4.3206003964
 30
0.0
 10
3.4772153606
 20
4.3194701652
 30
0.0
 10
3.4484859975
 20
4.3181174275
 30
0.0
 10
3.4162484842
 20
4.3167512773
 30
0.0
 10
3.380789138
 20
4.315426335
 30
0.0
 10
3.3424240413
 20
4.3141342106
 30
0.0
 10
3.3014959554
 20
4.3128172865
 30
0.0
 10
3.2583703368
 20
4.3114582522
 30
0.0
 10
3.2134288894
 20
4.3100980299
 30
0.0
 10
3.1670720931
 20
4.30876357
 30
0.0
 10
3.1197123215
 20
4.3074421804
 30
0.0
 10
3.0717719616
 20
4.30612378
 30
0.0
 10
3.0236780304
 20
4.3047960157
 30
0.0
 10
2.975859153
 20
4.3034401169
 30
0.0
 10
2.9287409313
 20
4.3020720054
 30
0.0
 10
2.8827414664
 20
4.300737056
 30
0.0
 10
2.8382699356
 20
4.2994410314
 30
0.0
 10
2.795724266
 20
4.2981285893
 30
0.0
 10
2.7554833478
 20
4.2967663722
 30
0.0
 10
2.7179057658
 20
4.2954009514
 30
0.0
 10
2.6833227341
 20
4.2940768588
 30
0.0
 10
2.6520445081
 20
4.2927747985
 30
0.0
 10
2.6281755984
 20
4.2916444448
 30
0.0
 10
2.6109402491
 20
4.2907187222
 30
0.0
 10
2.5994746817
 20
4.290047624
 30
0.0
 10
2.5890226049
 20
4.2893754284
 30
0.0
 10
2.5796078291
 20
4.2887030781
 30
0.0
 10
2.5712506401
 20
4.2880317029
 30
0.0
 10
2.5639683681
 20
4.2873621432
 30
0.0
 10
2.5585813822
 20
4.2867831967
 30
0.0
 10
2.5548233294
 20
4.2863125406
 30
0.0
 10
2.5524196755
 20
4.2859771527
 30
0.0
 10
2.5502957435
 20
4.2856426517
 30
0.0
 10
2.548452221
 20
4.2853091457
 30
0.0
 10
2.5468892915
 20
4.2849771188
 30
0.0
 10
2.5456074037
 20
4.2846466792
 30
0.0
 10
2.5447187697
 20
4.2843572732
 30
0.0
 10
2.5441537886
 20
4.2841180607
 30
0.0
 10
2.5438306418
 20
4.2839515827
 30
0.0
 10
2.5435768686
 20
4.2837851006
 30
0.0
 10
2.5433916184
 20
4.2836173344
 30
0.0
 10
2.5432741897
 20
4.2834450967
 30
0.0
 10
2.5432453416
 20
4.2833204857
 30
0.0
 10
2.5432453416
 20
4.2832631394
 30
0.0
  0
SPLINE
  5
2D7
100
AcDbEntity
  8
0
100
AcDbSpline
 62
7
  6
CONTINUOUS
 70
0
 71
3
 72
21
 73
17
 74
0
 42
0.0000001
 43
0.0000001
 44
0.0000000001
 40
0.0
 40
0.0
 40
0.0
 40
0.0
 40
0.1283573447
 40
0.1915367292
 40
0.2540930421
 40
0.3161013237
 40
0.3776635878
 40
0.4389114882
 40
0.4999999957
 40
0.5610885018
 40
0.6223364
 40
0.6838986627
 40
0.7459069427
 40
0.808463256
 40
0.8716426457
 40
1.0
 40
1.0
 40
1.0
 40
1.0
 10
2.4410606806
 20
4.4192067427
 30
0.0
 10
2.4524249502
 20
4.4143813346
 30
0.0
 10
2.4696458253
 20
4.4077637183
 30
0.0
 10
2.4929891292
 20
4.4005001749
 30
0.0
 10
2.510476163
 20
4.3959621066
 30
0.0
 10
2.5280214057
 20
4.3923596914
 30
0.0
 10
2.5456139223
 20
4.389739164
 30
0.0
 10
2.5632419553
 20
4.3881550696
 30
0.0
 10
2.5808876978
 20
4.3876288758
 30
0.0
 10
2.5985334404
 20
4.3881550661
 30
0.0
 10
2.6161614726
 20
4.3897391643
 30
0.0
 10
2.633753989
 20
4.3923596891
 30
0.0
 10
2.6512992322
 20
4.3959621007
 30
0.0
 10
2.6687862659
 20
4.4005001713
 30
0.0
 10
2.6921295703
 20
4.4077637177
 30
0.0
 10
2.7093504468
 20
4.4143813342
 30
0.0
 10
2.7207147172
 20
4.4192067427
 30
0.0
  0
SPLINE
  5
2D8
100
AcDbEntity
  8
0
100
AcDbSpline
 62
7
  6
CONTINUOUS
 70
0
 71
3
 72
16
 73
12
 74
0
 42
0.0000001
 43
0.0000001
 44
0.0000000001
 40
0.0
 40
0.0
 40
0.0
 40
0.0
 40
0.041492817
 40
0.0864895285
 40
0.1867271638
 40
0.2999951268
 40
0.4250017722
 40
0.5598822482
 40
0.7025607352
 40
0.8503148399
 40
1.0
 40
1.0
 40
1.0
 40
1.0
 10
2.7207147172
 20
4.4192067427
 30
0.0
 10
2.7214121566
 20
4.419502884
 30
0.0
 10
2.7228928748
 20
4.4200577351
 30
0.0
 10
2.726163369
 20
4.4210297099
 30
0.0
 10
2.7308021182
 20
4.4219573116
 30
0.0
 10
2.7369556689
 20
4.4226094572
 30
0.0
 10
2.7437723618
 20
4.4228140558
 30
0.0
 10
2.7511239313
 20
4.4225749845
 30
0.0
 10
2.7588639241
 20
4.4218878798
 30
0.0
 10
2.7668267788
 20
4.4207768321
 30
0.0
 10
2.7721674728
 20
4.4197744137
 30
0.0
 10
2.774841305
 20
4.4192067427
 30
0.0
  0
SPLINE
  5
2D9
100
AcDbEntity
  8
0
100
AcDbSpline
 62
7
  6
CONTINUOUS
 70
0
 71
3
 72
21
 73
17
 74
0
 42
0.0000001
 43
0.0000001
 44
0.0000000001
 40
0.0
 40
0.0
 40
0.0
 40
0.0
 40
0.1249829181
 40
0.1874839035
 40
0.2499875874
 40
0.3124911226
 40
0.3749920796
 40
0.4374943671
 40
0.4999999964
 40
0.5625056246
 40
0.6250079094
 40
0.6875088655
 40
0.7500124005
 40
0.8125160841
 40
0.8750170733
 40
1.0
 40
1.0
 40
1.0
 40
1.0
 10
2.774841305
 20
4.4192067427
 30
0.0
 10
2.7978196536
 20
4.4143282985
 30
0.0
 10
2.8324417619
 20
4.4076929558
 30
0.0
 10
2.8788728517
 20
4.4004753238
 30
0.0
 10
2.9138267143
 20
4.3959442872
 30
0.0
 10
2.9488892573
 20
4.3923486634
 30
0.0
 10
2.9840388454
 20
4.3897339787
 30
0.0
 10
3.0192508907
 20
4.3881539737
 30
0.0
 10
3.0544953395
 20
4.3876291905
 30
0.0
 10
3.089739788
 20
4.3881539701
 30
0.0
 10
3.1249518323
 20
4.389733979
 30
0.0
 10
3.1601014197
 20
4.3923486612
 30
0.0
 10
3.1951639629
 20
4.3959442812
 30
0.0
 10
3.2301178258
 20
4.4004753201
 30
0.0
 10
3.2765489174
 20
4.4076929552
 30
0.0
 10
3.311171028
 20
4.4143282982
 30
0.0
 10
3.3341493783
 20
4.4192067427
 30
0.0
  0
SPLINE
  5
2DA
100
AcDbEntity
  8
0
100
AcDbSpline
 62
7
  6
CONTINUOUS
 70
0
 71
3
 72
16
 73
12
 74
0
 42
0.0000001
 43
0.0000001
 44
0.0000000001
 40
0.0
 40
0.0
 40
0.0
 40
0.0
 40
0.1496855936
 40
0.2974407732
 40
0.4401204558
 40
0.575001071
 40
0.700007116
 40
0.8132742478
 40
0.9135109123
 40
0.9585073016
 40
1.0
 40
1.0
 40
1.0
 40
1.0
 10
3.3341493783
 20
4.4192067427
 30
0.0
 10
3.3368232184
 20
4.4197744154
 30
0.0
 10
3.3421639429
 20
4.4207768248
 30
0.0
 10
3.3501268509
 20
4.4218878488
 30
0.0
 10
3.3578668868
 20
4.4225749654
 30
0.0
 10
3.3652184697
 20
4.4228140556
 30
0.0
 10
3.3720351396
 20
4.4226094727
 30
0.0
 10
3.3781886493
 20
4.421957345
 30
0.0
 10
3.3828273562
 20
4.4210297234
 30
0.0
 10
3.3860978199
 20
4.4200577365
 30
0.0
 10
3.3875785286
 20
4.4195028832
 30
0.0
 10
3.388275966
 20
4.4192067427
 30
0.0
  0
SPLINE
  5
2DB
100
AcDbEntity
  8
0
100
AcDbSpline
 62
7
  6
CONTINUOUS
 70
0
 71
3
 72
14
 73
10
 74
0
 42
0.0000001
 43
0.0000001
 44
0.0000000001
 40
0.0
 40
0.0
 40
0.0
 40
0.0
 40
0.2564864327
 40
0.3828549688
 40
0.5080384814
 40
0.6321575543
 40
0.75537572
 40
0.8779039809
 40
1.0
 40
1.0
 40
1.0
 40
1.0
 10
3.388275966
 20
4.4192067427
 30
0.0
 10
3.3989083821
 20
4.4146920886
 30
0.0
 10
3.4150085321
 20
4.408464085
 30
0.0
 10
3.4368107311
 20
4.4015061832
 30
0.0
 10
3.4531445654
 20
4.3970720933
 30
0.0
 10
3.4695314462
 20
4.3934449924
 30
0.0
 10
3.4859624444
 20
4.3906628013
 30
0.0
 10
3.5024277453
 20
4.3887668013
 30
0.0
 10
3.5134323852
 20
4.3881173825
 30
0.0
 10
3.5189284894
 20
4.3879466274
 30
0.0
  0
SPLINE
  5
2DC
100
AcDbEntity
  8
0
100
AcDbSpline
 62
7
  6
CONTINUOUS
 70
0
 71
3
 72
11
 73
7
 74
0
 42
0.0000001
 43
0.0000001
 44
0.0000000001
 40
0.0
 40
0.0
 40
0.0
 40
0.0
 40
0.2447508411
 40
0.4924674939
 40
0.7440690297
 40
1.0
 40
1.0
 40
1.0
 40
1.0
 10
3.5556573689
 20
4.3890904379
 30
0.0
 10
3.5651351985
 20
4.3899760279
 30
0.0
 10
3.5841298391
 20
4.3926751694
 30
0.0
 10
3.6123481339
 20
4.3992333576
 30
0.0
 10
3.6403765388
 20
4.4081073518
 30
0.0
 10
3.6587678025
 20
4.4153163603
 30
0.0
 10
3.6679300026
 20
4.4192067427
 30
0.0
  0
SPLINE
  5
2DD
100
AcDbEntity
  8
0
100
AcDbSpline
 62
7
  6
CONTINUOUS
 70
0
 71
3
 72
51
 73
47
 74
0
 42
0.0000001
 43
0.0000001
 44
0.0000000001
 40
0.0
 40
0.0
 40
0.0
 40
0.0
 40
0.0008736153
 40
0.0020011714
 40
0.0033905327
 40
0.005045909
 40
0.0091636322
 40
0.0143666089
 40
0.0206610003
 40
0.0280507496
 40
0.0365382433
 40
0.0461076204
 40
0.0567201853
 40
0.0683355277
 40
0.0944120679
 40
0.1240194011
 40
0.1568940726
 40
0.1927960248
 40
0.2314693022
 40
0.2725757709
 40
0.3157505145
 40
0.3606153035
 40
0.4067407326
 40
0.5010163131
 40
0.5952218759
 40
0.6412764962
 40
0.6860471049
 40
0.7290886764
 40
0.7700346553
 40
0.8085972523
 40
0.8444881527
 40
0.8773748458
 40
0.9068979203
 40
0.9327160121
 40
0.9441602308
 40
0.9545956848
 40
0.963998425
 40
0.9723447445
 40
0.9796167799
 40
0.9858141548
 40
0.990940834
 40
0.9950030142
 40
0.9966384166
 40
0.9980130064
 40
0.9991309802
 40
1.0
 40
1.0
 40
1.0
 40
1.0
 10
2.4029667789
 20
3.8938787703
 30
0.0
 10
2.4030579022
 20
3.8937201046
 30
0.0
 10
2.4032312716
 20
3.8933367772
 30
0.0
 10
2.4034616227
 20
3.8926647234
 30
0.0
 10
2.4036934379
 20
3.8918216768
 30
0.0
 10
2.4040286759
 20
3.8903592322
 30
0.0
 10
2.4044332716
 20
3.8880951559
 30
0.0
 10
2.4048958017
 20
3.8848573355
 30
0.0
 10
2.4053606258
 20
3.8809286781
 30
0.0
 10
2.4058274875
 20
3.876308421
 30
0.0
 10
2.4062949156
 20
3.8709992794
 30
0.0
 10
2.4067626958
 20
3.8650129095
 30
0.0
 10
2.4072312193
 20
3.8583697124
 30
0.0
 10
2.407881795
 20
3.8482736841
 30
0.0
 10
2.4086824491
 20
3.8342010615
 30
0.0
 10
2.4096136285
 20
3.8156766007
 30
0.0
 10
2.4105467537
 20
3.7950920621
 30
0.0
 10
2.4114819452
 20
3.7726070749
 30
0.0
 10
2.4124187509
 20
3.7483967037
 30
0.0
 10
2.4133571177
 20
3.7226621082
 30
0.0
 10
2.4142959361
 20
3.6956299586
 30
0.0
 10
2.4152336411
 20
3.6675459916
 30
0.0
 10
2.4164923442
 20
3.6287641991
 30
0.0
 10
2.4180437521
 20
3.579652516
 30
0.0
 10
2.4195972
 20
3.5305557338
 30
0.0
 10
2.4208586479
 20
3.4918232762
 30
0.0
 10
2.4217973307
 20
3.4638018242
 30
0.0
 10
2.4227353897
 20
3.4368509277
 30
0.0
 10
2.4236724984
 20
3.4112010284
 30
0.0
 10
2.4246081575
 20
3.3870497672
 30
0.0
 10
2.4255418435
 20
3.3645877164
 30
0.0
 10
2.4264736104
 20
3.3440205773
 30
0.0
 10
2.4274035543
 20
3.3255653907
 30
0.0
 10
2.428206764
 20
3.3116006841
 30
0.0
 10
2.428859562
 20
3.3016321286
 30
0.0
 10
2.4293287423
 20
3.2950970835
 30
0.0
 10
2.4297970846
 20
3.2892126354
 30
0.0
 10
2.430264266
 20
3.2839929466
 30
0.0
 10
2.4307304538
 20
3.2794475472
 30
0.0
 10
2.4311944698
 20
3.2755801781
 30
0.0
 10
2.4316561169
 20
3.272390653
 30
0.0
 10
2.4320599457
 20
3.2701587449
 30
0.0
 10
2.4323945462
 20
3.2687155582
 30
0.0
 10
2.4326261432
 20
3.2678820874
 30
0.0
 10
2.4328564343
 20
3.267216422
 30
0.0
 10
2.4330295539
 20
3.2668362744
 30
0.0
 10
2.4331204869
 20
3.2666786096
 30
0.0
  0
SPLINE
  5
2DE
100
AcDbEntity
  8
0
100
AcDbSpline
 62
7
  6
CONTINUOUS
 70
0
 71
3
 72
58
 73
54
 74
0
 42
0.0000001
 43
0.0000001
 44
0.0000000001
 40
0.0
 40
0.0
 40
0.0
 40
0.0
 40
0.0008377518
 40
0.0019461109
 40
0.0033320538
 40
0.0049985964
 40
0.0069470438
 40
0.0091778512
 40
0.0144860915
 40
0.0209200129
 40
0.0284660411
 40
0.0371040834
 40
0.0468134433
 40
0.0575731421
 40
0.0693620052
 40
0.095919117
 40
0.1262242288
 40
0.1600030513
 40
0.1969465184
 40
0.2367003376
 40
0.2789038479
 40
0.3231619424
 40
0.3690584208
 40
0.4161720193
 40
0.5122787648
 40
0.5603777839
 40
0.6079111497
 40
0.6544326765
 40
0.6995118101
 40
0.7427315972
 40
0.78368147
 40
0.8219888257
 40
0.8572962528
 40
0.8892666078
 40
0.9176173003
 40
0.942076693
 40
0.9527730158
 40
0.9624176755
 40
0.9709896266
 40
0.9784680777
 40
0.9848328662
 40
0.9875931337
 40
0.9900712078
 40
0.9922668733
 40
0.9941802315
 40
0.9958119217
 40
0.9971635723
 40
0.9982388289
 40
0.9990460915
 40
0.9993556885
 40
0.9996093313
 40
0.9998177517
 40
1.0
 40
1.0
 40
1.0
 40
1.0
 10
2.3814446547
 20
3.9314013649
 30
0.0
 10
2.3815399382
 20
3.9312294239
 30
0.0
 10
2.3817183419
 20
3.9308069185
 30
0.0
 10
2.381952568
 20
3.9300607261
 30
0.0
 10
2.3821879421
 20
3.9291126089
 30
0.0
 10
2.3824241383
 20
3.9279630021
 30
0.0
 10
2.3826608464
 20
3.9266117042
 30
0.0
 10
2.3829966984
 20
3.9244108304
 30
0.0
 10
2.3834063078
 20
3.9211572919
 30
0.0
 10
2.38387773
 20
3.9166557957
 30
0.0
 10
2.3843517845
 20
3.9113695656
 30
0.0
 10
2.3848279898
 20
3.9053123112
 30
0.0
 10
2.3853055049
 20
3.8984990148
 30
0.0
 10
2.3857838888
 20
3.8909448219
 30
0.0
 10
2.3864487433
 20
3.8794413897
 30
0.0
 10
2.3872662757
 20
3.8633530815
 30
0.0
 10
2.3882158248
 20
3.8421054054
 30
0.0
 10
2.3891671697
 20
3.8184184894
 30
0.0
 10
2.3901201151
 20
3.7925129002
 30
0.0
 10
2.3910744991
 20
3.7646292873
 30
0.0
 10
2.3920293348
 20
3.7350283835
 30
0.0
 10
2.3929846158
 20
3.7039854175
 30
0.0
 10
2.3939403921
 20
3.6717897984
 30
0.0
 10
2.3952233811
 20
3.627432329
 30
0.0
 10
2.3964902496
 20
3.5825573654
 30
0.0
 10
2.3977648011
 20
3.5375840841
 30
0.0
 10
2.3987207933
 20
3.504241554
 30
0.0
 10
2.3996765866
 20
3.471607926
 30
0.0
 10
2.4006320831
 20
3.4399869095
 30
0.0
 10
2.4015870846
 20
3.4096738761
 30
0.0
 10
2.4025420602
 20
3.3809506556
 30
0.0
 10
2.4034959583
 20
3.3540851074
 30
0.0
 10
2.4044477138
 20
3.3293279356
 30
0.0
 10
2.4053971059
 20
3.3069088489
 30
0.0
 10
2.4063445379
 20
3.287037697
 30
0.0
 10
2.4071659142
 20
3.2721584006
 30
0.0
 10
2.4078364761
 20
3.2616673933
 30
0.0
 10
2.4083153092
 20
3.2548998687
 30
0.0
 10
2.4087915231
 20
3.2488892928
 30
0.0
 10
2.4092640802
 20
3.2436507596
 30
0.0
 10
2.4096699483
 20
3.2397757232
 30
0.0
 10
2.4099986121
 20
3.2370729105
 30
0.0
 10
2.4102327698
 20
3.2353442469
 30
0.0
 10
2.4104667348
 20
3.2338163129
 30
0.0
 10
2.4107007956
 20
3.2324895712
 30
0.0
 10
2.4109351922
 20
3.2313645599
 30
0.0
 10
2.4111697276
 20
3.2304408896
 30
0.0
 10
2.4114047563
 20
3.2297190279
 30
0.0
 10
2.4116147205
 20
3.2292465988
 30
0.0
 10
2.4117931574
 20
3.228977987
 30
0.0
 10
2.4119169169
 20
3.228844319
 30
0.0
 10
2.412044869
 20
3.228759802
 30
0.0
 10
2.4121371755
 20
3.2287393981
 30
0.0
 10
2.4121799398
 20
3.2287393981
 30
0.0
  0
SPLINE
  5
2DF
100
AcDbEntity
  8
0
100
AcDbSpline
 62
7
  6
CONTINUOUS
 70
0
 71
3
 72
51
 73
47
 74
0
 42
0.0000001
 43
0.0000001
 44
0.0000000001
 40
0.0
 40
0.0
 40
0.0
 40
0.0
 40
0.0008703382
 40
0.0019897068
 40
0.0033652075
 40
0.0050009785
 40
0.0090621338
 40
0.0141852464
 40
0.0203763044
 40
0.0276390713
 40
0.0359755493
 40
0.0453733318
 40
0.0558066901
 40
0.0672491519
 40
0.0930546994
 40
0.1225589038
 40
0.1554385838
 40
0.1913396738
 40
0.2299174687
 40
0.2708657145
 40
0.3138876202
 40
0.3586505154
 40
0.4047152442
 40
0.4989346815
 40
0.5931880145
 40
0.6393238661
 40
0.6842091623
 40
0.7273902629
 40
0.7684716751
 40
0.8071291407
 40
0.8430444594
 40
0.8759303682
 40
0.9055276618
 40
0.9315773713
 40
0.9431866311
 40
0.9538043995
 40
0.9633949812
 40
0.9719229245
 40
0.9793533669
 40
0.985667118
 40
0.9908719162
 40
0.9949802964
 40
0.9966288285
 40
0.9980109812
 40
0.9991317974
 40
1.0
 40
1.0
 40
1.0
 40
1.0
 10
2.3404280274
 20
3.8939273573
 30
0.0
 10
2.3405189792
 20
3.8937693849
 30
0.0
 10
2.3406920681
 20
3.8933886017
 30
0.0
 10
2.3409223552
 20
3.8927221379
 30
0.0
 10
2.3411539982
 20
3.8918881011
 30
0.0
 10
2.3414885805
 20
3.8904448576
 30
0.0
 10
2.3418924307
 20
3.8882138576
 30
0.0
 10
2.3423540981
 20
3.8850266454
 30
0.0
 10
2.3428180937
 20
3.8811633169
 30
0.0
 10
2.3432842905
 20
3.8766232744
 30
0.0
 10
2.3437515163
 20
3.8714086524
 30
0.0
 10
2.34421969
 20
3.865527743
 30
0.0
 10
2.3446887942
 20
3.8589945462
 30
0.0
 10
2.3453414489
 20
3.8490294287
 30
0.0
 10
2.3461449175
 20
3.8350717055
 30
0.0
 10
2.3470753174
 20
3.8166246097
 30
0.0
 10
2.3480071394
 20
3.796060774
 30
0.0
 10
2.3489406976
 20
3.7735948786
 30
0.0
 10
2.3498763217
 20
3.7494378336
 30
0.0
 10
2.3508134178
 20
3.7237884099
 30
0.0
 10
2.3517516664
 20
3.6968427979
 30
0.0
 10
2.352690189
 20
3.6688249754
 30
0.0
 10
2.3539515509
 20
3.6300891277
 30
0.0
 10
2.3555053245
 20
3.5809920199
 30
0.0
 10
2.3570570512
 20
3.5318799451
 30
0.0
 10
2.3583157092
 20
3.4930963537
 30
0.0
 10
2.3592531877
 20
3.4650045816
 30
0.0
 10
2.3601912661
 20
3.4379720424
 30
0.0
 10
2.3611297336
 20
3.4122446974
 30
0.0
 10
2.3620668037
 20
3.3880401148
 30
0.0
 10
2.3630018442
 20
3.3655532916
 30
0.0
 10
2.3639346003
 20
3.3449656948
 30
0.0
 10
2.3648653695
 20
3.326446597
 30
0.0
 10
2.3656664859
 20
3.3123830178
 30
0.0
 10
2.3663173191
 20
3.3022928281
 30
0.0
 10
2.3667861654
 20
3.2956453909
 30
0.0
 10
2.3672543809
 20
3.2896450162
 30
0.0
 10
2.3677215348
 20
3.2843143419
 30
0.0
 10
2.3681875597
 20
3.279672847
 30
0.0
 10
2.368652281
 20
3.2757311205
 30
0.0
 10
2.3691147304
 20
3.2724907801
 30
0.0
 10
2.3695194679
 20
3.2702297608
 30
0.0
 10
2.3698549447
 20
3.2687723928
 30
0.0
 10
2.3700868084
 20
3.2679338701
 30
0.0
 10
2.3703172665
 20
3.2672661313
 30
0.0
 10
2.3704907663
 20
3.2668856444
 30
0.0
 10
2.3705819014
 20
3.2667282943
 30
0.0
  0
SPLINE
  5
2E0
100
AcDbEntity
  8
0
100
AcDbSpline
 62
7
  6
CONTINUOUS
 70
0
 71
3
 72
14
 73
10
 74
0
 42
0.0000001
 43
0.0000001
 44
0.0000000001
 40
0.0
 40
0.0
 40
0.0
 40
0.0
 40
0.0524247696
 40
0.125129969
 40
0.2186620897
 40
0.3331520993
 40
0.4685974037
 40
0.624944471
 40
1.0
 40
1.0
 40
1.0
 40
1.0
 10
2.3187027213
 20
3.9314750909
 30
0.0
 10
2.3188080603
 20
3.9312918892
 30
0.0
 10
2.3190024908
 20
3.9308233545
 30
0.0
 10
2.3192596093
 20
3.9299803485
 30
0.0
 10
2.319524879
 20
3.9288794827
 30
0.0
 10
2.3197971412
 20
3.9275218729
 30
0.0
 10
2.3200748485
 20
3.9259076433
 30
0.0
 10
2.3204756544
 20
3.9232494787
 30
0.0
 10
2.3207416868
 20
3.9211235772
 30
0.0
 10
2.3209156993
 20
3.9196217557
 30
0.0
  0
SPLINE
  5
2E1
100
AcDbEntity
  8
0
100
AcDbSpline
 62
7
  6
CONTINUOUS
 70
0
 71
3
 72
52
 73
48
 74
0
 42
0.0000001
 43
0.0000001
 44
0.0000000001
 40
0.0
 40
0.0
 40
0.0
 40
0.0
 40
0.0065022051
 40
0.0139790215
 40
0.0317952107
 40
0.0532989462
 40
0.0783295299
 40
0.1066857942
 40
0.1381370464
 40
0.1724397714
 40
0.2093090755
 40
0.2484500573
 40
0.2895487647
 40
0.3322684275
 40
0.37626886
 40
0.421193664
 40
0.4666792392
 40
0.5123601613
 40
0.5578675077
 40
0.6028325656
 40
0.6468943956
 40
0.6896975515
 40
0.7308925853
 40
0.7701526054
 40
0.8071567109
 40
0.8416062359
 40
0.8732306847
 40
0.9017678289
 40
0.9269957651
 40
0.9487093811
 40
0.9581887211
 40
0.9667270881
 40
0.9743095114
 40
0.9809214751
 40
0.9865492897
 40
0.9889908177
 40
0.9911834677
 40
0.9931271769
 40
0.9948221523
 40
0.9962690595
 40
0.9974694036
 40
0.9984263938
 40
0.9991472217
 40
0.9994245204
 40
0.9996520005
 40
0.9998385345
 40
1.0
 40
1.0
 40
1.0
 40
1.0
 10
2.3209156993
 20
3.9196217557
 30
0.0
 10
2.3210883148
 20
3.9181319915
 30
0.0
 10
2.3214288627
 20
3.914925606
 30
0.0
 10
2.3221031587
 20
3.9076229623
 30
0.0
 10
2.3229124719
 20
3.8968589885
 30
0.0
 10
2.3238081939
 20
3.8820432711
 30
0.0
 10
2.324643832
 20
3.8647896996
 30
0.0
 10
2.3254450221
 20
3.8452381696
 30
0.0
 10
2.3262622725
 20
3.8235470588
 30
0.0
 10
2.327136625
 20
3.7998931933
 30
0.0
 10
2.3280559637
 20
3.7744661515
 30
0.0
 10
2.3290137352
 20
3.7474719906
 30
0.0
 10
2.3299850316
 20
3.7191280899
 30
0.0
 10
2.3309252296
 20
3.6896616775
 30
0.0
 10
2.33178596
 20
3.6593099844
 30
0.0
 10
2.3325988026
 20
3.6283188378
 30
0.0
 10
2.3334118235
 20
3.5969399617
 30
0.0
 10
2.3342615562
 20
3.5654276399
 30
0.0
 10
2.3351520133
 20
3.5340365368
 30
0.0
 10
2.336098904
 20
3.5030206956
 30
0.0
 10
2.3370753275
 20
3.4726298262
 30
0.0
 10
2.3380299219
 20
3.4431082597
 30
0.0
 10
2.3389169044
 20
3.4146926375
 30
0.0
 10
2.339758948
 20
3.3876138186
 30
0.0
 10
2.3405784533
 20
3.3620908977
 30
0.0
 10
2.3414017332
 20
3.3383302014
 30
0.0
 10
2.3422560182
 20
3.316524769
 30
0.0
 10
2.3431791248
 20
3.2968511187
 30
0.0
 10
2.3441376731
 20
3.2794682238
 30
0.0
 10
2.3449523081
 20
3.2664801463
 30
0.0
 10
2.345585126
 20
3.2573379709
 30
0.0
 10
2.346029866
 20
3.2514500338
 30
0.0
 10
2.3464702138
 20
3.2462251547
 30
0.0
 10
2.346910359
 20
3.2416742799
 30
0.0
 10
2.3472960447
 20
3.2383097409
 30
0.0
 10
2.3476151542
 20
3.2359643408
 30
0.0
 10
2.3478441681
 20
3.2344644536
 30
0.0
 10
2.348073651
 20
3.2331390763
 30
0.0
 10
2.3483028451
 20
3.231988512
 30
0.0
 10
2.3485309618
 20
3.2310131226
 30
0.0
 10
2.3487568729
 20
3.230212496
 30
0.0
 10
2.3489798812
 20
3.229586933
 30
0.0
 10
2.3491753748
 20
3.2291781076
 30
0.0
 10
2.3493378492
 20
3.2289458717
 30
0.0
 10
2.3494490333
 20
3.2288303233
 30
0.0
 10
2.3495619783
 20
3.2287573436
 30
0.0
 10
2.3496427074
 20
3.2287393981
 30
0.0
 10
2.3496799494
 20
3.2287393981
 30
0.0
  0
SPLINE
  5
2E2
100
AcDbEntity
  8
0
100
AcDbSpline
 62
7
  6
CONTINUOUS
 70
0
 71
3
 72
22
 73
18
 74
0
 42
0.0000001
 43
0.0000001
 44
0.0000000001
 40
0.0
 40
0.0
 40
0.0
 40
0.0
 40
0.2106381585
 40
0.3987911099
 40
0.5633763619
 40
0.6364958229
 40
0.7033313515
 40
0.7637684561
 40
0.8176945371
 40
0.8649995314
 40
0.9055776926
 40
0.9393355607
 40
0.9662581724
 40
0.9771768075
 40
0.986418758
 40
0.9940103732
 40
1.0
 40
1.0
 40
1.0
 40
1.0
 10
2.7110292469
 20
4.3521768073
 30
0.0
 10
2.7030039253
 20
4.3518003384
 30
0.0
 10
2.6878114291
 20
4.3510554755
 30
0.0
 10
2.6663552514
 20
4.3498793058
 30
0.0
 10
2.6501435285
 20
4.3488669304
 30
0.0
 10
2.6385567612
 20
4.3480458962
 30
0.0
 10
2.6309362038
 20
4.3474552768
 30
0.0
 10
2.6240500565
 20
4.3468654789
 30
0.0
 10
2.6179117431
 20
4.3462767525
 30
0.0
 10
2.6125346738
 20
4.3456894037
 30
0.0
 10
2.607931651
 20
4.3451045666
 30
0.0
 10
2.6041132882
 20
4.3445220063
 30
0.0
 10
2.6014289842
 20
4.3440121731
 30
0.0
 10
2.5996829854
 20
4.3435905494
 30
0.0
 10
2.5986651799
 20
4.3432977629
 30
0.0
 10
2.5978443832
 20
4.3430064416
 30
0.0
 10
2.5973724778
 20
4.3427887172
 30
0.0
 10
2.5971742515
 20
4.3426751459
 30
0.0
  0
SPLINE
  5
2E3
100
AcDbEntity
  8
0
100
AcDbSpline
 62
7
  6
CONTINUOUS
 70
0
 71
3
 72
60
 73
56
 74
0
 42
0.0000001
 43
0.0000001
 44
0.0000000001
 40
0.0
 40
0.0
 40
0.0
 40
0.0
 40
0.0007920021
 40
0.0018559073
 40
0.0031985765
 40
0.004822844
 40
0.0067298663
 40
0.0089199855
 40
0.0141487237
 40
0.0205055248
 40
0.0279777632
 40
0.0365457824
 40
0.0461890849
 40
0.0568868008
 40
0.0686178249
 40
0.0950734936
 40
0.1252958913
 40
0.1590096861
 40
0.1959065085
 40
0.2356312767
 40
0.2778223799
 40
0.3220844144
 40
0.3679996862
 40
0.4151456789
 40
0.5113525182
 40
0.5595158594
 40
0.6071208116
 40
0.6537194238
 40
0.6988791093
 40
0.742181273
 40
0.7832134984
 40
0.8216012715
 40
0.8569858542
 40
0.8890282954
 40
0.9174444386
 40
0.9302069558
 40
0.9419613601
 40
0.952682961
 40
0.9623505904
 40
0.9709432932
 40
0.978440444
 40
0.9848221561
 40
0.9875902405
 40
0.9900756106
 40
0.9922779515
 40
0.994197222
 40
0.9958338455
 40
0.9971890996
 40
0.9982660084
 40
0.9987022403
 40
0.9990723105
 40
0.9993791245
 40
0.9996279162
 40
0.9998286403
 40
1.0
 40
1.0
 40
1.0
 40
1.0
 10
2.4546694451
 20
3.229133259
 30
0.0
 10
2.4545759499
 20
3.2292938901
 30
0.0
 10
2.454400366
 20
3.2296947533
 30
0.0
 10
2.4541678258
 20
3.230408606
 30
0.0
 10
2.4539311877
 20
3.2313250592
 30
0.0
 10
2.4536914053
 20
3.23244357
 30
0.0
 10
2.453449472
 20
3.2337644157
 30
0.0
 10
2.4531043779
 20
3.2359256751
 30
0.0
 10
2.452683018
 20
3.2391313869
 30
0.0
 10
2.452202852
 20
3.2435780463
 30
0.0
 10
2.4517252812
 20
3.2488124174
 30
0.0
 10
2.4512489095
 20
3.2548208258
 30
0.0
 10
2.4507734724
 20
3.2615883084
 30
0.0
 10
2.4502980316
 20
3.269099677
 30
0.0
 10
2.4496362244
 20
3.2805523316
 30
0.0
 10
2.4488183917
 20
3.2965852334
 30
0.0
 10
2.4478659588
 20
3.3177762018
 30
0.0
 10
2.4469118258
 20
3.3414195329
 30
0.0
 10
2.4459577854
 20
3.3672944197
 30
0.0
 10
2.4450027625
 20
3.3951598868
 30
0.0
 10
2.4440470158
 20
3.4247546729
 30
0.0
 10
2.443090463
 20
3.4558028771
 30
0.0
 10
2.4421333191
 20
3.4880143569
 30
0.0
 10
2.4408484763
 20
3.5324113649
 30
0.0
 10
2.4395801026
 20
3.5773366134
 30
0.0
 10
2.4383041024
 20
3.6223693912
 30
0.0
 10
2.4373468829
 20
3.6557649538
 30
0.0
 10
2.4363897486
 20
3.6884553564
 30
0.0
 10
2.4354328909
 20
3.7201355875
 30
0.0
 10
2.4344767199
 20
3.7505089583
 30
0.0
 10
2.4335210566
 20
3.7792923567
 30
0.0
 10
2.4325663059
 20
3.8062166817
 30
0.0
 10
2.4316127341
 20
3.8310300018
 30
0.0
 10
2.4306598148
 20
3.8535014115
 30
0.0
 10
2.4298420881
 20
3.8706648884
 30
0.0
 10
2.4291801821
 20
3.8830690893
 30
0.0
 10
2.4287024099
 20
3.8913247422
 30
0.0
 10
2.4282252562
 20
3.8988528377
 30
0.0
 10
2.4277484893
 20
3.9056373676
 30
0.0
 10
2.4272720266
 20
3.9116631824
 30
0.0
 10
2.4267957923
 20
3.9169151698
 30
0.0
 10
2.4263821361
 20
3.9208000357
 30
0.0
 10
2.4260445151
 20
3.9235095819
 30
0.0
 10
2.4258036666
 20
3.9252426487
 30
0.0
 10
2.4255633436
 20
3.9267744794
 30
0.0
 10
2.4253238444
 20
3.9281045029
 30
0.0
 10
2.4250857431
 20
3.929232429
 30
0.0
 10
2.4248493451
 20
3.9301577818
 30
0.0
 10
2.4246429755
 20
3.9307994752
 30
0.0
 10
2.4244729503
 20
3.9312076978
 30
0.0
 10
2.4243549773
 20
3.9314411004
 30
0.0
 10
2.424237369
 20
3.9316243912
 30
0.0
 10
2.4241192699
 20
3.9317581833
 30
0.0
 10
2.4239984325
 20
3.9318432343
 30
0.0
 10
2.4239105994
 20
3.9318643981
 30
0.0
 10
2.4238703864
 20
3.9318643981
 30
0.0
  0
SPLINE
  5
2E4
100
AcDbEntity
  8
0
100
AcDbSpline
 62
7
  6
CONTINUOUS
 70
0
 71
3
 72
58
 73
54
 74
0
 42
0.0000001
 43
0.0000001
 44
0.0000000001
 40
0.0
 40
0.0
 40
0.0
 40
0.0
 40
0.0008399788
 40
0.0019504871
 40
0.0033385157
 40
0.0050070933
 40
0.0069575344
 40
0.0091903006
 40
0.0145023734
 40
0.0209400197
 40
0.0284896163
 40
0.037131048
 40
0.046843607
 40
0.0576063078
 40
0.0693979713
 40
0.0959599903
 40
0.1262691026
 40
0.1600510705
 40
0.1969967941
 40
0.2367520197
 40
0.2789561305
 40
0.3232140348
 40
0.369109605
 40
0.4162216377
 40
0.5123235455
 40
0.5604194558
 40
0.6079493615
 40
0.6544671625
 40
0.6995424026
 40
0.7427582081
 40
0.7837041009
 40
0.8220075704
 40
0.8573112691
 40
0.8892781407
 40
0.91762567
 40
0.9420822848
 40
0.9527773852
 40
0.9624209344
 40
0.9709918825
 40
0.9784694311
 40
0.9848334056
 40
0.9875932986
 40
0.9900710242
 40
0.9922663713
 40
0.9941794479
 40
0.9958109029
 40
0.9971623807
 40
0.998237556
 40
0.9990448863
 40
0.9993546114
 40
0.9996084783
 40
0.9998172534
 40
1.0
 40
1.0
 40
1.0
 40
1.0
 10
2.3921022986
 20
3.2292059252
 30
0.0
 10
2.3920069173
 20
3.2293784083
 30
0.0
 10
2.3918283694
 20
3.2298019606
 30
0.0
 10
2.3915940771
 20
3.2305497205
 30
0.0
 10
2.3913587993
 20
3.2314993716
 30
0.0
 10
2.391122826
 20
3.2326504834
 30
0.0
 10
2.3908864288
 20
3.234003255
 30
0.0
 10
2.3905511093
 20
3.2362060468
 30
0.0
 10
2.3901421642
 20
3.2394619002
 30
0.0
 10
2.3896712131
 20
3.2439660465
 30
0.0
 10
2.3891973399
 20
3.249254783
 30
0.0
 10
2.3887211262
 20
3.2553143981
 30
0.0
 10
2.3882434798
 20
3.2621299088
 30
0.0
 10
2.3877649197
 20
3.2696861712
 30
0.0
 10
2.3870998875
 20
3.281192056
 30
0.0
 10
2.386282369
 20
3.2972830403
 30
0.0
 10
2.3853329778
 20
3.3185334541
 30
0.0
 10
2.3843817785
 20
3.3422224721
 30
0.0
 10
2.383428883
 20
3.3681295394
 30
0.0
 10
2.3824745236
 20
3.3960140227
 30
0.0
 10
2.3815197292
 20
3.4256152147
 30
0.0
 10
2.3805645096
 20
3.4566579193
 30
0.0
 10
2.3796087998
 20
3.4888527631
 30
0.0
 10
2.3783258991
 20
3.5332083095
 30
0.0
 10
2.3770591011
 20
3.5780808305
 30
0.0
 10
2.3757846181
 20
3.6230512242
 30
0.0
 10
2.3748286841
 20
3.6563911821
 30
0.0
 10
2.3738729542
 20
3.6890220572
 30
0.0
 10
2.3729175218
 20
3.7206402032
 30
0.0
 10
2.3719625752
 20
3.7509503122
 30
0.0
 10
2.3710076328
 20
3.7796706167
 30
0.0
 10
2.3700537749
 20
3.8065333173
 30
0.0
 10
2.3691021078
 20
3.8312877695
 30
0.0
 10
2.3681528698
 20
3.8537043203
 30
0.0
 10
2.3672055375
 20
3.8735731694
 30
0.0
 10
2.3663840375
 20
3.888450706
 30
0.0
 10
2.3657132857
 20
3.8989404499
 30
0.0
 10
2.3652343615
 20
3.9057071511
 30
0.0
 10
2.3647581608
 20
3.9117169892
 30
0.0
 10
2.3642857743
 20
3.9169548715
 30
0.0
 10
2.3638802647
 20
3.9208294318
 30
0.0
 10
2.3635520115
 20
3.9235319178
 30
0.0
 10
2.3633181597
 20
3.9252603678
 30
0.0
 10
2.3630844859
 20
3.9267881138
 30
0.0
 10
2.3628506719
 20
3.9281146938
 30
0.0
 10
2.3626164491
 20
3.929239571
 30
0.0
 10
2.3623819847
 20
3.9301631387
 30
0.0
 10
2.3621468968
 20
3.9308849331
 30
0.0
 10
2.3619367382
 20
3.9313573168
 30
0.0
 10
2.3617580382
 20
3.9316258748
 30
0.0
 10
2.3616340209
 20
3.931759536
 30
0.0
 10
2.3615057452
 20
3.9318440267
 30
0.0
 10
2.3614132345
 20
3.9318643981
 30
0.0
 10
2.3613703534
 20
3.9318643981
 30
0.0
  0
SPLINE
  5
2E5
100
AcDbEntity
  8
0
100
AcDbSpline
 62
7
  6
CONTINUOUS
 70
0
 71
3
 72
31
 73
27
 74
0
 42
0.0000001
 43
0.0000001
 44
0.0000000001
 40
0.0
 40
0.0
 40
0.0
 40
0.0
 40
0.0016906646
 40
0.0039010937
 40
0.0066457093
 40
0.0099310604
 40
0.0137601986
 40
0.0181344054
 40
0.0285183553
 40
0.0410771662
 40
0.0557837058
 40
0.0726021643
 40
0.0914954966
 40
0.1124259674
 40
0.1353546457
 40
0.1869886805
 40
0.2459085769
 40
0.3116059579
 40
0.3834837202
 40
0.4608865063
 40
0.5431386773
 40
0.6294884076
 40
0.7191641306
 40
0.8113663735
 40
0.9052584603
 40
1.0
 40
1.0
 40
1.0
 40
1.0
 10
2.3295620718
 20
3.2292379087
 30
0.0
 10
2.3294665506
 20
3.2294115317
 30
0.0
 10
2.3292879265
 20
3.2298345297
 30
0.0
 10
2.3290552664
 20
3.2305782296
 30
0.0
 10
2.3288243988
 20
3.2315166718
 30
0.0
 10
2.3285955398
 20
3.2326495598
 30
0.0
 10
2.3283688322
 20
3.2339771143
 30
0.0
 10
2.3280510545
 20
3.2361325852
 30
0.0
 10
2.3276700849
 20
3.2393122025
 30
0.0
 10
2.327239933
 20
3.2437042726
 30
0.0
 10
2.326812337
 20
3.2488538114
 30
0.0
 10
2.3263836767
 20
3.2547479004
 30
0.0
 10
2.3259506265
 20
3.2613729121
 30
0.0
 10
2.325509603
 20
3.2687149932
 30
0.0
 10
2.3248802728
 20
3.2798901735
 30
0.0
 10
2.3240716675
 20
3.2955149977
 30
0.0
 10
2.3230956694
 20
3.3161505976
 30
0.0
 10
2.3220874374
 20
3.3391599806
 30
0.0
 10
2.3210799539
 20
3.3643377172
 30
0.0
 10
2.3201189609
 20
3.3914590392
 30
0.0
 10
2.319243586
 20
3.4202803247
 30
0.0
 10
2.3183972622
 20
3.4505415128
 30
0.0
 10
2.3175211541
 20
3.4819685896
 30
0.0
 10
2.3165845063
 20
3.5142783529
 30
0.0
 10
2.3156050283
 20
3.5471808825
 30
0.0
 10
2.314927666
 20
3.5692804744
 30
0.0
 10
2.3145873501
 20
3.5803800256
 30
0.0
  0
LINE
  5
2E6
100
AcDbEntity
  8
0
100
AcDbLine
 62
7
  6
CONTINUOUS
 10
2.3145873501
 20
3.5803800256
 11
2.3144576722
 21
3.5846104969
  0
SPLINE
  5
2E7
100
AcDbEntity
  8
0
100
AcDbSpline
 62
7
  6
CONTINUOUS
 70
0
 71
3
 72
24
 73
20
 74
0
 42
0.0000001
 43
0.0000001
 44
0.0000000001
 40
0.0
 40
0.0
 40
0.0
 40
0.0
 40
0.1904295722
 40
0.3743970263
 40
0.4613157324
 40
0.5437049826
 40
0.6208163435
 40
0.691910293
 40
0.7563054109
 40
0.8135138623
 40
0.8631265152
 40
0.9048037728
 40
0.9384138014
 40
0.9523132832
 40
0.9644018957
 40
0.9748553336
 40
0.9839551695
 40
0.9921361666
 40
1.0
 40
1.0
 40
1.0
 40
1.0
 10
2.9849244417
 20
5.4298123269
 30
0.0
 10
2.9881310305
 20
5.4303553348
 30
0.0
 10
2.9944533649
 20
5.4313191576
 30
0.0
 10
3.0022784757
 20
5.432250542
 30
0.0
 10
3.0082883355
 20
5.432787246
 30
0.0
 10
3.0124874348
 20
5.4330729522
 30
0.0
 10
3.0164221541
 20
5.4332479267
 30
0.0
 10
3.0200530262
 20
5.4333105709
 30
0.0
 10
3.0233443352
 20
5.4332591716
 30
0.0
 10
3.0262647919
 20
5.4330960873
 30
0.0
 10
3.0287880336
 20
5.4328245842
 30
0.0
 10
3.0308894152
 20
5.4324479612
 30
0.0
 10
3.0323586199
 20
5.4320259664
 30
0.0
 10
3.0332933719
 20
5.4316193712
 30
0.0
 10
3.0338348786
 20
5.4313093431
 30
0.0
 10
3.0342622233
 20
5.4309745974
 30
0.0
 10
3.0345742918
 20
5.4306130048
 30
0.0
 10
3.0347660886
 20
5.4302226024
 30
0.0
 10
3.0348078416
 20
5.4299466289
 30
0.0
 10
3.0348078416
 20
5.4298123269
 30
0.0
  0
SPLINE
  5
2E8
100
AcDbEntity
  8
0
100
AcDbSpline
 62
7
  6
CONTINUOUS
 70
0
 71
3
 72
24
 73
20
 74
0
 42
0.0000001
 43
0.0000001
 44
0.0000000001
 40
0.0
 40
0.0
 40
0.0
 40
0.0
 40
0.0078638426
 40
0.0160448969
 40
0.0251448504
 40
0.0355984491
 40
0.0476872359
 40
0.0615868729
 40
0.0951970281
 40
0.1368743226
 40
0.1864871793
 40
0.2436959061
 40
0.3080912619
 40
0.3791854935
 40
0.4562971769
 40
0.5386865423
 40
0.6256049062
 40
0.8095710597
 40
1.0
 40
1.0
 40
1.0
 40
1.0
 10
3.0741828416
 20
5.4298123269
 30
0.0
 10
3.0741828416
 20
5.4299466291
 30
0.0
 10
3.0742245969
 20
5.4302226037
 30
0.0
 10
3.074416401
 20
5.430613006
 30
0.0
 10
3.0747284784
 20
5.4309745983
 30
0.0
 10
3.0751558326
 20
5.4313093441
 30
0.0
 10
3.0756973482
 20
5.4316193731
 30
0.0
 10
3.0766321079
 20
5.4320259692
 30
0.0
 10
3.0781013156
 20
5.4324479712
 30
0.0
 10
3.0802027028
 20
5.4328245982
 30
0.0
 10
3.0827259535
 20
5.4330960969
 30
0.0
 10
3.0856464222
 20
5.4332591756
 30
0.0
 10
3.0889377442
 20
5.4333105708
 30
0.0
 10
3.0925686299
 20
5.4332479221
 30
0.0
 10
3.0965033605
 20
5.4330729424
 30
0.0
 10
3.1007024604
 20
5.4327872337
 30
0.0
 10
3.1067122934
 20
5.4322505356
 30
0.0
 10
3.1145373642
 20
5.4313191558
 30
0.0
 10
3.1208596639
 20
5.4303553329
 30
0.0
 10
3.1240662415
 20
5.4298123269
 30
0.0
  0
SPLINE
  5
2E9
100
AcDbEntity
  8
0
100
AcDbSpline
 62
9
  6
CONTINUOUS
 70
0
 71
3
 72
38
 73
34
 74
0
 42
0.0000001
 43
0.0000001
 44
0.0000000001
 40
0.0
 40
0.0
 40
0.0
 40
0.0
 40
0.2222630907
 40
0.3248082669
 40
0.4211166739
 40
0.5108059784
 40
0.5935727101
 40
0.6692068167
 40
0.7375033728
 40
0.7982571826
 40
0.8512721904
 40
0.8748327003
 40
0.8964087799
 40
0.9159856067
 40
0.9335483531
 40
0.9490821865
 40
0.9625722696
 40
0.9740037607
 40
0.9789428964
 40
0.9833622902
 40
0.9872617549
 40
0.9906412906
 40
0.9935008973
 40
0.9958405752
 40
0.9968154408
 40
0.9976603243
 40
0.9983752256
 40
0.9989601448
 40
0.9994150818
 40
0.9997400366
 40
0.9998537708
 40
0.9999350094
 40
1.0
 40
1.0
 40
1.0
 40
1.0
 10
4.1452124065
 20
5.238912414
 30
0.0
 10
4.1550062323
 20
5.2383958944
 30
0.0
 10
4.1693215453
 20
5.237695089
 30
0.0
 10
4.1878859085
 20
5.2368869979
 30
0.0
 10
4.2006077049
 20
5.2363753662
 30
0.0
 10
4.2124588822
 20
5.2359353738
 30
0.0
 10
4.2233995499
 20
5.235560771
 30
0.0
 10
4.2333976901
 20
5.2352453909
 30
0.0
 10
4.2424256542
 20
5.2349827945
 30
0.0
 10
4.2504564504
 20
5.2347666857
 30
0.0
 10
4.256514241
 20
5.2346142737
 30
0.0
 10
4.2608439771
 20
5.2345107295
 30
0.0
 10
4.2636987156
 20
5.234444679
 30
0.0
 10
4.2662889148
 20
5.2343866577
 30
0.0
 10
4.2686125999
 20
5.234336206
 30
0.0
 10
4.2706677958
 20
5.2342928641
 30
0.0
 10
4.2724525278
 20
5.2342561716
 30
0.0
 10
4.2737698744
 20
5.2342296114
 30
0.0
 10
4.2746870573
 20
5.2342112373
 30
0.0
 10
4.2752719534
 20
5.2341995169
 30
0.0
 10
4.2757880461
 20
5.234189176
 30
0.0
 10
4.2762353243
 20
5.2341802131
 30
0.0
 10
4.2766137964
 20
5.2341726308
 30
0.0
 10
4.2768861671
 20
5.2341671698
 30
0.0
 10
4.2770696847
 20
5.234163498
 30
0.0
 10
4.277181462
 20
5.2341612454
 30
0.0
 10
4.2772762035
 20
5.2341593843
 30
0.0
 10
4.2773532723
 20
5.2341577369
 30
0.0
 10
4.2774143674
 20
5.2341567771
 30
0.0
 10
4.277451958
 20
5.2341554758
 30
0.0
 10
4.2774773588
 20
5.2341557033
 30
0.0
 10
4.2774845091
 20
5.2341542689
 30
0.0
 10
4.2774993067
 20
5.2341564678
 30
0.0
 10
4.2774968833
 20
5.2341549345
 30
0.0
  0
SPLINE
  5
2EA
100
AcDbEntity
  8
0
100
AcDbSpline
 62
9
  6
CONTINUOUS
 70
0
 71
3
 72
17
 73
13
 74
0
 42
0.0000001
 43
0.0000001
 44
0.0000000001
 40
0.0
 40
0.0
 40
0.0
 40
0.0
 40
0.1410628138
 40
0.2846758307
 40
0.4266953619
 40
0.4957615511
 40
0.5627959695
 40
0.6891653769
 40
0.7481973275
 40
0.8042150538
 40
0.9071979132
 40
1.0
 40
1.0
 40
1.0
 40
1.0
 10
1.9637763664
 20
5.2389123185
 30
0.0
 10
1.9637377789
 20
5.2415624904
 30
0.0
 10
1.9639330541
 20
5.2469186094
 30
0.0
 10
1.9650619768
 20
5.254871643
 30
0.0
 10
1.9667820385
 20
5.2613303192
 30
0.0
 10
1.9686151927
 20
5.2662279658
 30
0.0
 10
1.9706670464
 20
5.2707156706
 30
0.0
 10
1.9731340215
 20
5.2747966934
 30
0.0
 10
1.9759754966
 20
5.2783395993
 30
0.0
 10
1.978830262
 20
5.2812852778
 30
0.0
 10
1.9826272014
 20
5.2841695414
 30
0.0
 10
1.9860150711
 20
5.2857009107
 30
0.0
 10
1.9876819538
 20
5.2862126732
 30
0.0
  0
SPLINE
  5
2EB
100
AcDbEntity
  8
0
100
AcDbSpline
 62
9
  6
CONTINUOUS
 70
0
 71
3
 72
16
 73
12
 74
0
 42
0.0000001
 43
0.0000001
 44
0.0000000001
 40
0.0
 40
0.0
 40
0.0
 40
0.0
 40
0.110501236
 40
0.2261289481
 40
0.3463841812
 40
0.4707700938
 40
0.5988169913
 40
0.6640653399
 40
0.7300489125
 40
0.8639555224
 40
1.0
 40
1.0
 40
1.0
 40
1.0
 10
1.9637814009
 20
5.238912535
 30
0.0
 10
1.9923936728
 20
5.2406128573
 30
0.0
 10
2.0509930676
 20
5.2433124751
 30
0.0
 10
2.1408142107
 20
5.2456628738
 30
0.0
 10
2.2342603412
 20
5.2467245213
 30
0.0
 10
2.3309324453
 20
5.2468020426
 30
0.0
 10
2.413334074
 20
5.2462865789
 30
0.0
 10
2.4805851995
 20
5.245671027
 30
0.0
 10
2.5493553888
 20
5.2449562659
 30
0.0
 10
2.6364872073
 20
5.2439540102
 30
0.0
 10
2.7065051782
 20
5.2431813164
 30
0.0
 10
2.7417918255
 20
5.2428323838
 30
0.0
  0
LINE
  5
2EC
100
AcDbEntity
  8
0
100
AcDbLine
 62
9
  6
CONTINUOUS
 10
2.7417918255
 20
5.2428323838
 11
2.7601211892
 21
5.2426549245
  0
LINE
  5
2ED
100
AcDbEntity
  8
0
100
AcDbLine
 62
9
  6
CONTINUOUS
 10
3.3489105243
 20
5.2426553133
 11
3.3671987334
 21
5.2428323815
  0
SPLINE
  5
2EE
100
AcDbEntity
  8
0
100
AcDbSpline
 62
9
  6
CONTINUOUS
 70
0
 71
3
 72
16
 73
12
 74
0
 42
0.0000001
 43
0.0000001
 44
0.0000000001
 40
0.0
 40
0.0
 40
0.0
 40
0.0
 40
0.1360445728
 40
0.2699512668
 40
0.3359348776
 40
0.4011832597
 40
0.5292301957
 40
0.6536160998
 40
0.7738712735
 40
0.8894988904
 40
1.0
 40
1.0
 40
1.0
 40
1.0
 10
3.3671987334
 20
5.2428323815
 30
0.0
 10
3.4024855529
 20
5.2431813134
 30
0.0
 10
3.4725038629
 20
5.2439540131
 30
0.0
 10
3.559636102
 20
5.2449562799
 30
0.0
 10
3.6284066192
 20
5.2456710413
 30
0.0
 10
3.6956580544
 20
5.2462865879
 30
0.0
 10
3.778060044
 20
5.2468020485
 30
0.0
 10
3.8747325445
 20
5.2467245163
 30
0.0
 10
3.9681790232
 20
5.2456628443
 30
0.0
 10
4.0580004681
 20
5.2433124089
 30
0.0
 10
4.1166000491
 20
5.2406127512
 30
0.0
 10
4.1452124067
 20
5.2389124034
 30
0.0
  0
SPLINE
  5
2EF
100
AcDbEntity
  8
0
100
AcDbSpline
 62
9
  6
CONTINUOUS
 70
0
 71
3
 72
28
 73
24
 74
0
 42
0.0000001
 43
0.0000001
 44
0.0000000001
 40
0.0
 40
0.0
 40
0.0
 40
0.0
 40
0.0002599936
 40
0.0010399157
 40
0.0023397665
 40
0.0041595461
 40
0.0064992545
 40
0.0093588918
 40
0.0166379534
 40
0.0259965445
 40
0.0374280999
 40
0.0509182489
 40
0.0664521482
 40
0.1035918439
 40
0.1487285334
 40
0.2017436092
 40
0.262497452
 40
0.3307940266
 40
0.4064281574
 40
0.4891949396
 40
0.5788843392
 40
0.7777377315
 40
1.0
 40
1.0
 40
1.0
 40
1.0
 10
1.8314937997
 20
5.234154933
 30
0.0
 10
1.8315052287
 20
5.2341559319
 30
0.0
 10
1.8315512076
 20
5.2341549791
 30
0.0
 10
1.8316543353
 20
5.2341588565
 30
0.0
 10
1.8318264292
 20
5.2341612726
 30
0.0
 10
1.8320672573
 20
5.2341665549
 30
0.0
 10
1.8323769332
 20
5.2341725835
 30
0.0
 10
1.8329274451
 20
5.2341836987
 30
0.0
 10
1.8337876202
 20
5.234200884
 30
0.0
 10
1.8350259634
 20
5.2342256961
 30
0.0
 10
1.8365383221
 20
5.2342561716
 30
0.0
 10
1.8383231041
 20
5.2342928714
 30
0.0
 10
1.841242022
 20
5.2343544251
 30
0.0
 10
1.8455569853
 20
5.2344497143
 30
0.0
 10
1.8515252537
 20
5.2345903406
 30
0.0
 10
1.8585349679
 20
5.2347667075
 30
0.0
 10
1.866565957
 20
5.2349828222
 30
0.0
 10
1.8755941352
 20
5.2352454281
 30
0.0
 10
1.8855925127
 20
5.2355608199
 30
0.0
 10
1.8965334437
 20
5.2359354376
 30
0.0
 10
1.9129067314
 20
5.2365433321
 30
0.0
 10
1.9354270947
 20
5.2374874232
 30
0.0
 10
1.9539873828
 20
5.2383960391
 30
0.0
 10
1.9637814015
 20
5.2389125627
 30
0.0
  0
SPLINE
  5
2F0
100
AcDbEntity
  8
0
100
AcDbSpline
 62
9
  6
CONTINUOUS
 70
0
 71
3
 72
26
 73
22
 74
0
 42
0.0000001
 43
0.0000001
 44
0.0000000001
 40
0.0
 40
0.0
 40
0.0
 40
0.0
 40
0.0002638078
 40
0.0010540581
 40
0.0023692462
 40
0.0042078681
 40
0.0094493978
 40
0.0167666217
 40
0.0261475201
 40
0.0375800798
 40
0.0510522939
 40
0.0665521619
 40
0.1035868855
 40
0.1485883818
 40
0.201460886
 40
0.2621087437
 40
0.3304055257
 40
0.4061014734
 40
0.5785701077
 40
0.7772786737
 40
1.0
 40
1.0
 40
1.0
 40
1.0
 10
4.2361823727
 20
5.2816567399
 30
0.0
 10
4.2361722806
 20
5.2816573442
 30
0.0
 10
4.2361318481
 20
5.2816568231
 30
0.0
 10
4.2360410999
 20
5.2816592713
 30
0.0
 10
4.2358899443
 20
5.2816610183
 30
0.0
 10
4.2355682583
 20
5.2816665543
 30
0.0
 10
4.2350165644
 20
5.2816755824
 30
0.0
 10
4.2341758921
 20
5.2816906956
 30
0.0
 10
4.2330980062
 20
5.2817109127
 30
0.0
 10
4.2317843071
 20
5.2817369366
 30
0.0
 10
4.2302361823
 20
5.2817691257
 30
0.0
 10
4.2277071523
 20
5.2818242778
 30
0.0
 10
4.2239702208
 20
5.2819117685
 30
0.0
 10
4.2188016779
 20
5.2820433316
 30
0.0
 10
4.2127288158
 20
5.2822105211
 30
0.0
 10
4.2057639456
 20
5.2824168877
 30
0.0
 10
4.1979252908
 20
5.2826659597
 30
0.0
 10
4.1858044671
 20
5.2830834556
 30
0.0
 10
4.1686916337
 20
5.2837553142
 30
0.0
 10
4.1459557135
 20
5.2848162939
 30
0.0
 10
4.1298291284
 20
5.285704928
 30
0.0
 10
4.1213087184
 20
5.2862126743
 30
0.0
  0
SPLINE
  5
2F1
100
AcDbEntity
  8
0
100
AcDbSpline
 62
9
  6
CONTINUOUS
 70
0
 71
3
 72
22
 73
18
 74
0
 42
0.0000001
 43
0.0000001
 44
0.0000000001
 40
0.0
 40
0.0
 40
0.0
 40
0.0
 40
0.2227122269
 40
0.4214187963
 40
0.5938896444
 40
0.7378857805
 40
0.7985350617
 40
0.8514086509
 40
0.8964109575
 40
0.9334462805
 40
0.962418811
 40
0.9738515614
 40
0.9832326376
 40
0.9905500343
 40
0.9957917398
 40
0.9989457363
 40
1.0
 40
1.0
 40
1.0
 40
1.0
 10
1.9876819438
 20
5.2862126701
 30
0.0
 10
1.9791618847
 20
5.2857049432
 30
0.0
 10
1.9630357306
 20
5.2848163172
 30
0.0
 10
1.9403001518
 20
5.2837554231
 30
0.0
 10
1.9205718044
 20
5.2829806633
 30
0.0
 10
1.9061271181
 20
5.2825027644
 30
0.0
 10
1.8962623392
 20
5.2822105369
 30
0.0
 10
1.8901893521
 20
5.2820433338
 30
0.0
 10
1.8850207152
 20
5.2819117563
 30
0.0
 10
1.8807675488
 20
5.2818122129
 30
0.0
 10
1.8778004099
 20
5.2817486483
 30
0.0
 10
1.8758927817
 20
5.2817109674
 30
0.0
 10
1.8748148781
 20
5.2816905221
 30
0.0
 10
1.8739741787
 20
5.2816760031
 30
0.0
 10
1.8733720838
 20
5.2816648039
 30
0.0
 10
1.8730099626
 20
5.2816608879
 30
0.0
 10
1.8728487135
 20
5.2816565352
 30
0.0
 10
1.8728083107
 20
5.2816567399
 30
0.0
  0
SPLINE
  5
2F2
100
AcDbEntity
  8
0
100
AcDbSpline
 62
9
  6
CONTINUOUS
 70
0
 71
3
 72
31
 73
27
 74
0
 42
0.0000001
 43
0.0000001
 44
0.0000000001
 40
0.0
 40
0.0
 40
0.0
 40
0.0
 40
0.0266379893
 40
0.0541393897
 40
0.0824561905
 40
0.1115380511
 40
0.141332818
 40
0.1717869377
 40
0.2028458996
 40
0.234454528
 40
0.2990920575
 40
0.3652225079
 40
0.4323588824
 40
0.4999996055
 40
0.5676403878
 40
0.6347768589
 40
0.7009073623
 40
0.7655449811
 40
0.7971536953
 40
0.8282127373
 40
0.8586668867
 40
0.8884615877
 40
0.9175432808
 40
0.945859961
 40
0.9733614752
 40
1.0
 40
1.0
 40
1.0
 40
1.0
 10
4.1213087366
 20
5.2862126574
 30
0.0
 10
4.1023942299
 20
5.2873397775
 30
0.0
 10
4.0639301265
 20
5.2892700239
 30
0.0
 10
4.0053112835
 20
5.2913074682
 30
0.0
 10
3.9449336918
 20
5.29263751
 30
0.0
 10
3.8829148953
 20
5.2933629632
 30
0.0
 10
3.8193722422
 20
5.2935866004
 30
0.0
 10
3.7544233392
 20
5.2934021213
 30
0.0
 10
3.6881859812
 20
5.2929034498
 30
0.0
 10
3.597636728
 20
5.2919372077
 30
0.0
 10
3.4821454778
 20
5.2904133126
 30
0.0
 10
3.341383888
 20
5.2886296951
 30
0.0
 10
3.1984796049
 20
5.2874049042
 30
0.0
 10
3.0544961522
 20
5.2869315153
 30
0.0
 10
2.9105126306
 20
5.2874048952
 30
0.0
 10
2.767608199
 20
5.2886296793
 30
0.0
 10
2.6268464393
 20
5.2904132999
 30
0.0
 10
2.5113550269
 20
5.2919371967
 30
0.0
 10
2.4208055919
 20
5.2929034343
 30
0.0
 10
2.3545680948
 20
5.293402104
 30
0.0
 10
2.2896191606
 20
5.2935865862
 30
0.0
 10
2.2260766525
 20
5.293362961
 30
0.0
 10
2.1640581076
 20
5.2926375287
 30
0.0
 10
2.1036806395
 20
5.2913074993
 30
0.0
 10
2.0450614206
 20
5.2892700425
 30
0.0
 10
2.0065968558
 20
5.2873397791
 30
0.0
 10
1.9876819679
 20
5.2862126509
 30
0.0
  0
SPLINE
  5
2F3
100
AcDbEntity
  8
0
100
AcDbSpline
 62
9
  6
CONTINUOUS
 70
0
 71
3
 72
17
 73
13
 74
0
 42
0.0000001
 43
0.0000001
 44
0.0000000001
 40
0.0
 40
0.0
 40
0.0
 40
0.0
 40
0.0928021008
 40
0.1957849772
 40
0.2518027112
 40
0.3108346683
 40
0.4372040829
 40
0.504238501
 40
0.5733046874
 40
0.7153242068
 40
0.8589372059
 40
1.0
 40
1.0
 40
1.0
 40
1.0
 10
4.1213087294
 20
5.2862126712
 30
0.0
 10
4.1229756113
 20
5.285700907
 30
0.0
 10
4.1263634791
 20
5.2841695347
 30
0.0
 10
4.1301604155
 20
5.2812852685
 30
0.0
 10
4.1330151784
 20
5.2783395886
 30
0.0
 10
4.1358566508
 20
5.2747966817
 30
0.0
 10
4.1383236233
 20
5.2707156588
 30
0.0
 10
4.1403754747
 20
5.2662279546
 30
0.0
 10
4.1422086265
 20
5.2613303091
 30
0.0
 10
4.1439286858
 20
5.254871635
 30
0.0
 10
4.1450576065
 20
5.2469186045
 30
0.0
 10
4.145252881
 20
5.2415624879
 30
0.0
 10
4.1452142932
 20
5.2389123172
 30
0.0
  0
SPLINE
  5
2F4
100
AcDbEntity
  8
0
100
AcDbSpline
 62
9
  6
CONTINUOUS
 70
0
 71
3
 72
43
 73
39
 74
0
 42
0.0000001
 43
0.0000001
 44
0.0000000001
 40
0.0
 40
0.0
 40
0.0
 40
0.0
 40
0.1138576633
 40
0.2222540605
 40
0.324801856
 40
0.4211138727
 40
0.5108056822
 40
0.5935733103
 40
0.6692073883
 40
0.7375035403
 40
0.7982569464
 40
0.8257417121
 40
0.851271775
 40
0.8748322731
 40
0.896408376
 40
0.9159852497
 40
0.9335480562
 40
0.949081954
 40
0.9625720982
 40
0.9685461229
 40
0.974003641
 40
0.9789427974
 40
0.9833622094
 40
0.9872616909
 40
0.9906412417
 40
0.9935008618
 40
0.9958405511
 40
0.9968154217
 40
0.9976603096
 40
0.9983752148
 40
0.9989601373
 40
0.9994150771
 40
0.9995938035
 40
0.9997400341
 40
0.9998537691
 40
0.9999350084
 40
0.9999837521
 40
1.0
 40
1.0
 40
1.0
 40
1.0
 10
4.1452124065
 20
5.238912414
 30
0.0
 10
4.1502301843
 20
5.2386623872
 30
0.0
 10
4.1600255102
 20
5.2381833191
 30
0.0
 10
4.174341836
 20
5.2375134253
 30
0.0
 10
4.187886294
 20
5.2369124029
 30
0.0
 10
4.2006077356
 20
5.2363831602
 30
0.0
 10
4.2124587138
 20
5.2359298271
 30
0.0
 10
4.223399373
 20
5.2355508251
 30
0.0
 10
4.2333975543
 20
5.2352363672
 30
0.0
 10
4.2424255885
 20
5.234977792
 30
0.0
 10
4.2493303225
 20
5.234795954
 30
0.0
 10
4.2543487963
 20
5.2346698709
 30
0.0
 10
4.2577266974
 20
5.2345873329
 30
0.0
 10
4.2608440062
 20
5.2345132995
 30
0.0
 10
4.2636987465
 20
5.2344473715
 30
0.0
 10
4.2662889442
 20
5.2343891688
 30
0.0
 10
4.268612625
 20
5.2343383078
 30
0.0
 10
4.2706678148
 20
5.2342944055
 30
0.0
 10
4.2722117774
 20
5.2342621186
 30
0.0
 10
4.2733112197
 20
5.2342394105
 30
0.0
 10
4.2740334294
 20
5.234224581
 30
0.0
 10
4.2746870568
 20
5.2342112017
 30
0.0
 10
4.2752719496
 20
5.2341992276
 30
0.0
 10
4.2757880388
 20
5.2341886624
 30
0.0
 10
4.2762353161
 20
5.2341795061
 30
0.0
 10
4.2766137818
 20
5.2341717581
 30
0.0
 10
4.2768861616
 20
5.2341661829
 30
0.0
 10
4.277069661
 20
5.2341624254
 30
0.0
 10
4.2771814781
 20
5.2341601391
 30
0.0
 10
4.2772761011
 20
5.2341581941
 30
0.0
 10
4.2773534963
 20
5.2341566321
 30
0.0
 10
4.2774072975
 20
5.23415548
 30
0.0
 10
4.2774416395
 20
5.2341548545
 30
0.0
 10
4.2774611269
 20
5.2341542932
 30
0.0
 10
4.2774758335
 20
5.2341544116
 30
0.0
 10
4.2774873681
 20
5.2341532269
 30
0.0
 10
4.2774924467
 20
5.2341547865
 30
0.0
 10
4.2774967345
 20
5.2341529769
 30
0.0
 10
4.2774968679
 20
5.2341536814
 30
0.0
  0
SPLINE
  5
2F5
100
AcDbEntity
  8
0
100
AcDbSpline
 62
9
  6
CONTINUOUS
 70
0
 71
3
 72
20
 73
16
 74
0
 42
0.0000001
 43
0.0000001
 44
0.0000000001
 40
0.0
 40
0.0
 40
0.0
 40
0.0
 40
0.1104869316
 40
0.1676928547
 40
0.2261198466
 40
0.2857028998
 40
0.3463775279
 40
0.4080837879
 40
0.4707642783
 40
0.5343605861
 40
0.5988134581
 40
0.6640630429
 40
0.7300475213
 40
0.8639550677
 40
1.0
 40
1.0
 40
1.0
 40
1.0
 10
1.9637814009
 20
5.238912535
 30
0.0
 10
1.9924034921
 20
5.2403633716
 30
0.0
 10
2.03586223
 20
5.2422412188
 30
0.0
 10
2.0944839892
 20
5.2441491236
 30
0.0
 10
2.1399185152
 20
5.245300577
 30
0.0
 10
2.1862596968
 20
5.2461424955
 30
0.0
 10
2.2334563675
 20
5.2466525112
 30
0.0
 10
2.2814586688
 20
5.2468559014
 30
0.0
 10
2.3302191174
 20
5.2468089921
 30
0.0
 10
2.3796913308
 20
5.2465608629
 30
0.0
 10
2.4298289181
 20
5.2461623461
 30
0.0
 10
2.4805850773
 20
5.2456647427
 30
0.0
 10
2.5493553496
 20
5.2449289983
 30
0.0
 10
2.6364872044
 20
5.2439310807
 30
0.0
 10
2.7065052127
 20
5.2431735239
 30
0.0
 10
2.7417917831
 20
5.2428298737
 30
0.0
  0
LINE
  5
2F6
100
AcDbEntity
  8
0
100
AcDbLine
 62
9
  6
CONTINUOUS
 10
2.7417917831
 20
5.2428298737
 11
2.7601211892
 21
5.2426549245
  0
LINE
  5
2F7
100
AcDbEntity
  8
0
100
AcDbLine
 62
9
  6
CONTINUOUS
 10
3.3489105243
 20
5.2426553133
 11
3.3671987757
 21
5.2428298792
  0
SPLINE
  5
2F8
100
AcDbEntity
  8
0
100
AcDbSpline
 62
9
  6
CONTINUOUS
 70
0
 71
3
 72
20
 73
16
 74
0
 42
0.0000001
 43
0.0000001
 44
0.0000000001
 40
0.0
 40
0.0
 40
0.0
 40
0.0
 40
0.1360450263
 40
0.2699526555
 40
0.3359371714
 40
0.4011867892
 40
0.4656396856
 40
0.5292360075
 40
0.5919165001
 40
0.6536227483
 40
0.7142973491
 40
0.7738803631
 40
0.8323073072
 40
0.8895131771
 40
1.0
 40
1.0
 40
1.0
 40
1.0
 10
3.3671987757
 20
5.2428298792
 30
0.0
 10
3.4024855182
 20
5.2431735338
 30
0.0
 10
3.4725038654
 20
5.2439311048
 30
0.0
 10
3.5596361407
 20
5.2449290257
 30
0.0
 10
3.6284067411
 20
5.2456647425
 30
0.0
 10
3.6791631377
 20
5.2461623123
 30
0.0
 10
3.7293009537
 20
5.2465608077
 30
0.0
 10
3.7787733849
 20
5.2468089302
 30
0.0
 10
3.8275340387
 20
5.2468558563
 30
0.0
 10
3.8755365316
 20
5.2466525103
 30
0.0
 10
3.9227333806
 20
5.2461425841
 30
0.0
 10
3.9690747281
 20
5.2453007441
 30
0.0
 10
4.0145094093
 20
5.2441493334
 30
0.0
 10
4.0731313592
 20
5.2422414073
 30
0.0
 10
4.1165902328
 20
5.2403634235
 30
0.0
 10
4.1452124067
 20
5.2389124034
 30
0.0
  0
LINE
  5
2F9
100
AcDbEntity
  8
0
100
AcDbLine
 62
7
  6
CONTINUOUS
 10
1.8065052684
 20
3.9790030909
 11
1.8062982375
 21
3.978651862
  0
SPLINE
  5
2FA
100
AcDbEntity
  8
0
100
AcDbSpline
 62
7
  6
CONTINUOUS
 70
0
 71
3
 72
9
 73
5
 74
0
 42
0.0000001
 43
0.0000001
 44
0.0000000001
 40
0.0
 40
0.0
 40
0.0
 40
0.0
 40
0.2561505189
 40
1.0
 40
1.0
 40
1.0
 40
1.0
 10
1.8062982375
 20
3.978651862
 30
0.0
 10
1.8051218805
 20
3.976650874
 30
0.0
 10
1.8006856238
 20
3.9687500921
 30
0.0
 10
1.7969199229
 20
3.9604591556
 30
0.0
 10
1.7946520481
 20
3.9541115939
 30
0.0
  0
SPLINE
  5
2FB
100
AcDbEntity
  8
0
100
AcDbSpline
 62
7
  6
CONTINUOUS
 70
0
 71
3
 72
9
 73
5
 74
0
 42
0.0000001
 43
0.0000001
 44
0.0000000001
 40
0.0
 40
0.0
 40
0.0
 40
0.0
 40
0.2562806256
 40
1.0
 40
1.0
 40
1.0
 40
1.0
 10
2.2937352841
 20
3.1816008732
 30
0.0
 10
2.2949404149
 20
3.1836399872
 30
0.0
 10
2.2994813642
 20
3.191688966
 30
0.0
 10
2.3033284768
 20
3.2001441014
 30
0.0
 10
2.3056340974
 20
3.2066195294
 30
0.0
  0
SPLINE
  5
2FC
100
AcDbEntity
  8
0
100
AcDbSpline
 62
7
  6
CONTINUOUS
 70
0
 71
3
 72
9
 73
5
 74
0
 42
0.0000001
 43
0.0000001
 44
0.0000000001
 40
0.0
 40
0.0
 40
0.0
 40
0.0
 40
0.2443506575
 40
1.0
 40
1.0
 40
1.0
 40
1.0
 10
1.7946532823
 20
3.2064887539
 30
0.0
 10
1.7953983388
 20
3.2044036074
 30
0.0
 10
1.798681395
 20
3.19595402
 30
0.0
 10
1.8028288301
 20
3.1878532521
 30
0.0
 10
1.8062992203
 20
3.1819502567
 30
0.0
  0
LINE
  5
2FD
100
AcDbEntity
  8
0
100
AcDbLine
 62
7
  6
CONTINUOUS
 10
1.8062992203
 20
3.1819502567
 11
1.8065071039
 21
3.1815975939
  0
ENDSEC
  0
SECTION
  2
OBJECTS
  0
DICTIONARY
  5
C
100
AcDbDictionary
280
0
281
1
  3
ACAD_GROUP
350
D
  3
ACAD_MLINESTYLE
350
17
  3
ACAD_LAYOUT
350
1A
  3
ACAD_PLOTSETTINGS
350
19
  3
ACAD_PLOTSTYLENAME
350
E
  0
DICTIONARY
  5
D
102
{ACAD_REACTORS
330
C
102
}
100
AcDbDictionary
280
0
281
1
  0
ACDBDICTIONARYWDFLT
  5
E
102
{ACAD_REACTORS
330
C
102
}
100
AcDbDictionary
281
1
  3
Normal
350
F
100
AcDbDictionaryWithDefault
340
F
  0
DICTIONARY
  5
17
102
{ACAD_REACTORS
330
C
102
}
100
AcDbDictionary
280
0
281
1
  3
Standard
350
18
  0
DICTIONARY
  5
19
102
{ACAD_REACTORS
330
C
102
}
100
AcDbDictionary
281
1
  0
DICTIONARY
  5
1A
102
{ACAD_REACTORS
330
C
102
}
100
AcDbDictionary
281
1
  3
Model
350
2FE
  3
Layout1
350
2FF
  0
ACDBPLACEHOLDER
  5
F
102
{ACAD_REACTORS
330
E
102
}
  0
MLINESTYLE
  5
18
102
{ACAD_REACTORS
330
17
102
}
100
AcDbMlineStyle
  2
STANDARD
 70
0
  3

 62
256
 51
90.0
 52
90.0
 71
2
 49
0.5
 62
256
  6
BYLAYER
 49
-0.5
 62
256
  6
BYLAYER
  0
LAYOUT
  5
2FE
102
{ACAD_REACTORS
330
1A
102
}
100
AcDbPlotSettings
  1

  2
none_device
  4
ANSI_A_(11.00_x_8.50_Inches)
  6

 40
0.0
 41
0.0
 42
0.0
 43
0.0
 44
279.4
 45
215.9
 46
0.0
 47
0.0
 48
0.0
 49
0.0
140
0.0
141
0.0
142
1.0
143
1.0
 70
1024
 72
0
 73
0
 74
0
  7

 75
0
147
1.0
148
0.0
149
0.0
100
AcDbLayout
  1
Model
 70
0
 71
0
 10
0.0
 20
0.0
 11
11.0
 21
8.5
 12
0.0
 22
0.0
 32
0.0
 14
0.0
 24
0.0
 34
0.0
 15
0.0
 25
0.0
 35
0.0
146
0.0
 13
0.0
 23
0.0
 33
0.0
 16
1.0
 26
0.0
 36
0.0
 17
0.0
 27
1.0
 37
0.0
 76
0
330
21B
345
0
346
0
  0
LAYOUT
  5
2FF
102
{ACAD_REACTORS
330
1A
102
}
100
AcDbPlotSettings
  1

  2
none_device
  4
ANSI_A_(11.00_x_8.50_Inches)
  6

 40
0.0
 41
0.0
 42
0.0
 43
0.0
 44
279.4
 45
215.9
 46
0.0
 47
0.0
 48
0.0
 49
0.0
140
0.0
141
0.0
142
1.0
143
1.0
 70
0
 72
0
 73
0
 74
0
  7

 75
0
147
1.0
148
0.0
149
0.0
100
AcDbLayout
  1
Layout1
 70
0
 71
1
 10
0.0
 20
0.0
 11
11.0
 21
8.5
 12
0.0
 22
0.0
 32
0.0
 14
0.0
 24
0.0
 34
0.0
 15
0.0
 25
0.0
 35
0.0
146
0.0
 13
0.0
 23
0.0
 33
0.0
 16
1.0
 26
0.0
 36
0.0
 17
0.0
 27
1.0
 37
0.0
 76
0
330
21C
345
0
346
0
  0
ENDSEC
  0
EOF
