999
DXF file: C:\Prowork\plots\417_top.dxf
999
Pro/ENGINEER 2018500 by Parametric Technology Corporation
  0
SECTION
  2
HEADER
  9
$ACADVER
  1
AC1032
  9
$DWGCODEPAGE
  3
ANSI_1252
  9
$EXTMAX
 10
11.0
 20
8.5
 30
0.0
  9
$EXTMIN
 10
0.0
 20
0.0
 30
0.0
  9
$LIMMIN
 10
0.0
 20
0.0
  9
$LIMMAX
 10
11.0
 20
8.5
  9
$VIEWCTR
 10
5.5
 20
4.25
  9
$VIEWSIZE
 40
8.5
  9
$CLAYER
  8
0
  9
$LTSCALE
 40
0.605
  9
$CELTYPE
  6
BYLAYER
  9
$DIMSCALE
 40
1.0
  9
$DIMASZ
 40
0.1
  9
$DIMEXO
 40
0.0625
  9
$DIMDLI
 40
0.418
  9
$DIMEXE
 40
0.125
  9
$DIMCEN
 40
0.099
  9
$DIMLFAC
 40
1.0
  9
$DIMBLK
  1
_FILLED
  9
$DIMALT
 70
1
  9
$DIMALTD
 70
2
  9
$DIMALTTD
 70
2
  9
$DIMALTF
 40
25.4
  9
$DIMTXT
 40
0.08
  9
$DIMTOL
 70
1
  9
$DIMLIM
 70
0
  9
$DIMTFAC
 40
1.0
  9
$DIMTP
 40
0.001
  9
$DIMTM
 40
0.001
  9
$DIMGAP
 40
0.09
  9
$DIMDSEP
 70
46
  9
$AUNITS
 70
0
  9
$PDMODE
 70
3
  9
$PDSIZE
 40
0.06
  9
$HANDSEED
  5
27E
  9
$TILEMODE
 70
1
  9
$MEASUREMENT
 70
0
  9
$INSUNITS
 70
1
  0
ENDSEC
  0
SECTION
  2
CLASSES
  0
CLASS
  1
ACDBDICTIONARYWDFLT
  2
AcDbDictionaryWithDefault
  3
AutoCAD 2000
 90
0
 91
1
280
0
281
0
  0
CLASS
  1
ACDBPLACEHOLDER
  2
AcDbPlaceHolder
  3
AutoCAD 2000
 90
0
 91
1
280
0
281
0
  0
CLASS
  1
LAYOUT
  2
AcDbLayout
  3
AutoCAD 2000
 90
0
 91
0
280
0
281
0
  0
ENDSEC
  0
SECTION
  2
TABLES
  0
TABLE
  2
VPORT
  5
8
100
AcDbSymbolTable
 70
2
  0
VPORT
  5
1F4
100
AcDbSymbolTableRecord
100
AcDbViewportTableRecord
  2
*ACTIVE
 70
0
 10
0.0
 20
0.0
 11
1.0
 21
1.0
 12
5.5
 22
4.25
 13
0.0
 23
0.0
 14
1.0
 24
1.0
 15
0.0
 25
0.0
 16
0.0
 26
0.0
 36
1.0
 17
0.0
 27
0.0
 37
0.0
 40
8.5
 41
1.2941176471
 42
50.0
 43
0.0
 44
0.0
 50
0.0
 51
0.0
 71
0
 72
100
 73
1
 74
1
 75
0
 76
0
 77
0
 78
0
  0
ENDTAB
  0
TABLE
  2
LTYPE
  5
5
100
AcDbSymbolTable
 70
6
  0
LTYPE
  5
14
100
AcDbSymbolTableRecord
100
AcDbLinetypeTableRecord
  2
BYBLOCK
 70
0
  3

 72
65
 73
0
 40
0.0
  0
LTYPE
  5
15
100
AcDbSymbolTableRecord
100
AcDbLinetypeTableRecord
  2
BYLAYER
 70
0
  3

 72
65
 73
0
 40
0.0
  0
LTYPE
  5
16
100
AcDbSymbolTableRecord
100
AcDbLinetypeTableRecord
  2
CONTINUOUS
 70
64
  3
Solid line
 72
65
 73
0
 40
0.0
  0
LTYPE
  5
1F5
100
AcDbSymbolTableRecord
100
AcDbLinetypeTableRecord
  2
CENTER
 70
64
  3
____ _ ____ _ ____ _ ____ _ ____ _ ____ _ ____
 72
65
 73
4
 40
0.6
 49
0.375
 74
0
 49
-0.075
 74
0
 49
0.075
 74
0
 49
-0.075
 74
0
  0
LTYPE
  5
1F6
100
AcDbSymbolTableRecord
100
AcDbLinetypeTableRecord
  2
HIDDEN
 70
64
  3
- - - - - - - - - - - - - - - - - - - -
 72
65
 73
2
 40
0.2
 49
0.1
 74
0
 49
-0.1
 74
0
  0
LTYPE
  5
1F7
100
AcDbSymbolTableRecord
100
AcDbLinetypeTableRecord
  2
PHANTOM
 70
64
  3
_____ _ _ _____ _ _ _____ _ _ _____
 72
65
 73
6
 40
0.8
 49
0.45
 74
0
 49
-0.05
 74
0
 49
0.1
 74
0
 49
-0.05
 74
0
 49
0.1
 74
0
 49
-0.05
 74
0
  0
LTYPE
  5
1F8
100
AcDbSymbolTableRecord
100
AcDbLinetypeTableRecord
  2
DOT
 70
64
  3
. . . . . . . . . . . . . . . . . . . .
 72
65
 73
2
 40
0.2
 49
0.1
 74
0
 49
-0.1
 74
0
  0
LTYPE
  5
1F9
100
AcDbSymbolTableRecord
100
AcDbLinetypeTableRecord
  2
DASHED
 70
64
  3
- - - - - - - - - - - - - - - - - - - -
 72
65
 73
2
 40
0.2
 49
0.1
 74
0
 49
-0.1
 74
0
  0
ENDTAB
  0
TABLE
  2
LAYER
  5
2
100
AcDbSymbolTable
 70
36
  0
LAYER
  5
10
100
AcDbSymbolTableRecord
100
AcDbLayerTableRecord
  2
0
 70
0
 62
7
  6
CONTINUOUS
370
-3
390
F
  0
LAYER
  5
1FA
100
AcDbSymbolTableRecord
100
AcDbLayerTableRecord
  2
DEFAULT_1
 70
0
 62
7
  6
CENTER
370
-3
390
F
  0
LAYER
  5
1FB
100
AcDbSymbolTableRecord
100
AcDbLayerTableRecord
  2
DEFAULT_2
 70
0
 62
8
  6
HIDDEN
370
-3
390
F
  0
LAYER
  5
1FC
100
AcDbSymbolTableRecord
100
AcDbLayerTableRecord
  2
DEFAULT_3
 70
0
 62
7
  6
PHANTOM
370
-3
390
F
  0
LAYER
  5
1FD
100
AcDbSymbolTableRecord
100
AcDbLayerTableRecord
  2
50350
 70
0
 62
7
  6
CONTINUOUS
370
-3
390
F
  0
LAYER
  5
1FE
100
AcDbSymbolTableRecord
100
AcDbLayerTableRecord
  2
50355
 70
0
 62
7
  6
CONTINUOUS
370
-3
390
F
  0
LAYER
  5
1FF
100
AcDbSymbolTableRecord
100
AcDbLayerTableRecord
  2
50359
 70
0
 62
7
  6
CONTINUOUS
370
-3
390
F
  0
LAYER
  5
200
100
AcDbSymbolTableRecord
100
AcDbLayerTableRecord
  2
50674
 70
0
 62
7
  6
CONTINUOUS
370
-3
390
F
  0
LAYER
  5
201
100
AcDbSymbolTableRecord
100
AcDbLayerTableRecord
  2
50675
 70
0
 62
7
  6
CONTINUOUS
370
-3
390
F
  0
LAYER
  5
202
100
AcDbSymbolTableRecord
100
AcDbLayerTableRecord
  2
50677
 70
0
 62
7
  6
CONTINUOUS
370
-3
390
F
  0
LAYER
  5
203
100
AcDbSymbolTableRecord
100
AcDbLayerTableRecord
  2
50685
 70
0
 62
7
  6
CONTINUOUS
370
-3
390
F
  0
LAYER
  5
204
100
AcDbSymbolTableRecord
100
AcDbLayerTableRecord
  2
50686
 70
0
 62
7
  6
CONTINUOUS
370
-3
390
F
  0
LAYER
  5
205
100
AcDbSymbolTableRecord
100
AcDbLayerTableRecord
  2
50854
 70
0
 62
7
  6
CONTINUOUS
370
-3
390
F
  0
LAYER
  5
206
100
AcDbSymbolTableRecord
100
AcDbLayerTableRecord
  2
6-417
 70
0
 62
7
  6
CONTINUOUS
370
-3
390
F
  0
LAYER
  5
207
100
AcDbSymbolTableRecord
100
AcDbLayerTableRecord
  2
92073
 70
0
 62
7
  6
CONTINUOUS
370
-3
390
F
  0
LAYER
  5
208
100
AcDbSymbolTableRecord
100
AcDbLayerTableRecord
  2
DEFAULT_COORDINATE_SYSTEM
 70
0
 62
7
  6
CONTINUOUS
370
-3
390
F
  0
LAYER
  5
209
100
AcDbSymbolTableRecord
100
AcDbLayerTableRecord
  2
DEFAULT_DATUM_AXES
 70
0
 62
7
  6
CONTINUOUS
370
-3
390
F
  0
LAYER
  5
20A
100
AcDbSymbolTableRecord
100
AcDbLayerTableRecord
  2
DEFAULT_DATUM_PLANES
 70
0
 62
7
  6
CONTINUOUS
370
-3
390
F
  0
LAYER
  5
20B
100
AcDbSymbolTableRecord
100
AcDbLayerTableRecord
  2
INTF_50350
 70
0
 62
7
  6
CONTINUOUS
370
-3
390
F
  0
LAYER
  5
20C
100
AcDbSymbolTableRecord
100
AcDbLayerTableRecord
  2
INTF_50355
 70
0
 62
7
  6
CONTINUOUS
370
-3
390
F
  0
LAYER
  5
20D
100
AcDbSymbolTableRecord
100
AcDbLayerTableRecord
  2
INTF_50359
 70
0
 62
7
  6
CONTINUOUS
370
-3
390
F
  0
LAYER
  5
20E
100
AcDbSymbolTableRecord
100
AcDbLayerTableRecord
  2
INTF_50674
 70
0
 62
7
  6
CONTINUOUS
370
-3
390
F
  0
LAYER
  5
20F
100
AcDbSymbolTableRecord
100
AcDbLayerTableRecord
  2
INTF_50675
 70
0
 62
7
  6
CONTINUOUS
370
-3
390
F
  0
LAYER
  5
210
100
AcDbSymbolTableRecord
100
AcDbLayerTableRecord
  2
INTF_50677
 70
0
 62
7
  6
CONTINUOUS
370
-3
390
F
  0
LAYER
  5
211
100
AcDbSymbolTableRecord
100
AcDbLayerTableRecord
  2
INTF_50685
 70
0
 62
7
  6
CONTINUOUS
370
-3
390
F
  0
LAYER
  5
212
100
AcDbSymbolTableRecord
100
AcDbLayerTableRecord
  2
INTF_50686
 70
0
 62
7
  6
CONTINUOUS
370
-3
390
F
  0
LAYER
  5
213
100
AcDbSymbolTableRecord
100
AcDbLayerTableRecord
  2
INTF_50854
 70
0
 62
7
  6
CONTINUOUS
370
-3
390
F
  0
LAYER
  5
214
100
AcDbSymbolTableRecord
100
AcDbLayerTableRecord
  2
INTF_92073
 70
0
 62
7
  6
CONTINUOUS
370
-3
390
F
  0
LAYER
  5
215
100
AcDbSymbolTableRecord
100
AcDbLayerTableRecord
  2
INTF_BLANK
 70
0
 62
7
  6
CONTINUOUS
370
-3
390
F
  0
LAYER
  5
216
100
AcDbSymbolTableRecord
100
AcDbLayerTableRecord
  2
NONE
 70
0
 62
7
  6
CONTINUOUS
370
-3
390
F
  0
LAYER
  5
217
100
AcDbSymbolTableRecord
100
AcDbLayerTableRecord
  2
PLATED_SURFACE
 70
0
 62
7
  6
CONTINUOUS
370
-3
390
F
  0
LAYER
  5
218
100
AcDbSymbolTableRecord
100
AcDbLayerTableRecord
  2
_BLACK_HOLE
 70
0
 62
7
  6
CONTINUOUS
370
-3
390
F
  0
ENDTAB
  0
TABLE
  2
STYLE
  5
3
100
AcDbSymbolTable
 70
1
  0
STYLE
  5
11
100
AcDbSymbolTableRecord
100
AcDbTextStyleTableRecord
  2
STANDARD
 70
0
 40
0.0
 41
0.8
 50
0.0
 71
0
 42
0.2
  3
txt
  4

  0
STYLE
  5
219
100
AcDbSymbolTableRecord
100
AcDbTextStyleTableRecord
  2
TEXTSTYLE_1
 70
0
 40
0.0
 41
0.8
 50
0.0
 71
0
 42
0.2
  3
gdt
  4

  0
ENDTAB
  0
TABLE
  2
VIEW
  5
6
100
AcDbSymbolTable
 70
0
  0
ENDTAB
  0
TABLE
  2
UCS
  5
7
100
AcDbSymbolTable
 70
0
  0
ENDTAB
  0
TABLE
  2
APPID
  5
9
100
AcDbSymbolTable
 70
1
  0
APPID
  5
21A
100
AcDbSymbolTableRecord
100
AcDbRegAppTableRecord
  2
ACAD
 70
0
  0
ENDTAB
  0
TABLE
  2
BLOCK_RECORD
  5
1
100
AcDbSymbolTable
 70
0
  0
BLOCK_RECORD
  5
21B
100
AcDbSymbolTableRecord
100
AcDbBlockTableRecord
  2
*Model_Space
  0
BLOCK_RECORD
  5
21C
100
AcDbSymbolTableRecord
100
AcDbBlockTableRecord
  2
*Paper_Space
  0
BLOCK_RECORD
  5
21D
100
AcDbSymbolTableRecord
100
AcDbBlockTableRecord
  2
_FILLED
  0
ENDTAB
  0
TABLE
  2
DIMSTYLE
  5
A
100
AcDbSymbolTable
 70
1
100
AcDbDimStyleTable
 71
0
  0
DIMSTYLE
105
21E
100
AcDbSymbolTableRecord
100
AcDbDimStyleTableRecord
  2
STANDARD
 70
0
  3

  4

 40
1.0
 41
0.1
 42
0.0625
 43
0.38
 44
0.125
 45
0.0
 46
0.0
 47
0.001
 48
0.001
140
0.08
141
0.09
142
0.0
143
25.4
144
1.0
145
0.0
146
1.0
147
0.09
 71
1.0
 72
0.0
 73
1
 74
1
 75
0
 76
0
 77
0
 78
4
 79
1
170
1
171
2
172
0
173
0
174
0
175
0
176
0
177
0
178
0
270
2
179
3
271
3
272
3
273
2
274
2
275
0
280
0
281
0
282
0
283
1
284
4
285
0
286
0
287
3
288
0
340
11
278
46
341
21D
342
21D
343
21D
344
21D
  0
ENDTAB
  0
ENDSEC
  0
SECTION
  2
BLOCKS
  0
BLOCK
  5
20
100
AcDbEntity
  8
0
100
AcDbBlockBegin
  2
*Model_Space
 70
0
 10
0.0
 20
0.0
 30
0.0
  3
*Model_Space
  1

  0
ENDBLK
  5
21
100
AcDbEntity
  8
0
100
AcDbBlockEnd
  0
BLOCK
  5
1C
100
AcDbEntity
  8
0
100
AcDbBlockBegin
  2
*Paper_Space
 70
0
 10
0.0
 20
0.0
 30
0.0
  3
*Paper_Space
  1

  0
ENDBLK
  5
1D
100
AcDbEntity
  8
0
100
AcDbBlockEnd
  0
BLOCK
  5
21F
100
AcDbEntity
  8
0
100
AcDbBlockBegin
  2
_FILLED
 70
64
 10
0.0
 20
0.0
  3
_FILLED
  1

  0
SOLID
  5
220
100
AcDbEntity
  8
0
  6
BYBLOCK
 62
0
100
AcDbTrace
 10
0.0
 20
0.0
 11
-1.0
 21
0.2
 12
-1.0
 22
-0.2
 13
-1.0
 23
-0.2
  0
ENDBLK
  5
221
100
AcDbEntity
  8
0
  6
BYBLOCK
 62
0
100
AcDbBlockEnd
  0
ENDSEC
  0
SECTION
  2
ENTITIES
  0
MTEXT
  5
222
100
AcDbEntity
  8
0
100
AcDbMText
 62
7
  6
CONTINUOUS
  7
STANDARD
 71
1
 72
1
 10
9.0683812112
 20
0.3152038043
 30
0.0
 11
1.0
 21
0.0
 31
0.0
 73
2
 44
0.9
  1
SCALE: 1.25
 40
0.08
 41
0.704
  0
LINE
  5
223
100
AcDbEntity
  8
0
100
AcDbLine
 62
7
  6
CONTINUOUS
 10
0.0
 20
0.0
 11
0.0
 21
8.5
  0
LINE
  5
224
100
AcDbEntity
  8
0
100
AcDbLine
 62
7
  6
CONTINUOUS
 10
0.0
 20
0.0
 11
11.0
 21
0.0
  0
LINE
  5
225
100
AcDbEntity
  8
0
100
AcDbLine
 62
7
  6
CONTINUOUS
 10
0.0
 20
8.5
 11
11.0
 21
8.5
  0
LINE
  5
226
100
AcDbEntity
  8
0
100
AcDbLine
 62
7
  6
CONTINUOUS
 10
11.0
 20
0.0
 11
11.0
 21
8.5
  0
LINE
  5
227
100
AcDbEntity
  8
0
100
AcDbLine
 62
7
  6
CONTINUOUS
 10
5.2102581521
 20
0.2183016304
 11
5.9915081523
 21
0.2183016304
  0
LINE
  5
228
100
AcDbEntity
  8
0
100
AcDbLine
 62
7
  6
CONTINUOUS
 10
5.467143871
 20
1.4648641304
 11
5.5313122523
 21
1.4648641304
  0
LINE
  5
229
100
AcDbEntity
  8
0
100
AcDbLine
 62
7
  6
CONTINUOUS
 10
5.5724058476
 20
1.4648641304
 11
5.7346224333
 21
1.4648641304
  0
LINE
  5
22A
100
AcDbEntity
  8
0
100
AcDbLine
 62
7
  6
CONTINUOUS
 10
5.6205706522
 20
1.4845516304
 11
5.5811956522
 21
1.4845516304
  0
LINE
  5
22B
100
AcDbEntity
  8
0
100
AcDbLine
 62
7
  6
CONTINUOUS
 10
5.5313122523
 20
1.5042391304
 11
5.467143871
 21
1.5042391304
  0
LINE
  5
22C
100
AcDbEntity
  8
0
100
AcDbLine
 62
7
  6
CONTINUOUS
 10
5.5811956522
 20
1.5042391304
 11
5.7346224333
 21
1.5042391304
  0
LINE
  5
22D
100
AcDbEntity
  8
0
100
AcDbLine
 62
9
  6
CONTINUOUS
 10
5.886055275
 20
0.388895915
 11
5.8800374989
 21
0.3938376897
  0
LINE
  5
22E
100
AcDbEntity
  8
0
100
AcDbLine
 62
7
  6
CONTINUOUS
 10
5.0990081522
 20
2.4470516304
 11
5.2175927355
 21
2.4470516304
  0
LINE
  5
22F
100
AcDbEntity
  8
0
100
AcDbLine
 62
7
  6
CONTINUOUS
 10
5.984170079
 20
2.4470516304
 11
6.1027581522
 21
2.4470516304
  0
LINE
  5
230
100
AcDbEntity
  8
0
100
AcDbLine
 62
7
  6
CONTINUOUS
 10
5.5811956522
 20
1.5042391304
 11
5.6205706522
 21
1.4648641304
  0
LINE
  5
231
100
AcDbEntity
  8
0
100
AcDbLine
 62
9
  6
CONTINUOUS
 10
5.3157110294
 20
2.5802073458
 11
5.3217288019
 21
2.5752655669
  0
LINE
  5
232
100
AcDbEntity
  8
0
100
AcDbLine
 62
7
  6
CONTINUOUS
 10
5.0990081522
 20
2.4470516304
 11
5.0990081522
 21
2.2417559072
  0
LINE
  5
233
100
AcDbEntity
  8
0
100
AcDbLine
 62
7
  6
CONTINUOUS
 10
5.1696331522
 20
2.4470516304
 11
5.1696331522
 21
5.7392812684
  0
LINE
  5
234
100
AcDbEntity
  8
0
100
AcDbLine
 62
7
  6
CONTINUOUS
 10
5.1696331522
 20
7.1095516304
 11
5.1696331522
 21
8.3220516304
  0
LINE
  5
235
100
AcDbEntity
  8
0
100
AcDbLine
 62
7
  6
CONTINUOUS
 10
5.2102581522
 20
0.2183016304
 11
5.2102581522
 21
0.5327544628
  0
LINE
  5
236
100
AcDbEntity
  8
0
100
AcDbLine
 62
7
  6
CONTINUOUS
 10
5.5811956522
 20
1.3508123493
 11
5.5811956522
 21
1.4149807305
  0
LINE
  5
237
100
AcDbEntity
  8
0
100
AcDbLine
 62
7
  6
CONTINUOUS
 10
5.5811956522
 20
1.4648641304
 11
5.5811956522
 21
1.6182909116
  0
LINE
  5
238
100
AcDbEntity
  8
0
100
AcDbLine
 62
7
  6
CONTINUOUS
 10
5.6008831522
 20
1.6814266304
 11
5.6008831522
 21
1.6733524966
  0
LINE
  5
239
100
AcDbEntity
  8
0
100
AcDbLine
 62
7
  6
CONTINUOUS
 10
5.6008831522
 20
1.2957507642
 11
5.6008831522
 21
1.2876766304
  0
LINE
  5
23A
100
AcDbEntity
  8
0
100
AcDbLine
 62
7
  6
CONTINUOUS
 10
5.6008831522
 20
1.4648641304
 11
5.6008831522
 21
1.5042391304
  0
LINE
  5
23B
100
AcDbEntity
  8
0
100
AcDbLine
 62
7
  6
CONTINUOUS
 10
5.6205706522
 20
1.3508123493
 11
5.6205706522
 21
1.4149807305
  0
LINE
  5
23C
100
AcDbEntity
  8
0
100
AcDbLine
 62
7
  6
CONTINUOUS
 10
5.6205706522
 20
1.4648641304
 11
5.6205706522
 21
1.6182909116
  0
LINE
  5
23D
100
AcDbEntity
  8
0
100
AcDbLine
 62
7
  6
CONTINUOUS
 10
6.2571331522
 20
5.7392812684
 11
7.1008831522
 21
7.1095516304
  0
LINE
  5
23E
100
AcDbEntity
  8
0
100
AcDbLine
 62
7
  6
CONTINUOUS
 10
4.1008831522
 20
7.1095516304
 11
4.9446331522
 21
5.7392812684
  0
LINE
  5
23F
100
AcDbEntity
  8
0
100
AcDbLine
 62
7
  6
CONTINUOUS
 10
5.9915081522
 20
0.2183016304
 11
5.9915081522
 21
0.532748862
  0
LINE
  5
240
100
AcDbEntity
  8
0
100
AcDbLine
 62
7
  6
CONTINUOUS
 10
6.0321331522
 20
2.4470516304
 11
6.0321331522
 21
5.7392812684
  0
LINE
  5
241
100
AcDbEntity
  8
0
100
AcDbLine
 62
7
  6
CONTINUOUS
 10
6.0321331522
 20
7.1095516304
 11
6.0321331522
 21
8.3220516304
  0
LINE
  5
242
100
AcDbEntity
  8
0
100
AcDbLine
 62
7
  6
CONTINUOUS
 10
6.1027581522
 20
2.2417635755
 11
6.1027581522
 21
2.4470516304
  0
LINE
  5
243
100
AcDbEntity
  8
0
100
AcDbLine
 62
7
  6
CONTINUOUS
 10
6.2571331522
 20
5.7392812684
 11
4.9446331522
 21
5.7392812684
  0
LINE
  5
244
100
AcDbEntity
  8
0
100
AcDbLine
 62
9
  6
CONTINUOUS
 10
5.886055275
 20
2.5802073458
 11
5.8800349433
 21
2.5752686953
  0
LINE
  5
245
100
AcDbEntity
  8
0
100
AcDbLine
 62
7
  6
CONTINUOUS
 10
5.6205706522
 20
1.5042391304
 11
5.5811956522
 21
1.4648641304
  0
LINE
  5
246
100
AcDbEntity
  8
0
100
AcDbLine
 62
9
  6
CONTINUOUS
 10
5.3217313598
 20
0.3938345665
 11
5.3157110294
 21
0.388895915
  0
LINE
  5
247
100
AcDbEntity
  8
0
100
AcDbLine
 62
7
  6
CONTINUOUS
 10
5.5679723613
 20
1.4738582663
 11
5.5697706664
 21
1.474442571
  0
LINE
  5
248
100
AcDbEntity
  8
0
100
AcDbLine
 62
7
  6
CONTINUOUS
 10
4.1008831522
 20
7.1095516304
 11
7.1008831522
 21
7.1095516304
  0
LINE
  5
249
100
AcDbEntity
  8
0
100
AcDbLine
 62
7
  6
CONTINUOUS
 10
5.1696674568
 20
8.3220516304
 11
6.0320988475
 21
8.3220516304
  0
ARC
  5
24A
100
AcDbEntity
  8
0
100
AcDbCircle
 62
7
  6
CONTINUOUS
 10
4.5495444098
 20
1.4845516304
 40
1.7282137424
100
AcDbArc
 50
320.6555074171
 51
39.3444925829
  0
ARC
  5
24B
100
AcDbEntity
  8
0
100
AcDbCircle
 62
7
  6
CONTINUOUS
 10
5.2061060386
 20
1.4845516304
 40
0.5288829522
100
AcDbArc
 50
357.866689923
 51
2.133310077
  0
ARC
  5
24C
100
AcDbEntity
  8
0
100
AcDbCircle
 62
7
  6
CONTINUOUS
 10
5.6008821058
 20
1.089789003
 40
0.5288684372
100
AcDbArc
 50
89.9998866427
 51
92.1332552177
  0
ARC
  5
24D
100
AcDbEntity
  8
0
100
AcDbCircle
 62
7
  6
CONTINUOUS
 10
5.5313325401
 20
1.4150010831
 40
0.0498124494
100
AcDbArc
 50
37.5217795722
 51
52.4620240287
  0
ARC
  5
24E
100
AcDbEntity
  8
0
100
AcDbCircle
 62
7
  6
CONTINUOUS
 10
5.6008786884
 20
1.8791306947
 40
0.528684874
100
AcDbArc
 50
267.866374379
 51
270.0004837606
  0
ARC
  5
24F
100
AcDbEntity
  8
0
100
AcDbCircle
 62
7
  6
CONTINUOUS
 10
5.5313325776
 20
1.5541022
 40
0.0498124385
100
AcDbArc
 50
307.5274913026
 51
322.4677741396
  0
ARC
  5
250
100
AcDbEntity
  8
0
100
AcDbCircle
 62
7
  6
CONTINUOUS
 10
5.595393334
 20
1.4920134198
 40
0.031071336
100
AcDbArc
 50
208.3923831155
 51
210.825139514
  0
ARC
  5
251
100
AcDbEntity
  8
0
100
AcDbCircle
 62
7
  6
CONTINUOUS
 10
5.5951186712
 20
1.4918481846
 40
0.0307503437
100
AcDbArc
 50
208.3657617415
 51
211.982430062
  0
ARC
  5
252
100
AcDbEntity
  8
0
100
AcDbCircle
 62
7
  6
CONTINUOUS
 10
5.5943889465
 20
1.4914118756
 40
0.0299005901
100
AcDbArc
 50
210.8215002422
 51
212.7078369506
  0
ARC
  5
253
100
AcDbEntity
  8
0
100
AcDbCircle
 62
7
  6
CONTINUOUS
 10
5.5938957309
 20
1.4910925447
 40
0.029312802
100
AcDbArc
 50
211.9957211362
 51
214.6115946059
  0
ARC
  5
254
100
AcDbEntity
  8
0
100
AcDbCircle
 62
7
  6
CONTINUOUS
 10
5.5935146162
 20
1.4908468121
 40
0.0288595614
100
AcDbArc
 50
212.7018490008
 51
214.6398537025
  0
ARC
  5
255
100
AcDbEntity
  8
0
100
AcDbCircle
 62
7
  6
CONTINUOUS
 10
5.6008831522
 20
0.6226766304
 40
0.36875
100
AcDbArc
 50
219.3444925829
 51
320.6555074171
  0
ARC
  5
256
100
AcDbEntity
  8
0
100
AcDbCircle
 62
9
  6
CONTINUOUS
 10
5.6008831513
 20
0.6222297813
 40
0.3606905023
100
AcDbArc
 50
219.2891971819
 51
320.711443931
  0
ARC
  5
257
100
AcDbEntity
  8
0
100
AcDbCircle
 62
7
  6
CONTINUOUS
 10
5.6008841985
 20
1.0897890011
 40
0.5288684391
100
AcDbArc
 50
87.866744786
 51
90.0001133535
  0
CIRCLE
  5
258
100
AcDbEntity
  8
0
100
AcDbCircle
 62
7
  6
CONTINUOUS
 10
5.6008831522
 20
1.4845516304
 40
0.20625
  0
CIRCLE
  5
259
100
AcDbEntity
  8
0
100
AcDbCircle
 62
7
  6
CONTINUOUS
 10
5.6008831522
 20
1.4845516304
 40
0.196875
  0
CIRCLE
  5
25A
100
AcDbEntity
  8
0
100
AcDbCircle
 62
9
  6
CONTINUOUS
 10
5.6008831522
 20
1.4845516304
 40
0.1888008662
  0
ARC
  5
25B
100
AcDbEntity
  8
0
100
AcDbCircle
 62
7
  6
CONTINUOUS
 10
5.6704337268
 20
1.4150010609
 40
0.0498124385
100
AcDbArc
 50
127.5274913027
 51
179.9252768115
  0
ARC
  5
25C
100
AcDbEntity
  8
0
100
AcDbCircle
 62
7
  6
CONTINUOUS
 10
5.6502896374
 20
1.4734274416
 40
0.0823184035
100
AcDbArc
 50
177.3462635668
 51
179.7001333074
  0
ARC
  5
25D
100
AcDbEntity
  8
0
100
AcDbCircle
 62
7
  6
CONTINUOUS
 10
5.6494199426
 20
1.4734379955
 40
0.0814486656
100
AcDbArc
 50
178.9117482561
 51
179.704355509
  0
ARC
  5
25E
100
AcDbEntity
  8
0
100
AcDbCircle
 62
7
  6
CONTINUOUS
 10
5.995462681
 20
1.4845471753
 40
0.5286853386
100
AcDbArc
 50
179.9995171772
 51
182.1336246832
  0
ARC
  5
25F
100
AcDbEntity
  8
0
100
AcDbCircle
 62
7
  6
CONTINUOUS
 10
6.6522218946
 20
1.4845516304
 40
1.7282137424
100
AcDbArc
 50
140.6555074171
 51
219.3444925829
  0
ARC
  5
260
100
AcDbEntity
  8
0
100
AcDbCircle
 62
7
  6
CONTINUOUS
 10
5.9954626804
 20
1.4845560856
 40
0.528685338
100
AcDbArc
 50
177.8663753157
 51
180.0004828239
  0
ARC
  5
261
100
AcDbEntity
  8
0
100
AcDbCircle
 62
7
  6
CONTINUOUS
 10
5.600887616
 20
1.8791306924
 40
0.5286848718
100
AcDbArc
 50
269.9995162349
 51
272.1336256255
  0
ARC
  5
262
100
AcDbEntity
  8
0
100
AcDbCircle
 62
7
  6
CONTINUOUS
 10
5.6008831522
 20
2.3464266304
 40
0.36875
100
AcDbArc
 50
39.3444925829
 51
140.6555074171
  0
ARC
  5
263
100
AcDbEntity
  8
0
100
AcDbCircle
 62
9
  6
CONTINUOUS
 10
5.600883153
 20
2.3468746838
 40
0.3606893657
100
AcDbArc
 50
39.289049346
 51
140.7115928803
  0
ARC
  5
264
100
AcDbEntity
  8
0
100
AcDbCircle
 62
7
  6
CONTINUOUS
 10
5.6704337643
 20
1.5541021778
 40
0.0498124494
100
AcDbArc
 50
217.5217795716
 51
232.4620240283
  0
SPLINE
  5
265
100
AcDbEntity
  8
0
100
AcDbSpline
 62
7
  6
CONTINUOUS
 70
0
 71
3
 72
13
 73
9
 74
0
 42
0.0000001
 43
0.0000001
 44
0.0000000001
 40
0.0
 40
0.0
 40
0.0
 40
0.0
 40
0.2477615127
 40
0.3721218535
 40
0.496782135
 40
0.6218599057
 40
0.7474372236
 40
1.0
 40
1.0
 40
1.0
 40
1.0
 10
5.4055706522
 20
0.2183016304
 30
0.0
 10
5.4187125913
 20
0.2183016304
 30
0.0
 10
5.4384799177
 20
0.2196638116
 30
0.0
 10
5.4644862921
 20
0.2239743482
 30
0.0
 10
5.4838376804
 20
0.2284235542
 30
0.0
 10
5.5029624315
 20
0.2339874192
 30
0.0
 10
5.528177658
 20
0.2427699274
 30
0.0
 10
5.5466337727
 20
0.2507068408
 30
0.0
 10
5.5587290738
 20
0.256466431
 30
0.0
  0
SPLINE
  5
266
100
AcDbEntity
  8
0
100
AcDbSpline
 62
7
  6
CONTINUOUS
 70
0
 71
3
 72
15
 73
11
 74
0
 42
0.0000001
 43
0.0000001
 44
0.0000000001
 40
0.0
 40
0.0
 40
0.0
 40
0.0
 40
0.2534098232
 40
0.3792290986
 40
0.504424531
 40
0.6289744434
 40
0.6910520123
 40
0.7530308145
 40
0.8766861809
 40
1.0
 40
1.0
 40
1.0
 40
1.0
 10
5.2102581522
 20
0.2787315282
 30
0.0
 10
5.2253875638
 20
0.2699965584
 30
0.0
 10
5.248538847
 20
0.257752395
 30
0.0
 10
5.2804484612
 20
0.243892583
 30
0.0
 10
5.3047729102
 20
0.2349743752
 30
0.0
 10
5.3254205695
 20
0.2289219628
 30
0.0
 10
5.3421150294
 20
0.2250275424
 30
0.0
 10
5.3588895798
 20
0.2218061792
 30
0.0
 10
5.3800354691
 20
0.2190600856
 30
0.0
 10
5.3970694624
 20
0.2183016304
 30
0.0
 10
5.4055706522
 20
0.2183016304
 30
0.0
  0
SPLINE
  5
267
100
AcDbEntity
  8
0
100
AcDbSpline
 62
7
  6
CONTINUOUS
 70
0
 71
3
 72
15
 73
11
 74
0
 42
0.0000001
 43
0.0000001
 44
0.0000000001
 40
0.0
 40
0.0
 40
0.0
 40
0.0
 40
0.1233138309
 40
0.2469692404
 40
0.3089480724
 40
0.3710256543
 40
0.495575541
 40
0.6207709354
 40
0.7465901939
 40
1.0
 40
1.0
 40
1.0
 40
1.0
 10
5.7961956522
 20
0.2183016304
 30
0.0
 10
5.8046968427
 20
0.2183016304
 30
0.0
 10
5.8217308398
 20
0.2190600904
 30
0.0
 10
5.8428767338
 20
0.22180619
 30
0.0
 10
5.8596512914
 20
0.2250275469
 30
0.0
 10
5.8763457538
 20
0.2289219616
 30
0.0
 10
5.8969934095
 20
0.2349743743
 30
0.0
 10
5.9213178507
 20
0.243892587
 30
0.0
 10
5.953227459
 20
0.2577523996
 30
0.0
 10
5.9763787416
 20
0.269996559
 30
0.0
 10
5.9915081522
 20
0.2787315282
 30
0.0
  0
SPLINE
  5
268
100
AcDbEntity
  8
0
100
AcDbSpline
 62
7
  6
CONTINUOUS
 70
0
 71
3
 72
13
 73
9
 74
0
 42
0.0000001
 43
0.0000001
 44
0.0000000001
 40
0.0
 40
0.0
 40
0.0
 40
0.0
 40
0.2525627587
 40
0.3781401009
 40
0.5032178921
 40
0.6278781549
 40
0.752238463
 40
1.0
 40
1.0
 40
1.0
 40
1.0
 10
5.6430400008
 20
0.2564651096
 30
0.0
 10
5.6551351016
 20
0.2507057014
 30
0.0
 10
5.6735909076
 20
0.2427690499
 30
0.0
 10
5.6988056973
 20
0.2339868478
 30
0.0
 10
5.7179301072
 20
0.2284231806
 30
0.0
 10
5.7372811362
 20
0.2239741286
 30
0.0
 10
5.7632870203
 20
0.2196637498
 30
0.0
 10
5.783053965
 20
0.2183016304
 30
0.0
 10
5.7961956522
 20
0.2183016304
 30
0.0
  0
SPLINE
  5
269
100
AcDbEntity
  8
0
100
AcDbSpline
 62
9
  6
CONTINUOUS
 70
0
 71
3
 72
22
 73
18
 74
0
 42
0.0000001
 43
0.0000001
 44
0.0000000001
 40
0.0
 40
0.0
 40
0.0
 40
0.0
 40
0.0035022795
 40
0.0086805569
 40
0.0157331311
 40
0.0247633005
 40
0.0490248123
 40
0.081919176
 40
0.1236965669
 40
0.1740700679
 40
0.2326126936
 40
0.2988920828
 40
0.3723651575
 40
0.452054602
 40
0.6257323228
 40
0.8112443411
 40
1.0
 40
1.0
 40
1.0
 40
1.0
 10
5.8800333047
 20
0.3938326552
 30
0.0
 10
5.8799872791
 20
0.393820917
 30
0.0
 10
5.8798663719
 20
0.3938260994
 30
0.0
 10
5.8796599212
 20
0.3938786317
 30
0.0
 10
5.8793893311
 20
0.3939804731
 30
0.0
 10
5.8788919042
 20
0.3942085253
 30
0.0
 10
5.8781040927
 20
0.3946408445
 30
0.0
 10
5.876958331
 20
0.395339179
 30
0.0
 10
5.8755377923
 20
0.3962660289
 30
0.0
 10
5.8738488928
 20
0.3974170151
 30
0.0
 10
5.8719058022
 20
0.398784645
 30
0.0
 10
5.8697251143
 20
0.4003586127
 30
0.0
 10
5.8673291983
 20
0.4021241718
 30
0.0
 10
5.8637816081
 20
0.4047819404
 30
0.0
 10
5.8590542127
 20
0.4083988986
 30
0.0
 10
5.853199803
 20
0.4129763306
 30
0.0
 10
5.8492276606
 20
0.4161366705
 30
0.0
 10
5.8472305751
 20
0.4177382426
 30
0.0
  0
SPLINE
  5
26A
100
AcDbEntity
  8
0
100
AcDbSpline
 62
9
  6
CONTINUOUS
 70
0
 71
3
 72
22
 73
18
 74
0
 42
0.0000001
 43
0.0000001
 44
0.0000000001
 40
0.0
 40
0.0
 40
0.0
 40
0.0
 40
0.1887557333
 40
0.374267794
 40
0.5479455261
 40
0.6276349669
 40
0.7011080329
 40
0.7673874096
 40
0.8259300201
 40
0.8763035044
 40
0.9180808783
 40
0.9509752256
 40
0.9752367224
 40
0.9842668848
 40
0.9913194527
 40
0.9964977245
 40
1.0
 40
1.0
 40
1.0
 40
1.0
 10
5.3545357297
 20
0.4177382426
 30
0.0
 10
5.3525386451
 20
0.4161366715
 30
0.0
 10
5.3485665049
 20
0.4129763335
 30
0.0
 10
5.3427120988
 20
0.4083989048
 30
0.0
 10
5.3379847069
 20
0.4047819497
 30
0.0
 10
5.3344371197
 20
0.4021241836
 30
0.0
 10
5.3320412059
 20
0.4003586265
 30
0.0
 10
5.3298605202
 20
0.3987846607
 30
0.0
 10
5.3279174318
 20
0.3974170325
 30
0.0
 10
5.3262285342
 20
0.3962660479
 30
0.0
 10
5.3248079972
 20
0.3953391994
 30
0.0
 10
5.3236622369
 20
0.3946408661
 30
0.0
 10
5.3228744266
 20
0.3942085476
 30
0.0
 10
5.3223770003
 20
0.393980496
 30
0.0
 10
5.3221064107
 20
0.3938786549
 30
0.0
 10
5.3218999604
 20
0.3938261229
 30
0.0
 10
5.3217790533
 20
0.3938209407
 30
0.0
 10
5.3217330278
 20
0.393832679
 30
0.0
  0
SPLINE
  5
26B
100
AcDbEntity
  8
0
100
AcDbSpline
 62
7
  6
CONTINUOUS
 70
0
 71
3
 72
12
 73
8
 74
0
 42
0.0000001
 43
0.0000001
 44
0.0000000001
 40
0.0
 40
0.0
 40
0.0
 40
0.0
 40
0.2478333799
 40
0.497826242
 40
0.6232931725
 40
0.748858605
 40
1.0
 40
1.0
 40
1.0
 40
1.0
 10
5.5313122523
 20
1.4648641304
 30
0.0
 10
5.5340087606
 20
1.4648641304
 30
0.0
 10
5.5394341911
 20
1.4644079916
 30
0.0
 10
5.5460422481
 20
1.4627528072
 30
0.0
 10
5.5511340046
 20
1.4607893797
 30
0.0
 10
5.5560548498
 20
1.4584045461
 30
0.0
 10
5.5595164889
 20
1.4561655064
 30
0.0
 10
5.5616826246
 20
1.4544998487
 30
0.0
  0
SPLINE
  5
26C
100
AcDbEntity
  8
0
100
AcDbSpline
 62
7
  6
CONTINUOUS
 70
0
 71
3
 72
12
 73
8
 74
0
 42
0.0000001
 43
0.0000001
 44
0.0000000001
 40
0.0
 40
0.0
 40
0.0
 40
0.0
 40
0.2511434455
 40
0.3767090583
 40
0.5021753878
 40
0.7521664514
 40
1.0
 40
1.0
 40
1.0
 40
1.0
 10
5.5708398835
 20
1.4453400009
 30
0.0
 10
5.5725042334
 20
1.4431743045
 30
0.0
 10
5.5747414688
 20
1.4397135933
 30
0.0
 10
5.5771243623
 20
1.4347943897
 30
0.0
 10
5.5790861719
 20
1.4297045399
 30
0.0
 10
5.5807399361
 20
1.4230991764
 30
0.0
 10
5.5811956522
 20
1.4176760884
 30
0.0
 10
5.5811956522
 20
1.4149807305
 30
0.0
  0
SPLINE
  5
26D
100
AcDbEntity
  8
0
100
AcDbSpline
 62
9
  6
CONTINUOUS
 70
0
 71
3
 72
22
 73
18
 74
0
 42
0.0000001
 43
0.0000001
 44
0.0000000001
 40
0.0
 40
0.0
 40
0.0
 40
0.0
 40
0.0034904982
 40
0.0086478651
 40
0.0156706064
 40
0.0246628171
 40
0.0488277778
 40
0.0816045666
 40
0.1232519813
 40
0.1734947522
 40
0.2319183185
 40
0.2981027586
 40
0.3715160755
 40
0.4511865718
 40
0.6249658372
 40
0.8107795146
 40
1.0
 40
1.0
 40
1.0
 40
1.0
 10
5.3217329896
 20
0.3938326456
 30
0.0
 10
5.3217788605
 20
0.3938209472
 30
0.0
 10
5.3218993033
 20
0.3938260095
 30
0.0
 10
5.3221049818
 20
0.3938781822
 30
0.0
 10
5.3223745049
 20
0.3939794272
 30
0.0
 10
5.3228700267
 20
0.3942062939
 30
0.0
 10
5.3236550031
 20
0.3946366703
 30
0.0
 10
5.3247969802
 20
0.3953322505
 30
0.0
 10
5.3262134331
 20
0.3962559758
 30
0.0
 10
5.3278982867
 20
0.397403756
 30
0.0
 10
5.3298377543
 20
0.3987684131
 30
0.0
 10
5.3320156173
 20
0.400339954
 30
0.0
 10
5.3344098072
 20
0.4021038892
 30
0.0
 10
5.3379578576
 20
0.4047615654
 30
0.0
 10
5.342689592
 20
0.408381437
 30
0.0
 10
5.348553412
 20
0.4129659552
 30
0.0
 10
5.3525337257
 20
0.4161327277
 30
0.0
 10
5.3545357305
 20
0.417738245
 30
0.0
  0
SPLINE
  5
26E
100
AcDbEntity
  8
0
100
AcDbSpline
 62
9
  6
CONTINUOUS
 70
0
 71
3
 72
15
 73
11
 74
0
 42
0.0000001
 43
0.0000001
 44
0.0000000001
 40
0.0
 40
0.0
 40
0.0
 40
0.0
 40
0.1249700741
 40
0.249982339
 40
0.3749890051
 40
0.5000000205
 40
0.6250110349
 40
0.7500177022
 40
0.87502996
 40
1.0
 40
1.0
 40
1.0
 40
1.0
 10
5.3217288019
 20
2.5752655669
 30
0.0
 10
5.259515568
 20
2.4991630858
 30
0.0
 10
5.1478509048
 20
2.3359544564
 30
0.0
 10
5.0244877474
 20
2.066532216
 30
0.0
 10
4.9488547561
 20
1.7798894076
 30
0.0
 10
4.9233818953
 20
1.4845495525
 30
0.0
 10
4.9488554674
 20
1.1892097573
 30
0.0
 10
5.024489149
 20
0.9025671378
 30
0.0
 10
5.147852931
 20
0.6331452161
 30
0.0
 10
5.2595179769
 20
0.4699368911
 30
0.0
 10
5.3217313598
 20
0.3938345665
 30
0.0
  0
SPLINE
  5
26F
100
AcDbEntity
  8
0
100
AcDbSpline
 62
9
  6
CONTINUOUS
 70
0
 71
3
 72
15
 73
11
 74
0
 42
0.0000001
 43
0.0000001
 44
0.0000000001
 40
0.0
 40
0.0
 40
0.0
 40
0.0
 40
0.1249700742
 40
0.2499823391
 40
0.3749890052
 40
0.5000000207
 40
0.6250110349
 40
0.7500177022
 40
0.87502996
 40
1.0
 40
1.0
 40
1.0
 40
1.0
 10
5.8800374989
 20
0.3938376897
 30
0.0
 10
5.9422507333
 20
0.4699401708
 30
0.0
 10
6.0539153973
 20
0.6331488005
 30
0.0
 10
6.1772785557
 20
0.9025710414
 30
0.0
 10
6.2529115477
 20
1.1892138506
 30
0.0
 10
6.2783844091
 20
1.4845537065
 30
0.0
 10
6.2529108372
 20
1.7798935025
 30
0.0
 10
6.1772771554
 20
2.0665361228
 30
0.0
 10
6.0539133731
 20
2.3359580453
 30
0.0
 10
5.9422483268
 20
2.4991663707
 30
0.0
 10
5.8800349436
 20
2.5752686955
 30
0.0
  0
SPLINE
  5
270
100
AcDbEntity
  8
0
100
AcDbSpline
 62
9
  6
CONTINUOUS
 70
0
 71
3
 72
22
 73
18
 74
0
 42
0.0000001
 43
0.0000001
 44
0.0000000001
 40
0.0
 40
0.0
 40
0.0
 40
0.0
 40
0.1892205218
 40
0.375034209
 40
0.5488134632
 40
0.6284839494
 40
0.7018972552
 40
0.7680816846
 40
0.8265052413
 40
0.876748005
 40
0.9183954156
 40
0.9511722041
 40
0.9753371681
 40
0.9843293816
 40
0.9913521265
 40
0.9965094976
 40
1.0
 40
1.0
 40
1.0
 40
1.0
 10
5.8472305723
 20
0.4177382469
 30
0.0
 10
5.849232576
 20
0.4161327305
 30
0.0
 10
5.8532128872
 20
0.4129659602
 30
0.0
 10
5.8590767033
 20
0.4083814453
 30
0.0
 10
5.863808434
 20
0.4047615766
 30
0.0
 10
5.8673564814
 20
0.4021039027
 30
0.0
 10
5.8697506692
 20
0.4003399692
 30
0.0
 10
5.8719285302
 20
0.3987684298
 30
0.0
 10
5.8738679962
 20
0.397403774
 30
0.0
 10
5.8755528483
 20
0.3962559949
 30
0.0
 10
5.8769693
 20
0.3953322705
 30
0.0
 10
5.8781112762
 20
0.3946366909
 30
0.0
 10
5.8788962521
 20
0.3942063148
 30
0.0
 10
5.8793917737
 20
0.3939794482
 30
0.0
 10
5.8796612966
 20
0.3938782032
 30
0.0
 10
5.8798669752
 20
0.3938260304
 30
0.0
 10
5.8799874179
 20
0.393820968
 30
0.0
 10
5.8800332889
 20
0.3938326664
 30
0.0
  0
SPLINE
  5
271
100
AcDbEntity
  8
0
100
AcDbSpline
 62
9
  6
CONTINUOUS
 70
0
 71
3
 72
22
 73
18
 74
0
 42
0.0000001
 43
0.0000001
 44
0.0000000001
 40
0.0
 40
0.0
 40
0.0
 40
0.0
 40
0.0035022796
 40
0.0086805572
 40
0.0157331317
 40
0.0247633014
 40
0.0490248142
 40
0.081919179
 40
0.1236965712
 40
0.1740700735
 40
0.2326127004
 40
0.2988920905
 40
0.3723651658
 40
0.4520546105
 40
0.6257323303
 40
0.8112443456
 40
1.0
 40
1.0
 40
1.0
 40
1.0
 10
5.3217329997
 20
2.5752706055
 30
0.0
 10
5.3217790254
 20
2.5752823437
 30
0.0
 10
5.3218999326
 20
2.5752771614
 30
0.0
 10
5.3221063833
 20
2.5752246291
 30
0.0
 10
5.3223769734
 20
2.5751227877
 30
0.0
 10
5.3228744003
 20
2.5748947355
 30
0.0
 10
5.3236622118
 20
2.5744624162
 30
0.0
 10
5.3248079735
 20
2.5737640817
 30
0.0
 10
5.3262285123
 20
2.5728372318
 30
0.0
 10
5.3279174119
 20
2.5716862456
 30
0.0
 10
5.3298605024
 20
2.5703186157
 30
0.0
 10
5.3320411904
 20
2.568744648
 30
0.0
 10
5.3344371064
 20
2.5669790889
 30
0.0
 10
5.3379846966
 20
2.5643213202
 30
0.0
 10
5.3427120919
 20
2.560704362
 30
0.0
 10
5.3485665015
 20
2.5561269302
 30
0.0
 10
5.3525386438
 20
2.5529665903
 30
0.0
 10
5.3545357292
 20
2.5513650183
 30
0.0
  0
SPLINE
  5
272
100
AcDbEntity
  8
0
100
AcDbSpline
 62
9
  6
CONTINUOUS
 70
0
 71
3
 72
22
 73
18
 74
0
 42
0.0000001
 43
0.0000001
 44
0.0000000001
 40
0.0
 40
0.0
 40
0.0
 40
0.0
 40
0.1887557281
 40
0.3742677854
 40
0.5479455164
 40
0.6276349574
 40
0.7011080241
 40
0.7673874018
 40
0.8259300137
 40
0.8763034994
 40
0.9180808748
 40
0.9509752234
 40
0.9752367212
 40
0.984266884
 40
0.9913194523
 40
0.9964977244
 40
1.0
 40
1.0
 40
1.0
 40
1.0
 10
5.8472305746
 20
2.5513650182
 30
0.0
 10
5.8492276592
 20
2.5529665894
 30
0.0
 10
5.8531997993
 20
2.5561269273
 30
0.0
 10
5.8590542053
 20
2.5607043559
 30
0.0
 10
5.8637815973
 20
2.564321311
 30
0.0
 10
5.8673291844
 20
2.5669790771
 30
0.0
 10
5.8697250982
 20
2.5687446343
 30
0.0
 10
5.871905784
 20
2.5703186001
 30
0.0
 10
5.8738488725
 20
2.5716862283
 30
0.0
 10
5.8755377702
 20
2.572837213
 30
0.0
 10
5.8769583072
 20
2.5737640615
 30
0.0
 10
5.8781040675
 20
2.5744623949
 30
0.0
 10
5.8788918779
 20
2.5748947134
 30
0.0
 10
5.8793893042
 20
2.575122765
 30
0.0
 10
5.8796598938
 20
2.5752246061
 30
0.0
 10
5.8798663442
 20
2.5752771382
 30
0.0
 10
5.8799872512
 20
2.5752823203
 30
0.0
 10
5.8800332767
 20
2.575270582
 30
0.0
  0
SPLINE
  5
273
100
AcDbEntity
  8
0
100
AcDbSpline
 62
9
  6
CONTINUOUS
 70
0
 71
3
 72
23
 73
19
 74
0
 42
0.0000001
 43
0.0000001
 44
0.0000000001
 40
0.0
 40
0.0
 40
0.0
 40
0.0
 40
0.0626340745
 40
0.1252536947
 40
0.1878151225
 40
0.2503185674
 40
0.312776839
 40
0.3752015635
 40
0.4376057489
 40
0.4999996342
 40
0.5623935718
 40
0.6247978384
 40
0.6872225988
 40
0.749680946
 40
0.8121845486
 40
0.8747459151
 40
0.937365204
 40
1.0
 40
1.0
 40
1.0
 40
1.0
 10
5.8472305858
 20
2.5513650255
 30
0.0
 10
5.8781191877
 20
2.5141740126
 30
0.0
 10
5.9367479581
 20
2.4371262587
 30
0.0
 10
6.0144788292
 20
2.3145577558
 30
0.0
 10
6.0813284985
 20
2.1858305849
 30
0.0
 10
6.136785937
 20
2.0519370691
 30
0.0
 10
6.1803760234
 20
1.913832408
 30
0.0
 10
6.2117923359
 20
1.7725378897
 30
0.0
 10
6.2307266206
 20
1.6290859466
 30
0.0
 10
6.2370736481
 20
1.4845524433
 30
0.0
 10
6.230726729
 20
1.3400188735
 30
0.0
 10
6.2117925867
 20
1.1965667806
 30
0.0
 10
6.180376399
 20
1.0552720807
 30
0.0
 10
6.136786318
 20
0.9171671963
 30
0.0
 10
6.0813288411
 20
0.7832735541
 30
0.0
 10
6.0144793904
 20
0.6545464775
 30
0.0
 10
5.9367484391
 20
0.531977715
 30
0.0
 10
5.8781194175
 20
0.4549297817
 30
0.0
 10
5.8472305606
 20
0.4177382568
 30
0.0
  0
SPLINE
  5
274
100
AcDbEntity
  8
0
100
AcDbSpline
 62
9
  6
CONTINUOUS
 70
0
 71
3
 72
23
 73
19
 74
0
 42
0.0000001
 43
0.0000001
 44
0.0000000001
 40
0.0
 40
0.0
 40
0.0
 40
0.0
 40
0.0622296342
 40
0.1245697539
 40
0.1870014825
 40
0.249498956
 40
0.3120576358
 40
0.3746781516
 40
0.4373350621
 40
0.4999994304
 40
0.5626638885
 40
0.6253209509
 40
0.6879414847
 40
0.7504998348
 40
0.8129965633
 40
0.8754277097
 40
0.9377682079
 40
1.0
 40
1.0
 40
1.0
 40
1.0
 10
5.8472305882
 20
0.4177382326
 30
0.0
 10
5.8397935565
 20
0.4087842593
 30
0.0
 10
5.8238765061
 20
0.3916895357
 30
0.0
 10
5.7973107516
 20
0.3688343157
 30
0.0
 10
5.7683662355
 20
0.3489824683
 30
0.0
 10
5.7373875794
 20
0.3323948556
 30
0.0
 10
5.7047265061
 20
0.3193350228
 30
0.0
 10
5.6708137365
 20
0.3098948681
 30
0.0
 10
5.6360621677
 20
0.3041592879
 30
0.0
 10
5.600883456
 20
0.3022171955
 30
0.0
 10
5.565704722
 20
0.3041593735
 30
0.0
 10
5.5309531101
 20
0.309894969
 30
0.0
 10
5.4970403453
 20
0.3193350137
 30
0.0
 10
5.4643793761
 20
0.3323945612
 30
0.0
 10
5.4334008523
 20
0.3489817651
 30
0.0
 10
5.4044563847
 20
0.3688333805
 30
0.0
 10
5.3778903597
 20
0.3916888567
 30
0.0
 10
5.3619730369
 20
0.4087839743
 30
0.0
 10
5.3545357419
 20
0.4177382538
 30
0.0
  0
SPLINE
  5
275
100
AcDbEntity
  8
0
100
AcDbSpline
 62
9
  6
CONTINUOUS
 70
0
 71
3
 72
23
 73
19
 74
0
 42
0.0000001
 43
0.0000001
 44
0.0000000001
 40
0.0
 40
0.0
 40
0.0
 40
0.0
 40
0.0626340882
 40
0.1252537288
 40
0.1878151737
 40
0.2503186316
 40
0.3127769145
 40
0.3752016544
 40
0.4376058622
 40
0.4999997639
 40
0.5623936998
 40
0.6247979551
 40
0.6872227054
 40
0.7496810439
 40
0.8121846362
 40
0.8747459802
 40
0.9373652303
 40
1.0
 40
1.0
 40
1.0
 40
1.0
 10
5.3545357186
 20
0.4177382355
 30
0.0
 10
5.3236471103
 20
0.4549292566
 30
0.0
 10
5.2650183255
 20
0.5319770327
 30
0.0
 10
5.1872874356
 20
0.6545455706
 30
0.0
 10
5.1204377559
 20
0.7832727802
 30
0.0
 10
5.0649803165
 20
0.9171663305
 30
0.0
 10
5.0213902328
 20
1.0552710247
 30
0.0
 10
4.98997393
 20
1.1965655842
 30
0.0
 10
4.9710396637
 20
1.340017572
 30
0.0
 10
4.9646926558
 20
1.4845511048
 30
0.0
 10
4.9710395981
 20
1.6290846764
 30
0.0
 10
4.9899737652
 20
1.7725367481
 30
0.0
 10
5.0213899698
 20
1.9138314201
 30
0.0
 10
5.0649800636
 20
2.0519362769
 30
0.0
 10
5.120437549
 20
2.1858298809
 30
0.0
 10
5.1872869857
 20
2.314556902
 30
0.0
 10
5.2650179035
 20
2.4371256056
 30
0.0
 10
5.3236468991
 20
2.5141734955
 30
0.0
 10
5.3545357437
 20
2.5513650042
 30
0.0
  0
SPLINE
  5
276
100
AcDbEntity
  8
0
100
AcDbSpline
 62
9
  6
CONTINUOUS
 70
0
 71
3
 72
23
 73
19
 74
0
 42
0.0000001
 43
0.0000001
 44
0.0000000001
 40
0.0
 40
0.0
 40
0.0
 40
0.0
 40
0.0622296567
 40
0.1245697997
 40
0.1870015488
 40
0.2494990361
 40
0.3120577204
 40
0.3746782339
 40
0.437335139
 40
0.4999995022
 40
0.5626639579
 40
0.6253210191
 40
0.6879415508
 40
0.7504998958
 40
0.8129966147
 40
0.8754277473
 40
0.9377682282
 40
1.0
 40
1.0
 40
1.0
 40
1.0
 10
5.3545357162
 20
2.5513650281
 30
0.0
 10
5.3619727511
 20
2.5603190044
 30
0.0
 10
5.3778898087
 20
2.5774137331
 30
0.0
 10
5.4044555746
 20
2.6002689588
 30
0.0
 10
5.4334001013
 20
2.6201208098
 30
0.0
 10
5.464378765
 20
2.6367084236
 30
0.0
 10
5.4970398423
 20
2.6497682547
 30
0.0
 10
5.5309526125
 20
2.6592084051
 30
0.0
 10
5.5657041799
 20
2.6649439794
 30
0.0
 10
5.6008828895
 20
2.6668860653
 30
0.0
 10
5.6360616215
 20
2.6649438817
 30
0.0
 10
5.6708132316
 20
2.6592082818
 30
0.0
 10
5.7047259938
 20
2.6497682342
 30
0.0
 10
5.7373869592
 20
2.6367086854
 30
0.0
 10
5.7683654771
 20
2.6201214819
 30
0.0
 10
5.797309937
 20
2.6002698689
 30
0.0
 10
5.8238759533
 20
2.5774143973
 30
0.0
 10
5.8397932704
 20
2.560319284
 30
0.0
 10
5.8472305626
 20
2.5513650072
 30
0.0
  0
SPLINE
  5
277
100
AcDbEntity
  8
0
100
AcDbSpline
 62
7
  6
CONTINUOUS
 70
0
 71
3
 72
12
 73
8
 74
0
 42
0.0000001
 43
0.0000001
 44
0.0000000001
 40
0.0
 40
0.0
 40
0.0
 40
0.0
 40
0.2478334173
 40
0.4978255338
 40
0.6232922212
 40
0.7488577413
 40
1.0
 40
1.0
 40
1.0
 40
1.0
 10
5.5811956522
 20
1.5541225304
 30
0.0
 10
5.5811956522
 20
1.5514264293
 30
0.0
 10
5.5807396647
 20
1.5460018288
 30
0.0
 10
5.5790849839
 20
1.5393947259
 30
0.0
 10
5.5771221265
 20
1.5343036461
 30
0.0
 10
5.574737977
 20
1.5293833811
 30
0.0
 10
5.5724995755
 20
1.5259220683
 30
0.0
 10
5.5708343802
 20
1.5237560862
 30
0.0
  0
SPLINE
  5
278
100
AcDbEntity
  8
0
100
AcDbSpline
 62
7
  6
CONTINUOUS
 70
0
 71
3
 72
12
 73
8
 74
0
 42
0.0000001
 43
0.0000001
 44
0.0000000001
 40
0.0
 40
0.0
 40
0.0
 40
0.0
 40
0.2511425991
 40
0.3767081277
 40
0.5021746978
 40
0.7521664943
 40
1.0
 40
1.0
 40
1.0
 40
1.0
 10
5.561675427
 20
1.5145978899
 30
0.0
 10
5.5595095777
 20
1.5129330804
 30
0.0
 10
5.5560485418
 20
1.510695211
 30
0.0
 10
5.5511287613
 20
1.5083116377
 30
0.0
 10
5.546038239
 20
1.5063492617
 30
0.0
 10
5.5394319276
 20
1.5046949969
 30
0.0
 10
5.5340080147
 20
1.5042391304
 30
0.0
 10
5.5313122523
 20
1.5042391304
 30
0.0
  0
SPLINE
  5
279
100
AcDbEntity
  8
0
100
AcDbSpline
 62
7
  6
CONTINUOUS
 70
0
 71
3
 72
12
 73
8
 74
0
 42
0.0000001
 43
0.0000001
 44
0.0000000001
 40
0.0
 40
0.0
 40
0.0
 40
0.0
 40
0.2478333799
 40
0.497826242
 40
0.6232931725
 40
0.748858605
 40
1.0
 40
1.0
 40
1.0
 40
1.0
 10
5.6704540521
 20
1.5042391304
 30
0.0
 10
5.6677575438
 20
1.5042391304
 30
0.0
 10
5.6623321132
 20
1.5046952693
 30
0.0
 10
5.6557240563
 20
1.5063504536
 30
0.0
 10
5.6506322998
 20
1.5083138811
 30
0.0
 10
5.6457114546
 20
1.5106987148
 30
0.0
 10
5.6422498154
 20
1.5129377545
 30
0.0
 10
5.6400836797
 20
1.5146034122
 30
0.0
  0
SPLINE
  5
27A
100
AcDbEntity
  8
0
100
AcDbSpline
 62
7
  6
CONTINUOUS
 70
0
 71
3
 72
12
 73
8
 74
0
 42
0.0000001
 43
0.0000001
 44
0.0000000001
 40
0.0
 40
0.0
 40
0.0
 40
0.0
 40
0.2511434455
 40
0.3767090583
 40
0.5021753878
 40
0.7521664514
 40
1.0
 40
1.0
 40
1.0
 40
1.0
 10
5.6309264209
 20
1.52376326
 30
0.0
 10
5.629262071
 20
1.5259289563
 30
0.0
 10
5.6270248356
 20
1.5293896676
 30
0.0
 10
5.6246419421
 20
1.5343088712
 30
0.0
 10
5.6226801325
 20
1.539398721
 30
0.0
 10
5.6210263682
 20
1.5460040845
 30
0.0
 10
5.6205706522
 20
1.5514271725
 30
0.0
 10
5.6205706522
 20
1.5541225304
 30
0.0
  0
SPLINE
  5
27B
100
AcDbEntity
  8
0
100
AcDbSpline
 62
7
  6
CONTINUOUS
 70
0
 71
3
 72
12
 73
8
 74
0
 42
0.0000001
 43
0.0000001
 44
0.0000000001
 40
0.0
 40
0.0
 40
0.0
 40
0.0
 40
0.2511425991
 40
0.3767081277
 40
0.5021746978
 40
0.7521664943
 40
1.0
 40
1.0
 40
1.0
 40
1.0
 10
5.6400908773
 20
1.454505371
 30
0.0
 10
5.6422567266
 20
1.4561701804
 30
0.0
 10
5.6457177626
 20
1.4584080499
 30
0.0
 10
5.6506375431
 20
1.4607916231
 30
0.0
 10
5.6557280653
 20
1.4627539992
 30
0.0
 10
5.6623343768
 20
1.464408264
 30
0.0
 10
5.6677582896
 20
1.4648641304
 30
0.0
 10
5.6704540521
 20
1.4648641304
 30
0.0
  0
ENDSEC
  0
SECTION
  2
OBJECTS
  0
DICTIONARY
  5
C
100
AcDbDictionary
280
0
281
1
  3
ACAD_GROUP
350
D
  3
ACAD_MLINESTYLE
350
17
  3
ACAD_LAYOUT
350
1A
  3
ACAD_PLOTSETTINGS
350
19
  3
ACAD_PLOTSTYLENAME
350
E
  0
DICTIONARY
  5
D
102
{ACAD_REACTORS
330
C
102
}
100
AcDbDictionary
280
0
281
1
  0
ACDBDICTIONARYWDFLT
  5
E
102
{ACAD_REACTORS
330
C
102
}
100
AcDbDictionary
281
1
  3
Normal
350
F
100
AcDbDictionaryWithDefault
340
F
  0
DICTIONARY
  5
17
102
{ACAD_REACTORS
330
C
102
}
100
AcDbDictionary
280
0
281
1
  3
Standard
350
18
  0
DICTIONARY
  5
19
102
{ACAD_REACTORS
330
C
102
}
100
AcDbDictionary
281
1
  0
DICTIONARY
  5
1A
102
{ACAD_REACTORS
330
C
102
}
100
AcDbDictionary
281
1
  3
Model
350
27C
  3
Layout1
350
27D
  0
ACDBPLACEHOLDER
  5
F
102
{ACAD_REACTORS
330
E
102
}
  0
MLINESTYLE
  5
18
102
{ACAD_REACTORS
330
17
102
}
100
AcDbMlineStyle
  2
STANDARD
 70
0
  3

 62
256
 51
90.0
 52
90.0
 71
2
 49
0.5
 62
256
  6
BYLAYER
 49
-0.5
 62
256
  6
BYLAYER
  0
LAYOUT
  5
27C
102
{ACAD_REACTORS
330
1A
102
}
100
AcDbPlotSettings
  1

  2
none_device
  4
ANSI_A_(11.00_x_8.50_Inches)
  6

 40
0.0
 41
0.0
 42
0.0
 43
0.0
 44
279.4
 45
215.9
 46
0.0
 47
0.0
 48
0.0
 49
0.0
140
0.0
141
0.0
142
1.0
143
1.0
 70
1024
 72
0
 73
0
 74
0
  7

 75
0
147
1.0
148
0.0
149
0.0
100
AcDbLayout
  1
Model
 70
0
 71
0
 10
0.0
 20
0.0
 11
11.0
 21
8.5
 12
0.0
 22
0.0
 32
0.0
 14
0.0
 24
0.0
 34
0.0
 15
0.0
 25
0.0
 35
0.0
146
0.0
 13
0.0
 23
0.0
 33
0.0
 16
1.0
 26
0.0
 36
0.0
 17
0.0
 27
1.0
 37
0.0
 76
0
330
21B
345
0
346
0
  0
LAYOUT
  5
27D
102
{ACAD_REACTORS
330
1A
102
}
100
AcDbPlotSettings
  1

  2
none_device
  4
ANSI_A_(11.00_x_8.50_Inches)
  6

 40
0.0
 41
0.0
 42
0.0
 43
0.0
 44
279.4
 45
215.9
 46
0.0
 47
0.0
 48
0.0
 49
0.0
140
0.0
141
0.0
142
1.0
143
1.0
 70
0
 72
0
 73
0
 74
0
  7

 75
0
147
1.0
148
0.0
149
0.0
100
AcDbLayout
  1
Layout1
 70
0
 71
1
 10
0.0
 20
0.0
 11
11.0
 21
8.5
 12
0.0
 22
0.0
 32
0.0
 14
0.0
 24
0.0
 34
0.0
 15
0.0
 25
0.0
 35
0.0
146
0.0
 13
0.0
 23
0.0
 33
0.0
 16
1.0
 26
0.0
 36
0.0
 17
0.0
 27
1.0
 37
0.0
 76
0
330
21C
345
0
346
0
  0
ENDSEC
  0
EOF
