999
DXF file: E:\BT Custom\CADOUTPUT\_FRONT.dxf
999
Pro/ENGINEER 2018400 by Parametric Technology Corporation
  0
SECTION
  2
HEADER
  9
$ACADVER
  1
AC1018
  9
$DWGCODEPAGE
  3
ANSI_1252
  9
$EXTMAX
 10
22.0
 20
17.0
 30
0.0
  9
$EXTMIN
 10
0.0
 20
0.0
 30
0.0
  9
$LIMMIN
 10
0.0
 20
0.0
  9
$LIMMAX
 10
22.0
 20
17.0
  9
$VIEWCTR
 10
11.0
 20
8.5
  9
$VIEWSIZE
 40
17.0
  9
$CLAYER
  8
0
  9
$LTSCALE
 40
1.21
  9
$CELTYPE
  6
BYLAYER
  9
$DIMSCALE
 40
1.0
  9
$DIMASZ
 40
0.1
  9
$DIMEXO
 40
0.0625
  9
$DIMDLI
 40
0.836
  9
$DIMEXE
 40
0.125
  9
$DIMCEN
 40
0.198
  9
$DIMLFAC
 40
1.0
  9
$DIMBLK
  1
_FILLED
  9
$DIMALT
 70
1
  9
$DIMALTD
 70
2
  9
$DIMALTTD
 70
2
  9
$DIMALTF
 40
25.4
  9
$DIMTXT
 40
0.08
  9
$DIMTOL
 70
1
  9
$DIMLIM
 70
0
  9
$DIMTFAC
 40
1.0
  9
$DIMTP
 40
0.001
  9
$DIMTM
 40
0.001
  9
$DIMGAP
 40
0.09
  9
$DIMDSEP
 70
46
  9
$AUNITS
 70
0
  9
$PDMODE
 70
3
  9
$PDSIZE
 40
0.06
  9
$HANDSEED
  5
22A
  9
$TILEMODE
 70
1
  9
$MEASUREMENT
 70
0
  9
$INSUNITS
 70
1
  0
ENDSEC
  0
SECTION
  2
CLASSES
  0
CLASS
  1
ACDBDICTIONARYWDFLT
  2
AcDbDictionaryWithDefault
  3
AutoCAD 2000
 90
0
 91
1
280
0
281
0
  0
CLASS
  1
ACDBPLACEHOLDER
  2
AcDbPlaceHolder
  3
AutoCAD 2000
 90
0
 91
1
280
0
281
0
  0
CLASS
  1
LAYOUT
  2
AcDbLayout
  3
AutoCAD 2000
 90
0
 91
0
280
0
281
0
  0
ENDSEC
  0
SECTION
  2
TABLES
  0
TABLE
  2
VPORT
  5
8
100
AcDbSymbolTable
 70
2
  0
VPORT
  5
1F4
100
AcDbSymbolTableRecord
100
AcDbViewportTableRecord
  2
*ACTIVE
 70
0
 10
0.0
 20
0.0
 11
1.0
 21
1.0
 12
11.0
 22
8.5
 13
0.0
 23
0.0
 14
1.0
 24
1.0
 15
0.0
 25
0.0
 16
0.0
 26
0.0
 36
1.0
 17
0.0
 27
0.0
 37
0.0
 40
17.0
 41
1.2941176471
 42
50.0
 43
0.0
 44
0.0
 50
0.0
 51
0.0
 71
0
 72
100
 73
1
 74
1
 75
0
 76
0
 77
0
 78
0
  0
ENDTAB
  0
TABLE
  2
LTYPE
  5
5
100
AcDbSymbolTable
 70
6
  0
LTYPE
  5
14
100
AcDbSymbolTableRecord
100
AcDbLinetypeTableRecord
  2
BYBLOCK
 70
0
  3

 72
65
 73
0
 40
0.0
  0
LTYPE
  5
15
100
AcDbSymbolTableRecord
100
AcDbLinetypeTableRecord
  2
BYLAYER
 70
0
  3

 72
65
 73
0
 40
0.0
  0
LTYPE
  5
16
100
AcDbSymbolTableRecord
100
AcDbLinetypeTableRecord
  2
CONTINUOUS
 70
64
  3
Solid line
 72
65
 73
0
 40
0.0
  0
LTYPE
  5
1F5
100
AcDbSymbolTableRecord
100
AcDbLinetypeTableRecord
  2
CENTER
 70
64
  3
____ _ ____ _ ____ _ ____ _ ____ _ ____ _ ____
 72
65
 73
4
 40
0.6
 49
0.375
 74
0
 49
-0.075
 74
0
 49
0.075
 74
0
 49
-0.075
 74
0
  0
LTYPE
  5
1F6
100
AcDbSymbolTableRecord
100
AcDbLinetypeTableRecord
  2
HIDDEN
 70
64
  3
- - - - - - - - - - - - - - - - - - - -
 72
65
 73
2
 40
0.2
 49
0.1
 74
0
 49
-0.1
 74
0
  0
LTYPE
  5
1F7
100
AcDbSymbolTableRecord
100
AcDbLinetypeTableRecord
  2
PHANTOM
 70
64
  3
_____ _ _ _____ _ _ _____ _ _ _____
 72
65
 73
6
 40
0.8
 49
0.45
 74
0
 49
-0.05
 74
0
 49
0.1
 74
0
 49
-0.05
 74
0
 49
0.1
 74
0
 49
-0.05
 74
0
  0
LTYPE
  5
1F8
100
AcDbSymbolTableRecord
100
AcDbLinetypeTableRecord
  2
DOT
 70
64
  3
. . . . . . . . . . . . . . . . . . . .
 72
65
 73
2
 40
0.2
 49
0.1
 74
0
 49
-0.1
 74
0
  0
LTYPE
  5
1F9
100
AcDbSymbolTableRecord
100
AcDbLinetypeTableRecord
  2
DASHED
 70
64
  3
- - - - - - - - - - - - - - - - - - - -
 72
65
 73
2
 40
0.2
 49
0.1
 74
0
 49
-0.1
 74
0
  0
ENDTAB
  0
TABLE
  2
LAYER
  5
2
100
AcDbSymbolTable
 70
36
  0
LAYER
  5
10
100
AcDbSymbolTableRecord
100
AcDbLayerTableRecord
  2
0
 70
0
 62
7
  6
CONTINUOUS
370
-3
390
F
  0
LAYER
  5
1FA
100
AcDbSymbolTableRecord
100
AcDbLayerTableRecord
  2
DEFAULT_1
 70
0
 62
7
  6
CENTER
370
-3
390
F
  0
LAYER
  5
1FB
100
AcDbSymbolTableRecord
100
AcDbLayerTableRecord
  2
DEFAULT_2
 70
0
 62
8
  6
HIDDEN
370
-3
390
F
  0
LAYER
  5
1FC
100
AcDbSymbolTableRecord
100
AcDbLayerTableRecord
  2
DEFAULT_3
 70
0
 62
7
  6
PHANTOM
370
-3
390
F
  0
LAYER
  5
1FD
100
AcDbSymbolTableRecord
100
AcDbLayerTableRecord
  2
ALL_FEATURES
 70
0
 62
7
  6
CONTINUOUS
370
-3
390
F
  0
LAYER
  5
1FE
100
AcDbSymbolTableRecord
100
AcDbLayerTableRecord
  2
AXES_FEATURES
 70
0
 62
7
  6
CONTINUOUS
370
-3
390
F
  0
LAYER
  5
1FF
100
AcDbSymbolTableRecord
100
AcDbLayerTableRecord
  2
DEFAULT_COORDINATE_SYSTEM
 70
0
 62
7
  6
CONTINUOUS
370
-3
390
F
  0
LAYER
  5
200
100
AcDbSymbolTableRecord
100
AcDbLayerTableRecord
  2
DEFAULT_DATUM_AXES
 70
0
 62
7
  6
CONTINUOUS
370
-3
390
F
  0
LAYER
  5
201
100
AcDbSymbolTableRecord
100
AcDbLayerTableRecord
  2
DEFAULT_DATUM_PLANES
 70
0
 62
7
  6
CONTINUOUS
370
-3
390
F
  0
LAYER
  5
202
100
AcDbSymbolTableRecord
100
AcDbLayerTableRecord
  2
DIMENSIONS
 70
0
 62
7
  6
CONTINUOUS
370
-3
390
F
  0
ENDTAB
  0
TABLE
  2
STYLE
  5
3
100
AcDbSymbolTable
 70
1
  0
STYLE
  5
11
100
AcDbSymbolTableRecord
100
AcDbTextStyleTableRecord
  2
STANDARD
 70
0
 40
0.0
 41
0.8
 50
0.0
 71
0
 42
0.2
  3
txt
  4

  0
STYLE
  5
203
100
AcDbSymbolTableRecord
100
AcDbTextStyleTableRecord
  2
TEXTSTYLE_1
 70
0
 40
0.0
 41
0.8
 50
0.0
 71
0
 42
0.2
  3
gdt
  4

  0
ENDTAB
  0
TABLE
  2
VIEW
  5
6
100
AcDbSymbolTable
 70
0
  0
ENDTAB
  0
TABLE
  2
UCS
  5
7
100
AcDbSymbolTable
 70
0
  0
ENDTAB
  0
TABLE
  2
APPID
  5
9
100
AcDbSymbolTable
 70
1
  0
APPID
  5
204
100
AcDbSymbolTableRecord
100
AcDbRegAppTableRecord
  2
ACAD
 70
0
  0
ENDTAB
  0
TABLE
  2
BLOCK_RECORD
  5
1
100
AcDbSymbolTable
 70
0
  0
BLOCK_RECORD
  5
205
100
AcDbSymbolTableRecord
100
AcDbBlockTableRecord
  2
*Model_Space
  0
BLOCK_RECORD
  5
206
100
AcDbSymbolTableRecord
100
AcDbBlockTableRecord
  2
*Paper_Space
  0
BLOCK_RECORD
  5
207
100
AcDbSymbolTableRecord
100
AcDbBlockTableRecord
  2
_FILLED
  0
ENDTAB
  0
TABLE
  2
DIMSTYLE
  5
A
100
AcDbSymbolTable
 70
1
100
AcDbDimStyleTable
 71
0
  0
DIMSTYLE
105
208
100
AcDbSymbolTableRecord
100
AcDbDimStyleTableRecord
  2
STANDARD
 70
0
  3

  4

 40
1.0
 41
0.1
 42
0.0625
 43
0.38
 44
0.125
 45
0.0
 46
0.0
 47
0.001
 48
0.001
140
0.08
141
0.09
142
0.0
143
25.4
144
1.0
145
0.0
146
1.0
147
0.09
 71
1.0
 72
0.0
 73
1
 74
1
 75
0
 76
0
 77
0
 78
4
 79
1
170
1
171
2
172
0
173
0
174
0
175
0
176
0
177
0
178
0
270
2
179
3
271
3
272
3
273
2
274
2
275
0
280
0
281
0
282
0
283
1
284
4
285
0
286
0
287
3
288
0
340
11
278
46
341
207
342
207
343
207
344
207
  0
ENDTAB
  0
ENDSEC
  0
SECTION
  2
BLOCKS
  0
BLOCK
  5
20
100
AcDbEntity
  8
0
100
AcDbBlockBegin
  2
*Model_Space
 70
0
 10
0.0
 20
0.0
 30
0.0
  3
*Model_Space
  1

  0
ENDBLK
  5
21
100
AcDbEntity
  8
0
100
AcDbBlockEnd
  0
BLOCK
  5
1C
100
AcDbEntity
  8
0
100
AcDbBlockBegin
  2
*Paper_Space
 70
0
 10
0.0
 20
0.0
 30
0.0
  3
*Paper_Space
  1

  0
ENDBLK
  5
1D
100
AcDbEntity
  8
0
100
AcDbBlockEnd
  0
BLOCK
  5
209
100
AcDbEntity
  8
0
100
AcDbBlockBegin
  2
_FILLED
 70
64
 10
0.0
 20
0.0
  3
_FILLED
  1

  0
SOLID
  5
20A
100
AcDbEntity
  8
0
  6
BYBLOCK
 62
0
100
AcDbTrace
 10
0.0
 20
0.0
 11
-1.0
 21
0.2
 12
-1.0
 22
-0.2
 13
-1.0
 23
-0.2
  0
ENDBLK
  5
20B
100
AcDbEntity
  8
0
  6
BYBLOCK
 62
0
100
AcDbBlockEnd
  0
ENDSEC
  0
SECTION
  2
ENTITIES
  0
LINE
  5
20C
100
AcDbEntity
  8
0
100
AcDbLine
 62
9
  6
CONTINUOUS
 10
9.4996923427
 20
9.1426695021
 11
9.4996923427
 21
9.3926695021
  0
LINE
  5
20D
100
AcDbEntity
  8
0
100
AcDbLine
 62
7
  6
CONTINUOUS
 10
10.3480116086
 20
9.1426695021
 11
9.4996923427
 21
9.1426695021
  0
LINE
  5
20E
100
AcDbEntity
  8
0
100
AcDbLine
 62
7
  6
CONTINUOUS
 10
11.5273730769
 20
9.1426695021
 11
12.3756923427
 21
9.1426695021
  0
LINE
  5
20F
100
AcDbEntity
  8
0
100
AcDbLine
 62
7
  6
CONTINUOUS
 10
10.3480116086
 20
9.3926695021
 11
9.4996923427
 21
9.3926695021
  0
LINE
  5
210
100
AcDbEntity
  8
0
100
AcDbLine
 62
7
  6
CONTINUOUS
 10
11.5273730769
 20
9.3926695021
 11
12.3756923427
 21
9.3926695021
  0
LINE
  5
211
100
AcDbEntity
  8
0
100
AcDbLine
 62
7
  6
CONTINUOUS
 10
9.1353389424
 20
9.7676695021
 11
8.8640457431
 21
9.7676695021
  0
LINE
  5
212
100
AcDbEntity
  8
0
100
AcDbLine
 62
7
  6
CONTINUOUS
 10
12.7400457431
 20
9.7676695021
 11
13.0113389424
 21
9.7676695021
  0
LINE
  5
213
100
AcDbEntity
  8
0
100
AcDbLine
 62
9
  6
CONTINUOUS
 10
12.3756923427
 20
9.3926695021
 11
12.3756923427
 21
9.1426695021
  0
ARC
  5
214
100
AcDbEntity
  8
0
100
AcDbCircle
 62
7
  6
CONTINUOUS
 10
10.9376923427
 20
9.2676695021
 40
1.1
100
AcDbArc
 50
6.5257874043
 51
173.4742125957
  0
ARC
  5
215
100
AcDbEntity
  8
0
100
AcDbCircle
 62
7
  6
CONTINUOUS
 10
10.9376923427
 20
9.2676695021
 40
1.1
100
AcDbArc
 50
186.5257874042
 51
353.4742125957
  0
ARC
  5
216
100
AcDbEntity
  8
0
100
AcDbCircle
 62
9
  6
CONTINUOUS
 10
10.9376923427
 20
9.2676695021
 40
1.07
100
AcDbArc
 50
6.7104744596
 51
173.2895266312
  0
ARC
  5
217
100
AcDbEntity
  8
0
100
AcDbCircle
 62
9
  6
CONTINUOUS
 10
10.9376923427
 20
9.2676695021
 40
1.07
100
AcDbArc
 50
186.7104744596
 51
353.2895266312
  0
ARC
  5
218
100
AcDbEntity
  8
0
100
AcDbCircle
 62
7
  6
CONTINUOUS
 10
10.9376923427
 20
9.2676695021
 40
0.75
100
AcDbArc
 50
189.5970384664
 51
350.4029615336
  0
ARC
  5
219
100
AcDbEntity
  8
0
100
AcDbCircle
 62
7
  6
CONTINUOUS
 10
10.9376923427
 20
9.2676695021
 40
0.75
100
AcDbArc
 50
9.5970384664
 51
170.4029615336
  0
ARC
  5
21A
100
AcDbEntity
  8
0
100
AcDbCircle
 62
9
  6
CONTINUOUS
 10
10.9376923427
 20
9.2676695021
 40
0.7231538135
100
AcDbArc
 50
189.9541590119
 51
350.0458409882
  0
ARC
  5
21B
100
AcDbEntity
  8
0
100
AcDbCircle
 62
9
  6
CONTINUOUS
 10
10.9376923427
 20
9.2676695021
 40
0.7231538135
100
AcDbArc
 50
9.9541590119
 51
170.0458409882
  0
ARC
  5
21C
100
AcDbEntity
  8
0
100
AcDbCircle
 62
9
  6
CONTINUOUS
 10
10.9376923427
 20
9.2676695021
 40
0.6695101743
100
AcDbArc
 50
190.7744612308
 51
349.2255387692
  0
ARC
  5
21D
100
AcDbEntity
  8
0
100
AcDbCircle
 62
9
  6
CONTINUOUS
 10
10.9376923427
 20
9.2676695021
 40
0.6695101743
100
AcDbArc
 50
10.7744612308
 51
169.2255387692
  0
ARC
  5
21E
100
AcDbEntity
  8
0
100
AcDbCircle
 62
7
  6
CONTINUOUS
 10
12.3756923427
 20
9.7676695021
 40
0.625
100
AcDbArc
 50
270.0
 51
360.0
  0
ARC
  5
21F
100
AcDbEntity
  8
0
100
AcDbCircle
 62
7
  6
CONTINUOUS
 10
9.4996923427
 20
9.7676695021
 40
0.625
100
AcDbArc
 50
180.0
 51
270.0
  0
CIRCLE
  5
220
100
AcDbEntity
  8
0
100
AcDbCircle
 62
9
  6
CONTINUOUS
 10
10.9376923427
 20
9.2676695021
 40
0.5902070748
  0
CIRCLE
  5
221
100
AcDbEntity
  8
0
100
AcDbCircle
 62
9
  6
CONTINUOUS
 10
10.9376923427
 20
9.2676695021
 40
0.5572271775
  0
ARC
  5
222
100
AcDbEntity
  8
0
100
AcDbCircle
 62
7
  6
CONTINUOUS
 10
12.3756923427
 20
9.7676695021
 40
0.375
100
AcDbArc
 50
270.0
 51
360.0
  0
ARC
  5
223
100
AcDbEntity
  8
0
100
AcDbCircle
 62
7
  6
CONTINUOUS
 10
9.4996923427
 20
9.7676695021
 40
0.375
100
AcDbArc
 50
180.0
 51
270.0
  0
ARC
  5
224
100
AcDbEntity
  8
0
100
AcDbCircle
 62
7
  6
CONTINUOUS
 10
12.8756923427
 20
9.9776695021
 40
0.25
100
AcDbArc
 50
302.8598803789
 51
237.1401196211
  0
ARC
  5
225
100
AcDbEntity
  8
0
100
AcDbCircle
 62
7
  6
CONTINUOUS
 10
8.9996923427
 20
9.9776695021
 40
0.25
100
AcDbArc
 50
302.8598803789
 51
237.1401196211
  0
SPLINE
  5
226
100
AcDbEntity
  8
0
100
AcDbSpline
 62
7
  6
CONTINUOUS
 70
0
 71
3
 72
63
 73
59
 74
0
 42
0.0000001
 43
0.0000001
 44
0.0000000001
 40
0.0
 40
0.0
 40
0.0
 40
0.0
 40
0.0002133728
 40
0.0004378686
 40
0.0006968646
 40
0.0010059558
 40
0.001806536
 40
0.002878764
 40
0.0042369033
 40
0.0058875119
 40
0.0078339193
 40
0.0100773491
 40
0.0126173677
 40
0.0154529517
 40
0.0220051115
 40
0.0297209674
 40
0.0385819862
 40
0.0485628482
 40
0.0596371837
 40
0.0717770593
 40
0.0849489948
 40
0.1142488907
 40
0.1472394213
 40
0.1835930985
 40
0.2229580092
 40
0.2649617883
 40
0.3092067612
 40
0.3552780274
 40
0.4027382031
 40
0.4999999999
 40
0.5972617969
 40
0.6447219726
 40
0.6907932388
 40
0.7350382118
 40
0.7770419909
 40
0.8164069016
 40
0.8527605788
 40
0.8857511093
 40
0.9150510052
 40
0.9282229407
 40
0.9403628163
 40
0.9514371518
 40
0.9614180138
 40
0.9702790326
 40
0.9779948886
 40
0.9845470483
 40
0.9873826323
 40
0.9899226509
 40
0.9921660808
 40
0.9941124881
 40
0.9957630967
 40
0.997121236
 40
0.998193464
 40
0.9989940442
 40
0.9993031354
 40
0.9995621314
 40
0.9997866272
 40
1.0
 40
1.0
 40
1.0
 40
1.0
 10
10.3480116086
 20
9.3926695021
 30
0.0
 10
10.3480294672
 20
9.3926695021
 30
0.0
 10
10.3480665115
 20
9.3926629213
 30
0.0
 10
10.3481172508
 20
9.3926320957
 30
0.0
 10
10.3481622818
 20
9.3925825155
 30
0.0
 10
10.3482210185
 20
9.3924835773
 30
0.0
 10
10.3482789632
 20
9.3923087802
 30
0.0
 10
10.3483292419
 20
9.3920429198
 30
0.0
 10
10.3483644751
 20
9.3917028079
 30
0.0
 10
10.348384577
 20
9.3912884676
 30
0.0
 10
10.3483892591
 20
9.3907995584
 30
0.0
 10
10.3483785575
 20
9.39023634
 30
0.0
 10
10.3483527358
 20
9.3895991332
 30
0.0
 10
10.3482955793
 20
9.3886024171
 30
0.0
 10
10.3481845093
 20
9.3871750812
 30
0.0
 10
10.3480018501
 20
9.3852478384
 30
0.0
 10
10.3477666089
 20
9.3830374809
 30
0.0
 10
10.3474830135
 20
9.3805496808
 30
0.0
 10
10.3471550632
 20
9.3777907674
 30
0.0
 10
10.3467870458
 20
9.3747676703
 30
0.0
 10
10.3462296962
 20
9.3702309394
 30
0.0
 10
10.3454627952
 20
9.3639616879
 30
0.0
 10
10.3444994161
 20
9.3557618091
 30
0.0
 10
10.3435088925
 20
9.3467171271
 30
0.0
 10
10.3425363141
 20
9.3369120197
 30
0.0
 10
10.3416265979
 20
9.3264376579
 30
0.0
 10
10.3408194233
 20
9.3153919382
 30
0.0
 10
10.3401515814
 20
9.3038793246
 30
0.0
 10
10.3394800889
 20
9.2879240385
 30
0.0
 10
10.3391351437
 20
9.2676695022
 30
0.0
 10
10.3394800889
 20
9.2474149658
 30
0.0
 10
10.3401515814
 20
9.2314596796
 30
0.0
 10
10.3408194233
 20
9.2199470661
 30
0.0
 10
10.3416265979
 20
9.2089013464
 30
0.0
 10
10.3425363141
 20
9.1984269846
 30
0.0
 10
10.3435088925
 20
9.1886218771
 30
0.0
 10
10.3444994161
 20
9.1795771952
 30
0.0
 10
10.3454627952
 20
9.1713773164
 30
0.0
 10
10.3462296962
 20
9.1651080649
 30
0.0
 10
10.3467870458
 20
9.160571334
 30
0.0
 10
10.3471550632
 20
9.1575482369
 30
0.0
 10
10.3474830135
 20
9.1547893234
 30
0.0
 10
10.3477666089
 20
9.1523015234
 30
0.0
 10
10.3480018501
 20
9.1500911659
 30
0.0
 10
10.3481845093
 20
9.1481639231
 30
0.0
 10
10.3482955793
 20
9.1467365871
 30
0.0
 10
10.3483527358
 20
9.1457398711
 30
0.0
 10
10.3483785575
 20
9.1451026642
 30
0.0
 10
10.3483892591
 20
9.1445394459
 30
0.0
 10
10.348384577
 20
9.1440505366
 30
0.0
 10
10.3483644751
 20
9.1436361964
 30
0.0
 10
10.3483292419
 20
9.1432960845
 30
0.0
 10
10.3482789632
 20
9.143030224
 30
0.0
 10
10.3482210185
 20
9.1428554269
 30
0.0
 10
10.3481622818
 20
9.1427564888
 30
0.0
 10
10.3481172508
 20
9.1427069086
 30
0.0
 10
10.3480665115
 20
9.142676083
 30
0.0
 10
10.3480294672
 20
9.1426695021
 30
0.0
 10
10.3480116086
 20
9.1426695021
 30
0.0
  0
SPLINE
  5
227
100
AcDbEntity
  8
0
100
AcDbSpline
 62
7
  6
CONTINUOUS
 70
0
 71
3
 72
63
 73
59
 74
0
 42
0.0000001
 43
0.0000001
 44
0.0000000001
 40
0.0
 40
0.0
 40
0.0
 40
0.0
 40
0.0002133728
 40
0.0004378686
 40
0.0006968646
 40
0.0010059558
 40
0.001806536
 40
0.002878764
 40
0.0042369033
 40
0.0058875119
 40
0.0078339193
 40
0.0100773491
 40
0.0126173677
 40
0.0154529517
 40
0.0220051115
 40
0.0297209674
 40
0.0385819862
 40
0.0485628482
 40
0.0596371837
 40
0.0717770593
 40
0.0849489948
 40
0.1142488907
 40
0.1472394213
 40
0.1835930985
 40
0.2229580092
 40
0.2649617883
 40
0.3092067612
 40
0.3552780274
 40
0.4027382031
 40
0.4999999999
 40
0.5972617969
 40
0.6447219726
 40
0.6907932388
 40
0.7350382118
 40
0.7770419909
 40
0.8164069016
 40
0.8527605788
 40
0.8857511093
 40
0.9150510052
 40
0.9282229407
 40
0.9403628163
 40
0.9514371518
 40
0.9614180138
 40
0.9702790326
 40
0.9779948886
 40
0.9845470483
 40
0.9873826323
 40
0.9899226509
 40
0.9921660808
 40
0.9941124881
 40
0.9957630967
 40
0.997121236
 40
0.998193464
 40
0.9989940442
 40
0.9993031354
 40
0.9995621314
 40
0.9997866272
 40
1.0
 40
1.0
 40
1.0
 40
1.0
 10
11.5273730769
 20
9.1426695021
 30
0.0
 10
11.5273552182
 20
9.1426695021
 30
0.0
 10
11.527318174
 20
9.142676083
 30
0.0
 10
11.5272674347
 20
9.1427069086
 30
0.0
 10
11.5272224037
 20
9.1427564888
 30
0.0
 10
11.527163667
 20
9.1428554269
 30
0.0
 10
11.5271057223
 20
9.143030224
 30
0.0
 10
11.5270554436
 20
9.1432960845
 30
0.0
 10
11.5270202104
 20
9.1436361964
 30
0.0
 10
11.5270001084
 20
9.1440505367
 30
0.0
 10
11.5269954263
 20
9.1445394459
 30
0.0
 10
11.527006128
 20
9.1451026642
 30
0.0
 10
11.5270319497
 20
9.1457398711
 30
0.0
 10
11.5270891061
 20
9.1467365872
 30
0.0
 10
11.5272001762
 20
9.1481639231
 30
0.0
 10
11.5273828353
 20
9.1500911659
 30
0.0
 10
11.5276180766
 20
9.1523015234
 30
0.0
 10
11.527901672
 20
9.1547893235
 30
0.0
 10
11.5282296223
 20
9.1575482369
 30
0.0
 10
11.5285976397
 20
9.160571334
 30
0.0
 10
11.5291549893
 20
9.1651080649
 30
0.0
 10
11.5299218903
 20
9.1713773164
 30
0.0
 10
11.5308852693
 20
9.1795771952
 30
0.0
 10
11.531875793
 20
9.1886218771
 30
0.0
 10
11.5328483714
 20
9.1984269846
 30
0.0
 10
11.5337580876
 20
9.2089013464
 30
0.0
 10
11.5345652621
 20
9.2199470661
 30
0.0
 10
11.535233104
 20
9.2314596796
 30
0.0
 10
11.5359045966
 20
9.2474149658
 30
0.0
 10
11.5362495418
 20
9.2676695021
 30
0.0
 10
11.5359045966
 20
9.2879240385
 30
0.0
 10
11.535233104
 20
9.3038793246
 30
0.0
 10
11.5345652621
 20
9.3153919382
 30
0.0
 10
11.5337580876
 20
9.3264376579
 30
0.0
 10
11.5328483714
 20
9.3369120197
 30
0.0
 10
11.531875793
 20
9.3467171272
 30
0.0
 10
11.5308852693
 20
9.3557618091
 30
0.0
 10
11.5299218903
 20
9.3639616879
 30
0.0
 10
11.5291549893
 20
9.3702309394
 30
0.0
 10
11.5285976397
 20
9.3747676703
 30
0.0
 10
11.5282296223
 20
9.3777907674
 30
0.0
 10
11.527901672
 20
9.3805496808
 30
0.0
 10
11.5276180766
 20
9.3830374809
 30
0.0
 10
11.5273828353
 20
9.3852478384
 30
0.0
 10
11.5272001762
 20
9.3871750812
 30
0.0
 10
11.5270891061
 20
9.3886024171
 30
0.0
 10
11.5270319497
 20
9.3895991332
 30
0.0
 10
11.527006128
 20
9.3902363401
 30
0.0
 10
11.5269954263
 20
9.3907995584
 30
0.0
 10
11.5270001084
 20
9.3912884676
 30
0.0
 10
11.5270202103
 20
9.3917028079
 30
0.0
 10
11.5270554436
 20
9.3920429198
 30
0.0
 10
11.5271057223
 20
9.3923087803
 30
0.0
 10
11.527163667
 20
9.3924835773
 30
0.0
 10
11.5272224037
 20
9.3925825155
 30
0.0
 10
11.5272674347
 20
9.3926320957
 30
0.0
 10
11.527318174
 20
9.3926629213
 30
0.0
 10
11.5273552182
 20
9.3926695021
 30
0.0
 10
11.5273730769
 20
9.3926695021
 30
0.0
  0
ENDSEC
  0
SECTION
  2
OBJECTS
  0
DICTIONARY
  5
C
100
AcDbDictionary
280
0
281
1
  3
ACAD_GROUP
350
D
  3
ACAD_MLINESTYLE
350
17
  3
ACAD_LAYOUT
350
1A
  3
ACAD_PLOTSETTINGS
350
19
  3
ACAD_PLOTSTYLENAME
350
E
  0
DICTIONARY
  5
D
102
{ACAD_REACTORS
330
C
102
}
100
AcDbDictionary
280
0
281
1
  0
ACDBDICTIONARYWDFLT
  5
E
102
{ACAD_REACTORS
330
C
102
}
100
AcDbDictionary
281
1
  3
Normal
350
F
100
AcDbDictionaryWithDefault
340
F
  0
DICTIONARY
  5
17
102
{ACAD_REACTORS
330
C
102
}
100
AcDbDictionary
280
0
281
1
  3
Standard
350
18
  0
DICTIONARY
  5
19
102
{ACAD_REACTORS
330
C
102
}
100
AcDbDictionary
281
1
  0
DICTIONARY
  5
1A
102
{ACAD_REACTORS
330
C
102
}
100
AcDbDictionary
281
1
  3
Model
350
228
  3
Layout1
350
229
  0
ACDBPLACEHOLDER
  5
F
102
{ACAD_REACTORS
330
E
102
}
  0
MLINESTYLE
  5
18
102
{ACAD_REACTORS
330
17
102
}
100
AcDbMlineStyle
  2
STANDARD
 70
0
  3

 62
256
 51
90.0
 52
90.0
 71
2
 49
0.5
 62
256
  6
BYLAYER
 49
-0.5
 62
256
  6
BYLAYER
  0
LAYOUT
  5
228
102
{ACAD_REACTORS
330
1A
102
}
100
AcDbPlotSettings
  1

  2
none_device
  4
ANSI_C_(22.00_x_17.00_Inches)
  6

 40
0.0
 41
0.0
 42
0.0
 43
0.0
 44
558.8
 45
431.8
 46
0.0
 47
0.0
 48
0.0
 49
0.0
140
0.0
141
0.0
142
1.0
143
1.0
 70
1024
 72
0
 73
0
 74
0
  7

 75
0
147
1.0
148
0.0
149
0.0
100
AcDbLayout
  1
Model
 70
0
 71
0
 10
0.0
 20
0.0
 11
22.0
 21
17.0
 12
0.0
 22
0.0
 32
0.0
 14
0.0
 24
0.0
 34
0.0
 15
0.0
 25
0.0
 35
0.0
146
0.0
 13
0.0
 23
0.0
 33
0.0
 16
1.0
 26
0.0
 36
0.0
 17
0.0
 27
1.0
 37
0.0
 76
0
330
205
345
0
346
0
  0
LAYOUT
  5
229
102
{ACAD_REACTORS
330
1A
102
}
100
AcDbPlotSettings
  1

  2
none_device
  4
ANSI_C_(22.00_x_17.00_Inches)
  6

 40
0.0
 41
0.0
 42
0.0
 43
0.0
 44
558.8
 45
431.8
 46
0.0
 47
0.0
 48
0.0
 49
0.0
140
0.0
141
0.0
142
1.0
143
1.0
 70
0
 72
0
 73
0
 74
0
  7

 75
0
147
1.0
148
0.0
149
0.0
100
AcDbLayout
  1
Layout1
 70
0
 71
1
 10
0.0
 20
0.0
 11
22.0
 21
17.0
 12
0.0
 22
0.0
 32
0.0
 14
0.0
 24
0.0
 34
0.0
 15
0.0
 25
0.0
 35
0.0
146
0.0
 13
0.0
 23
0.0
 33
0.0
 16
1.0
 26
0.0
 36
0.0
 17
0.0
 27
1.0
 37
0.0
 76
0
330
206
345
0
346
0
  0
ENDSEC
  0
EOF
