999
DXF file: 43-01.dxf
999
Pro/ENGINEER 2014000 by Parametric Technology Corporation
  0
SECTION
  2
HEADER
  9
$ACADVER
  1
AC1015
  9
$DWGCODEPAGE
  3
ANSI_1252
  9
$EXTMAX
 10
23.3858267717
 20
16.5354330709
 30
0.0
  9
$EXTMIN
 10
0.0
 20
-0.0
 30
0.0
  9
$LIMMIN
 10
0.0
 20
-0.0
  9
$LIMMAX
 10
23.3858267717
 20
16.5354330709
  9
$VIEWCTR
 10
11.6929133858
 20
8.2677165354
  9
$VIEWSIZE
 40
16.5354330709
  9
$CLAYER
  8
0
  9
$LTSCALE
 40
1.2862204724
  9
$CELTYPE
  6
BYLAYER
  9
$DIMSCALE
 40
1.0
  9
$DIMASZ
 40
0.1875
  9
$DIMEXO
 40
0.0625
  9
$DIMDLI
 40
0.8886614173
  9
$DIMEXE
 40
0.125
  9
$DIMCEN
 40
0.2104724409
  9
$DIMLFAC
 40
1.0
  9
$DIMBLK
  1
_CLOSED
  9
$DIMTXT
 40
0.15625
  9
$DIMTOL
 70
0
  9
$DIMLIM
 70
0
  9
$DIMTFAC
 40
1.0
  9
$DIMGAP
 40
0.09
  9
$DIMDSEP
 70
46
  9
$PDMODE
 70
3
  9
$PDSIZE
 40
0.3125
  9
$HANDSEED
  5
329
  9
$TILEMODE
 70
1
  9
$MEASUREMENT
 70
0
  9
$INSUNITS
 70
1
  0
ENDSEC
  0
SECTION
  2
CLASSES
  0
CLASS
  1
ACDBDICTIONARYWDFLT
  2
AcDbDictionaryWithDefault
  3
AutoCAD 2000
 90
0
280
0
281
0
  0
CLASS
  1
ACDBPLACEHOLDER
  2
AcDbPlaceHolder
  3
AutoCAD 2000
 90
0
280
0
281
0
  0
CLASS
  1
LAYOUT
  2
AcDbLayout
  3
AutoCAD 2000
 90
0
280
0
281
0
  0
ENDSEC
  0
SECTION
  2
TABLES
  0
TABLE
  2
VPORT
  5
8
100
AcDbSymbolTable
 70
2
  0
VPORT
  5
1F4
100
AcDbSymbolTableRecord
100
AcDbViewportTableRecord
  2
*ACTIVE
 70
0
 10
0.0
 20
0.0
 11
1.0
 21
1.0
 12
11.6929133858
 22
8.2677165354
 13
0.0
 23
0.0
 14
1.0
 24
1.0
 15
0.0
 25
0.0
 16
0.0
 26
0.0
 36
1.0
 17
0.0
 27
0.0
 37
0.0
 40
16.5354330709
 41
1.4142857143
 42
50.0
 43
0.0
 44
0.0
 50
0.0
 51
0.0
 71
0
 72
100
 73
1
 74
1
 75
0
 76
0
 77
0
 78
0
  0
ENDTAB
  0
TABLE
  2
LTYPE
  5
5
100
AcDbSymbolTable
 70
6
  0
LTYPE
  5
14
100
AcDbSymbolTableRecord
100
AcDbLinetypeTableRecord
  2
BYBLOCK
 70
0
  3

 72
65
 73
0
 40
0.0
  0
LTYPE
  5
15
100
AcDbSymbolTableRecord
100
AcDbLinetypeTableRecord
  2
BYLAYER
 70
0
  3

 72
65
 73
0
 40
0.0
  0
LTYPE
  5
16
100
AcDbSymbolTableRecord
100
AcDbLinetypeTableRecord
  2
CONTINUOUS
 70
64
  3
Solid line
 72
65
 73
0
 40
0.0
  0
LTYPE
  5
1F5
100
AcDbSymbolTableRecord
100
AcDbLinetypeTableRecord
  2
CENTER
 70
64
  3
____ _ ____ _ ____ _ ____ _ ____ _ ____ _ ____
 72
65
 73
4
 40
0.6
 49
0.375
 74
0
 49
-0.075
 74
0
 49
0.075
 74
0
 49
-0.075
 74
0
  0
LTYPE
  5
1F6
100
AcDbSymbolTableRecord
100
AcDbLinetypeTableRecord
  2
HIDDEN
 70
64
  3
- - - - - - - - - - - - - - - - - - - -
 72
65
 73
2
 40
0.2
 49
0.1
 74
0
 49
-0.1
 74
0
  0
LTYPE
  5
1F7
100
AcDbSymbolTableRecord
100
AcDbLinetypeTableRecord
  2
PHANTOM
 70
64
  3
_____ _ _ _____ _ _ _____ _ _ _____
 72
65
 73
6
 40
0.8
 49
0.45
 74
0
 49
-0.05
 74
0
 49
0.1
 74
0
 49
-0.05
 74
0
 49
0.1
 74
0
 49
-0.05
 74
0
  0
LTYPE
  5
1F8
100
AcDbSymbolTableRecord
100
AcDbLinetypeTableRecord
  2
DOT
 70
64
  3
. . . . . . . . . . . . . . . . . . . .
 72
65
 73
2
 40
0.2
 49
0.1
 74
0
 49
-0.1
 74
0
  0
LTYPE
  5
1F9
100
AcDbSymbolTableRecord
100
AcDbLinetypeTableRecord
  2
DASHED
 70
64
  3
- - - - - - - - - - - - - - - - - - - -
 72
65
 73
2
 40
0.2
 49
0.1
 74
0
 49
-0.1
 74
0
  0
ENDTAB
  0
TABLE
  2
LAYER
  5
2
100
AcDbSymbolTable
 70
36
  0
LAYER
  5
10
100
AcDbSymbolTableRecord
100
AcDbLayerTableRecord
  2
0
 70
0
 62
7
  6
CONTINUOUS
370
-3
390
F
  0
LAYER
  5
1FA
100
AcDbSymbolTableRecord
100
AcDbLayerTableRecord
  2
DEFAULT_1
 70
0
 62
7
  6
CENTER
370
-3
390
F
  0
LAYER
  5
1FB
100
AcDbSymbolTableRecord
100
AcDbLayerTableRecord
  2
DEFAULT_2
 70
0
 62
8
  6
HIDDEN
370
-3
390
F
  0
LAYER
  5
1FC
100
AcDbSymbolTableRecord
100
AcDbLayerTableRecord
  2
DEFAULT_3
 70
0
 62
7
  6
PHANTOM
370
-3
390
F
  0
LAYER
  5
1FD
100
AcDbSymbolTableRecord
100
AcDbLayerTableRecord
  2
DEFAULT_COORDINATE_SYSTEM
 70
0
 62
7
  6
CONTINUOUS
370
-3
390
F
  0
LAYER
  5
1FE
100
AcDbSymbolTableRecord
100
AcDbLayerTableRecord
  2
DEFAULT_DATUM_AXES
 70
0
 62
7
  6
CONTINUOUS
370
-3
390
F
  0
LAYER
  5
1FF
100
AcDbSymbolTableRecord
100
AcDbLayerTableRecord
  2
DEFAULT_DATUM_PLANES
 70
0
 62
7
  6
CONTINUOUS
370
-3
390
F
  0
ENDTAB
  0
TABLE
  2
STYLE
  5
3
100
AcDbSymbolTable
 70
1
  0
STYLE
  5
11
100
AcDbSymbolTableRecord
100
AcDbTextStyleTableRecord
  2
STANDARD
 70
0
 40
0.0
 41
0.8
 50
0.0
 71
0
 42
0.2
  3
txt
  4

  0
STYLE
  5
200
100
AcDbSymbolTableRecord
100
AcDbTextStyleTableRecord
  2
TEXTSTYLE_1
 70
0
 40
0.0
 41
0.8
 50
0.0
 71
0
 42
0.2
  3
gdt
  4

  0
ENDTAB
  0
TABLE
  2
VIEW
  5
6
100
AcDbSymbolTable
 70
0
  0
ENDTAB
  0
TABLE
  2
UCS
  5
7
100
AcDbSymbolTable
 70
0
  0
ENDTAB
  0
TABLE
  2
APPID
  5
9
100
AcDbSymbolTable
 70
1
  0
APPID
  5
201
100
AcDbSymbolTableRecord
100
AcDbRegAppTableRecord
  2
ACAD
 70
0
  0
ENDTAB
  0
TABLE
  2
BLOCK_RECORD
  5
1
100
AcDbSymbolTable
 70
0
  0
BLOCK_RECORD
  5
202
100
AcDbSymbolTableRecord
100
AcDbBlockTableRecord
  2
*Model_Space
  0
BLOCK_RECORD
  5
203
100
AcDbSymbolTableRecord
100
AcDbBlockTableRecord
  2
*Paper_Space
  0
ENDTAB
  0
TABLE
  2
DIMSTYLE
  5
A
100
AcDbSymbolTable
 70
1
100
AcDbDimStyleTable
 71
0
  0
DIMSTYLE
105
204
100
AcDbSymbolTableRecord
100
AcDbDimStyleTableRecord
  2
STANDARD
 70
0
  3

  4

 40
1.0
 41
0.1875
 42
0.0625
 43
0.38
 44
0.125
 45
0.0
 46
0.0
 47
0.001
 48
0.001
140
0.15625
141
0.09
142
0.0
143
25.4
144
1.0
145
0.0
146
1.0
147
0.09
 71
0.0
 72
0.0
 73
1
 74
1
 75
0
 76
0
 77
0
 78
4
170
0
171
2
172
0
173
0
174
0
175
0
176
0
177
0
178
0
270
2
271
3
272
3
273
2
274
2
275
0
280
0
281
0
282
0
283
1
284
4
285
0
286
0
287
3
288
0
340
11
278
46
  0
ENDTAB
  0
ENDSEC
  0
SECTION
  2
BLOCKS
  0
BLOCK
  5
20
100
AcDbEntity
  8
0
100
AcDbBlockBegin
  2
*Model_Space
 70
0
 10
0.0
 20
0.0
 30
0.0
  3
*Model_Space
  1

  0
ENDBLK
  5
21
100
AcDbEntity
  8
0
100
AcDbBlockEnd
  0
BLOCK
  5
1C
100
AcDbEntity
  8
0
100
AcDbBlockBegin
  2
*Paper_Space
 70
0
 10
0.0
 20
0.0
 30
0.0
  3
*Paper_Space
  1

  0
ENDBLK
  5
1D
100
AcDbEntity
  8
0
100
AcDbBlockEnd
  0
ENDSEC
  0
SECTION
  2
ENTITIES
  0
LINE
  5
205
100
AcDbEntity
  8
0
100
AcDbLine
 62
7
  6
CONTINUOUS
 10
0.0
 20
-0.0
 11
0.0
 21
16.5354330709
  0
LINE
  5
206
100
AcDbEntity
  8
0
100
AcDbLine
 62
7
  6
CONTINUOUS
 10
0.0
 20
-0.0
 11
23.3858267717
 21
-0.0
  0
LINE
  5
207
100
AcDbEntity
  8
0
100
AcDbLine
 62
7
  6
CONTINUOUS
 10
0.0
 20
16.5354330709
 11
23.3858267717
 21
16.5354330709
  0
LINE
  5
208
100
AcDbEntity
  8
0
100
AcDbLine
 62
7
  6
CONTINUOUS
 10
23.3858267717
 20
-0.0
 11
23.3858267717
 21
16.5354330709
  0
LINE
  5
209
100
AcDbEntity
  8
0
100
AcDbLine
 62
6
  6
CONTINUOUS
 10
1.73030065
 20
9.7407343742
 11
1.73030065
 21
7.4707343742
  0
LINE
  5
20A
100
AcDbEntity
  8
0
100
AcDbLine
 62
9
  6
CONTINUOUS
 10
1.76030065
 20
9.7407343742
 11
1.76030065
 21
7.4707343742
  0
LINE
  5
20B
100
AcDbEntity
  8
0
100
AcDbLine
 62
9
  6
CONTINUOUS
 10
1.79030065
 20
7.4407343742
 11
1.79030065
 21
7.4107343742
  0
LINE
  5
20C
100
AcDbEntity
  8
0
100
AcDbLine
 62
9
  6
CONTINUOUS
 10
1.79030065
 20
9.7707343742
 11
1.79030065
 21
9.8007343742
  0
LINE
  5
20D
100
AcDbEntity
  8
0
100
AcDbLine
 62
6
  6
CONTINUOUS
 10
2.05280065
 20
9.4182343742
 11
2.05280065
 21
7.7932343742
  0
LINE
  5
20E
100
AcDbEntity
  8
0
100
AcDbLine
 62
9
  6
CONTINUOUS
 10
2.08280065
 20
9.4182343742
 11
2.08280065
 21
7.7932343742
  0
LINE
  5
20F
100
AcDbEntity
  8
0
100
AcDbLine
 62
9
  6
CONTINUOUS
 10
2.11280065
 20
7.7632343742
 11
2.11280065
 21
7.7332343742
  0
LINE
  5
210
100
AcDbEntity
  8
0
100
AcDbLine
 62
9
  6
CONTINUOUS
 10
2.11280065
 20
9.4482343742
 11
2.1128006501
 21
9.4782343742
  0
LINE
  5
211
100
AcDbEntity
  8
0
100
AcDbLine
 62
9
  6
CONTINUOUS
 10
2.1526889699
 20
9.2897133565
 11
2.1526889699
 21
7.9217553919
  0
LINE
  5
212
100
AcDbEntity
  8
0
100
AcDbLine
 62
9
  6
CONTINUOUS
 10
2.1822332025
 20
9.2897133565
 11
2.1822332025
 21
7.9217553919
  0
LINE
  5
213
100
AcDbEntity
  8
0
100
AcDbLine
 62
9
  6
CONTINUOUS
 10
2.2413216677
 20
9.3783460543
 11
2.2413216677
 21
9.3488018217
  0
LINE
  5
214
100
AcDbEntity
  8
0
100
AcDbLine
 62
9
  6
CONTINUOUS
 10
2.2413216677
 20
7.8331226942
 11
2.2413216677
 21
7.8626669267
  0
LINE
  5
215
100
AcDbEntity
  8
0
100
AcDbLine
 62
6
  6
CONTINUOUS
 10
2.38630065
 20
9.0847343742
 11
2.38630065
 21
8.1267343742
  0
LINE
  5
216
100
AcDbEntity
  8
0
100
AcDbLine
 62
9
  6
CONTINUOUS
 10
2.41630065
 20
9.0847343742
 11
2.41630065
 21
8.1267343742
  0
LINE
  5
217
100
AcDbEntity
  8
0
100
AcDbLine
 62
9
  6
CONTINUOUS
 10
2.44630065
 20
8.0967343742
 11
2.44630065
 21
8.0667343742
  0
LINE
  5
218
100
AcDbEntity
  8
0
100
AcDbLine
 62
9
  6
CONTINUOUS
 10
2.44630065
 20
9.1147343742
 11
2.4463006501
 21
9.1447343742
  0
LINE
  5
219
100
AcDbEntity
  8
0
100
AcDbLine
 62
9
  6
CONTINUOUS
 10
2.52030065
 20
8.9507343742
 11
2.52030065
 21
8.2607343742
  0
LINE
  5
21A
100
AcDbEntity
  8
0
100
AcDbLine
 62
6
  6
CONTINUOUS
 10
2.55030065
 20
8.9507343742
 11
2.55030065
 21
8.2607343742
  0
LINE
  5
21B
100
AcDbEntity
  8
0
100
AcDbLine
 62
9
  6
CONTINUOUS
 10
2.5803006494
 20
8.2007343742
 11
2.58030065
 21
9.0107343742
  0
LINE
  5
21C
100
AcDbEntity
  8
0
100
AcDbLine
 62
9
  6
CONTINUOUS
 10
3.27030065
 20
8.2007343742
 11
3.2703006506
 21
9.0107343742
  0
LINE
  5
21D
100
AcDbEntity
  8
0
100
AcDbLine
 62
6
  6
CONTINUOUS
 10
3.30030065
 20
8.2607343742
 11
3.30030065
 21
8.9507343742
  0
LINE
  5
21E
100
AcDbEntity
  8
0
100
AcDbLine
 62
9
  6
CONTINUOUS
 10
3.33030065
 20
8.2607343742
 11
3.33030065
 21
8.3557343742
  0
LINE
  5
21F
100
AcDbEntity
  8
0
100
AcDbLine
 62
9
  6
CONTINUOUS
 10
3.33030065
 20
8.8557343742
 11
3.33030065
 21
8.9507343742
  0
LINE
  5
220
100
AcDbEntity
  8
0
100
AcDbLine
 62
9
  6
CONTINUOUS
 10
3.40430065
 20
8.0967343742
 11
3.4043006499
 21
8.0667343742
  0
LINE
  5
221
100
AcDbEntity
  8
0
100
AcDbLine
 62
9
  6
CONTINUOUS
 10
3.40430065
 20
9.1147343742
 11
3.40430065
 21
9.1447343742
  0
LINE
  5
222
100
AcDbEntity
  8
0
100
AcDbLine
 62
9
  6
CONTINUOUS
 10
3.43430065
 20
8.1267343742
 11
3.43430065
 21
8.3557343742
  0
LINE
  5
223
100
AcDbEntity
  8
0
100
AcDbLine
 62
9
  6
CONTINUOUS
 10
3.43430065
 20
8.8557343742
 11
3.43430065
 21
9.0847343742
  0
LINE
  5
224
100
AcDbEntity
  8
0
100
AcDbLine
 62
6
  6
CONTINUOUS
 10
3.46430065
 20
8.1267343742
 11
3.46430065
 21
8.3557343742
  0
LINE
  5
225
100
AcDbEntity
  8
0
100
AcDbLine
 62
6
  6
CONTINUOUS
 10
3.46430065
 20
8.8557343742
 11
3.46430065
 21
9.0847343742
  0
LINE
  5
226
100
AcDbEntity
  8
0
100
AcDbLine
 62
9
  6
CONTINUOUS
 10
3.6092796323
 20
9.3783460543
 11
3.6092796323
 21
9.3488018217
  0
LINE
  5
227
100
AcDbEntity
  8
0
100
AcDbLine
 62
9
  6
CONTINUOUS
 10
3.6092796323
 20
7.8331226942
 11
3.6092796323
 21
7.8626669267
  0
LINE
  5
228
100
AcDbEntity
  8
0
100
AcDbLine
 62
9
  6
CONTINUOUS
 10
3.6683680974
 20
7.9217553919
 11
3.6683680974
 21
8.3557343742
  0
LINE
  5
229
100
AcDbEntity
  8
0
100
AcDbLine
 62
9
  6
CONTINUOUS
 10
3.6683680974
 20
8.8557343742
 11
3.6683680974
 21
9.2897133565
  0
LINE
  5
22A
100
AcDbEntity
  8
0
100
AcDbLine
 62
9
  6
CONTINUOUS
 10
3.69791233
 20
7.9217553919
 11
3.69791233
 21
8.3557343742
  0
LINE
  5
22B
100
AcDbEntity
  8
0
100
AcDbLine
 62
9
  6
CONTINUOUS
 10
3.69791233
 20
8.8557343742
 11
3.69791233
 21
9.2897133565
  0
LINE
  5
22C
100
AcDbEntity
  8
0
100
AcDbLine
 62
9
  6
CONTINUOUS
 10
3.73780065
 20
7.7632343742
 11
3.7378006499
 21
7.7332343742
  0
LINE
  5
22D
100
AcDbEntity
  8
0
100
AcDbLine
 62
9
  6
CONTINUOUS
 10
3.73780065
 20
9.4482343742
 11
3.73780065
 21
9.4782343742
  0
LINE
  5
22E
100
AcDbEntity
  8
0
100
AcDbLine
 62
9
  6
CONTINUOUS
 10
3.76780065
 20
7.7932343742
 11
3.76780065
 21
8.3557343742
  0
LINE
  5
22F
100
AcDbEntity
  8
0
100
AcDbLine
 62
9
  6
CONTINUOUS
 10
3.76780065
 20
8.8557343742
 11
3.76780065
 21
9.4182343742
  0
LINE
  5
230
100
AcDbEntity
  8
0
100
AcDbLine
 62
6
  6
CONTINUOUS
 10
3.79780065
 20
7.7932343742
 11
3.79780065
 21
8.3557343742
  0
LINE
  5
231
100
AcDbEntity
  8
0
100
AcDbLine
 62
6
  6
CONTINUOUS
 10
3.79780065
 20
8.8557343742
 11
3.79780065
 21
9.4182343742
  0
LINE
  5
232
100
AcDbEntity
  8
0
100
AcDbLine
 62
9
  6
CONTINUOUS
 10
4.06030065
 20
7.4407343742
 11
4.0603006499
 21
7.4107343742
  0
LINE
  5
233
100
AcDbEntity
  8
0
100
AcDbLine
 62
9
  6
CONTINUOUS
 10
4.06030065
 20
9.7707343742
 11
4.06030065
 21
9.8007343742
  0
LINE
  5
234
100
AcDbEntity
  8
0
100
AcDbLine
 62
9
  6
CONTINUOUS
 10
4.09030065
 20
7.4707343742
 11
4.09030065
 21
8.3557343742
  0
LINE
  5
235
100
AcDbEntity
  8
0
100
AcDbLine
 62
9
  6
CONTINUOUS
 10
4.09030065
 20
8.8557343742
 11
4.09030065
 21
9.7407343742
  0
LINE
  5
236
100
AcDbEntity
  8
0
100
AcDbLine
 62
6
  6
CONTINUOUS
 10
4.12030065
 20
7.4707343742
 11
4.12030065
 21
8.3557343742
  0
LINE
  5
237
100
AcDbEntity
  8
0
100
AcDbLine
 62
6
  6
CONTINUOUS
 10
4.12030065
 20
8.8557343742
 11
4.12030065
 21
9.7407343742
  0
LINE
  5
238
100
AcDbEntity
  8
0
100
AcDbLine
 62
9
  6
CONTINUOUS
 10
3.6092796323
 20
9.3488018217
 11
3.40510614
 21
9.1446283294
  0
LINE
  5
239
100
AcDbEntity
  8
0
100
AcDbLine
 62
9
  6
CONTINUOUS
 10
2.1822332025
 20
7.9217553919
 11
2.3864066948
 21
8.1259288842
  0
LINE
  5
23A
100
AcDbEntity
  8
0
100
AcDbLine
 62
9
  6
CONTINUOUS
 10
3.6683680974
 20
9.2897133565
 11
3.4641946052
 21
9.0855398643
  0
LINE
  5
23B
100
AcDbEntity
  8
0
100
AcDbLine
 62
9
  6
CONTINUOUS
 10
2.2413216677
 20
7.8626669267
 11
2.4454951599
 21
8.066840419
  0
LINE
  5
23C
100
AcDbEntity
  8
0
100
AcDbLine
 62
9
  6
CONTINUOUS
 10
2.1822332025
 20
9.2897133565
 11
2.3864066948
 21
9.0855398643
  0
LINE
  5
23D
100
AcDbEntity
  8
0
100
AcDbLine
 62
9
  6
CONTINUOUS
 10
3.6092796323
 20
7.8626669267
 11
3.40510614
 21
8.066840419
  0
LINE
  5
23E
100
AcDbEntity
  8
0
100
AcDbLine
 62
9
  6
CONTINUOUS
 10
2.2413216677
 20
9.3488018217
 11
2.4454951599
 21
9.1446283294
  0
LINE
  5
23F
100
AcDbEntity
  8
0
100
AcDbLine
 62
9
  6
CONTINUOUS
 10
3.6683680974
 20
7.9217553919
 11
3.4641946052
 21
8.1259288842
  0
LINE
  5
240
100
AcDbEntity
  8
0
100
AcDbLine
 62
6
  6
CONTINUOUS
 10
1.79030065
 20
7.4107343742
 11
4.06030065
 21
7.4107343742
  0
LINE
  5
241
100
AcDbEntity
  8
0
100
AcDbLine
 62
6
  6
CONTINUOUS
 10
19.79030065
 20
7.4107343742
 11
22.06030065
 21
7.4107343742
  0
LINE
  5
242
100
AcDbEntity
  8
0
100
AcDbLine
 62
9
  6
CONTINUOUS
 10
1.79030065
 20
7.4407343742
 11
4.06030065
 21
7.4407343742
  0
LINE
  5
243
100
AcDbEntity
  8
0
100
AcDbLine
 62
9
  6
CONTINUOUS
 10
19.79030065
 20
7.4407343742
 11
22.06030065
 21
7.4407343742
  0
LINE
  5
244
100
AcDbEntity
  8
0
100
AcDbLine
 62
9
  6
CONTINUOUS
 10
1.76030065
 20
7.4707343742
 11
1.73030065
 21
7.4707343743
  0
LINE
  5
245
100
AcDbEntity
  8
0
100
AcDbLine
 62
9
  6
CONTINUOUS
 10
19.76030065
 20
7.4707343742
 11
19.73030065
 21
7.4707343743
  0
LINE
  5
246
100
AcDbEntity
  8
0
100
AcDbLine
 62
9
  6
CONTINUOUS
 10
4.09030065
 20
7.4707343742
 11
4.12030065
 21
7.4707343742
  0
LINE
  5
247
100
AcDbEntity
  8
0
100
AcDbLine
 62
9
  6
CONTINUOUS
 10
22.09030065
 20
7.4707343742
 11
22.12030065
 21
7.4707343742
  0
LINE
  5
248
100
AcDbEntity
  8
0
100
AcDbLine
 62
6
  6
CONTINUOUS
 10
2.11280065
 20
7.7332343742
 11
3.73780065
 21
7.7332343742
  0
LINE
  5
249
100
AcDbEntity
  8
0
100
AcDbLine
 62
6
  6
CONTINUOUS
 10
20.11280065
 20
7.7332343742
 11
21.73780065
 21
7.7332343742
  0
LINE
  5
24A
100
AcDbEntity
  8
0
100
AcDbLine
 62
9
  6
CONTINUOUS
 10
2.11280065
 20
7.7632343742
 11
3.73780065
 21
7.7632343742
  0
LINE
  5
24B
100
AcDbEntity
  8
0
100
AcDbLine
 62
9
  6
CONTINUOUS
 10
20.11280065
 20
7.7632343742
 11
21.73780065
 21
7.7632343742
  0
LINE
  5
24C
100
AcDbEntity
  8
0
100
AcDbLine
 62
9
  6
CONTINUOUS
 10
2.08280065
 20
7.7932343742
 11
2.05280065
 21
7.7932343743
  0
LINE
  5
24D
100
AcDbEntity
  8
0
100
AcDbLine
 62
9
  6
CONTINUOUS
 10
3.76780065
 20
7.7932343742
 11
3.79780065
 21
7.7932343742
  0
LINE
  5
24E
100
AcDbEntity
  8
0
100
AcDbLine
 62
9
  6
CONTINUOUS
 10
21.76780065
 20
7.7932343742
 11
21.79780065
 21
7.7932343742
  0
LINE
  5
24F
100
AcDbEntity
  8
0
100
AcDbLine
 62
9
  6
CONTINUOUS
 10
20.08280065
 20
7.7932343742
 11
20.05280065
 21
7.7932343743
  0
LINE
  5
250
100
AcDbEntity
  8
0
100
AcDbLine
 62
9
  6
CONTINUOUS
 10
2.2413216677
 20
7.8331226942
 11
3.6092796323
 21
7.8331226942
  0
LINE
  5
251
100
AcDbEntity
  8
0
100
AcDbLine
 62
9
  6
CONTINUOUS
 10
20.2413216677
 20
7.8331226942
 11
21.6092796323
 21
7.8331226942
  0
LINE
  5
252
100
AcDbEntity
  8
0
100
AcDbLine
 62
9
  6
CONTINUOUS
 10
2.2413216677
 20
7.8626669267
 11
3.6092796323
 21
7.8626669267
  0
LINE
  5
253
100
AcDbEntity
  8
0
100
AcDbLine
 62
9
  6
CONTINUOUS
 10
20.2413216677
 20
7.8626669267
 11
21.6092796323
 21
7.8626669267
  0
LINE
  5
254
100
AcDbEntity
  8
0
100
AcDbLine
 62
9
  6
CONTINUOUS
 10
21.69791233
 20
7.9217553919
 11
21.6683680974
 21
7.9217553919
  0
LINE
  5
255
100
AcDbEntity
  8
0
100
AcDbLine
 62
9
  6
CONTINUOUS
 10
3.69791233
 20
7.9217553919
 11
3.6683680974
 21
7.9217553919
  0
LINE
  5
256
100
AcDbEntity
  8
0
100
AcDbLine
 62
9
  6
CONTINUOUS
 10
2.1526889699
 20
7.9217553919
 11
2.1822332025
 21
7.9217553919
  0
LINE
  5
257
100
AcDbEntity
  8
0
100
AcDbLine
 62
9
  6
CONTINUOUS
 10
20.1526889699
 20
7.9217553919
 11
20.1822332025
 21
7.9217553919
  0
LINE
  5
258
100
AcDbEntity
  8
0
100
AcDbLine
 62
6
  6
CONTINUOUS
 10
2.44630065
 20
8.0667343742
 11
3.40430065
 21
8.0667343742
  0
LINE
  5
259
100
AcDbEntity
  8
0
100
AcDbLine
 62
6
  6
CONTINUOUS
 10
20.44630065
 20
8.0667343742
 11
21.40430065
 21
8.0667343742
  0
LINE
  5
25A
100
AcDbEntity
  8
0
100
AcDbLine
 62
9
  6
CONTINUOUS
 10
2.44630065
 20
8.0967343742
 11
3.40430065
 21
8.0967343742
  0
LINE
  5
25B
100
AcDbEntity
  8
0
100
AcDbLine
 62
9
  6
CONTINUOUS
 10
20.44630065
 20
8.0967343742
 11
21.40430065
 21
8.0967343742
  0
LINE
  5
25C
100
AcDbEntity
  8
0
100
AcDbLine
 62
9
  6
CONTINUOUS
 10
2.41630065
 20
8.1267343742
 11
2.38630065
 21
8.1267343743
  0
LINE
  5
25D
100
AcDbEntity
  8
0
100
AcDbLine
 62
9
  6
CONTINUOUS
 10
3.43430065
 20
8.1267343742
 11
3.46430065
 21
8.1267343742
  0
LINE
  5
25E
100
AcDbEntity
  8
0
100
AcDbLine
 62
9
  6
CONTINUOUS
 10
21.43430065
 20
8.1267343742
 11
21.46430065
 21
8.1267343742
  0
LINE
  5
25F
100
AcDbEntity
  8
0
100
AcDbLine
 62
9
  6
CONTINUOUS
 10
20.41630065
 20
8.1267343742
 11
20.38630065
 21
8.1267343743
  0
LINE
  5
260
100
AcDbEntity
  8
0
100
AcDbLine
 62
9
  6
CONTINUOUS
 10
2.58030065
 20
8.2007343742
 11
3.27030065
 21
8.2007343742
  0
LINE
  5
261
100
AcDbEntity
  8
0
100
AcDbLine
 62
9
  6
CONTINUOUS
 10
20.58030065
 20
8.2007343742
 11
21.27030065
 21
8.2007343742
  0
LINE
  5
262
100
AcDbEntity
  8
0
100
AcDbLine
 62
6
  6
CONTINUOUS
 10
2.58030065
 20
8.2307343742
 11
3.27030065
 21
8.2307343742
  0
LINE
  5
263
100
AcDbEntity
  8
0
100
AcDbLine
 62
6
  6
CONTINUOUS
 10
20.58030065
 20
8.2307343742
 11
21.27030065
 21
8.2307343742
  0
LINE
  5
264
100
AcDbEntity
  8
0
100
AcDbLine
 62
9
  6
CONTINUOUS
 10
2.52030065
 20
8.2607343742
 11
3.33030065
 21
8.2607343736
  0
LINE
  5
265
100
AcDbEntity
  8
0
100
AcDbLine
 62
9
  6
CONTINUOUS
 10
21.33030065
 20
8.2607343736
 11
20.52030065
 21
8.2607343742
  0
LINE
  5
266
100
AcDbEntity
  8
0
100
AcDbLine
 62
6
  6
CONTINUOUS
 10
3.30030065
 20
8.3557343742
 11
20.55030065
 21
8.3557343742
  0
LINE
  5
267
100
AcDbEntity
  8
0
100
AcDbLine
 62
9
  6
CONTINUOUS
 10
3.30030065
 20
8.3857343742
 11
20.55030065
 21
8.3857343742
  0
LINE
  5
268
100
AcDbEntity
  8
0
100
AcDbLine
 62
9
  6
CONTINUOUS
 10
3.30030065
 20
8.8257343742
 11
20.55030065
 21
8.8257343742
  0
LINE
  5
269
100
AcDbEntity
  8
0
100
AcDbLine
 62
6
  6
CONTINUOUS
 10
3.30030065
 20
8.8557343742
 11
20.55030065
 21
8.8557343742
  0
LINE
  5
26A
100
AcDbEntity
  8
0
100
AcDbLine
 62
9
  6
CONTINUOUS
 10
2.52030065
 20
8.9507343748
 11
3.33030065
 21
8.9507343742
  0
LINE
  5
26B
100
AcDbEntity
  8
0
100
AcDbLine
 62
9
  6
CONTINUOUS
 10
20.52030065
 20
8.9507343748
 11
21.33030065
 21
8.9507343742
  0
LINE
  5
26C
100
AcDbEntity
  8
0
100
AcDbLine
 62
6
  6
CONTINUOUS
 10
21.27030065
 20
8.9807343742
 11
20.58030065
 21
8.9807343742
  0
LINE
  5
26D
100
AcDbEntity
  8
0
100
AcDbLine
 62
6
  6
CONTINUOUS
 10
3.27030065
 20
8.9807343742
 11
2.58030065
 21
8.9807343742
  0
LINE
  5
26E
100
AcDbEntity
  8
0
100
AcDbLine
 62
9
  6
CONTINUOUS
 10
21.27030065
 20
9.0107343742
 11
20.58030065
 21
9.0107343742
  0
LINE
  5
26F
100
AcDbEntity
  8
0
100
AcDbLine
 62
9
  6
CONTINUOUS
 10
3.27030065
 20
9.0107343742
 11
2.58030065
 21
9.0107343742
  0
LINE
  5
270
100
AcDbEntity
  8
0
100
AcDbLine
 62
9
  6
CONTINUOUS
 10
3.43430065
 20
9.0847343742
 11
3.46430065
 21
9.0847343741
  0
LINE
  5
271
100
AcDbEntity
  8
0
100
AcDbLine
 62
9
  6
CONTINUOUS
 10
20.41630065
 20
9.0847343742
 11
20.38630065
 21
9.0847343742
  0
LINE
  5
272
100
AcDbEntity
  8
0
100
AcDbLine
 62
9
  6
CONTINUOUS
 10
2.41630065
 20
9.0847343742
 11
2.38630065
 21
9.0847343742
  0
LINE
  5
273
100
AcDbEntity
  8
0
100
AcDbLine
 62
9
  6
CONTINUOUS
 10
21.43430065
 20
9.0847343742
 11
21.46430065
 21
9.0847343741
  0
LINE
  5
274
100
AcDbEntity
  8
0
100
AcDbLine
 62
9
  6
CONTINUOUS
 10
21.40430065
 20
9.1147343742
 11
20.44630065
 21
9.1147343742
  0
LINE
  5
275
100
AcDbEntity
  8
0
100
AcDbLine
 62
9
  6
CONTINUOUS
 10
3.40430065
 20
9.1147343742
 11
2.44630065
 21
9.1147343742
  0
LINE
  5
276
100
AcDbEntity
  8
0
100
AcDbLine
 62
6
  6
CONTINUOUS
 10
21.40430065
 20
9.1447343742
 11
20.44630065
 21
9.1447343742
  0
LINE
  5
277
100
AcDbEntity
  8
0
100
AcDbLine
 62
6
  6
CONTINUOUS
 10
3.40430065
 20
9.1447343742
 11
2.44630065
 21
9.1447343742
  0
LINE
  5
278
100
AcDbEntity
  8
0
100
AcDbLine
 62
9
  6
CONTINUOUS
 10
21.69791233
 20
9.2897133565
 11
21.6683680974
 21
9.2897133565
  0
LINE
  5
279
100
AcDbEntity
  8
0
100
AcDbLine
 62
9
  6
CONTINUOUS
 10
3.69791233
 20
9.2897133565
 11
3.6683680974
 21
9.2897133565
  0
LINE
  5
27A
100
AcDbEntity
  8
0
100
AcDbLine
 62
9
  6
CONTINUOUS
 10
2.1526889699
 20
9.2897133565
 11
2.1822332025
 21
9.2897133565
  0
LINE
  5
27B
100
AcDbEntity
  8
0
100
AcDbLine
 62
9
  6
CONTINUOUS
 10
20.1526889699
 20
9.2897133565
 11
20.1822332025
 21
9.2897133565
  0
LINE
  5
27C
100
AcDbEntity
  8
0
100
AcDbLine
 62
9
  6
CONTINUOUS
 10
21.6092796323
 20
9.3488018217
 11
20.2413216677
 21
9.3488018217
  0
LINE
  5
27D
100
AcDbEntity
  8
0
100
AcDbLine
 62
9
  6
CONTINUOUS
 10
3.6092796323
 20
9.3488018217
 11
2.2413216677
 21
9.3488018217
  0
LINE
  5
27E
100
AcDbEntity
  8
0
100
AcDbLine
 62
9
  6
CONTINUOUS
 10
21.6092796323
 20
9.3783460543
 11
20.2413216677
 21
9.3783460543
  0
LINE
  5
27F
100
AcDbEntity
  8
0
100
AcDbLine
 62
9
  6
CONTINUOUS
 10
3.6092796323
 20
9.3783460543
 11
2.2413216677
 21
9.3783460543
  0
LINE
  5
280
100
AcDbEntity
  8
0
100
AcDbLine
 62
9
  6
CONTINUOUS
 10
3.76780065
 20
9.4182343742
 11
3.79780065
 21
9.4182343741
  0
LINE
  5
281
100
AcDbEntity
  8
0
100
AcDbLine
 62
9
  6
CONTINUOUS
 10
20.08280065
 20
9.4182343742
 11
20.05280065
 21
9.4182343742
  0
LINE
  5
282
100
AcDbEntity
  8
0
100
AcDbLine
 62
9
  6
CONTINUOUS
 10
2.08280065
 20
9.4182343742
 11
2.05280065
 21
9.4182343742
  0
LINE
  5
283
100
AcDbEntity
  8
0
100
AcDbLine
 62
9
  6
CONTINUOUS
 10
21.76780065
 20
9.4182343742
 11
21.79780065
 21
9.4182343741
  0
LINE
  5
284
100
AcDbEntity
  8
0
100
AcDbLine
 62
9
  6
CONTINUOUS
 10
21.73780065
 20
9.4482343742
 11
20.11280065
 21
9.4482343742
  0
LINE
  5
285
100
AcDbEntity
  8
0
100
AcDbLine
 62
9
  6
CONTINUOUS
 10
3.73780065
 20
9.4482343742
 11
2.11280065
 21
9.4482343742
  0
LINE
  5
286
100
AcDbEntity
  8
0
100
AcDbLine
 62
6
  6
CONTINUOUS
 10
21.73780065
 20
9.4782343742
 11
20.11280065
 21
9.4782343742
  0
LINE
  5
287
100
AcDbEntity
  8
0
100
AcDbLine
 62
6
  6
CONTINUOUS
 10
3.73780065
 20
9.4782343742
 11
2.11280065
 21
9.4782343742
  0
LINE
  5
288
100
AcDbEntity
  8
0
100
AcDbLine
 62
9
  6
CONTINUOUS
 10
19.76030065
 20
9.7407343742
 11
19.73030065
 21
9.7407343742
  0
LINE
  5
289
100
AcDbEntity
  8
0
100
AcDbLine
 62
9
  6
CONTINUOUS
 10
1.76030065
 20
9.7407343742
 11
1.73030065
 21
9.7407343742
  0
LINE
  5
28A
100
AcDbEntity
  8
0
100
AcDbLine
 62
9
  6
CONTINUOUS
 10
4.09030065
 20
9.7407343742
 11
4.12030065
 21
9.7407343742
  0
LINE
  5
28B
100
AcDbEntity
  8
0
100
AcDbLine
 62
9
  6
CONTINUOUS
 10
22.09030065
 20
9.7407343742
 11
22.12030065
 21
9.7407343742
  0
LINE
  5
28C
100
AcDbEntity
  8
0
100
AcDbLine
 62
9
  6
CONTINUOUS
 10
22.06030065
 20
9.7707343742
 11
19.79030065
 21
9.7707343742
  0
LINE
  5
28D
100
AcDbEntity
  8
0
100
AcDbLine
 62
9
  6
CONTINUOUS
 10
4.06030065
 20
9.7707343742
 11
1.79030065
 21
9.7707343742
  0
LINE
  5
28E
100
AcDbEntity
  8
0
100
AcDbLine
 62
6
  6
CONTINUOUS
 10
22.06030065
 20
9.8007343742
 11
19.79030065
 21
9.8007343742
  0
LINE
  5
28F
100
AcDbEntity
  8
0
100
AcDbLine
 62
6
  6
CONTINUOUS
 10
4.06030065
 20
9.8007343742
 11
1.79030065
 21
9.8007343742
  0
LINE
  5
290
100
AcDbEntity
  8
0
100
AcDbLine
 62
9
  6
CONTINUOUS
 10
21.6092796323
 20
9.3488018217
 11
21.40510614
 21
9.1446283294
  0
LINE
  5
291
100
AcDbEntity
  8
0
100
AcDbLine
 62
9
  6
CONTINUOUS
 10
20.1822332025
 20
7.9217553919
 11
20.3864066948
 21
8.1259288842
  0
LINE
  5
292
100
AcDbEntity
  8
0
100
AcDbLine
 62
9
  6
CONTINUOUS
 10
21.6683680974
 20
9.2897133565
 11
21.4641946052
 21
9.0855398643
  0
LINE
  5
293
100
AcDbEntity
  8
0
100
AcDbLine
 62
9
  6
CONTINUOUS
 10
20.2413216677
 20
7.8626669267
 11
20.4454951599
 21
8.066840419
  0
LINE
  5
294
100
AcDbEntity
  8
0
100
AcDbLine
 62
9
  6
CONTINUOUS
 10
21.6092796323
 20
7.8626669267
 11
21.40510614
 21
8.066840419
  0
LINE
  5
295
100
AcDbEntity
  8
0
100
AcDbLine
 62
9
  6
CONTINUOUS
 10
20.1822332025
 20
9.2897133565
 11
20.3864066948
 21
9.0855398643
  0
LINE
  5
296
100
AcDbEntity
  8
0
100
AcDbLine
 62
9
  6
CONTINUOUS
 10
21.6683680974
 20
7.9217553919
 11
21.4641946052
 21
8.1259288842
  0
LINE
  5
297
100
AcDbEntity
  8
0
100
AcDbLine
 62
9
  6
CONTINUOUS
 10
20.2413216677
 20
9.3488018217
 11
20.4454951599
 21
9.1446283294
  0
LINE
  5
298
100
AcDbEntity
  8
0
100
AcDbLine
 62
6
  6
CONTINUOUS
 10
19.73030065
 20
9.7407343742
 11
19.73030065
 21
8.8557343742
  0
LINE
  5
299
100
AcDbEntity
  8
0
100
AcDbLine
 62
6
  6
CONTINUOUS
 10
19.73030065
 20
8.3557343742
 11
19.73030065
 21
7.4707343742
  0
LINE
  5
29A
100
AcDbEntity
  8
0
100
AcDbLine
 62
9
  6
CONTINUOUS
 10
19.76030065
 20
9.7407343742
 11
19.76030065
 21
8.8557343742
  0
LINE
  5
29B
100
AcDbEntity
  8
0
100
AcDbLine
 62
9
  6
CONTINUOUS
 10
19.76030065
 20
8.3557343742
 11
19.76030065
 21
7.4707343742
  0
LINE
  5
29C
100
AcDbEntity
  8
0
100
AcDbLine
 62
9
  6
CONTINUOUS
 10
19.79030065
 20
7.4407343742
 11
19.79030065
 21
7.4107343742
  0
LINE
  5
29D
100
AcDbEntity
  8
0
100
AcDbLine
 62
9
  6
CONTINUOUS
 10
19.79030065
 20
9.7707343742
 11
19.79030065
 21
9.8007343742
  0
LINE
  5
29E
100
AcDbEntity
  8
0
100
AcDbLine
 62
6
  6
CONTINUOUS
 10
20.05280065
 20
9.4182343742
 11
20.05280065
 21
8.8557343742
  0
LINE
  5
29F
100
AcDbEntity
  8
0
100
AcDbLine
 62
6
  6
CONTINUOUS
 10
20.05280065
 20
8.3557343742
 11
20.05280065
 21
7.7932343742
  0
LINE
  5
2A0
100
AcDbEntity
  8
0
100
AcDbLine
 62
9
  6
CONTINUOUS
 10
20.08280065
 20
9.4182343742
 11
20.08280065
 21
8.8557343742
  0
LINE
  5
2A1
100
AcDbEntity
  8
0
100
AcDbLine
 62
9
  6
CONTINUOUS
 10
20.08280065
 20
8.3557343742
 11
20.08280065
 21
7.7932343742
  0
LINE
  5
2A2
100
AcDbEntity
  8
0
100
AcDbLine
 62
9
  6
CONTINUOUS
 10
20.11280065
 20
7.7632343742
 11
20.11280065
 21
7.7332343742
  0
LINE
  5
2A3
100
AcDbEntity
  8
0
100
AcDbLine
 62
9
  6
CONTINUOUS
 10
20.11280065
 20
9.4482343742
 11
20.1128006501
 21
9.4782343742
  0
LINE
  5
2A4
100
AcDbEntity
  8
0
100
AcDbLine
 62
9
  6
CONTINUOUS
 10
20.1526889699
 20
9.2897133565
 11
20.1526889699
 21
8.8557343742
  0
LINE
  5
2A5
100
AcDbEntity
  8
0
100
AcDbLine
 62
9
  6
CONTINUOUS
 10
20.1526889699
 20
8.3557343742
 11
20.1526889699
 21
7.9217553919
  0
LINE
  5
2A6
100
AcDbEntity
  8
0
100
AcDbLine
 62
9
  6
CONTINUOUS
 10
20.1822332025
 20
9.2897133565
 11
20.1822332025
 21
8.8557343742
  0
LINE
  5
2A7
100
AcDbEntity
  8
0
100
AcDbLine
 62
9
  6
CONTINUOUS
 10
20.1822332025
 20
8.3557343742
 11
20.1822332025
 21
7.9217553919
  0
LINE
  5
2A8
100
AcDbEntity
  8
0
100
AcDbLine
 62
9
  6
CONTINUOUS
 10
20.2413216677
 20
9.3783460543
 11
20.2413216677
 21
9.3488018217
  0
LINE
  5
2A9
100
AcDbEntity
  8
0
100
AcDbLine
 62
9
  6
CONTINUOUS
 10
20.2413216677
 20
7.8331226942
 11
20.2413216677
 21
7.8626669267
  0
LINE
  5
2AA
100
AcDbEntity
  8
0
100
AcDbLine
 62
6
  6
CONTINUOUS
 10
20.38630065
 20
9.0847343742
 11
20.38630065
 21
8.8557343742
  0
LINE
  5
2AB
100
AcDbEntity
  8
0
100
AcDbLine
 62
6
  6
CONTINUOUS
 10
20.38630065
 20
8.3557343742
 11
20.38630065
 21
8.1267343742
  0
LINE
  5
2AC
100
AcDbEntity
  8
0
100
AcDbLine
 62
9
  6
CONTINUOUS
 10
20.41630065
 20
9.0847343742
 11
20.41630065
 21
8.8557343742
  0
LINE
  5
2AD
100
AcDbEntity
  8
0
100
AcDbLine
 62
9
  6
CONTINUOUS
 10
20.41630065
 20
8.3557343742
 11
20.41630065
 21
8.1267343742
  0
LINE
  5
2AE
100
AcDbEntity
  8
0
100
AcDbLine
 62
9
  6
CONTINUOUS
 10
20.44630065
 20
8.0967343742
 11
20.44630065
 21
8.0667343742
  0
LINE
  5
2AF
100
AcDbEntity
  8
0
100
AcDbLine
 62
9
  6
CONTINUOUS
 10
20.44630065
 20
9.1147343742
 11
20.4463006501
 21
9.1447343742
  0
LINE
  5
2B0
100
AcDbEntity
  8
0
100
AcDbLine
 62
9
  6
CONTINUOUS
 10
20.52030065
 20
8.9507343742
 11
20.52030065
 21
8.8557343742
  0
LINE
  5
2B1
100
AcDbEntity
  8
0
100
AcDbLine
 62
9
  6
CONTINUOUS
 10
20.52030065
 20
8.3557343742
 11
20.52030065
 21
8.2607343742
  0
LINE
  5
2B2
100
AcDbEntity
  8
0
100
AcDbLine
 62
6
  6
CONTINUOUS
 10
20.55030065
 20
8.9507343742
 11
20.55030065
 21
8.2607343742
  0
LINE
  5
2B3
100
AcDbEntity
  8
0
100
AcDbLine
 62
9
  6
CONTINUOUS
 10
20.5803006494
 20
8.2007343742
 11
20.58030065
 21
9.0107343742
  0
LINE
  5
2B4
100
AcDbEntity
  8
0
100
AcDbLine
 62
9
  6
CONTINUOUS
 10
21.27030065
 20
8.2007343742
 11
21.2703006506
 21
9.0107343742
  0
LINE
  5
2B5
100
AcDbEntity
  8
0
100
AcDbLine
 62
6
  6
CONTINUOUS
 10
21.30030065
 20
8.2607343742
 11
21.30030065
 21
8.9507343742
  0
LINE
  5
2B6
100
AcDbEntity
  8
0
100
AcDbLine
 62
9
  6
CONTINUOUS
 10
21.33030065
 20
8.2607343742
 11
21.33030065
 21
8.9507343742
  0
LINE
  5
2B7
100
AcDbEntity
  8
0
100
AcDbLine
 62
9
  6
CONTINUOUS
 10
21.40430065
 20
8.0967343742
 11
21.4043006499
 21
8.0667343742
  0
LINE
  5
2B8
100
AcDbEntity
  8
0
100
AcDbLine
 62
9
  6
CONTINUOUS
 10
21.40430065
 20
9.1147343742
 11
21.40430065
 21
9.1447343742
  0
LINE
  5
2B9
100
AcDbEntity
  8
0
100
AcDbLine
 62
9
  6
CONTINUOUS
 10
21.43430065
 20
8.1267343742
 11
21.43430065
 21
9.0847343742
  0
LINE
  5
2BA
100
AcDbEntity
  8
0
100
AcDbLine
 62
6
  6
CONTINUOUS
 10
21.46430065
 20
8.1267343742
 11
21.46430065
 21
9.0847343742
  0
LINE
  5
2BB
100
AcDbEntity
  8
0
100
AcDbLine
 62
9
  6
CONTINUOUS
 10
21.6092796323
 20
9.3783460543
 11
21.6092796323
 21
9.3488018217
  0
LINE
  5
2BC
100
AcDbEntity
  8
0
100
AcDbLine
 62
9
  6
CONTINUOUS
 10
21.6092796323
 20
7.8331226942
 11
21.6092796323
 21
7.8626669267
  0
LINE
  5
2BD
100
AcDbEntity
  8
0
100
AcDbLine
 62
9
  6
CONTINUOUS
 10
21.6683680974
 20
7.9217553919
 11
21.6683680974
 21
9.2897133565
  0
LINE
  5
2BE
100
AcDbEntity
  8
0
100
AcDbLine
 62
9
  6
CONTINUOUS
 10
21.69791233
 20
7.9217553919
 11
21.69791233
 21
9.2897133565
  0
LINE
  5
2BF
100
AcDbEntity
  8
0
100
AcDbLine
 62
9
  6
CONTINUOUS
 10
21.73780065
 20
7.7632343742
 11
21.7378006499
 21
7.7332343742
  0
LINE
  5
2C0
100
AcDbEntity
  8
0
100
AcDbLine
 62
9
  6
CONTINUOUS
 10
21.73780065
 20
9.4482343742
 11
21.73780065
 21
9.4782343742
  0
LINE
  5
2C1
100
AcDbEntity
  8
0
100
AcDbLine
 62
9
  6
CONTINUOUS
 10
21.76780065
 20
7.7932343742
 11
21.76780065
 21
9.4182343742
  0
LINE
  5
2C2
100
AcDbEntity
  8
0
100
AcDbLine
 62
6
  6
CONTINUOUS
 10
21.79780065
 20
7.7932343742
 11
21.79780065
 21
9.4182343742
  0
LINE
  5
2C3
100
AcDbEntity
  8
0
100
AcDbLine
 62
9
  6
CONTINUOUS
 10
22.06030065
 20
7.4407343742
 11
22.0603006499
 21
7.4107343742
  0
LINE
  5
2C4
100
AcDbEntity
  8
0
100
AcDbLine
 62
9
  6
CONTINUOUS
 10
22.06030065
 20
9.7707343742
 11
22.06030065
 21
9.8007343742
  0
LINE
  5
2C5
100
AcDbEntity
  8
0
100
AcDbLine
 62
9
  6
CONTINUOUS
 10
22.09030065
 20
7.4707343742
 11
22.09030065
 21
9.7407343742
  0
LINE
  5
2C6
100
AcDbEntity
  8
0
100
AcDbLine
 62
6
  6
CONTINUOUS
 10
22.12030065
 20
7.4707343742
 11
22.12030065
 21
9.7407343742
  0
ARC
  5
2C7
100
AcDbEntity
  8
0
100
AcDbCircle
 62
6
  6
CONTINUOUS
 10
1.79030065
 20
7.4707343742
 40
0.06
100
AcDbArc
 50
180.0
 51
270.0
  0
ARC
  5
2C8
100
AcDbEntity
  8
0
100
AcDbCircle
 62
6
  6
CONTINUOUS
 10
4.06030065
 20
7.4707343742
 40
0.06
100
AcDbArc
 50
270.0
 51
360.0
  0
ARC
  5
2C9
100
AcDbEntity
  8
0
100
AcDbCircle
 62
6
  6
CONTINUOUS
 10
2.11280065
 20
7.7932343742
 40
0.06
100
AcDbArc
 50
180.0
 51
210.0
  0
ARC
  5
2CA
100
AcDbEntity
  8
0
100
AcDbCircle
 62
7
  6
CONTINUOUS
 10
2.11280065
 20
7.7932343742
 40
0.06
100
AcDbArc
 50
210.0
 51
225.0
  0
ARC
  5
2CB
100
AcDbEntity
  8
0
100
AcDbCircle
 62
6
  6
CONTINUOUS
 10
3.73780065
 20
7.7932343742
 40
0.06
100
AcDbArc
 50
270.0
 51
285.0
  0
ARC
  5
2CC
100
AcDbEntity
  8
0
100
AcDbCircle
 62
7
  6
CONTINUOUS
 10
3.73780065
 20
7.7932343742
 40
0.06
100
AcDbArc
 50
315.0
 51
360.0
  0
ARC
  5
2CD
100
AcDbEntity
  8
0
100
AcDbCircle
 62
7
  6
CONTINUOUS
 10
3.73780065
 20
7.7932343742
 40
0.06
100
AcDbArc
 50
285.0
 51
300.0
  0
ARC
  5
2CE
100
AcDbEntity
  8
0
100
AcDbCircle
 62
6
  6
CONTINUOUS
 10
2.44630065
 20
8.1267343742
 40
0.06
100
AcDbArc
 50
180.0
 51
270.0
  0
ARC
  5
2CF
100
AcDbEntity
  8
0
100
AcDbCircle
 62
6
  6
CONTINUOUS
 10
3.40430065
 20
8.1267343742
 40
0.06
100
AcDbArc
 50
270.0
 51
360.0
  0
ARC
  5
2D0
100
AcDbEntity
  8
0
100
AcDbCircle
 62
9
  6
CONTINUOUS
 10
3.27030065
 20
8.2607343742
 40
0.06
100
AcDbArc
 50
270.0
 51
360.0
  0
ARC
  5
2D1
100
AcDbEntity
  8
0
100
AcDbCircle
 62
9
  6
CONTINUOUS
 10
2.58030065
 20
8.2607343742
 40
0.06
100
AcDbArc
 50
180.0
 51
270.0
  0
ARC
  5
2D2
100
AcDbEntity
  8
0
100
AcDbCircle
 62
6
  6
CONTINUOUS
 10
2.11280065
 20
7.7932343742
 40
0.06
100
AcDbArc
 50
225.0
 51
270.0
  0
ARC
  5
2D3
100
AcDbEntity
  8
0
100
AcDbCircle
 62
6
  6
CONTINUOUS
 10
3.73780065
 20
7.7932343742
 40
0.06
100
AcDbArc
 50
300.0
 51
315.0
  0
ARC
  5
2D4
100
AcDbEntity
  8
0
100
AcDbCircle
 62
6
  6
CONTINUOUS
 10
2.58030065
 20
8.2607343742
 40
0.03
100
AcDbArc
 50
180.0
 51
270.0
  0
ARC
  5
2D5
100
AcDbEntity
  8
0
100
AcDbCircle
 62
6
  6
CONTINUOUS
 10
3.27030065
 20
8.2607343742
 40
0.03
100
AcDbArc
 50
270.0
 51
360.0
  0
ARC
  5
2D6
100
AcDbEntity
  8
0
100
AcDbCircle
 62
9
  6
CONTINUOUS
 10
1.79030065
 20
7.4707343742
 40
0.03
100
AcDbArc
 50
180.0
 51
270.0
  0
ARC
  5
2D7
100
AcDbEntity
  8
0
100
AcDbCircle
 62
9
  6
CONTINUOUS
 10
3.73780065
 20
7.7932343742
 40
0.03
100
AcDbArc
 50
270.0
 51
360.0
  0
ARC
  5
2D8
100
AcDbEntity
  8
0
100
AcDbCircle
 62
9
  6
CONTINUOUS
 10
2.11280065
 20
7.7932343742
 40
0.03
100
AcDbArc
 50
180.0
 51
270.0
  0
ARC
  5
2D9
100
AcDbEntity
  8
0
100
AcDbCircle
 62
9
  6
CONTINUOUS
 10
3.40430065
 20
8.1267343742
 40
0.03
100
AcDbArc
 50
270.0
 51
360.0
  0
ARC
  5
2DA
100
AcDbEntity
  8
0
100
AcDbCircle
 62
9
  6
CONTINUOUS
 10
2.44630065
 20
8.1267343742
 40
0.03
100
AcDbArc
 50
180.0
 51
270.0
  0
ARC
  5
2DB
100
AcDbEntity
  8
0
100
AcDbCircle
 62
9
  6
CONTINUOUS
 10
4.06030065
 20
7.4707343742
 40
0.03
100
AcDbArc
 50
270.0
 51
360.0
  0
ARC
  5
2DC
100
AcDbEntity
  8
0
100
AcDbCircle
 62
6
  6
CONTINUOUS
 10
2.44630065
 20
9.0847343742
 40
0.06
100
AcDbArc
 50
90.0
 51
180.0
  0
ARC
  5
2DD
100
AcDbEntity
  8
0
100
AcDbCircle
 62
9
  6
CONTINUOUS
 10
2.58030065
 20
8.9507343742
 40
0.06
100
AcDbArc
 50
90.0
 51
180.0
  0
ARC
  5
2DE
100
AcDbEntity
  8
0
100
AcDbCircle
 62
6
  6
CONTINUOUS
 10
2.58030065
 20
8.9507343742
 40
0.03
100
AcDbArc
 50
90.0
 51
180.0
  0
ARC
  5
2DF
100
AcDbEntity
  8
0
100
AcDbCircle
 62
9
  6
CONTINUOUS
 10
2.44630065
 20
9.0847343742
 40
0.03
100
AcDbArc
 50
90.0
 51
180.0
  0
ARC
  5
2E0
100
AcDbEntity
  8
0
100
AcDbCircle
 62
6
  6
CONTINUOUS
 10
1.79030065
 20
9.7407343742
 40
0.06
100
AcDbArc
 50
90.0
 51
180.0
  0
ARC
  5
2E1
100
AcDbEntity
  8
0
100
AcDbCircle
 62
6
  6
CONTINUOUS
 10
2.11280065
 20
9.4182343742
 40
0.06
100
AcDbArc
 50
120.0
 51
135.0
  0
ARC
  5
2E2
100
AcDbEntity
  8
0
100
AcDbCircle
 62
7
  6
CONTINUOUS
 10
2.11280065
 20
9.4182343742
 40
0.06
100
AcDbArc
 50
135.0
 51
150.0
  0
ARC
  5
2E3
100
AcDbEntity
  8
0
100
AcDbCircle
 62
7
  6
CONTINUOUS
 10
2.11280065
 20
9.4182343742
 40
0.06
100
AcDbArc
 50
90.0
 51
120.0
  0
ARC
  5
2E4
100
AcDbEntity
  8
0
100
AcDbCircle
 62
6
  6
CONTINUOUS
 10
2.11280065
 20
9.4182343742
 40
0.06
100
AcDbArc
 50
150.0
 51
180.0
  0
ARC
  5
2E5
100
AcDbEntity
  8
0
100
AcDbCircle
 62
9
  6
CONTINUOUS
 10
1.79030065
 20
9.7407343742
 40
0.03
100
AcDbArc
 50
90.0
 51
180.0
  0
ARC
  5
2E6
100
AcDbEntity
  8
0
100
AcDbCircle
 62
9
  6
CONTINUOUS
 10
2.11280065
 20
9.4182343742
 40
0.03
100
AcDbArc
 50
90.0
 51
180.0
  0
ARC
  5
2E7
100
AcDbEntity
  8
0
100
AcDbCircle
 62
6
  6
CONTINUOUS
 10
3.40430065
 20
9.0847343742
 40
0.06
100
AcDbArc
 50
0.0
 51
90.0
  0
ARC
  5
2E8
100
AcDbEntity
  8
0
100
AcDbCircle
 62
9
  6
CONTINUOUS
 10
3.27030065
 20
8.9507343742
 40
0.06
100
AcDbArc
 50
0.0
 51
90.0
  0
ARC
  5
2E9
100
AcDbEntity
  8
0
100
AcDbCircle
 62
6
  6
CONTINUOUS
 10
3.27030065
 20
8.9507343742
 40
0.03
100
AcDbArc
 50
0.0
 51
90.0
  0
ARC
  5
2EA
100
AcDbEntity
  8
0
100
AcDbCircle
 62
9
  6
CONTINUOUS
 10
3.40430065
 20
9.0847343742
 40
0.03
100
AcDbArc
 50
0.0
 51
90.0
  0
ARC
  5
2EB
100
AcDbEntity
  8
0
100
AcDbCircle
 62
6
  6
CONTINUOUS
 10
4.06030065
 20
9.7407343742
 40
0.06
100
AcDbArc
 50
0.0
 51
90.0
  0
ARC
  5
2EC
100
AcDbEntity
  8
0
100
AcDbCircle
 62
7
  6
CONTINUOUS
 10
3.73780065
 20
9.4182343742
 40
0.06
100
AcDbArc
 50
0.0
 51
90.0
  0
ARC
  5
2ED
100
AcDbEntity
  8
0
100
AcDbCircle
 62
9
  6
CONTINUOUS
 10
4.06030065
 20
9.7407343742
 40
0.03
100
AcDbArc
 50
0.0
 51
90.0
  0
ARC
  5
2EE
100
AcDbEntity
  8
0
100
AcDbCircle
 62
9
  6
CONTINUOUS
 10
3.73780065
 20
9.4182343742
 40
0.03
100
AcDbArc
 50
0.0
 51
90.0
  0
ARC
  5
2EF
100
AcDbEntity
  8
0
100
AcDbCircle
 62
6
  6
CONTINUOUS
 10
19.79030065
 20
7.4707343742
 40
0.06
100
AcDbArc
 50
180.0
 51
270.0
  0
ARC
  5
2F0
100
AcDbEntity
  8
0
100
AcDbCircle
 62
6
  6
CONTINUOUS
 10
20.11280065
 20
7.7932343742
 40
0.06
100
AcDbArc
 50
225.0
 51
270.0
  0
ARC
  5
2F1
100
AcDbEntity
  8
0
100
AcDbCircle
 62
7
  6
CONTINUOUS
 10
20.11280065
 20
7.7932343742
 40
0.06
100
AcDbArc
 50
180.0
 51
225.0
  0
ARC
  5
2F2
100
AcDbEntity
  8
0
100
AcDbCircle
 62
9
  6
CONTINUOUS
 10
20.11280065
 20
7.7932343742
 40
0.03
100
AcDbArc
 50
180.0
 51
270.0
  0
ARC
  5
2F3
100
AcDbEntity
  8
0
100
AcDbCircle
 62
9
  6
CONTINUOUS
 10
19.79030065
 20
7.4707343742
 40
0.03
100
AcDbArc
 50
180.0
 51
270.0
  0
ARC
  5
2F4
100
AcDbEntity
  8
0
100
AcDbCircle
 62
6
  6
CONTINUOUS
 10
20.44630065
 20
8.1267343742
 40
0.06
100
AcDbArc
 50
180.0
 51
270.0
  0
ARC
  5
2F5
100
AcDbEntity
  8
0
100
AcDbCircle
 62
9
  6
CONTINUOUS
 10
20.58030065
 20
8.2607343742
 40
0.06
100
AcDbArc
 50
180.0
 51
270.0
  0
ARC
  5
2F6
100
AcDbEntity
  8
0
100
AcDbCircle
 62
6
  6
CONTINUOUS
 10
20.58030065
 20
8.2607343742
 40
0.03
100
AcDbArc
 50
180.0
 51
270.0
  0
ARC
  5
2F7
100
AcDbEntity
  8
0
100
AcDbCircle
 62
9
  6
CONTINUOUS
 10
20.44630065
 20
8.1267343742
 40
0.03
100
AcDbArc
 50
180.0
 51
270.0
  0
ARC
  5
2F8
100
AcDbEntity
  8
0
100
AcDbCircle
 62
6
  6
CONTINUOUS
 10
22.06030065
 20
7.4707343742
 40
0.06
100
AcDbArc
 50
270.0
 51
360.0
  0
ARC
  5
2F9
100
AcDbEntity
  8
0
100
AcDbCircle
 62
6
  6
CONTINUOUS
 10
21.73780065
 20
7.7932343742
 40
0.06
100
AcDbArc
 50
270.0
 51
315.0
  0
ARC
  5
2FA
100
AcDbEntity
  8
0
100
AcDbCircle
 62
7
  6
CONTINUOUS
 10
21.73780065
 20
7.7932343742
 40
0.06
100
AcDbArc
 50
315.0
 51
345.0
  0
ARC
  5
2FB
100
AcDbEntity
  8
0
100
AcDbCircle
 62
6
  6
CONTINUOUS
 10
21.73780065
 20
7.7932343742
 40
0.06
100
AcDbArc
 50
345.0
 51
360.0
  0
ARC
  5
2FC
100
AcDbEntity
  8
0
100
AcDbCircle
 62
9
  6
CONTINUOUS
 10
21.73780065
 20
7.7932343742
 40
0.03
100
AcDbArc
 50
270.0
 51
360.0
  0
ARC
  5
2FD
100
AcDbEntity
  8
0
100
AcDbCircle
 62
9
  6
CONTINUOUS
 10
22.06030065
 20
7.4707343742
 40
0.03
100
AcDbArc
 50
270.0
 51
360.0
  0
ARC
  5
2FE
100
AcDbEntity
  8
0
100
AcDbCircle
 62
6
  6
CONTINUOUS
 10
21.40430065
 20
8.1267343742
 40
0.06
100
AcDbArc
 50
270.0
 51
360.0
  0
ARC
  5
2FF
100
AcDbEntity
  8
0
100
AcDbCircle
 62
9
  6
CONTINUOUS
 10
21.27030065
 20
8.2607343742
 40
0.06
100
AcDbArc
 50
270.0
 51
360.0
  0
ARC
  5
300
100
AcDbEntity
  8
0
100
AcDbCircle
 62
6
  6
CONTINUOUS
 10
21.27030065
 20
8.2607343742
 40
0.03
100
AcDbArc
 50
270.0
 51
360.0
  0
ARC
  5
301
100
AcDbEntity
  8
0
100
AcDbCircle
 62
9
  6
CONTINUOUS
 10
21.40430065
 20
8.1267343742
 40
0.03
100
AcDbArc
 50
270.0
 51
360.0
  0
ARC
  5
302
100
AcDbEntity
  8
0
100
AcDbCircle
 62
6
  6
CONTINUOUS
 10
20.44630065
 20
9.0847343742
 40
0.06
100
AcDbArc
 50
90.0
 51
180.0
  0
ARC
  5
303
100
AcDbEntity
  8
0
100
AcDbCircle
 62
9
  6
CONTINUOUS
 10
20.58030065
 20
8.9507343742
 40
0.06
100
AcDbArc
 50
90.0
 51
180.0
  0
ARC
  5
304
100
AcDbEntity
  8
0
100
AcDbCircle
 62
6
  6
CONTINUOUS
 10
20.58030065
 20
8.9507343742
 40
0.03
100
AcDbArc
 50
90.0
 51
180.0
  0
ARC
  5
305
100
AcDbEntity
  8
0
100
AcDbCircle
 62
9
  6
CONTINUOUS
 10
20.44630065
 20
9.0847343742
 40
0.03
100
AcDbArc
 50
90.0
 51
180.0
  0
ARC
  5
306
100
AcDbEntity
  8
0
100
AcDbCircle
 62
6
  6
CONTINUOUS
 10
19.79030065
 20
9.7407343742
 40
0.06
100
AcDbArc
 50
90.0
 51
180.0
  0
ARC
  5
307
100
AcDbEntity
  8
0
100
AcDbCircle
 62
7
  6
CONTINUOUS
 10
20.11280065
 20
9.4182343742
 40
0.06
100
AcDbArc
 50
90.0
 51
180.0
  0
ARC
  5
308
100
AcDbEntity
  8
0
100
AcDbCircle
 62
9
  6
CONTINUOUS
 10
20.11280065
 20
9.4182343742
 40
0.03
100
AcDbArc
 50
90.0
 51
180.0
  0
ARC
  5
309
100
AcDbEntity
  8
0
100
AcDbCircle
 62
9
  6
CONTINUOUS
 10
19.79030065
 20
9.7407343742
 40
0.03
100
AcDbArc
 50
90.0
 51
180.0
  0
ARC
  5
30A
100
AcDbEntity
  8
0
100
AcDbCircle
 62
6
  6
CONTINUOUS
 10
21.40430065
 20
9.0847343742
 40
0.06
100
AcDbArc
 50
0.0
 51
90.0
  0
ARC
  5
30B
100
AcDbEntity
  8
0
100
AcDbCircle
 62
9
  6
CONTINUOUS
 10
21.27030065
 20
8.9507343742
 40
0.06
100
AcDbArc
 50
0.0
 51
90.0
  0
ARC
  5
30C
100
AcDbEntity
  8
0
100
AcDbCircle
 62
6
  6
CONTINUOUS
 10
21.27030065
 20
8.9507343742
 40
0.03
100
AcDbArc
 50
0.0
 51
90.0
  0
ARC
  5
30D
100
AcDbEntity
  8
0
100
AcDbCircle
 62
9
  6
CONTINUOUS
 10
21.40430065
 20
9.0847343742
 40
0.03
100
AcDbArc
 50
0.0
 51
90.0
  0
ARC
  5
30E
100
AcDbEntity
  8
0
100
AcDbCircle
 62
6
  6
CONTINUOUS
 10
22.06030065
 20
9.7407343742
 40
0.06
100
AcDbArc
 50
0.0
 51
90.0
  0
ARC
  5
30F
100
AcDbEntity
  8
0
100
AcDbCircle
 62
6
  6
CONTINUOUS
 10
21.73780065
 20
9.4182343742
 40
0.06
100
AcDbArc
 50
0.0
 51
15.0
  0
ARC
  5
310
100
AcDbEntity
  8
0
100
AcDbCircle
 62
7
  6
CONTINUOUS
 10
21.73780065
 20
9.4182343742
 40
0.06
100
AcDbArc
 50
60.0
 51
90.0
  0
ARC
  5
311
100
AcDbEntity
  8
0
100
AcDbCircle
 62
7
  6
CONTINUOUS
 10
21.73780065
 20
9.4182343742
 40
0.06
100
AcDbArc
 50
15.0
 51
45.0
  0
ARC
  5
312
100
AcDbEntity
  8
0
100
AcDbCircle
 62
6
  6
CONTINUOUS
 10
21.73780065
 20
9.4182343742
 40
0.06
100
AcDbArc
 50
45.0
 51
60.0
  0
ARC
  5
313
100
AcDbEntity
  8
0
100
AcDbCircle
 62
9
  6
CONTINUOUS
 10
21.73780065
 20
9.4182343742
 40
0.03
100
AcDbArc
 50
0.0
 51
90.0
  0
ARC
  5
314
100
AcDbEntity
  8
0
100
AcDbCircle
 62
9
  6
CONTINUOUS
 10
22.06030065
 20
9.7407343742
 40
0.03
100
AcDbArc
 50
0.0
 51
90.0
  0
SPLINE
  5
315
100
AcDbEntity
  8
0
100
AcDbSpline
 62
9
  6
CONTINUOUS
 70
0
 71
3
 72
34
 73
30
 74
0
 42
0.0000001
 43
0.0000001
 44
0.0000000001
 40
0.0
 40
0.0
 40
0.0
 40
0.0
 40
0.0624374328
 40
0.0937033308
 40
0.124976359
 40
0.156244652
 40
0.18750329
 40
0.2187545217
 40
0.250001263
 40
0.2812471342
 40
0.3124961552
 40
0.3437483936
 40
0.3750020312
 40
0.4062555414
 40
0.4375082844
 40
0.4999942666
 40
0.5624814474
 40
0.6249725007
 40
0.6562288952
 40
0.6874841007
 40
0.7187363178
 40
0.7499860863
 40
0.7812371265
 40
0.8124924236
 40
0.8437542724
 40
0.8750243628
 40
0.9062978519
 40
0.9375634257
 40
1.0
 40
1.0
 40
1.0
 40
1.0
 10
21.6092796323
 20
7.8331226942
 30
0.0
 10
21.6121805415
 20
7.8331228892
 30
0.0
 10
21.6165378705
 20
7.8333322761
 30
0.0
 10
21.6223042496
 20
7.8340265069
 30
0.0
 10
21.6266031302
 20
7.8347553723
 30
0.0
 10
21.630861017
 20
7.8356922468
 30
0.0
 10
21.6350670355
 20
7.8368360966
 30
0.0
 10
21.6392111669
 20
7.8381837994
 30
0.0
 10
21.6432837484
 20
7.8397327246
 30
0.0
 10
21.6472751286
 20
7.8414800886
 30
0.0
 10
21.6511752784
 20
7.8434231613
 30
0.0
 10
21.6549748627
 20
7.8455569368
 30
0.0
 10
21.6586644497
 20
7.8478760697
 30
0.0
 10
21.6622346784
 20
7.8503753132
 30
0.0
 10
21.666821721
 20
7.8539399264
 30
0.0
 10
21.672212948
 20
7.8588195716
 30
0.0
 10
21.6780674757
 20
7.8652868108
 30
0.0
 10
21.6823844313
 20
7.8711388758
 30
0.0
 10
21.6854764183
 20
7.8760573943
 30
0.0
 10
21.687610694
 20
7.8798572746
 30
0.0
 10
21.6895539912
 20
7.8837578131
 30
0.0
 10
21.6913015641
 20
7.8877496855
 30
0.0
 10
21.6928507362
 20
7.8918227804
 30
0.0
 10
21.6941986743
 20
7.8959674012
 30
0.0
 10
21.6953427143
 20
7.9001738051
 30
0.0
 10
21.6962796944
 20
7.9044319296
 30
0.0
 10
21.6970085827
 20
7.908730898
 30
0.0
 10
21.6977027795
 20
7.9144972485
 30
0.0
 10
21.6979121213
 20
7.9188545226
 30
0.0
 10
21.69791233
 20
7.9217553919
 30
0.0
  0
SPLINE
  5
316
100
AcDbEntity
  8
0
100
AcDbSpline
 62
9
  6
CONTINUOUS
 70
0
 71
3
 72
34
 73
30
 74
0
 42
0.0000001
 43
0.0000001
 44
0.0000000001
 40
0.0
 40
0.0
 40
0.0
 40
0.0
 40
0.0624374328
 40
0.0937033308
 40
0.124976359
 40
0.156244652
 40
0.18750329
 40
0.2187545217
 40
0.250001263
 40
0.2812471342
 40
0.3124961552
 40
0.3437483936
 40
0.3750020312
 40
0.4062555414
 40
0.4375082844
 40
0.4999942666
 40
0.5624814474
 40
0.6249725007
 40
0.6562288952
 40
0.6874841007
 40
0.7187363178
 40
0.7499860863
 40
0.7812371265
 40
0.8124924236
 40
0.8437542724
 40
0.8750243628
 40
0.9062978519
 40
0.9375634257
 40
1.0
 40
1.0
 40
1.0
 40
1.0
 10
21.69791233
 20
9.2897133565
 30
0.0
 10
21.697912135
 20
9.2926142657
 30
0.0
 10
21.6977027481
 20
9.2969715947
 30
0.0
 10
21.6970085173
 20
9.3027379739
 30
0.0
 10
21.6962796518
 20
9.3070368545
 30
0.0
 10
21.6953427774
 20
9.3112947412
 30
0.0
 10
21.6941989276
 20
9.3155007597
 30
0.0
 10
21.6928512248
 20
9.3196448911
 30
0.0
 10
21.6913022996
 20
9.3237174726
 30
0.0
 10
21.6895549356
 20
9.3277088528
 30
0.0
 10
21.6876118629
 20
9.3316090026
 30
0.0
 10
21.6854780874
 20
9.335408587
 30
0.0
 10
21.6831589545
 20
9.3390981739
 30
0.0
 10
21.680659711
 20
9.3426684027
 30
0.0
 10
21.6770950978
 20
9.3472554452
 30
0.0
 10
21.6722154526
 20
9.3526466722
 30
0.0
 10
21.6657482134
 20
9.3585011999
 30
0.0
 10
21.6598961484
 20
9.3628181555
 30
0.0
 10
21.6549776299
 20
9.3659101425
 30
0.0
 10
21.6511777495
 20
9.3680444182
 30
0.0
 10
21.6472772111
 20
9.3699877154
 30
0.0
 10
21.6432853387
 20
9.3717352883
 30
0.0
 10
21.6392122438
 20
9.3732844604
 30
0.0
 10
21.635067623
 20
9.3746323985
 30
0.0
 10
21.6308612191
 20
9.3757764385
 30
0.0
 10
21.6266030946
 20
9.3767134186
 30
0.0
 10
21.6223041262
 20
9.3774423069
 30
0.0
 10
21.6165377757
 20
9.3781365037
 30
0.0
 10
21.6121805016
 20
9.3783458455
 30
0.0
 10
21.6092796323
 20
9.3783460543
 30
0.0
  0
SPLINE
  5
317
100
AcDbEntity
  8
0
100
AcDbSpline
 62
9
  6
CONTINUOUS
 70
0
 71
3
 72
34
 73
30
 74
0
 42
0.0000001
 43
0.0000001
 44
0.0000000001
 40
0.0
 40
0.0
 40
0.0
 40
0.0
 40
0.0624374328
 40
0.0937033308
 40
0.124976359
 40
0.156244652
 40
0.18750329
 40
0.2187545217
 40
0.250001263
 40
0.2812471342
 40
0.3124961552
 40
0.3437483936
 40
0.3750020312
 40
0.4062555414
 40
0.4375082844
 40
0.4999942666
 40
0.5624814474
 40
0.6249725007
 40
0.6562288952
 40
0.6874841007
 40
0.7187363178
 40
0.7499860863
 40
0.7812371265
 40
0.8124924236
 40
0.8437542724
 40
0.8750243628
 40
0.9062978519
 40
0.9375634257
 40
1.0
 40
1.0
 40
1.0
 40
1.0
 10
20.2413216677
 20
9.3783460543
 30
0.0
 10
20.2384207585
 20
9.3783458592
 30
0.0
 10
20.2340634295
 20
9.3781364723
 30
0.0
 10
20.2282970503
 20
9.3774422415
 30
0.0
 10
20.2239981697
 20
9.3767133761
 30
0.0
 10
20.219740283
 20
9.3757765017
 30
0.0
 10
20.2155342645
 20
9.3746326518
 30
0.0
 10
20.2113901331
 20
9.373284949
 30
0.0
 10
20.2073175516
 20
9.3717360238
 30
0.0
 10
20.2033261714
 20
9.3699886599
 30
0.0
 10
20.1994260216
 20
9.3680455872
 30
0.0
 10
20.1956264372
 20
9.3659118116
 30
0.0
 10
20.1919368503
 20
9.3635926787
 30
0.0
 10
20.1883666215
 20
9.3610934352
 30
0.0
 10
20.183779579
 20
9.357528822
 30
0.0
 10
20.178388352
 20
9.3526491768
 30
0.0
 10
20.1725338243
 20
9.3461819377
 30
0.0
 10
20.1682168687
 20
9.3403298726
 30
0.0
 10
20.1651248817
 20
9.3354113541
 30
0.0
 10
20.162990606
 20
9.3316114738
 30
0.0
 10
20.1610473088
 20
9.3277109354
 30
0.0
 10
20.1592997359
 20
9.3237190629
 30
0.0
 10
20.1577505638
 20
9.319645968
 30
0.0
 10
20.1564026257
 20
9.3155013472
 30
0.0
 10
20.1552585857
 20
9.3112949433
 30
0.0
 10
20.1543216056
 20
9.3070368188
 30
0.0
 10
20.1535927173
 20
9.3027378504
 30
0.0
 10
20.1528985205
 20
9.2969715
 30
0.0
 10
20.1526891787
 20
9.2926142258
 30
0.0
 10
20.1526889699
 20
9.2897133565
 30
0.0
  0
SPLINE
  5
318
100
AcDbEntity
  8
0
100
AcDbSpline
 62
9
  6
CONTINUOUS
 70
0
 71
3
 72
34
 73
30
 74
0
 42
0.0000001
 43
0.0000001
 44
0.0000000001
 40
0.0
 40
0.0
 40
0.0
 40
0.0
 40
0.0624374328
 40
0.0937033308
 40
0.124976359
 40
0.156244652
 40
0.18750329
 40
0.2187545217
 40
0.250001263
 40
0.2812471342
 40
0.3124961552
 40
0.3437483936
 40
0.3750020312
 40
0.4062555414
 40
0.4375082844
 40
0.4999942666
 40
0.5624814474
 40
0.6249725007
 40
0.6562288952
 40
0.6874841007
 40
0.7187363178
 40
0.7499860863
 40
0.7812371265
 40
0.8124924236
 40
0.8437542724
 40
0.8750243628
 40
0.9062978519
 40
0.9375634257
 40
1.0
 40
1.0
 40
1.0
 40
1.0
 10
20.1526889699
 20
7.9217553919
 30
0.0
 10
20.152689165
 20
7.9188544827
 30
0.0
 10
20.1528985519
 20
7.9144971537
 30
0.0
 10
20.1535927827
 20
7.9087307745
 30
0.0
 10
20.1543216481
 20
7.904431894
 30
0.0
 10
20.1552585225
 20
7.9001740072
 30
0.0
 10
20.1564023723
 20
7.8959679887
 30
0.0
 10
20.1577500752
 20
7.8918238573
 30
0.0
 10
20.1592990004
 20
7.8877512758
 30
0.0
 10
20.1610463643
 20
7.8837598956
 30
0.0
 10
20.162989437
 20
7.8798597458
 30
0.0
 10
20.1651232126
 20
7.8760601615
 30
0.0
 10
20.1674423455
 20
7.8723705745
 30
0.0
 10
20.169941589
 20
7.8688003458
 30
0.0
 10
20.1735062021
 20
7.8642133032
 30
0.0
 10
20.1783858474
 20
7.8588220762
 30
0.0
 10
20.1848530865
 20
7.8529675485
 30
0.0
 10
20.1907051516
 20
7.8486505929
 30
0.0
 10
20.1956236701
 20
7.8455586059
 30
0.0
 10
20.1994235504
 20
7.8434243302
 30
0.0
 10
20.2033240888
 20
7.841481033
 30
0.0
 10
20.2073159613
 20
7.8397334601
 30
0.0
 10
20.2113890562
 20
7.838184288
 30
0.0
 10
20.215533677
 20
7.8368363499
 30
0.0
 10
20.2197400809
 20
7.8356923099
 30
0.0
 10
20.2239982054
 20
7.8347553298
 30
0.0
 10
20.2282971738
 20
7.8340264415
 30
0.0
 10
20.2340635242
 20
7.8333322447
 30
0.0
 10
20.2384207984
 20
7.8331229029
 30
0.0
 10
20.2413216677
 20
7.8331226942
 30
0.0
  0
SPLINE
  5
319
100
AcDbEntity
  8
0
100
AcDbSpline
 62
9
  6
CONTINUOUS
 70
0
 71
3
 72
34
 73
30
 74
0
 42
0.0000001
 43
0.0000001
 44
0.0000000001
 40
0.0
 40
0.0
 40
0.0
 40
0.0
 40
0.0624374328
 40
0.0937033308
 40
0.124976359
 40
0.156244652
 40
0.18750329
 40
0.2187545217
 40
0.250001263
 40
0.2812471342
 40
0.3124961552
 40
0.3437483936
 40
0.3750020312
 40
0.4062555414
 40
0.4375082844
 40
0.4999942666
 40
0.5624814474
 40
0.6249725007
 40
0.6562288952
 40
0.6874841007
 40
0.7187363178
 40
0.7499860863
 40
0.7812371265
 40
0.8124924236
 40
0.8437542724
 40
0.8750243628
 40
0.9062978519
 40
0.9375634257
 40
1.0
 40
1.0
 40
1.0
 40
1.0
 10
2.2413216677
 20
9.3783460543
 30
0.0
 10
2.2384207585
 20
9.3783458592
 30
0.0
 10
2.2340634295
 20
9.3781364723
 30
0.0
 10
2.2282970503
 20
9.3774422415
 30
0.0
 10
2.2239981697
 20
9.3767133761
 30
0.0
 10
2.219740283
 20
9.3757765017
 30
0.0
 10
2.2155342645
 20
9.3746326518
 30
0.0
 10
2.2113901331
 20
9.373284949
 30
0.0
 10
2.2073175516
 20
9.3717360238
 30
0.0
 10
2.2033261714
 20
9.3699886599
 30
0.0
 10
2.1994260216
 20
9.3680455872
 30
0.0
 10
2.1956264372
 20
9.3659118116
 30
0.0
 10
2.1919368503
 20
9.3635926787
 30
0.0
 10
2.1883666215
 20
9.3610934352
 30
0.0
 10
2.183779579
 20
9.357528822
 30
0.0
 10
2.178388352
 20
9.3526491768
 30
0.0
 10
2.1725338243
 20
9.3461819377
 30
0.0
 10
2.1682168687
 20
9.3403298726
 30
0.0
 10
2.1651248817
 20
9.3354113541
 30
0.0
 10
2.162990606
 20
9.3316114738
 30
0.0
 10
2.1610473088
 20
9.3277109354
 30
0.0
 10
2.1592997359
 20
9.3237190629
 30
0.0
 10
2.1577505638
 20
9.319645968
 30
0.0
 10
2.1564026257
 20
9.3155013472
 30
0.0
 10
2.1552585857
 20
9.3112949433
 30
0.0
 10
2.1543216056
 20
9.3070368188
 30
0.0
 10
2.1535927173
 20
9.3027378504
 30
0.0
 10
2.1528985205
 20
9.2969715
 30
0.0
 10
2.1526891787
 20
9.2926142258
 30
0.0
 10
2.1526889699
 20
9.2897133565
 30
0.0
  0
SPLINE
  5
31A
100
AcDbEntity
  8
0
100
AcDbSpline
 62
9
  6
CONTINUOUS
 70
0
 71
3
 72
34
 73
30
 74
0
 42
0.0000001
 43
0.0000001
 44
0.0000000001
 40
0.0
 40
0.0
 40
0.0
 40
0.0
 40
0.0624374328
 40
0.0937033308
 40
0.124976359
 40
0.156244652
 40
0.18750329
 40
0.2187545217
 40
0.250001263
 40
0.2812471342
 40
0.3124961552
 40
0.3437483936
 40
0.3750020312
 40
0.4062555414
 40
0.4375082844
 40
0.4999942666
 40
0.5624814474
 40
0.6249725007
 40
0.6562288952
 40
0.6874841007
 40
0.7187363178
 40
0.7499860863
 40
0.7812371265
 40
0.8124924236
 40
0.8437542724
 40
0.8750243628
 40
0.9062978519
 40
0.9375634257
 40
1.0
 40
1.0
 40
1.0
 40
1.0
 10
2.1526889699
 20
7.9217553919
 30
0.0
 10
2.152689165
 20
7.9188544827
 30
0.0
 10
2.1528985519
 20
7.9144971537
 30
0.0
 10
2.1535927827
 20
7.9087307745
 30
0.0
 10
2.1543216481
 20
7.904431894
 30
0.0
 10
2.1552585225
 20
7.9001740072
 30
0.0
 10
2.1564023723
 20
7.8959679887
 30
0.0
 10
2.1577500752
 20
7.8918238573
 30
0.0
 10
2.1592990004
 20
7.8877512758
 30
0.0
 10
2.1610463643
 20
7.8837598956
 30
0.0
 10
2.162989437
 20
7.8798597458
 30
0.0
 10
2.1651232126
 20
7.8760601615
 30
0.0
 10
2.1674423455
 20
7.8723705745
 30
0.0
 10
2.169941589
 20
7.8688003458
 30
0.0
 10
2.1735062021
 20
7.8642133032
 30
0.0
 10
2.1783858474
 20
7.8588220762
 30
0.0
 10
2.1848530865
 20
7.8529675485
 30
0.0
 10
2.1907051516
 20
7.8486505929
 30
0.0
 10
2.1956236701
 20
7.8455586059
 30
0.0
 10
2.1994235504
 20
7.8434243302
 30
0.0
 10
2.2033240888
 20
7.841481033
 30
0.0
 10
2.2073159613
 20
7.8397334601
 30
0.0
 10
2.2113890562
 20
7.838184288
 30
0.0
 10
2.215533677
 20
7.8368363499
 30
0.0
 10
2.2197400809
 20
7.8356923099
 30
0.0
 10
2.2239982054
 20
7.8347553298
 30
0.0
 10
2.2282971738
 20
7.8340264415
 30
0.0
 10
2.2340635242
 20
7.8333322447
 30
0.0
 10
2.2384207984
 20
7.8331229029
 30
0.0
 10
2.2413216677
 20
7.8331226942
 30
0.0
  0
SPLINE
  5
31B
100
AcDbEntity
  8
0
100
AcDbSpline
 62
9
  6
CONTINUOUS
 70
0
 71
3
 72
34
 73
30
 74
0
 42
0.0000001
 43
0.0000001
 44
0.0000000001
 40
0.0
 40
0.0
 40
0.0
 40
0.0
 40
0.0624374328
 40
0.0937033308
 40
0.124976359
 40
0.156244652
 40
0.18750329
 40
0.2187545217
 40
0.250001263
 40
0.2812471342
 40
0.3124961552
 40
0.3437483936
 40
0.3750020312
 40
0.4062555414
 40
0.4375082844
 40
0.4999942666
 40
0.5624814474
 40
0.6249725007
 40
0.6562288952
 40
0.6874841007
 40
0.7187363178
 40
0.7499860863
 40
0.7812371265
 40
0.8124924236
 40
0.8437542724
 40
0.8750243628
 40
0.9062978519
 40
0.9375634257
 40
1.0
 40
1.0
 40
1.0
 40
1.0
 10
3.6092796323
 20
7.8331226942
 30
0.0
 10
3.6121805415
 20
7.8331228892
 30
0.0
 10
3.6165378705
 20
7.8333322761
 30
0.0
 10
3.6223042496
 20
7.8340265069
 30
0.0
 10
3.6266031302
 20
7.8347553723
 30
0.0
 10
3.630861017
 20
7.8356922468
 30
0.0
 10
3.6350670355
 20
7.8368360966
 30
0.0
 10
3.6392111669
 20
7.8381837994
 30
0.0
 10
3.6432837484
 20
7.8397327246
 30
0.0
 10
3.6472751286
 20
7.8414800886
 30
0.0
 10
3.6511752784
 20
7.8434231613
 30
0.0
 10
3.6549748627
 20
7.8455569368
 30
0.0
 10
3.6586644497
 20
7.8478760697
 30
0.0
 10
3.6622346784
 20
7.8503753132
 30
0.0
 10
3.666821721
 20
7.8539399264
 30
0.0
 10
3.672212948
 20
7.8588195716
 30
0.0
 10
3.6780674757
 20
7.8652868108
 30
0.0
 10
3.6823844313
 20
7.8711388758
 30
0.0
 10
3.6854764183
 20
7.8760573943
 30
0.0
 10
3.687610694
 20
7.8798572746
 30
0.0
 10
3.6895539912
 20
7.8837578131
 30
0.0
 10
3.6913015641
 20
7.8877496855
 30
0.0
 10
3.6928507362
 20
7.8918227804
 30
0.0
 10
3.6941986743
 20
7.8959674012
 30
0.0
 10
3.6953427143
 20
7.9001738051
 30
0.0
 10
3.6962796944
 20
7.9044319296
 30
0.0
 10
3.6970085827
 20
7.908730898
 30
0.0
 10
3.6977027795
 20
7.9144972485
 30
0.0
 10
3.6979121213
 20
7.9188545226
 30
0.0
 10
3.69791233
 20
7.9217553919
 30
0.0
  0
SPLINE
  5
31C
100
AcDbEntity
  8
0
100
AcDbSpline
 62
9
  6
CONTINUOUS
 70
0
 71
3
 72
34
 73
30
 74
0
 42
0.0000001
 43
0.0000001
 44
0.0000000001
 40
0.0
 40
0.0
 40
0.0
 40
0.0
 40
0.0624374328
 40
0.0937033308
 40
0.124976359
 40
0.156244652
 40
0.18750329
 40
0.2187545217
 40
0.250001263
 40
0.2812471342
 40
0.3124961552
 40
0.3437483936
 40
0.3750020312
 40
0.4062555414
 40
0.4375082844
 40
0.4999942666
 40
0.5624814474
 40
0.6249725007
 40
0.6562288952
 40
0.6874841007
 40
0.7187363178
 40
0.7499860863
 40
0.7812371265
 40
0.8124924236
 40
0.8437542724
 40
0.8750243628
 40
0.9062978519
 40
0.9375634257
 40
1.0
 40
1.0
 40
1.0
 40
1.0
 10
3.69791233
 20
9.2897133565
 30
0.0
 10
3.697912135
 20
9.2926142657
 30
0.0
 10
3.6977027481
 20
9.2969715947
 30
0.0
 10
3.6970085173
 20
9.3027379739
 30
0.0
 10
3.6962796518
 20
9.3070368545
 30
0.0
 10
3.6953427774
 20
9.3112947412
 30
0.0
 10
3.6941989276
 20
9.3155007597
 30
0.0
 10
3.6928512248
 20
9.3196448911
 30
0.0
 10
3.6913022996
 20
9.3237174726
 30
0.0
 10
3.6895549356
 20
9.3277088528
 30
0.0
 10
3.6876118629
 20
9.3316090026
 30
0.0
 10
3.6854780874
 20
9.335408587
 30
0.0
 10
3.6831589545
 20
9.3390981739
 30
0.0
 10
3.680659711
 20
9.3426684027
 30
0.0
 10
3.6770950978
 20
9.3472554452
 30
0.0
 10
3.6722154526
 20
9.3526466722
 30
0.0
 10
3.6657482134
 20
9.3585011999
 30
0.0
 10
3.6598961484
 20
9.3628181555
 30
0.0
 10
3.6549776299
 20
9.3659101425
 30
0.0
 10
3.6511777495
 20
9.3680444182
 30
0.0
 10
3.6472772111
 20
9.3699877154
 30
0.0
 10
3.6432853387
 20
9.3717352883
 30
0.0
 10
3.6392122438
 20
9.3732844604
 30
0.0
 10
3.635067623
 20
9.3746323985
 30
0.0
 10
3.6308612191
 20
9.3757764385
 30
0.0
 10
3.6266030946
 20
9.3767134186
 30
0.0
 10
3.6223041262
 20
9.3774423069
 30
0.0
 10
3.6165377757
 20
9.3781365037
 30
0.0
 10
3.6121805016
 20
9.3783458455
 30
0.0
 10
3.6092796323
 20
9.3783460543
 30
0.0
  0
SPLINE
  5
31D
100
AcDbEntity
  8
0
100
AcDbSpline
 62
9
  6
CONTINUOUS
 70
0
 71
3
 72
28
 73
24
 74
0
 42
0.0000001
 43
0.0000001
 44
0.0000000001
 40
0.0
 40
0.0
 40
0.0
 40
0.0
 40
0.0623305564
 40
0.1247804474
 40
0.1560285199
 40
0.1872775058
 40
0.2497615245
 40
0.2810211374
 40
0.3122916768
 40
0.3748386931
 40
0.4061292041
 40
0.4374222047
 40
0.4999942085
 40
0.5625673009
 40
0.6251345934
 40
0.6876878885
 40
0.7189616521
 40
0.7502252455
 40
0.8127180224
 40
0.8439703947
 40
0.8752203553
 40
0.9376703851
 40
1.0
 40
1.0
 40
1.0
 40
1.0
 10
21.6092796323
 20
7.8626669267
 30
0.0
 10
21.6112203115
 20
7.8626390864
 30
0.0
 10
21.615110377
 20
7.8627676202
 30
0.0
 10
21.6199366052
 20
7.8633910182
 30
0.0
 10
21.623749804
 20
7.8641708022
 30
0.0
 10
21.6275206325
 20
7.8651382582
 30
0.0
 10
21.6312156659
 20
7.8663851851
 30
0.0
 10
21.6348011243
 20
7.8679046129
 30
0.0
 10
21.6383065824
 20
7.8696049385
 30
0.0
 10
21.6416789127
 20
7.8715712097
 30
0.0
 10
21.6448857858
 20
7.8737867012
 30
0.0
 10
21.6479749011
 20
7.8761651833
 30
0.0
 10
21.6515991927
 20
7.8794339527
 30
0.0
 10
21.6555211794
 20
7.8837817196
 30
0.0
 10
21.6589713502
 20
7.8885118375
 30
0.0
 10
21.6614291777
 20
7.8927265325
 30
0.0
 10
21.6631297825
 20
7.8962324584
 30
0.0
 10
21.66464937
 20
7.8998183566
 30
0.0
 10
21.6658965296
 20
7.9035138524
 30
0.0
 10
21.6668641729
 20
7.9072850825
 30
0.0
 10
21.6676440475
 20
7.9110984358
 30
0.0
 10
21.6682674485
 20
7.915924701
 30
0.0
 10
21.668395937
 20
7.919814742
 30
0.0
 10
21.6683680974
 20
7.9217553919
 30
0.0
  0
SPLINE
  5
31E
100
AcDbEntity
  8
0
100
AcDbSpline
 62
9
  6
CONTINUOUS
 70
0
 71
3
 72
28
 73
24
 74
0
 42
0.0000001
 43
0.0000001
 44
0.0000000001
 40
0.0
 40
0.0
 40
0.0
 40
0.0
 40
0.0623305564
 40
0.1247804474
 40
0.1560285199
 40
0.1872775058
 40
0.2497615245
 40
0.2810211374
 40
0.3122916768
 40
0.3748386931
 40
0.4061292041
 40
0.4374222047
 40
0.4999942085
 40
0.5625673009
 40
0.6251345934
 40
0.6876878885
 40
0.7189616521
 40
0.7502252455
 40
0.8127180224
 40
0.8439703947
 40
0.8752203553
 40
0.9376703851
 40
1.0
 40
1.0
 40
1.0
 40
1.0
 10
21.6683680974
 20
9.2897133565
 30
0.0
 10
21.6683959377
 20
9.2916540357
 30
0.0
 10
21.668267404
 20
9.2955441012
 30
0.0
 10
21.667644006
 20
9.3003703294
 30
0.0
 10
21.666864222
 20
9.3041835282
 30
0.0
 10
21.665896766
 20
9.3079543567
 30
0.0
 10
21.6646498391
 20
9.3116493901
 30
0.0
 10
21.6631304113
 20
9.3152348485
 30
0.0
 10
21.6614300857
 20
9.3187403066
 30
0.0
 10
21.6594638145
 20
9.3221126369
 30
0.0
 10
21.657248323
 20
9.32531951
 30
0.0
 10
21.6548698409
 20
9.3284086253
 30
0.0
 10
21.6516010715
 20
9.3320329169
 30
0.0
 10
21.6472533046
 20
9.3359549036
 30
0.0
 10
21.6425231867
 20
9.3394050744
 30
0.0
 10
21.6383084917
 20
9.3418629019
 30
0.0
 10
21.6348025658
 20
9.3435635067
 30
0.0
 10
21.6312166676
 20
9.3450830942
 30
0.0
 10
21.6275211718
 20
9.3463302538
 30
0.0
 10
21.6237499417
 20
9.3472978971
 30
0.0
 10
21.6199365884
 20
9.3480777717
 30
0.0
 10
21.6151103232
 20
9.3487011727
 30
0.0
 10
21.6112202822
 20
9.3488296613
 30
0.0
 10
21.6092796323
 20
9.3488018217
 30
0.0
  0
SPLINE
  5
31F
100
AcDbEntity
  8
0
100
AcDbSpline
 62
9
  6
CONTINUOUS
 70
0
 71
3
 72
28
 73
24
 74
0
 42
0.0000001
 43
0.0000001
 44
0.0000000001
 40
0.0
 40
0.0
 40
0.0
 40
0.0
 40
0.0623305564
 40
0.1247804474
 40
0.1560285199
 40
0.1872775058
 40
0.2497615245
 40
0.2810211374
 40
0.3122916768
 40
0.3748386931
 40
0.4061292041
 40
0.4374222047
 40
0.4999942085
 40
0.5625673009
 40
0.6251345934
 40
0.6876878885
 40
0.7189616521
 40
0.7502252455
 40
0.8127180224
 40
0.8439703947
 40
0.8752203553
 40
0.9376703851
 40
1.0
 40
1.0
 40
1.0
 40
1.0
 10
20.2413216677
 20
9.3488018217
 30
0.0
 10
20.2393809885
 20
9.348829662
 30
0.0
 10
20.235490923
 20
9.3487011282
 30
0.0
 10
20.2306646948
 20
9.3480777302
 30
0.0
 10
20.226851496
 20
9.3472979462
 30
0.0
 10
20.2230806675
 20
9.3463304902
 30
0.0
 10
20.2193856341
 20
9.3450835634
 30
0.0
 10
20.2158001757
 20
9.3435641355
 30
0.0
 10
20.2122947176
 20
9.3418638099
 30
0.0
 10
20.2089223873
 20
9.3398975387
 30
0.0
 10
20.2057155142
 20
9.3376820473
 30
0.0
 10
20.2026263989
 20
9.3353035651
 30
0.0
 10
20.1990021073
 20
9.3320347957
 30
0.0
 10
20.1950801206
 20
9.3276870288
 30
0.0
 10
20.1916299498
 20
9.3229569109
 30
0.0
 10
20.1891721223
 20
9.318742216
 30
0.0
 10
20.1874715175
 20
9.31523629
 30
0.0
 10
20.18595193
 20
9.3116503918
 30
0.0
 10
20.1847047704
 20
9.3079548961
 30
0.0
 10
20.1837371271
 20
9.3041836659
 30
0.0
 10
20.1829572525
 20
9.3003703126
 30
0.0
 10
20.1823338515
 20
9.2955440474
 30
0.0
 10
20.1822053629
 20
9.2916540064
 30
0.0
 10
20.1822332025
 20
9.2897133565
 30
0.0
  0
SPLINE
  5
320
100
AcDbEntity
  8
0
100
AcDbSpline
 62
9
  6
CONTINUOUS
 70
0
 71
3
 72
28
 73
24
 74
0
 42
0.0000001
 43
0.0000001
 44
0.0000000001
 40
0.0
 40
0.0
 40
0.0
 40
0.0
 40
0.0623305564
 40
0.1247804474
 40
0.1560285199
 40
0.1872775058
 40
0.2497615245
 40
0.2810211374
 40
0.3122916768
 40
0.3748386931
 40
0.4061292041
 40
0.4374222047
 40
0.4999942085
 40
0.5625673009
 40
0.6251345934
 40
0.6876878885
 40
0.7189616521
 40
0.7502252455
 40
0.8127180224
 40
0.8439703947
 40
0.8752203553
 40
0.9376703851
 40
1.0
 40
1.0
 40
1.0
 40
1.0
 10
20.1822332025
 20
7.9217553919
 30
0.0
 10
20.1822053622
 20
7.9198147127
 30
0.0
 10
20.182333896
 20
7.9159246472
 30
0.0
 10
20.182957294
 20
7.911098419
 30
0.0
 10
20.1837370779
 20
7.9072852202
 30
0.0
 10
20.184704534
 20
7.9035143917
 30
0.0
 10
20.1859514608
 20
7.8998193583
 30
0.0
 10
20.1874708887
 20
7.8962338999
 30
0.0
 10
20.1891712143
 20
7.8927284418
 30
0.0
 10
20.1911374855
 20
7.8893561115
 30
0.0
 10
20.1933529769
 20
7.8861492384
 30
0.0
 10
20.1957314591
 20
7.8830601231
 30
0.0
 10
20.1990002285
 20
7.8794358315
 30
0.0
 10
20.2033479954
 20
7.8755138448
 30
0.0
 10
20.2080781133
 20
7.872063674
 30
0.0
 10
20.2122928082
 20
7.8696058465
 30
0.0
 10
20.2157987342
 20
7.8679052417
 30
0.0
 10
20.2193846324
 20
7.8663856542
 30
0.0
 10
20.2230801281
 20
7.8651384946
 30
0.0
 10
20.2268513583
 20
7.8641708513
 30
0.0
 10
20.2306647116
 20
7.8633909767
 30
0.0
 10
20.2354909768
 20
7.8627675757
 30
0.0
 10
20.2393810178
 20
7.8626390871
 30
0.0
 10
20.2413216677
 20
7.8626669267
 30
0.0
  0
SPLINE
  5
321
100
AcDbEntity
  8
0
100
AcDbSpline
 62
9
  6
CONTINUOUS
 70
0
 71
3
 72
28
 73
24
 74
0
 42
0.0000001
 43
0.0000001
 44
0.0000000001
 40
0.0
 40
0.0
 40
0.0
 40
0.0
 40
0.0623305564
 40
0.1247804474
 40
0.1560285199
 40
0.1872775058
 40
0.2497615245
 40
0.2810211374
 40
0.3122916768
 40
0.3748386931
 40
0.4061292041
 40
0.4374222047
 40
0.4999942085
 40
0.5625673009
 40
0.6251345934
 40
0.6876878885
 40
0.7189616521
 40
0.7502252455
 40
0.8127180224
 40
0.8439703947
 40
0.8752203553
 40
0.9376703851
 40
1.0
 40
1.0
 40
1.0
 40
1.0
 10
2.2413216677
 20
9.3488018217
 30
0.0
 10
2.2393809885
 20
9.348829662
 30
0.0
 10
2.235490923
 20
9.3487011282
 30
0.0
 10
2.2306646948
 20
9.3480777302
 30
0.0
 10
2.226851496
 20
9.3472979462
 30
0.0
 10
2.2230806675
 20
9.3463304902
 30
0.0
 10
2.2193856341
 20
9.3450835634
 30
0.0
 10
2.2158001757
 20
9.3435641355
 30
0.0
 10
2.2122947176
 20
9.3418638099
 30
0.0
 10
2.2089223873
 20
9.3398975387
 30
0.0
 10
2.2057155142
 20
9.3376820473
 30
0.0
 10
2.2026263989
 20
9.3353035651
 30
0.0
 10
2.1990021073
 20
9.3320347957
 30
0.0
 10
2.1950801206
 20
9.3276870288
 30
0.0
 10
2.1916299498
 20
9.3229569109
 30
0.0
 10
2.1891721223
 20
9.318742216
 30
0.0
 10
2.1874715175
 20
9.31523629
 30
0.0
 10
2.18595193
 20
9.3116503918
 30
0.0
 10
2.1847047704
 20
9.3079548961
 30
0.0
 10
2.1837371271
 20
9.3041836659
 30
0.0
 10
2.1829572525
 20
9.3003703126
 30
0.0
 10
2.1823338515
 20
9.2955440474
 30
0.0
 10
2.1822053629
 20
9.2916540064
 30
0.0
 10
2.1822332025
 20
9.2897133565
 30
0.0
  0
SPLINE
  5
322
100
AcDbEntity
  8
0
100
AcDbSpline
 62
9
  6
CONTINUOUS
 70
0
 71
3
 72
28
 73
24
 74
0
 42
0.0000001
 43
0.0000001
 44
0.0000000001
 40
0.0
 40
0.0
 40
0.0
 40
0.0
 40
0.0623305564
 40
0.1247804474
 40
0.1560285199
 40
0.1872775058
 40
0.2497615245
 40
0.2810211374
 40
0.3122916768
 40
0.3748386931
 40
0.4061292041
 40
0.4374222047
 40
0.4999942085
 40
0.5625673009
 40
0.6251345934
 40
0.6876878885
 40
0.7189616521
 40
0.7502252455
 40
0.8127180224
 40
0.8439703947
 40
0.8752203553
 40
0.9376703851
 40
1.0
 40
1.0
 40
1.0
 40
1.0
 10
2.1822332025
 20
7.9217553919
 30
0.0
 10
2.1822053622
 20
7.9198147127
 30
0.0
 10
2.182333896
 20
7.9159246472
 30
0.0
 10
2.182957294
 20
7.911098419
 30
0.0
 10
2.1837370779
 20
7.9072852202
 30
0.0
 10
2.184704534
 20
7.9035143917
 30
0.0
 10
2.1859514608
 20
7.8998193583
 30
0.0
 10
2.1874708887
 20
7.8962338999
 30
0.0
 10
2.1891712143
 20
7.8927284418
 30
0.0
 10
2.1911374855
 20
7.8893561115
 30
0.0
 10
2.1933529769
 20
7.8861492384
 30
0.0
 10
2.1957314591
 20
7.8830601231
 30
0.0
 10
2.1990002285
 20
7.8794358315
 30
0.0
 10
2.2033479954
 20
7.8755138448
 30
0.0
 10
2.2080781133
 20
7.872063674
 30
0.0
 10
2.2122928082
 20
7.8696058465
 30
0.0
 10
2.2157987342
 20
7.8679052417
 30
0.0
 10
2.2193846324
 20
7.8663856542
 30
0.0
 10
2.2230801281
 20
7.8651384946
 30
0.0
 10
2.2268513583
 20
7.8641708513
 30
0.0
 10
2.2306647116
 20
7.8633909767
 30
0.0
 10
2.2354909768
 20
7.8627675757
 30
0.0
 10
2.2393810178
 20
7.8626390871
 30
0.0
 10
2.2413216677
 20
7.8626669267
 30
0.0
  0
SPLINE
  5
323
100
AcDbEntity
  8
0
100
AcDbSpline
 62
9
  6
CONTINUOUS
 70
0
 71
3
 72
28
 73
24
 74
0
 42
0.0000001
 43
0.0000001
 44
0.0000000001
 40
0.0
 40
0.0
 40
0.0
 40
0.0
 40
0.0623305564
 40
0.1247804474
 40
0.1560285199
 40
0.1872775058
 40
0.2497615245
 40
0.2810211374
 40
0.3122916768
 40
0.3748386931
 40
0.4061292041
 40
0.4374222047
 40
0.4999942085
 40
0.5625673009
 40
0.6251345934
 40
0.6876878885
 40
0.7189616521
 40
0.7502252455
 40
0.8127180224
 40
0.8439703947
 40
0.8752203553
 40
0.9376703851
 40
1.0
 40
1.0
 40
1.0
 40
1.0
 10
3.6092796323
 20
7.8626669267
 30
0.0
 10
3.6112203115
 20
7.8626390864
 30
0.0
 10
3.615110377
 20
7.8627676202
 30
0.0
 10
3.6199366052
 20
7.8633910182
 30
0.0
 10
3.623749804
 20
7.8641708022
 30
0.0
 10
3.6275206325
 20
7.8651382582
 30
0.0
 10
3.6312156659
 20
7.8663851851
 30
0.0
 10
3.6348011243
 20
7.8679046129
 30
0.0
 10
3.6383065824
 20
7.8696049385
 30
0.0
 10
3.6416789127
 20
7.8715712097
 30
0.0
 10
3.6448857858
 20
7.8737867012
 30
0.0
 10
3.6479749011
 20
7.8761651833
 30
0.0
 10
3.6515991927
 20
7.8794339527
 30
0.0
 10
3.6555211794
 20
7.8837817196
 30
0.0
 10
3.6589713502
 20
7.8885118375
 30
0.0
 10
3.6614291777
 20
7.8927265325
 30
0.0
 10
3.6631297825
 20
7.8962324584
 30
0.0
 10
3.66464937
 20
7.8998183566
 30
0.0
 10
3.6658965296
 20
7.9035138524
 30
0.0
 10
3.6668641729
 20
7.9072850825
 30
0.0
 10
3.6676440475
 20
7.9110984358
 30
0.0
 10
3.6682674485
 20
7.915924701
 30
0.0
 10
3.668395937
 20
7.919814742
 30
0.0
 10
3.6683680974
 20
7.9217553919
 30
0.0
  0
SPLINE
  5
324
100
AcDbEntity
  8
0
100
AcDbSpline
 62
9
  6
CONTINUOUS
 70
0
 71
3
 72
28
 73
24
 74
0
 42
0.0000001
 43
0.0000001
 44
0.0000000001
 40
0.0
 40
0.0
 40
0.0
 40
0.0
 40
0.0623305564
 40
0.1247804474
 40
0.1560285199
 40
0.1872775058
 40
0.2497615245
 40
0.2810211374
 40
0.3122916768
 40
0.3748386931
 40
0.4061292041
 40
0.4374222047
 40
0.4999942085
 40
0.5625673009
 40
0.6251345934
 40
0.6876878885
 40
0.7189616521
 40
0.7502252455
 40
0.8127180224
 40
0.8439703947
 40
0.8752203553
 40
0.9376703851
 40
1.0
 40
1.0
 40
1.0
 40
1.0
 10
3.6683680974
 20
9.2897133565
 30
0.0
 10
3.6683959377
 20
9.2916540357
 30
0.0
 10
3.668267404
 20
9.2955441012
 30
0.0
 10
3.667644006
 20
9.3003703294
 30
0.0
 10
3.666864222
 20
9.3041835282
 30
0.0
 10
3.665896766
 20
9.3079543567
 30
0.0
 10
3.6646498391
 20
9.3116493901
 30
0.0
 10
3.6631304113
 20
9.3152348485
 30
0.0
 10
3.6614300857
 20
9.3187403066
 30
0.0
 10
3.6594638145
 20
9.3221126369
 30
0.0
 10
3.657248323
 20
9.32531951
 30
0.0
 10
3.6548698409
 20
9.3284086253
 30
0.0
 10
3.6516010715
 20
9.3320329169
 30
0.0
 10
3.6472533046
 20
9.3359549036
 30
0.0
 10
3.6425231867
 20
9.3394050744
 30
0.0
 10
3.6383084917
 20
9.3418629019
 30
0.0
 10
3.6348025658
 20
9.3435635067
 30
0.0
 10
3.6312166676
 20
9.3450830942
 30
0.0
 10
3.6275211718
 20
9.3463302538
 30
0.0
 10
3.6237499417
 20
9.3472978971
 30
0.0
 10
3.6199365884
 20
9.3480777717
 30
0.0
 10
3.6151103232
 20
9.3487011727
 30
0.0
 10
3.6112202822
 20
9.3488296613
 30
0.0
 10
3.6092796323
 20
9.3488018217
 30
0.0
  0
ELLIPSE
  5
325
100
AcDbEntity
  8
0
100
AcDbEllipse
 62
6
  6
CONTINUOUS
 10
20.92530065
 20
7.9671775937
 30
0.0
 11
0.13
 21
0.0
 31
0.0
 40
0.1763269807
 41
0.0
 42
6.2831853072
  0
ELLIPSE
  5
326
100
AcDbEntity
  8
0
100
AcDbEllipse
 62
6
  6
CONTINUOUS
 10
2.92530065
 20
7.9671775937
 30
0.0
 11
0.13
 21
0.0
 31
0.0
 40
0.1763269807
 41
0.0
 42
6.2831853072
  0
ENDSEC
  0
SECTION
  2
OBJECTS
  0
DICTIONARY
  5
C
100
AcDbDictionary
280
0
281
1
  3
ACAD_GROUP
350
D
  3
ACAD_MLINESTYLE
350
17
  3
ACAD_LAYOUT
350
1A
  3
ACAD_PLOTSETTINGS
350
19
  3
ACAD_PLOTSTYLENAME
350
E
  0
DICTIONARY
  5
D
102
{ACAD_REACTORS
330
C
102
}
100
AcDbDictionary
280
0
281
1
  0
ACDBDICTIONARYWDFLT
  5
E
102
{ACAD_REACTORS
330
C
102
}
100
AcDbDictionary
281
1
  3
Normal
350
F
100
AcDbDictionaryWithDefault
340
F
  0
DICTIONARY
  5
17
102
{ACAD_REACTORS
330
C
102
}
100
AcDbDictionary
280
0
281
1
  3
Standard
350
18
  0
DICTIONARY
  5
19
102
{ACAD_REACTORS
330
C
102
}
100
AcDbDictionary
281
1
  0
DICTIONARY
  5
1A
102
{ACAD_REACTORS
330
C
102
}
100
AcDbDictionary
281
1
  3
Model
350
327
  3
Layout1
350
328
  0
ACDBPLACEHOLDER
  5
F
102
{ACAD_REACTORS
330
E
102
}
  0
MLINESTYLE
  5
18
102
{ACAD_REACTORS
330
17
102
}
100
AcDbMlineStyle
  2
STANDARD
 70
0
  3

 62
256
 51
90.0
 52
90.0
 71
2
 49
0.5
 62
256
  6
BYLAYER
 49
-0.5
 62
256
  6
BYLAYER
  0
LAYOUT
  5
327
102
{ACAD_REACTORS
330
1A
102
}
100
AcDbPlotSettings
  1

  2
none_device
  4
ISO_A2_(594.00_x_420.00_MM)
  6

 40
0.0
 41
0.0
 42
0.0
 43
0.0
 44
594.0
 45
420.0
 46
0.0
 47
0.0
 48
0.0
 49
0.0
140
0.0
141
0.0
142
1.0
143
1.0
 70
1024
 72
0
 73
0
 74
0
  7

 75
0
147
1.0
148
0.0
149
0.0
100
AcDbLayout
  1
Model
 70
0
 71
0
 10
0.0
 20
0.0
 11
23.3858267717
 21
16.5354330709
 12
0.0
 22
0.0
 32
0.0
 14
0.0
 24
0.0
 34
0.0
 15
0.0
 25
0.0
 35
0.0
146
0.0
 13
0.0
 23
0.0
 33
0.0
 16
1.0
 26
0.0
 36
0.0
 17
0.0
 27
1.0
 37
0.0
 76
0
330
202
345
0
346
0
  0
LAYOUT
  5
328
102
{ACAD_REACTORS
330
1A
102
}
100
AcDbPlotSettings
  1

  2
none_device
  4
ISO_A2_(594.00_x_420.00_MM)
  6

 40
0.0
 41
0.0
 42
0.0
 43
0.0
 44
594.0
 45
420.0
 46
0.0
 47
0.0
 48
0.0
 49
0.0
140
0.0
141
0.0
142
1.0
143
1.0
 70
0
 72
0
 73
0
 74
0
  7

 75
0
147
1.0
148
0.0
149
0.0
100
AcDbLayout
  1
Layout1
 70
0
 71
1
 10
0.0
 20
0.0
 11
23.3858267717
 21
16.5354330709
 12
0.0
 22
0.0
 32
0.0
 14
0.0
 24
0.0
 34
0.0
 15
0.0
 25
0.0
 35
0.0
146
0.0
 13
0.0
 23
0.0
 33
0.0
 16
1.0
 26
0.0
 36
0.0
 17
0.0
 27
1.0
 37
0.0
 76
0
330
203
345
0
346
0
  0
ENDSEC
  0
EOF
