999
DXF file: 43-02_front.dxf
999
Pro/ENGINEER 2014000 by Parametric Technology Corporation
  0
SECTION
  2
HEADER
  9
$ACADVER
  1
AC1015
  9
$DWGCODEPAGE
  3
ANSI_1252
  9
$EXTMAX
 10
33.1102362205
 20
23.3858267717
 30
0.0
  9
$EXTMIN
 10
0.0
 20
0.0
 30
0.0
  9
$LIMMIN
 10
0.0
 20
0.0
  9
$LIMMAX
 10
33.1102362205
 20
23.3858267717
  9
$VIEWCTR
 10
16.5551181102
 20
11.6929133858
  9
$VIEWSIZE
 40
23.3858267717
  9
$CLAYER
  8
0
  9
$LTSCALE
 40
1.8210629921
  9
$CELTYPE
  6
BYLAYER
  9
$DIMSCALE
 40
1.0
  9
$DIMASZ
 40
0.1875
  9
$DIMEXO
 40
0.0625
  9
$DIMDLI
 40
1.2581889764
  9
$DIMEXE
 40
0.125
  9
$DIMCEN
 40
0.297992126
  9
$DIMLFAC
 40
1.0
  9
$DIMBLK
  1
_CLOSED
  9
$DIMTXT
 40
0.15625
  9
$DIMTOL
 70
0
  9
$DIMLIM
 70
0
  9
$DIMTFAC
 40
1.0
  9
$DIMGAP
 40
0.09
  9
$DIMDSEP
 70
46
  9
$PDMODE
 70
3
  9
$PDSIZE
 40
0.3125
  9
$HANDSEED
  5
325
  9
$TILEMODE
 70
1
  9
$MEASUREMENT
 70
0
  9
$INSUNITS
 70
1
  0
ENDSEC
  0
SECTION
  2
CLASSES
  0
CLASS
  1
ACDBDICTIONARYWDFLT
  2
AcDbDictionaryWithDefault
  3
AutoCAD 2000
 90
0
280
0
281
0
  0
CLASS
  1
ACDBPLACEHOLDER
  2
AcDbPlaceHolder
  3
AutoCAD 2000
 90
0
280
0
281
0
  0
CLASS
  1
LAYOUT
  2
AcDbLayout
  3
AutoCAD 2000
 90
0
280
0
281
0
  0
ENDSEC
  0
SECTION
  2
TABLES
  0
TABLE
  2
VPORT
  5
8
100
AcDbSymbolTable
 70
2
  0
VPORT
  5
1F4
100
AcDbSymbolTableRecord
100
AcDbViewportTableRecord
  2
*ACTIVE
 70
0
 10
0.0
 20
0.0
 11
1.0
 21
1.0
 12
16.5551181102
 22
11.6929133858
 13
0.0
 23
0.0
 14
1.0
 24
1.0
 15
0.0
 25
0.0
 16
0.0
 26
0.0
 36
1.0
 17
0.0
 27
0.0
 37
0.0
 40
23.3858267717
 41
1.4158249158
 42
50.0
 43
0.0
 44
0.0
 50
0.0
 51
0.0
 71
0
 72
100
 73
1
 74
1
 75
0
 76
0
 77
0
 78
0
  0
ENDTAB
  0
TABLE
  2
LTYPE
  5
5
100
AcDbSymbolTable
 70
6
  0
LTYPE
  5
14
100
AcDbSymbolTableRecord
100
AcDbLinetypeTableRecord
  2
BYBLOCK
 70
0
  3

 72
65
 73
0
 40
0.0
  0
LTYPE
  5
15
100
AcDbSymbolTableRecord
100
AcDbLinetypeTableRecord
  2
BYLAYER
 70
0
  3

 72
65
 73
0
 40
0.0
  0
LTYPE
  5
16
100
AcDbSymbolTableRecord
100
AcDbLinetypeTableRecord
  2
CONTINUOUS
 70
64
  3
Solid line
 72
65
 73
0
 40
0.0
  0
LTYPE
  5
1F5
100
AcDbSymbolTableRecord
100
AcDbLinetypeTableRecord
  2
CENTER
 70
64
  3
____ _ ____ _ ____ _ ____ _ ____ _ ____ _ ____
 72
65
 73
4
 40
0.6
 49
0.375
 74
0
 49
-0.075
 74
0
 49
0.075
 74
0
 49
-0.075
 74
0
  0
LTYPE
  5
1F6
100
AcDbSymbolTableRecord
100
AcDbLinetypeTableRecord
  2
HIDDEN
 70
64
  3
- - - - - - - - - - - - - - - - - - - -
 72
65
 73
2
 40
0.2
 49
0.1
 74
0
 49
-0.1
 74
0
  0
LTYPE
  5
1F7
100
AcDbSymbolTableRecord
100
AcDbLinetypeTableRecord
  2
PHANTOM
 70
64
  3
_____ _ _ _____ _ _ _____ _ _ _____
 72
65
 73
6
 40
0.8
 49
0.45
 74
0
 49
-0.05
 74
0
 49
0.1
 74
0
 49
-0.05
 74
0
 49
0.1
 74
0
 49
-0.05
 74
0
  0
LTYPE
  5
1F8
100
AcDbSymbolTableRecord
100
AcDbLinetypeTableRecord
  2
DOT
 70
64
  3
. . . . . . . . . . . . . . . . . . . .
 72
65
 73
2
 40
0.2
 49
0.1
 74
0
 49
-0.1
 74
0
  0
LTYPE
  5
1F9
100
AcDbSymbolTableRecord
100
AcDbLinetypeTableRecord
  2
DASHED
 70
64
  3
- - - - - - - - - - - - - - - - - - - -
 72
65
 73
2
 40
0.2
 49
0.1
 74
0
 49
-0.1
 74
0
  0
ENDTAB
  0
TABLE
  2
LAYER
  5
2
100
AcDbSymbolTable
 70
36
  0
LAYER
  5
10
100
AcDbSymbolTableRecord
100
AcDbLayerTableRecord
  2
0
 70
0
 62
7
  6
CONTINUOUS
370
-3
390
F
  0
LAYER
  5
1FA
100
AcDbSymbolTableRecord
100
AcDbLayerTableRecord
  2
DEFAULT_1
 70
0
 62
7
  6
CENTER
370
-3
390
F
  0
LAYER
  5
1FB
100
AcDbSymbolTableRecord
100
AcDbLayerTableRecord
  2
DEFAULT_2
 70
0
 62
8
  6
HIDDEN
370
-3
390
F
  0
LAYER
  5
1FC
100
AcDbSymbolTableRecord
100
AcDbLayerTableRecord
  2
DEFAULT_3
 70
0
 62
7
  6
PHANTOM
370
-3
390
F
  0
LAYER
  5
1FD
100
AcDbSymbolTableRecord
100
AcDbLayerTableRecord
  2
DEFAULT_COORDINATE_SYSTEM
 70
0
 62
7
  6
CONTINUOUS
370
-3
390
F
  0
LAYER
  5
1FE
100
AcDbSymbolTableRecord
100
AcDbLayerTableRecord
  2
DEFAULT_DATUM_AXES
 70
0
 62
7
  6
CONTINUOUS
370
-3
390
F
  0
LAYER
  5
1FF
100
AcDbSymbolTableRecord
100
AcDbLayerTableRecord
  2
DEFAULT_DATUM_PLANES
 70
0
 62
7
  6
CONTINUOUS
370
-3
390
F
  0
ENDTAB
  0
TABLE
  2
STYLE
  5
3
100
AcDbSymbolTable
 70
1
  0
STYLE
  5
11
100
AcDbSymbolTableRecord
100
AcDbTextStyleTableRecord
  2
STANDARD
 70
0
 40
0.0
 41
0.8
 50
0.0
 71
0
 42
0.2
  3
txt
  4

  0
STYLE
  5
200
100
AcDbSymbolTableRecord
100
AcDbTextStyleTableRecord
  2
TEXTSTYLE_1
 70
0
 40
0.0
 41
0.8
 50
0.0
 71
0
 42
0.2
  3
gdt
  4

  0
ENDTAB
  0
TABLE
  2
VIEW
  5
6
100
AcDbSymbolTable
 70
0
  0
ENDTAB
  0
TABLE
  2
UCS
  5
7
100
AcDbSymbolTable
 70
0
  0
ENDTAB
  0
TABLE
  2
APPID
  5
9
100
AcDbSymbolTable
 70
1
  0
APPID
  5
201
100
AcDbSymbolTableRecord
100
AcDbRegAppTableRecord
  2
ACAD
 70
0
  0
ENDTAB
  0
TABLE
  2
BLOCK_RECORD
  5
1
100
AcDbSymbolTable
 70
0
  0
BLOCK_RECORD
  5
202
100
AcDbSymbolTableRecord
100
AcDbBlockTableRecord
  2
*Model_Space
  0
BLOCK_RECORD
  5
203
100
AcDbSymbolTableRecord
100
AcDbBlockTableRecord
  2
*Paper_Space
  0
ENDTAB
  0
TABLE
  2
DIMSTYLE
  5
A
100
AcDbSymbolTable
 70
1
100
AcDbDimStyleTable
 71
0
  0
DIMSTYLE
105
204
100
AcDbSymbolTableRecord
100
AcDbDimStyleTableRecord
  2
STANDARD
 70
0
  3

  4

 40
1.0
 41
0.1875
 42
0.0625
 43
0.38
 44
0.125
 45
0.0
 46
0.0
 47
0.001
 48
0.001
140
0.15625
141
0.09
142
0.0
143
25.4
144
1.0
145
0.0
146
1.0
147
0.09
 71
0.0
 72
0.0
 73
1
 74
1
 75
0
 76
0
 77
0
 78
4
170
0
171
2
172
0
173
0
174
0
175
0
176
0
177
0
178
0
270
2
271
3
272
3
273
2
274
2
275
0
280
0
281
0
282
0
283
1
284
4
285
0
286
0
287
3
288
0
340
11
278
46
  0
ENDTAB
  0
ENDSEC
  0
SECTION
  2
BLOCKS
  0
BLOCK
  5
20
100
AcDbEntity
  8
0
100
AcDbBlockBegin
  2
*Model_Space
 70
0
 10
0.0
 20
0.0
 30
0.0
  3
*Model_Space
  1

  0
ENDBLK
  5
21
100
AcDbEntity
  8
0
100
AcDbBlockEnd
  0
BLOCK
  5
1C
100
AcDbEntity
  8
0
100
AcDbBlockBegin
  2
*Paper_Space
 70
0
 10
0.0
 20
0.0
 30
0.0
  3
*Paper_Space
  1

  0
ENDBLK
  5
1D
100
AcDbEntity
  8
0
100
AcDbBlockEnd
  0
ENDSEC
  0
SECTION
  2
ENTITIES
  0
LINE
  5
205
100
AcDbEntity
  8
0
100
AcDbLine
 62
7
  6
CONTINUOUS
 10
0.0
 20
0.0
 11
0.0
 21
23.3858267717
  0
LINE
  5
206
100
AcDbEntity
  8
0
100
AcDbLine
 62
7
  6
CONTINUOUS
 10
0.0
 20
0.0
 11
33.1102362205
 21
0.0
  0
LINE
  5
207
100
AcDbEntity
  8
0
100
AcDbLine
 62
7
  6
CONTINUOUS
 10
0.0
 20
23.3858267717
 11
33.1102362205
 21
23.3858267717
  0
LINE
  5
208
100
AcDbEntity
  8
0
100
AcDbLine
 62
7
  6
CONTINUOUS
 10
33.1102362205
 20
0.0
 11
33.1102362205
 21
23.3858267717
  0
LINE
  5
209
100
AcDbEntity
  8
0
100
AcDbLine
 62
6
  6
CONTINUOUS
 10
3.8665428835
 20
13.0633988307
 11
3.8665428835
 21
10.7933988307
  0
LINE
  5
20A
100
AcDbEntity
  8
0
100
AcDbLine
 62
9
  6
CONTINUOUS
 10
3.8965428835
 20
13.0633988307
 11
3.8965428835
 21
10.7933988307
  0
LINE
  5
20B
100
AcDbEntity
  8
0
100
AcDbLine
 62
9
  6
CONTINUOUS
 10
3.9265428835
 20
10.7633988307
 11
3.9265428835
 21
10.7333988307
  0
LINE
  5
20C
100
AcDbEntity
  8
0
100
AcDbLine
 62
9
  6
CONTINUOUS
 10
3.9265428835
 20
13.0933988307
 11
3.9265428835
 21
13.1233988307
  0
LINE
  5
20D
100
AcDbEntity
  8
0
100
AcDbLine
 62
6
  6
CONTINUOUS
 10
4.1890428835
 20
12.7408988307
 11
4.1890428835
 21
11.1158988307
  0
LINE
  5
20E
100
AcDbEntity
  8
0
100
AcDbLine
 62
9
  6
CONTINUOUS
 10
4.2190428835
 20
12.7408988307
 11
4.2190428835
 21
11.1158988307
  0
LINE
  5
20F
100
AcDbEntity
  8
0
100
AcDbLine
 62
9
  6
CONTINUOUS
 10
4.2490428835
 20
11.0858988307
 11
4.2490428835
 21
11.0558988307
  0
LINE
  5
210
100
AcDbEntity
  8
0
100
AcDbLine
 62
9
  6
CONTINUOUS
 10
4.2490428835
 20
12.7708988307
 11
4.2490428835
 21
12.8008988307
  0
LINE
  5
211
100
AcDbEntity
  8
0
100
AcDbLine
 62
7
  6
CONTINUOUS
 10
4.2889312034
 20
12.612377813
 11
4.2889312034
 21
11.2444198484
  0
LINE
  5
212
100
AcDbEntity
  8
0
100
AcDbLine
 62
9
  6
CONTINUOUS
 10
4.318475436
 20
12.612377813
 11
4.318475436
 21
11.2444198484
  0
LINE
  5
213
100
AcDbEntity
  8
0
100
AcDbLine
 62
9
  6
CONTINUOUS
 10
4.3775639012
 20
12.7010105108
 11
4.3775639012
 21
12.6714662782
  0
LINE
  5
214
100
AcDbEntity
  8
0
100
AcDbLine
 62
9
  6
CONTINUOUS
 10
4.3775639012
 20
11.1557871506
 11
4.3775639012
 21
11.1853313832
  0
LINE
  5
215
100
AcDbEntity
  8
0
100
AcDbLine
 62
6
  6
CONTINUOUS
 10
4.5225428835
 20
12.4073988307
 11
4.5225428835
 21
11.4493988307
  0
LINE
  5
216
100
AcDbEntity
  8
0
100
AcDbLine
 62
9
  6
CONTINUOUS
 10
4.5525428835
 20
12.4073988307
 11
4.5525428835
 21
11.4493988307
  0
LINE
  5
217
100
AcDbEntity
  8
0
100
AcDbLine
 62
9
  6
CONTINUOUS
 10
4.5825428835
 20
11.4193988307
 11
4.5825428835
 21
11.3893988307
  0
LINE
  5
218
100
AcDbEntity
  8
0
100
AcDbLine
 62
9
  6
CONTINUOUS
 10
4.5825428835
 20
12.4373988307
 11
4.5825428835
 21
12.4673988307
  0
LINE
  5
219
100
AcDbEntity
  8
0
100
AcDbLine
 62
7
  6
CONTINUOUS
 10
4.6565428835
 20
12.2733988313
 11
4.6565428835
 21
11.5833988307
  0
LINE
  5
21A
100
AcDbEntity
  8
0
100
AcDbLine
 62
6
  6
CONTINUOUS
 10
4.6865428835
 20
12.2733988307
 11
4.6865428835
 21
11.5833988307
  0
LINE
  5
21B
100
AcDbEntity
  8
0
100
AcDbLine
 62
9
  6
CONTINUOUS
 10
4.7165428829
 20
11.5233988307
 11
4.7165428834
 21
12.3333988307
  0
LINE
  5
21C
100
AcDbEntity
  8
0
100
AcDbLine
 62
9
  6
CONTINUOUS
 10
5.4065428835
 20
11.5233988307
 11
5.406542884
 21
12.3333988307
  0
LINE
  5
21D
100
AcDbEntity
  8
0
100
AcDbLine
 62
6
  6
CONTINUOUS
 10
5.4365428835
 20
11.5833988307
 11
5.4365428835
 21
12.2733988307
  0
LINE
  5
21E
100
AcDbEntity
  8
0
100
AcDbLine
 62
7
  6
CONTINUOUS
 10
5.4665428835
 20
11.5833988301
 11
5.4665428835
 21
11.6783988307
  0
LINE
  5
21F
100
AcDbEntity
  8
0
100
AcDbLine
 62
7
  6
CONTINUOUS
 10
5.4665428835
 20
12.1783988307
 11
5.4665428835
 21
12.2733988307
  0
LINE
  5
220
100
AcDbEntity
  8
0
100
AcDbLine
 62
9
  6
CONTINUOUS
 10
5.5405428835
 20
11.4193988307
 11
5.5405428834
 21
11.3893988307
  0
LINE
  5
221
100
AcDbEntity
  8
0
100
AcDbLine
 62
9
  6
CONTINUOUS
 10
5.5405428835
 20
12.4373988307
 11
5.5405428835
 21
12.4673988307
  0
LINE
  5
222
100
AcDbEntity
  8
0
100
AcDbLine
 62
9
  6
CONTINUOUS
 10
5.5705428835
 20
11.4493988307
 11
5.5705428835
 21
11.6783988307
  0
LINE
  5
223
100
AcDbEntity
  8
0
100
AcDbLine
 62
9
  6
CONTINUOUS
 10
5.5705428835
 20
12.1783988307
 11
5.5705428835
 21
12.4073988307
  0
LINE
  5
224
100
AcDbEntity
  8
0
100
AcDbLine
 62
6
  6
CONTINUOUS
 10
5.6005428835
 20
11.4493988307
 11
5.6005428835
 21
11.6783988307
  0
LINE
  5
225
100
AcDbEntity
  8
0
100
AcDbLine
 62
6
  6
CONTINUOUS
 10
5.6005428835
 20
12.1783988307
 11
5.6005428835
 21
12.4073988307
  0
LINE
  5
226
100
AcDbEntity
  8
0
100
AcDbLine
 62
9
  6
CONTINUOUS
 10
5.7455218657
 20
12.7010105108
 11
5.7455218657
 21
12.6714662782
  0
LINE
  5
227
100
AcDbEntity
  8
0
100
AcDbLine
 62
9
  6
CONTINUOUS
 10
5.7455218657
 20
11.1557871506
 11
5.7455218657
 21
11.1853313832
  0
LINE
  5
228
100
AcDbEntity
  8
0
100
AcDbLine
 62
9
  6
CONTINUOUS
 10
5.8046103309
 20
11.2444198484
 11
5.8046103309
 21
11.6783988307
  0
LINE
  5
229
100
AcDbEntity
  8
0
100
AcDbLine
 62
9
  6
CONTINUOUS
 10
5.8046103309
 20
12.1783988307
 11
5.8046103309
 21
12.612377813
  0
LINE
  5
22A
100
AcDbEntity
  8
0
100
AcDbLine
 62
7
  6
CONTINUOUS
 10
5.8341545635
 20
11.2444198484
 11
5.8341545635
 21
11.6783988307
  0
LINE
  5
22B
100
AcDbEntity
  8
0
100
AcDbLine
 62
7
  6
CONTINUOUS
 10
5.8341545635
 20
12.1783988307
 11
5.8341545635
 21
12.612377813
  0
LINE
  5
22C
100
AcDbEntity
  8
0
100
AcDbLine
 62
9
  6
CONTINUOUS
 10
5.8740428835
 20
11.0858988307
 11
5.8740428834
 21
11.0558988307
  0
LINE
  5
22D
100
AcDbEntity
  8
0
100
AcDbLine
 62
9
  6
CONTINUOUS
 10
5.8740428835
 20
12.7708988307
 11
5.8740428835
 21
12.8008988307
  0
LINE
  5
22E
100
AcDbEntity
  8
0
100
AcDbLine
 62
9
  6
CONTINUOUS
 10
5.9040428835
 20
11.1158988307
 11
5.9040428835
 21
11.6783988307
  0
LINE
  5
22F
100
AcDbEntity
  8
0
100
AcDbLine
 62
9
  6
CONTINUOUS
 10
5.9040428835
 20
12.1783988307
 11
5.9040428835
 21
12.7408988307
  0
LINE
  5
230
100
AcDbEntity
  8
0
100
AcDbLine
 62
6
  6
CONTINUOUS
 10
5.9340428835
 20
11.1158988307
 11
5.9340428835
 21
11.6783988307
  0
LINE
  5
231
100
AcDbEntity
  8
0
100
AcDbLine
 62
6
  6
CONTINUOUS
 10
5.9340428835
 20
12.1783988307
 11
5.9340428835
 21
12.7408988307
  0
LINE
  5
232
100
AcDbEntity
  8
0
100
AcDbLine
 62
9
  6
CONTINUOUS
 10
6.1965428835
 20
10.7633988307
 11
6.1965428834
 21
10.7333988307
  0
LINE
  5
233
100
AcDbEntity
  8
0
100
AcDbLine
 62
9
  6
CONTINUOUS
 10
6.1965428835
 20
13.0933988307
 11
6.1965428835
 21
13.1233988307
  0
LINE
  5
234
100
AcDbEntity
  8
0
100
AcDbLine
 62
9
  6
CONTINUOUS
 10
6.2265428835
 20
10.7933988307
 11
6.2265428835
 21
11.6783988307
  0
LINE
  5
235
100
AcDbEntity
  8
0
100
AcDbLine
 62
9
  6
CONTINUOUS
 10
6.2265428835
 20
12.1783988307
 11
6.2265428835
 21
13.0633988307
  0
LINE
  5
236
100
AcDbEntity
  8
0
100
AcDbLine
 62
6
  6
CONTINUOUS
 10
6.2565428835
 20
10.7933988307
 11
6.2565428835
 21
11.6783988307
  0
LINE
  5
237
100
AcDbEntity
  8
0
100
AcDbLine
 62
6
  6
CONTINUOUS
 10
6.2565428835
 20
12.1783988307
 11
6.2565428835
 21
13.0633988307
  0
LINE
  5
238
100
AcDbEntity
  8
0
100
AcDbLine
 62
9
  6
CONTINUOUS
 10
5.7455218657
 20
12.6714662782
 11
5.5413483735
 21
12.4672927859
  0
LINE
  5
239
100
AcDbEntity
  8
0
100
AcDbLine
 62
9
  6
CONTINUOUS
 10
4.318475436
 20
11.2444198484
 11
4.5226489282
 21
11.4485933407
  0
LINE
  5
23A
100
AcDbEntity
  8
0
100
AcDbLine
 62
9
  6
CONTINUOUS
 10
5.8046103309
 20
12.612377813
 11
5.6004368387
 21
12.4082043207
  0
LINE
  5
23B
100
AcDbEntity
  8
0
100
AcDbLine
 62
9
  6
CONTINUOUS
 10
4.3775639012
 20
11.1853313832
 11
4.5817373934
 21
11.3895048755
  0
LINE
  5
23C
100
AcDbEntity
  8
0
100
AcDbLine
 62
9
  6
CONTINUOUS
 10
4.318475436
 20
12.612377813
 11
4.5226489282
 21
12.4082043207
  0
LINE
  5
23D
100
AcDbEntity
  8
0
100
AcDbLine
 62
9
  6
CONTINUOUS
 10
5.7455218657
 20
11.1853313832
 11
5.5413483735
 21
11.3895048755
  0
LINE
  5
23E
100
AcDbEntity
  8
0
100
AcDbLine
 62
9
  6
CONTINUOUS
 10
4.3775639012
 20
12.6714662782
 11
4.5817373934
 21
12.4672927859
  0
LINE
  5
23F
100
AcDbEntity
  8
0
100
AcDbLine
 62
9
  6
CONTINUOUS
 10
5.8046103309
 20
11.2444198484
 11
5.6004368387
 21
11.4485933407
  0
LINE
  5
240
100
AcDbEntity
  8
0
100
AcDbLine
 62
6
  6
CONTINUOUS
 10
3.9265428835
 20
10.7333988307
 11
6.1965428835
 21
10.7333988307
  0
LINE
  5
241
100
AcDbEntity
  8
0
100
AcDbLine
 62
6
  6
CONTINUOUS
 10
27.9265428835
 20
10.7333988307
 11
30.1965428835
 21
10.7333988307
  0
LINE
  5
242
100
AcDbEntity
  8
0
100
AcDbLine
 62
9
  6
CONTINUOUS
 10
3.9265428835
 20
10.7633988307
 11
6.1965428835
 21
10.7633988307
  0
LINE
  5
243
100
AcDbEntity
  8
0
100
AcDbLine
 62
9
  6
CONTINUOUS
 10
27.9265428835
 20
10.7633988307
 11
30.1965428835
 21
10.7633988307
  0
LINE
  5
244
100
AcDbEntity
  8
0
100
AcDbLine
 62
9
  6
CONTINUOUS
 10
27.8965428835
 20
10.7933988307
 11
27.8665428835
 21
10.7933988308
  0
LINE
  5
245
100
AcDbEntity
  8
0
100
AcDbLine
 62
9
  6
CONTINUOUS
 10
3.8965428835
 20
10.7933988307
 11
3.8665428835
 21
10.7933988308
  0
LINE
  5
246
100
AcDbEntity
  8
0
100
AcDbLine
 62
9
  6
CONTINUOUS
 10
6.2265428835
 20
10.7933988307
 11
6.2565428835
 21
10.7933988307
  0
LINE
  5
247
100
AcDbEntity
  8
0
100
AcDbLine
 62
9
  6
CONTINUOUS
 10
30.2265428835
 20
10.7933988307
 11
30.2565428835
 21
10.7933988307
  0
LINE
  5
248
100
AcDbEntity
  8
0
100
AcDbLine
 62
6
  6
CONTINUOUS
 10
4.2490428835
 20
11.0558988307
 11
5.8740428835
 21
11.0558988307
  0
LINE
  5
249
100
AcDbEntity
  8
0
100
AcDbLine
 62
6
  6
CONTINUOUS
 10
28.2490428835
 20
11.0558988307
 11
29.8740428835
 21
11.0558988307
  0
LINE
  5
24A
100
AcDbEntity
  8
0
100
AcDbLine
 62
9
  6
CONTINUOUS
 10
4.2490428835
 20
11.0858988307
 11
5.8740428835
 21
11.0858988307
  0
LINE
  5
24B
100
AcDbEntity
  8
0
100
AcDbLine
 62
9
  6
CONTINUOUS
 10
28.2490428835
 20
11.0858988307
 11
29.8740428835
 21
11.0858988307
  0
LINE
  5
24C
100
AcDbEntity
  8
0
100
AcDbLine
 62
9
  6
CONTINUOUS
 10
4.2190428835
 20
11.1158988307
 11
4.1890428835
 21
11.1158988308
  0
LINE
  5
24D
100
AcDbEntity
  8
0
100
AcDbLine
 62
9
  6
CONTINUOUS
 10
5.9040428835
 20
11.1158988307
 11
5.9340428835
 21
11.1158988307
  0
LINE
  5
24E
100
AcDbEntity
  8
0
100
AcDbLine
 62
9
  6
CONTINUOUS
 10
29.9040428835
 20
11.1158988307
 11
29.9340428835
 21
11.1158988307
  0
LINE
  5
24F
100
AcDbEntity
  8
0
100
AcDbLine
 62
9
  6
CONTINUOUS
 10
28.2190428835
 20
11.1158988307
 11
28.1890428835
 21
11.1158988308
  0
LINE
  5
250
100
AcDbEntity
  8
0
100
AcDbLine
 62
7
  6
CONTINUOUS
 10
4.3775639012
 20
11.1557871506
 11
5.7455218657
 21
11.1557871506
  0
LINE
  5
251
100
AcDbEntity
  8
0
100
AcDbLine
 62
7
  6
CONTINUOUS
 10
28.3775639012
 20
11.1557871506
 11
29.7455218657
 21
11.1557871506
  0
LINE
  5
252
100
AcDbEntity
  8
0
100
AcDbLine
 62
9
  6
CONTINUOUS
 10
4.3775639012
 20
11.1853313832
 11
5.7455218657
 21
11.1853313832
  0
LINE
  5
253
100
AcDbEntity
  8
0
100
AcDbLine
 62
9
  6
CONTINUOUS
 10
28.3775639012
 20
11.1853313832
 11
29.7455218657
 21
11.1853313832
  0
LINE
  5
254
100
AcDbEntity
  8
0
100
AcDbLine
 62
9
  6
CONTINUOUS
 10
29.8341545635
 20
11.2444198484
 11
29.8046103309
 21
11.2444198484
  0
LINE
  5
255
100
AcDbEntity
  8
0
100
AcDbLine
 62
9
  6
CONTINUOUS
 10
5.8341545635
 20
11.2444198484
 11
5.8046103309
 21
11.2444198484
  0
LINE
  5
256
100
AcDbEntity
  8
0
100
AcDbLine
 62
9
  6
CONTINUOUS
 10
4.2889312034
 20
11.2444198484
 11
4.318475436
 21
11.2444198484
  0
LINE
  5
257
100
AcDbEntity
  8
0
100
AcDbLine
 62
9
  6
CONTINUOUS
 10
28.2889312034
 20
11.2444198484
 11
28.318475436
 21
11.2444198484
  0
LINE
  5
258
100
AcDbEntity
  8
0
100
AcDbLine
 62
6
  6
CONTINUOUS
 10
4.5825428835
 20
11.3893988307
 11
5.5405428835
 21
11.3893988307
  0
LINE
  5
259
100
AcDbEntity
  8
0
100
AcDbLine
 62
6
  6
CONTINUOUS
 10
28.5825428835
 20
11.3893988307
 11
29.5405428835
 21
11.3893988307
  0
LINE
  5
25A
100
AcDbEntity
  8
0
100
AcDbLine
 62
9
  6
CONTINUOUS
 10
4.5825428835
 20
11.4193988307
 11
5.5405428835
 21
11.4193988307
  0
LINE
  5
25B
100
AcDbEntity
  8
0
100
AcDbLine
 62
9
  6
CONTINUOUS
 10
28.5825428835
 20
11.4193988307
 11
29.5405428835
 21
11.4193988307
  0
LINE
  5
25C
100
AcDbEntity
  8
0
100
AcDbLine
 62
9
  6
CONTINUOUS
 10
4.5525428835
 20
11.4493988307
 11
4.5225428835
 21
11.4493988308
  0
LINE
  5
25D
100
AcDbEntity
  8
0
100
AcDbLine
 62
9
  6
CONTINUOUS
 10
5.5705428835
 20
11.4493988307
 11
5.6005428835
 21
11.4493988307
  0
LINE
  5
25E
100
AcDbEntity
  8
0
100
AcDbLine
 62
9
  6
CONTINUOUS
 10
29.5705428835
 20
11.4493988307
 11
29.6005428835
 21
11.4493988307
  0
LINE
  5
25F
100
AcDbEntity
  8
0
100
AcDbLine
 62
9
  6
CONTINUOUS
 10
28.5525428835
 20
11.4493988307
 11
28.5225428835
 21
11.4493988308
  0
LINE
  5
260
100
AcDbEntity
  8
0
100
AcDbLine
 62
7
  6
CONTINUOUS
 10
4.7165428829
 20
11.5233988307
 11
5.4065428835
 21
11.5233988307
  0
LINE
  5
261
100
AcDbEntity
  8
0
100
AcDbLine
 62
7
  6
CONTINUOUS
 10
28.7165428829
 20
11.5233988307
 11
29.4065428835
 21
11.5233988307
  0
LINE
  5
262
100
AcDbEntity
  8
0
100
AcDbLine
 62
6
  6
CONTINUOUS
 10
4.7165428835
 20
11.5533988307
 11
5.4065428835
 21
11.5533988307
  0
LINE
  5
263
100
AcDbEntity
  8
0
100
AcDbLine
 62
6
  6
CONTINUOUS
 10
28.7165428835
 20
11.5533988307
 11
29.4065428835
 21
11.5533988307
  0
LINE
  5
264
100
AcDbEntity
  8
0
100
AcDbLine
 62
9
  6
CONTINUOUS
 10
5.4665428835
 20
11.5833988301
 11
4.6565428835
 21
11.5833988307
  0
LINE
  5
265
100
AcDbEntity
  8
0
100
AcDbLine
 62
9
  6
CONTINUOUS
 10
29.4665428835
 20
11.5833988301
 11
28.6565428835
 21
11.5833988307
  0
LINE
  5
266
100
AcDbEntity
  8
0
100
AcDbLine
 62
6
  6
CONTINUOUS
 10
5.4365428835
 20
11.6783988307
 11
28.6865428835
 21
11.6783988307
  0
LINE
  5
267
100
AcDbEntity
  8
0
100
AcDbLine
 62
9
  6
CONTINUOUS
 10
5.4365428835
 20
11.7083988307
 11
28.6865428835
 21
11.7083988307
  0
LINE
  5
268
100
AcDbEntity
  8
0
100
AcDbLine
 62
9
  6
CONTINUOUS
 10
5.4365428835
 20
12.1483988307
 11
28.6865428835
 21
12.1483988307
  0
LINE
  5
269
100
AcDbEntity
  8
0
100
AcDbLine
 62
6
  6
CONTINUOUS
 10
5.4365428835
 20
12.1783988307
 11
28.6865428835
 21
12.1783988307
  0
LINE
  5
26A
100
AcDbEntity
  8
0
100
AcDbLine
 62
9
  6
CONTINUOUS
 10
4.6565428835
 20
12.2733988313
 11
5.4665428835
 21
12.2733988307
  0
LINE
  5
26B
100
AcDbEntity
  8
0
100
AcDbLine
 62
9
  6
CONTINUOUS
 10
28.6565428835
 20
12.2733988313
 11
29.4665428835
 21
12.2733988307
  0
LINE
  5
26C
100
AcDbEntity
  8
0
100
AcDbLine
 62
6
  6
CONTINUOUS
 10
29.4065428835
 20
12.3033988307
 11
28.7165428835
 21
12.3033988307
  0
LINE
  5
26D
100
AcDbEntity
  8
0
100
AcDbLine
 62
6
  6
CONTINUOUS
 10
5.4065428835
 20
12.3033988307
 11
4.7165428835
 21
12.3033988307
  0
LINE
  5
26E
100
AcDbEntity
  8
0
100
AcDbLine
 62
7
  6
CONTINUOUS
 10
29.406542884
 20
12.3333988307
 11
28.7165428834
 21
12.3333988307
  0
LINE
  5
26F
100
AcDbEntity
  8
0
100
AcDbLine
 62
7
  6
CONTINUOUS
 10
5.406542884
 20
12.3333988307
 11
4.7165428834
 21
12.3333988307
  0
LINE
  5
270
100
AcDbEntity
  8
0
100
AcDbLine
 62
9
  6
CONTINUOUS
 10
5.5705428835
 20
12.4073988307
 11
5.6005428835
 21
12.4073988306
  0
LINE
  5
271
100
AcDbEntity
  8
0
100
AcDbLine
 62
9
  6
CONTINUOUS
 10
28.5525428835
 20
12.4073988307
 11
28.5225428835
 21
12.4073988307
  0
LINE
  5
272
100
AcDbEntity
  8
0
100
AcDbLine
 62
9
  6
CONTINUOUS
 10
4.5525428835
 20
12.4073988307
 11
4.5225428835
 21
12.4073988307
  0
LINE
  5
273
100
AcDbEntity
  8
0
100
AcDbLine
 62
9
  6
CONTINUOUS
 10
29.5705428835
 20
12.4073988307
 11
29.6005428835
 21
12.4073988306
  0
LINE
  5
274
100
AcDbEntity
  8
0
100
AcDbLine
 62
9
  6
CONTINUOUS
 10
29.5405428835
 20
12.4373988307
 11
28.5825428835
 21
12.4373988307
  0
LINE
  5
275
100
AcDbEntity
  8
0
100
AcDbLine
 62
9
  6
CONTINUOUS
 10
5.5405428835
 20
12.4373988307
 11
4.5825428835
 21
12.4373988307
  0
LINE
  5
276
100
AcDbEntity
  8
0
100
AcDbLine
 62
6
  6
CONTINUOUS
 10
29.5405428835
 20
12.4673988307
 11
28.5825428835
 21
12.4673988307
  0
LINE
  5
277
100
AcDbEntity
  8
0
100
AcDbLine
 62
6
  6
CONTINUOUS
 10
5.5405428835
 20
12.4673988307
 11
4.5825428835
 21
12.4673988307
  0
LINE
  5
278
100
AcDbEntity
  8
0
100
AcDbLine
 62
9
  6
CONTINUOUS
 10
29.8341545635
 20
12.612377813
 11
29.8046103309
 21
12.612377813
  0
LINE
  5
279
100
AcDbEntity
  8
0
100
AcDbLine
 62
9
  6
CONTINUOUS
 10
5.8341545635
 20
12.612377813
 11
5.8046103309
 21
12.612377813
  0
LINE
  5
27A
100
AcDbEntity
  8
0
100
AcDbLine
 62
9
  6
CONTINUOUS
 10
4.2889312034
 20
12.612377813
 11
4.318475436
 21
12.612377813
  0
LINE
  5
27B
100
AcDbEntity
  8
0
100
AcDbLine
 62
9
  6
CONTINUOUS
 10
28.2889312034
 20
12.612377813
 11
28.318475436
 21
12.612377813
  0
LINE
  5
27C
100
AcDbEntity
  8
0
100
AcDbLine
 62
9
  6
CONTINUOUS
 10
29.7455218657
 20
12.6714662782
 11
28.3775639012
 21
12.6714662782
  0
LINE
  5
27D
100
AcDbEntity
  8
0
100
AcDbLine
 62
9
  6
CONTINUOUS
 10
5.7455218657
 20
12.6714662782
 11
4.3775639012
 21
12.6714662782
  0
LINE
  5
27E
100
AcDbEntity
  8
0
100
AcDbLine
 62
7
  6
CONTINUOUS
 10
29.7455218657
 20
12.7010105108
 11
28.3775639012
 21
12.7010105108
  0
LINE
  5
27F
100
AcDbEntity
  8
0
100
AcDbLine
 62
7
  6
CONTINUOUS
 10
5.7455218657
 20
12.7010105108
 11
4.3775639012
 21
12.7010105108
  0
LINE
  5
280
100
AcDbEntity
  8
0
100
AcDbLine
 62
9
  6
CONTINUOUS
 10
5.9040428835
 20
12.7408988307
 11
5.9340428835
 21
12.7408988306
  0
LINE
  5
281
100
AcDbEntity
  8
0
100
AcDbLine
 62
9
  6
CONTINUOUS
 10
28.2190428835
 20
12.7408988307
 11
28.1890428835
 21
12.7408988307
  0
LINE
  5
282
100
AcDbEntity
  8
0
100
AcDbLine
 62
9
  6
CONTINUOUS
 10
4.2190428835
 20
12.7408988307
 11
4.1890428835
 21
12.7408988307
  0
LINE
  5
283
100
AcDbEntity
  8
0
100
AcDbLine
 62
9
  6
CONTINUOUS
 10
29.9040428835
 20
12.7408988307
 11
29.9340428835
 21
12.7408988306
  0
LINE
  5
284
100
AcDbEntity
  8
0
100
AcDbLine
 62
9
  6
CONTINUOUS
 10
29.8740428835
 20
12.7708988307
 11
28.2490428835
 21
12.7708988307
  0
LINE
  5
285
100
AcDbEntity
  8
0
100
AcDbLine
 62
9
  6
CONTINUOUS
 10
5.8740428835
 20
12.7708988307
 11
4.2490428835
 21
12.7708988307
  0
LINE
  5
286
100
AcDbEntity
  8
0
100
AcDbLine
 62
6
  6
CONTINUOUS
 10
29.8740428835
 20
12.8008988307
 11
28.2490428835
 21
12.8008988307
  0
LINE
  5
287
100
AcDbEntity
  8
0
100
AcDbLine
 62
6
  6
CONTINUOUS
 10
5.8740428835
 20
12.8008988307
 11
4.2490428835
 21
12.8008988307
  0
LINE
  5
288
100
AcDbEntity
  8
0
100
AcDbLine
 62
9
  6
CONTINUOUS
 10
27.8965428835
 20
13.0633988307
 11
27.8665428835
 21
13.0633988307
  0
LINE
  5
289
100
AcDbEntity
  8
0
100
AcDbLine
 62
9
  6
CONTINUOUS
 10
3.8965428835
 20
13.0633988307
 11
3.8665428835
 21
13.0633988307
  0
LINE
  5
28A
100
AcDbEntity
  8
0
100
AcDbLine
 62
9
  6
CONTINUOUS
 10
6.2265428835
 20
13.0633988307
 11
6.2565428835
 21
13.0633988306
  0
LINE
  5
28B
100
AcDbEntity
  8
0
100
AcDbLine
 62
9
  6
CONTINUOUS
 10
30.2265428835
 20
13.0633988307
 11
30.2565428835
 21
13.0633988306
  0
LINE
  5
28C
100
AcDbEntity
  8
0
100
AcDbLine
 62
9
  6
CONTINUOUS
 10
30.1965428835
 20
13.0933988307
 11
27.9265428835
 21
13.0933988307
  0
LINE
  5
28D
100
AcDbEntity
  8
0
100
AcDbLine
 62
9
  6
CONTINUOUS
 10
6.1965428835
 20
13.0933988307
 11
3.9265428835
 21
13.0933988307
  0
LINE
  5
28E
100
AcDbEntity
  8
0
100
AcDbLine
 62
6
  6
CONTINUOUS
 10
30.1965428835
 20
13.1233988307
 11
27.9265428835
 21
13.1233988307
  0
LINE
  5
28F
100
AcDbEntity
  8
0
100
AcDbLine
 62
6
  6
CONTINUOUS
 10
6.1965428835
 20
13.1233988307
 11
3.9265428835
 21
13.1233988307
  0
LINE
  5
290
100
AcDbEntity
  8
0
100
AcDbLine
 62
9
  6
CONTINUOUS
 10
29.7455218657
 20
12.6714662782
 11
29.5413483735
 21
12.4672927859
  0
LINE
  5
291
100
AcDbEntity
  8
0
100
AcDbLine
 62
9
  6
CONTINUOUS
 10
28.318475436
 20
11.2444198484
 11
28.5226489282
 21
11.4485933407
  0
LINE
  5
292
100
AcDbEntity
  8
0
100
AcDbLine
 62
9
  6
CONTINUOUS
 10
29.8046103309
 20
12.612377813
 11
29.6004368387
 21
12.4082043207
  0
LINE
  5
293
100
AcDbEntity
  8
0
100
AcDbLine
 62
9
  6
CONTINUOUS
 10
28.3775639012
 20
11.1853313832
 11
28.5817373934
 21
11.3895048755
  0
LINE
  5
294
100
AcDbEntity
  8
0
100
AcDbLine
 62
9
  6
CONTINUOUS
 10
29.7455218657
 20
11.1853313832
 11
29.5413483735
 21
11.3895048755
  0
LINE
  5
295
100
AcDbEntity
  8
0
100
AcDbLine
 62
9
  6
CONTINUOUS
 10
28.318475436
 20
12.612377813
 11
28.5226489282
 21
12.4082043207
  0
LINE
  5
296
100
AcDbEntity
  8
0
100
AcDbLine
 62
9
  6
CONTINUOUS
 10
29.8046103309
 20
11.2444198484
 11
29.6004368387
 21
11.4485933407
  0
LINE
  5
297
100
AcDbEntity
  8
0
100
AcDbLine
 62
9
  6
CONTINUOUS
 10
28.3775639012
 20
12.6714662782
 11
28.5817373934
 21
12.4672927859
  0
LINE
  5
298
100
AcDbEntity
  8
0
100
AcDbLine
 62
6
  6
CONTINUOUS
 10
27.8665428835
 20
13.0633988307
 11
27.8665428835
 21
12.1783988307
  0
LINE
  5
299
100
AcDbEntity
  8
0
100
AcDbLine
 62
6
  6
CONTINUOUS
 10
27.8665428835
 20
11.6783988307
 11
27.8665428835
 21
10.7933988307
  0
LINE
  5
29A
100
AcDbEntity
  8
0
100
AcDbLine
 62
9
  6
CONTINUOUS
 10
27.8965428835
 20
13.0633988307
 11
27.8965428835
 21
12.1783988307
  0
LINE
  5
29B
100
AcDbEntity
  8
0
100
AcDbLine
 62
9
  6
CONTINUOUS
 10
27.8965428835
 20
11.6783988307
 11
27.8965428835
 21
10.7933988307
  0
LINE
  5
29C
100
AcDbEntity
  8
0
100
AcDbLine
 62
9
  6
CONTINUOUS
 10
27.9265428835
 20
10.7633988307
 11
27.9265428835
 21
10.7333988307
  0
LINE
  5
29D
100
AcDbEntity
  8
0
100
AcDbLine
 62
9
  6
CONTINUOUS
 10
27.9265428835
 20
13.0933988307
 11
27.9265428835
 21
13.1233988307
  0
LINE
  5
29E
100
AcDbEntity
  8
0
100
AcDbLine
 62
6
  6
CONTINUOUS
 10
28.1890428835
 20
12.7408988307
 11
28.1890428835
 21
12.1783988307
  0
LINE
  5
29F
100
AcDbEntity
  8
0
100
AcDbLine
 62
6
  6
CONTINUOUS
 10
28.1890428835
 20
11.6783988307
 11
28.1890428835
 21
11.1158988307
  0
LINE
  5
2A0
100
AcDbEntity
  8
0
100
AcDbLine
 62
9
  6
CONTINUOUS
 10
28.2190428835
 20
12.7408988307
 11
28.2190428835
 21
12.1783988307
  0
LINE
  5
2A1
100
AcDbEntity
  8
0
100
AcDbLine
 62
9
  6
CONTINUOUS
 10
28.2190428835
 20
11.6783988307
 11
28.2190428835
 21
11.1158988307
  0
LINE
  5
2A2
100
AcDbEntity
  8
0
100
AcDbLine
 62
9
  6
CONTINUOUS
 10
28.2490428835
 20
11.0858988307
 11
28.2490428835
 21
11.0558988307
  0
LINE
  5
2A3
100
AcDbEntity
  8
0
100
AcDbLine
 62
9
  6
CONTINUOUS
 10
28.2490428835
 20
12.7708988307
 11
28.2490428835
 21
12.8008988307
  0
LINE
  5
2A4
100
AcDbEntity
  8
0
100
AcDbLine
 62
7
  6
CONTINUOUS
 10
28.2889312034
 20
12.612377813
 11
28.2889312034
 21
12.1783988307
  0
LINE
  5
2A5
100
AcDbEntity
  8
0
100
AcDbLine
 62
7
  6
CONTINUOUS
 10
28.2889312034
 20
11.6783988307
 11
28.2889312034
 21
11.2444198484
  0
LINE
  5
2A6
100
AcDbEntity
  8
0
100
AcDbLine
 62
9
  6
CONTINUOUS
 10
28.318475436
 20
12.612377813
 11
28.318475436
 21
12.1783988307
  0
LINE
  5
2A7
100
AcDbEntity
  8
0
100
AcDbLine
 62
9
  6
CONTINUOUS
 10
28.318475436
 20
11.6783988307
 11
28.318475436
 21
11.2444198484
  0
LINE
  5
2A8
100
AcDbEntity
  8
0
100
AcDbLine
 62
9
  6
CONTINUOUS
 10
28.3775639012
 20
12.7010105108
 11
28.3775639012
 21
12.6714662782
  0
LINE
  5
2A9
100
AcDbEntity
  8
0
100
AcDbLine
 62
9
  6
CONTINUOUS
 10
28.3775639012
 20
11.1557871506
 11
28.3775639012
 21
11.1853313832
  0
LINE
  5
2AA
100
AcDbEntity
  8
0
100
AcDbLine
 62
6
  6
CONTINUOUS
 10
28.5225428835
 20
12.4073988307
 11
28.5225428835
 21
12.1783988307
  0
LINE
  5
2AB
100
AcDbEntity
  8
0
100
AcDbLine
 62
6
  6
CONTINUOUS
 10
28.5225428835
 20
11.6783988307
 11
28.5225428835
 21
11.4493988307
  0
LINE
  5
2AC
100
AcDbEntity
  8
0
100
AcDbLine
 62
9
  6
CONTINUOUS
 10
28.5525428835
 20
12.4073988307
 11
28.5525428835
 21
12.1783988307
  0
LINE
  5
2AD
100
AcDbEntity
  8
0
100
AcDbLine
 62
9
  6
CONTINUOUS
 10
28.5525428835
 20
11.6783988307
 11
28.5525428835
 21
11.4493988307
  0
LINE
  5
2AE
100
AcDbEntity
  8
0
100
AcDbLine
 62
9
  6
CONTINUOUS
 10
28.5825428835
 20
11.4193988307
 11
28.5825428835
 21
11.3893988307
  0
LINE
  5
2AF
100
AcDbEntity
  8
0
100
AcDbLine
 62
9
  6
CONTINUOUS
 10
28.5825428835
 20
12.4373988307
 11
28.5825428835
 21
12.4673988307
  0
LINE
  5
2B0
100
AcDbEntity
  8
0
100
AcDbLine
 62
7
  6
CONTINUOUS
 10
28.6565428835
 20
12.2733988313
 11
28.6565428835
 21
12.1783988307
  0
LINE
  5
2B1
100
AcDbEntity
  8
0
100
AcDbLine
 62
7
  6
CONTINUOUS
 10
28.6565428835
 20
11.6783988307
 11
28.6565428835
 21
11.5833988307
  0
LINE
  5
2B2
100
AcDbEntity
  8
0
100
AcDbLine
 62
6
  6
CONTINUOUS
 10
28.6865428835
 20
12.2733988307
 11
28.6865428835
 21
11.5833988307
  0
LINE
  5
2B3
100
AcDbEntity
  8
0
100
AcDbLine
 62
9
  6
CONTINUOUS
 10
28.7165428829
 20
11.5233988307
 11
28.7165428834
 21
12.3333988307
  0
LINE
  5
2B4
100
AcDbEntity
  8
0
100
AcDbLine
 62
9
  6
CONTINUOUS
 10
29.4065428835
 20
11.5233988307
 11
29.406542884
 21
12.3333988307
  0
LINE
  5
2B5
100
AcDbEntity
  8
0
100
AcDbLine
 62
6
  6
CONTINUOUS
 10
29.4365428835
 20
11.5833988307
 11
29.4365428835
 21
12.2733988307
  0
LINE
  5
2B6
100
AcDbEntity
  8
0
100
AcDbLine
 62
7
  6
CONTINUOUS
 10
29.4665428835
 20
11.5833988301
 11
29.4665428835
 21
12.2733988307
  0
LINE
  5
2B7
100
AcDbEntity
  8
0
100
AcDbLine
 62
9
  6
CONTINUOUS
 10
29.5405428835
 20
11.4193988307
 11
29.5405428834
 21
11.3893988307
  0
LINE
  5
2B8
100
AcDbEntity
  8
0
100
AcDbLine
 62
9
  6
CONTINUOUS
 10
29.5405428835
 20
12.4373988307
 11
29.5405428835
 21
12.4673988307
  0
LINE
  5
2B9
100
AcDbEntity
  8
0
100
AcDbLine
 62
9
  6
CONTINUOUS
 10
29.5705428835
 20
11.4493988307
 11
29.5705428835
 21
12.4073988307
  0
LINE
  5
2BA
100
AcDbEntity
  8
0
100
AcDbLine
 62
6
  6
CONTINUOUS
 10
29.6005428835
 20
11.4493988307
 11
29.6005428835
 21
12.4073988307
  0
LINE
  5
2BB
100
AcDbEntity
  8
0
100
AcDbLine
 62
9
  6
CONTINUOUS
 10
29.7455218657
 20
12.7010105108
 11
29.7455218657
 21
12.6714662782
  0
LINE
  5
2BC
100
AcDbEntity
  8
0
100
AcDbLine
 62
9
  6
CONTINUOUS
 10
29.7455218657
 20
11.1557871506
 11
29.7455218657
 21
11.1853313832
  0
LINE
  5
2BD
100
AcDbEntity
  8
0
100
AcDbLine
 62
9
  6
CONTINUOUS
 10
29.8046103309
 20
11.2444198484
 11
29.8046103309
 21
12.612377813
  0
LINE
  5
2BE
100
AcDbEntity
  8
0
100
AcDbLine
 62
7
  6
CONTINUOUS
 10
29.8341545635
 20
11.2444198484
 11
29.8341545635
 21
12.612377813
  0
LINE
  5
2BF
100
AcDbEntity
  8
0
100
AcDbLine
 62
9
  6
CONTINUOUS
 10
29.8740428835
 20
11.0858988307
 11
29.8740428834
 21
11.0558988307
  0
LINE
  5
2C0
100
AcDbEntity
  8
0
100
AcDbLine
 62
9
  6
CONTINUOUS
 10
29.8740428835
 20
12.7708988307
 11
29.8740428835
 21
12.8008988307
  0
LINE
  5
2C1
100
AcDbEntity
  8
0
100
AcDbLine
 62
9
  6
CONTINUOUS
 10
29.9040428835
 20
11.1158988307
 11
29.9040428835
 21
12.7408988307
  0
LINE
  5
2C2
100
AcDbEntity
  8
0
100
AcDbLine
 62
6
  6
CONTINUOUS
 10
29.9340428835
 20
11.1158988307
 11
29.9340428835
 21
12.7408988307
  0
LINE
  5
2C3
100
AcDbEntity
  8
0
100
AcDbLine
 62
9
  6
CONTINUOUS
 10
30.1965428835
 20
10.7633988307
 11
30.1965428834
 21
10.7333988307
  0
LINE
  5
2C4
100
AcDbEntity
  8
0
100
AcDbLine
 62
9
  6
CONTINUOUS
 10
30.1965428835
 20
13.0933988307
 11
30.1965428835
 21
13.1233988307
  0
LINE
  5
2C5
100
AcDbEntity
  8
0
100
AcDbLine
 62
9
  6
CONTINUOUS
 10
30.2265428835
 20
10.7933988307
 11
30.2265428835
 21
13.0633988307
  0
LINE
  5
2C6
100
AcDbEntity
  8
0
100
AcDbLine
 62
6
  6
CONTINUOUS
 10
30.2565428835
 20
10.7933988307
 11
30.2565428835
 21
13.0633988307
  0
ARC
  5
2C7
100
AcDbEntity
  8
0
100
AcDbCircle
 62
6
  6
CONTINUOUS
 10
3.9265428835
 20
10.7933988307
 40
0.06
100
AcDbArc
 50
180.0
 51
270.0
  0
ARC
  5
2C8
100
AcDbEntity
  8
0
100
AcDbCircle
 62
6
  6
CONTINUOUS
 10
4.2490428835
 20
11.1158988307
 40
0.06
100
AcDbArc
 50
180.0
 51
210.0
  0
ARC
  5
2C9
100
AcDbEntity
  8
0
100
AcDbCircle
 62
7
  6
CONTINUOUS
 10
4.2490428835
 20
11.1158988307
 40
0.06
100
AcDbArc
 50
210.0
 51
255.0
  0
ARC
  5
2CA
100
AcDbEntity
  8
0
100
AcDbCircle
 62
6
  6
CONTINUOUS
 10
4.2490428835
 20
11.1158988307
 40
0.06
100
AcDbArc
 50
255.0
 51
270.0
  0
ARC
  5
2CB
100
AcDbEntity
  8
0
100
AcDbCircle
 62
9
  6
CONTINUOUS
 10
4.2490428835
 20
11.1158988307
 40
0.03
100
AcDbArc
 50
180.0
 51
270.0
  0
ARC
  5
2CC
100
AcDbEntity
  8
0
100
AcDbCircle
 62
9
  6
CONTINUOUS
 10
3.9265428835
 20
10.7933988307
 40
0.03
100
AcDbArc
 50
180.0
 51
270.0
  0
ARC
  5
2CD
100
AcDbEntity
  8
0
100
AcDbCircle
 62
6
  6
CONTINUOUS
 10
4.5825428835
 20
11.4493988307
 40
0.06
100
AcDbArc
 50
180.0
 51
270.0
  0
ARC
  5
2CE
100
AcDbEntity
  8
0
100
AcDbCircle
 62
7
  6
CONTINUOUS
 10
4.7165428835
 20
11.5833988307
 40
0.06
100
AcDbArc
 50
180.0000000263
 51
269.9999994539
  0
ARC
  5
2CF
100
AcDbEntity
  8
0
100
AcDbCircle
 62
6
  6
CONTINUOUS
 10
4.7165428835
 20
11.5833988307
 40
0.03
100
AcDbArc
 50
180.0
 51
270.0
  0
ARC
  5
2D0
100
AcDbEntity
  8
0
100
AcDbCircle
 62
9
  6
CONTINUOUS
 10
4.5825428835
 20
11.4493988307
 40
0.03
100
AcDbArc
 50
180.0
 51
270.0
  0
ARC
  5
2D1
100
AcDbEntity
  8
0
100
AcDbCircle
 62
6
  6
CONTINUOUS
 10
6.1965428835
 20
10.7933988307
 40
0.06
100
AcDbArc
 50
270.0
 51
360.0
  0
ARC
  5
2D2
100
AcDbEntity
  8
0
100
AcDbCircle
 62
6
  6
CONTINUOUS
 10
5.8740428835
 20
11.1158988307
 40
0.06
100
AcDbArc
 50
270.0
 51
285.0
  0
ARC
  5
2D3
100
AcDbEntity
  8
0
100
AcDbCircle
 62
7
  6
CONTINUOUS
 10
5.8740428835
 20
11.1158988307
 40
0.06
100
AcDbArc
 50
345.0
 51
360.0
  0
ARC
  5
2D4
100
AcDbEntity
  8
0
100
AcDbCircle
 62
7
  6
CONTINUOUS
 10
5.8740428835
 20
11.1158988307
 40
0.06
100
AcDbArc
 50
285.0
 51
330.0
  0
ARC
  5
2D5
100
AcDbEntity
  8
0
100
AcDbCircle
 62
6
  6
CONTINUOUS
 10
5.8740428835
 20
11.1158988307
 40
0.06
100
AcDbArc
 50
330.0
 51
345.0
  0
ARC
  5
2D6
100
AcDbEntity
  8
0
100
AcDbCircle
 62
9
  6
CONTINUOUS
 10
5.8740428835
 20
11.1158988307
 40
0.03
100
AcDbArc
 50
270.0
 51
360.0
  0
ARC
  5
2D7
100
AcDbEntity
  8
0
100
AcDbCircle
 62
9
  6
CONTINUOUS
 10
6.1965428835
 20
10.7933988307
 40
0.03
100
AcDbArc
 50
270.0
 51
360.0
  0
ARC
  5
2D8
100
AcDbEntity
  8
0
100
AcDbCircle
 62
6
  6
CONTINUOUS
 10
5.5405428835
 20
11.4493988307
 40
0.06
100
AcDbArc
 50
270.0
 51
360.0
  0
ARC
  5
2D9
100
AcDbEntity
  8
0
100
AcDbCircle
 62
7
  6
CONTINUOUS
 10
5.4065428835
 20
11.5833988307
 40
0.06
100
AcDbArc
 50
270.0000000263
 51
359.9999994539
  0
ARC
  5
2DA
100
AcDbEntity
  8
0
100
AcDbCircle
 62
6
  6
CONTINUOUS
 10
5.4065428835
 20
11.5833988307
 40
0.03
100
AcDbArc
 50
270.0
 51
360.0
  0
ARC
  5
2DB
100
AcDbEntity
  8
0
100
AcDbCircle
 62
9
  6
CONTINUOUS
 10
5.5405428835
 20
11.4493988307
 40
0.03
100
AcDbArc
 50
270.0
 51
360.0
  0
ARC
  5
2DC
100
AcDbEntity
  8
0
100
AcDbCircle
 62
6
  6
CONTINUOUS
 10
4.5825428835
 20
12.4073988307
 40
0.06
100
AcDbArc
 50
90.0
 51
180.0
  0
ARC
  5
2DD
100
AcDbEntity
  8
0
100
AcDbCircle
 62
7
  6
CONTINUOUS
 10
4.7165428835
 20
12.2733988307
 40
0.06
100
AcDbArc
 50
90.0000000263
 51
179.9999994539
  0
ARC
  5
2DE
100
AcDbEntity
  8
0
100
AcDbCircle
 62
6
  6
CONTINUOUS
 10
4.7165428835
 20
12.2733988307
 40
0.03
100
AcDbArc
 50
90.0
 51
180.0
  0
ARC
  5
2DF
100
AcDbEntity
  8
0
100
AcDbCircle
 62
9
  6
CONTINUOUS
 10
4.5825428835
 20
12.4073988307
 40
0.03
100
AcDbArc
 50
90.0
 51
180.0
  0
ARC
  5
2E0
100
AcDbEntity
  8
0
100
AcDbCircle
 62
6
  6
CONTINUOUS
 10
3.9265428835
 20
13.0633988307
 40
0.06
100
AcDbArc
 50
90.0
 51
180.0
  0
ARC
  5
2E1
100
AcDbEntity
  8
0
100
AcDbCircle
 62
6
  6
CONTINUOUS
 10
4.2490428835
 20
12.7408988307
 40
0.06
100
AcDbArc
 50
90.0
 51
105.0
  0
ARC
  5
2E2
100
AcDbEntity
  8
0
100
AcDbCircle
 62
7
  6
CONTINUOUS
 10
4.2490428835
 20
12.7408988307
 40
0.06
100
AcDbArc
 50
105.0
 51
165.0
  0
ARC
  5
2E3
100
AcDbEntity
  8
0
100
AcDbCircle
 62
6
  6
CONTINUOUS
 10
4.2490428835
 20
12.7408988307
 40
0.06
100
AcDbArc
 50
165.0
 51
180.0
  0
ARC
  5
2E4
100
AcDbEntity
  8
0
100
AcDbCircle
 62
9
  6
CONTINUOUS
 10
4.2490428835
 20
12.7408988307
 40
0.03
100
AcDbArc
 50
90.0
 51
180.0
  0
ARC
  5
2E5
100
AcDbEntity
  8
0
100
AcDbCircle
 62
9
  6
CONTINUOUS
 10
3.9265428835
 20
13.0633988307
 40
0.03
100
AcDbArc
 50
90.0
 51
180.0
  0
ARC
  5
2E6
100
AcDbEntity
  8
0
100
AcDbCircle
 62
6
  6
CONTINUOUS
 10
5.5405428835
 20
12.4073988307
 40
0.06
100
AcDbArc
 50
0.0
 51
90.0
  0
ARC
  5
2E7
100
AcDbEntity
  8
0
100
AcDbCircle
 62
7
  6
CONTINUOUS
 10
5.4065428835
 20
12.2733988307
 40
0.06
100
AcDbArc
 50
0.0000000263
 51
89.9999994539
  0
ARC
  5
2E8
100
AcDbEntity
  8
0
100
AcDbCircle
 62
6
  6
CONTINUOUS
 10
5.4065428835
 20
12.2733988307
 40
0.03
100
AcDbArc
 50
0.0
 51
90.0
  0
ARC
  5
2E9
100
AcDbEntity
  8
0
100
AcDbCircle
 62
9
  6
CONTINUOUS
 10
5.5405428835
 20
12.4073988307
 40
0.03
100
AcDbArc
 50
0.0
 51
90.0
  0
ARC
  5
2EA
100
AcDbEntity
  8
0
100
AcDbCircle
 62
6
  6
CONTINUOUS
 10
6.1965428835
 20
13.0633988307
 40
0.06
100
AcDbArc
 50
0.0
 51
90.0
  0
ARC
  5
2EB
100
AcDbEntity
  8
0
100
AcDbCircle
 62
6
  6
CONTINUOUS
 10
5.8740428835
 20
12.7408988307
 40
0.06
100
AcDbArc
 50
75.0
 51
90.0
  0
ARC
  5
2EC
100
AcDbEntity
  8
0
100
AcDbCircle
 62
7
  6
CONTINUOUS
 10
5.8740428835
 20
12.7408988307
 40
0.06
100
AcDbArc
 50
0.0
 51
75.0
  0
ARC
  5
2ED
100
AcDbEntity
  8
0
100
AcDbCircle
 62
9
  6
CONTINUOUS
 10
5.8740428835
 20
12.7408988307
 40
0.03
100
AcDbArc
 50
0.0
 51
90.0
  0
ARC
  5
2EE
100
AcDbEntity
  8
0
100
AcDbCircle
 62
9
  6
CONTINUOUS
 10
6.1965428835
 20
13.0633988307
 40
0.03
100
AcDbArc
 50
0.0
 51
90.0
  0
ARC
  5
2EF
100
AcDbEntity
  8
0
100
AcDbCircle
 62
6
  6
CONTINUOUS
 10
27.9265428835
 20
10.7933988307
 40
0.06
100
AcDbArc
 50
180.0
 51
270.0
  0
ARC
  5
2F0
100
AcDbEntity
  8
0
100
AcDbCircle
 62
6
  6
CONTINUOUS
 10
28.2490428835
 20
11.1158988307
 40
0.06
100
AcDbArc
 50
255.0
 51
270.0
  0
ARC
  5
2F1
100
AcDbEntity
  8
0
100
AcDbCircle
 62
7
  6
CONTINUOUS
 10
28.2490428835
 20
11.1158988307
 40
0.06
100
AcDbArc
 50
180.0
 51
255.0
  0
ARC
  5
2F2
100
AcDbEntity
  8
0
100
AcDbCircle
 62
9
  6
CONTINUOUS
 10
27.9265428835
 20
10.7933988307
 40
0.03
100
AcDbArc
 50
180.0
 51
270.0
  0
ARC
  5
2F3
100
AcDbEntity
  8
0
100
AcDbCircle
 62
9
  6
CONTINUOUS
 10
28.2490428835
 20
11.1158988307
 40
0.03
100
AcDbArc
 50
180.0
 51
270.0
  0
ARC
  5
2F4
100
AcDbEntity
  8
0
100
AcDbCircle
 62
7
  6
CONTINUOUS
 10
28.7165428835
 20
11.5833988307
 40
0.06
100
AcDbArc
 50
180.0000000263
 51
269.9999994539
  0
ARC
  5
2F5
100
AcDbEntity
  8
0
100
AcDbCircle
 62
6
  6
CONTINUOUS
 10
28.5825428835
 20
11.4493988307
 40
0.06
100
AcDbArc
 50
180.0
 51
270.0
  0
ARC
  5
2F6
100
AcDbEntity
  8
0
100
AcDbCircle
 62
6
  6
CONTINUOUS
 10
28.7165428835
 20
11.5833988307
 40
0.03
100
AcDbArc
 50
180.0
 51
270.0
  0
ARC
  5
2F7
100
AcDbEntity
  8
0
100
AcDbCircle
 62
9
  6
CONTINUOUS
 10
28.5825428835
 20
11.4493988307
 40
0.03
100
AcDbArc
 50
180.0
 51
270.0
  0
ARC
  5
2F8
100
AcDbEntity
  8
0
100
AcDbCircle
 62
6
  6
CONTINUOUS
 10
30.1965428835
 20
10.7933988307
 40
0.06
100
AcDbArc
 50
270.0
 51
360.0
  0
ARC
  5
2F9
100
AcDbEntity
  8
0
100
AcDbCircle
 62
6
  6
CONTINUOUS
 10
29.8740428835
 20
11.1158988307
 40
0.06
100
AcDbArc
 50
270.0
 51
300.0
  0
ARC
  5
2FA
100
AcDbEntity
  8
0
100
AcDbCircle
 62
7
  6
CONTINUOUS
 10
29.8740428835
 20
11.1158988307
 40
0.06
100
AcDbArc
 50
300.0
 51
360.0
  0
ARC
  5
2FB
100
AcDbEntity
  8
0
100
AcDbCircle
 62
9
  6
CONTINUOUS
 10
30.1965428835
 20
10.7933988307
 40
0.03
100
AcDbArc
 50
270.0
 51
360.0
  0
ARC
  5
2FC
100
AcDbEntity
  8
0
100
AcDbCircle
 62
9
  6
CONTINUOUS
 10
29.8740428835
 20
11.1158988307
 40
0.03
100
AcDbArc
 50
270.0
 51
360.0
  0
ARC
  5
2FD
100
AcDbEntity
  8
0
100
AcDbCircle
 62
7
  6
CONTINUOUS
 10
29.4065428835
 20
11.5833988307
 40
0.06
100
AcDbArc
 50
270.0000000263
 51
359.9999994539
  0
ARC
  5
2FE
100
AcDbEntity
  8
0
100
AcDbCircle
 62
6
  6
CONTINUOUS
 10
29.5405428835
 20
11.4493988307
 40
0.06
100
AcDbArc
 50
270.0
 51
360.0
  0
ARC
  5
2FF
100
AcDbEntity
  8
0
100
AcDbCircle
 62
6
  6
CONTINUOUS
 10
29.4065428835
 20
11.5833988307
 40
0.03
100
AcDbArc
 50
270.0
 51
360.0
  0
ARC
  5
300
100
AcDbEntity
  8
0
100
AcDbCircle
 62
9
  6
CONTINUOUS
 10
29.5405428835
 20
11.4493988307
 40
0.03
100
AcDbArc
 50
270.0
 51
360.0
  0
ARC
  5
301
100
AcDbEntity
  8
0
100
AcDbCircle
 62
6
  6
CONTINUOUS
 10
28.5825428835
 20
12.4073988307
 40
0.06
100
AcDbArc
 50
90.0
 51
180.0
  0
ARC
  5
302
100
AcDbEntity
  8
0
100
AcDbCircle
 62
7
  6
CONTINUOUS
 10
28.7165428835
 20
12.2733988307
 40
0.06
100
AcDbArc
 50
90.0000000263
 51
179.9999994539
  0
ARC
  5
303
100
AcDbEntity
  8
0
100
AcDbCircle
 62
6
  6
CONTINUOUS
 10
28.7165428835
 20
12.2733988307
 40
0.03
100
AcDbArc
 50
90.0
 51
180.0
  0
ARC
  5
304
100
AcDbEntity
  8
0
100
AcDbCircle
 62
9
  6
CONTINUOUS
 10
28.5825428835
 20
12.4073988307
 40
0.03
100
AcDbArc
 50
90.0
 51
180.0
  0
ARC
  5
305
100
AcDbEntity
  8
0
100
AcDbCircle
 62
6
  6
CONTINUOUS
 10
27.9265428835
 20
13.0633988307
 40
0.06
100
AcDbArc
 50
90.0
 51
180.0
  0
ARC
  5
306
100
AcDbEntity
  8
0
100
AcDbCircle
 62
6
  6
CONTINUOUS
 10
28.2490428835
 20
12.7408988307
 40
0.06
100
AcDbArc
 50
90.0
 51
105.0
  0
ARC
  5
307
100
AcDbEntity
  8
0
100
AcDbCircle
 62
7
  6
CONTINUOUS
 10
28.2490428835
 20
12.7408988307
 40
0.06
100
AcDbArc
 50
105.0
 51
180.0
  0
ARC
  5
308
100
AcDbEntity
  8
0
100
AcDbCircle
 62
9
  6
CONTINUOUS
 10
27.9265428835
 20
13.0633988307
 40
0.03
100
AcDbArc
 50
90.0
 51
180.0
  0
ARC
  5
309
100
AcDbEntity
  8
0
100
AcDbCircle
 62
9
  6
CONTINUOUS
 10
28.2490428835
 20
12.7408988307
 40
0.03
100
AcDbArc
 50
90.0
 51
180.0
  0
ARC
  5
30A
100
AcDbEntity
  8
0
100
AcDbCircle
 62
6
  6
CONTINUOUS
 10
29.5405428835
 20
12.4073988307
 40
0.06
100
AcDbArc
 50
0.0
 51
90.0
  0
ARC
  5
30B
100
AcDbEntity
  8
0
100
AcDbCircle
 62
7
  6
CONTINUOUS
 10
29.4065428835
 20
12.2733988307
 40
0.06
100
AcDbArc
 50
0.0000000263
 51
89.9999994539
  0
ARC
  5
30C
100
AcDbEntity
  8
0
100
AcDbCircle
 62
6
  6
CONTINUOUS
 10
29.4065428835
 20
12.2733988307
 40
0.03
100
AcDbArc
 50
0.0
 51
90.0
  0
ARC
  5
30D
100
AcDbEntity
  8
0
100
AcDbCircle
 62
9
  6
CONTINUOUS
 10
29.5405428835
 20
12.4073988307
 40
0.03
100
AcDbArc
 50
0.0
 51
90.0
  0
ARC
  5
30E
100
AcDbEntity
  8
0
100
AcDbCircle
 62
6
  6
CONTINUOUS
 10
30.1965428835
 20
13.0633988307
 40
0.06
100
AcDbArc
 50
0.0
 51
90.0
  0
ARC
  5
30F
100
AcDbEntity
  8
0
100
AcDbCircle
 62
6
  6
CONTINUOUS
 10
29.8740428835
 20
12.7408988307
 40
0.06
100
AcDbArc
 50
60.0
 51
90.0
  0
ARC
  5
310
100
AcDbEntity
  8
0
100
AcDbCircle
 62
7
  6
CONTINUOUS
 10
29.8740428835
 20
12.7408988307
 40
0.06
100
AcDbArc
 50
0.0
 51
60.0
  0
ARC
  5
311
100
AcDbEntity
  8
0
100
AcDbCircle
 62
9
  6
CONTINUOUS
 10
30.1965428835
 20
13.0633988307
 40
0.03
100
AcDbArc
 50
0.0
 51
90.0
  0
ARC
  5
312
100
AcDbEntity
  8
0
100
AcDbCircle
 62
9
  6
CONTINUOUS
 10
29.8740428835
 20
12.7408988307
 40
0.03
100
AcDbArc
 50
0.0
 51
90.0
  0
SPLINE
  5
313
100
AcDbEntity
  8
0
100
AcDbSpline
 62
7
  6
CONTINUOUS
 70
0
 71
3
 72
19
 73
15
 74
0
 42
0.0000001
 43
0.0000001
 44
0.0000000001
 40
0.0
 40
0.0
 40
0.0
 40
0.0
 40
0.124913589
 40
0.2498506131
 40
0.3123760275
 40
0.3749124318
 40
0.437448923
 40
0.4999845674
 40
0.5625214113
 40
0.6250621308
 40
0.6876042534
 40
0.7501367544
 40
0.8750871465
 40
1.0
 40
1.0
 40
1.0
 40
1.0
 10
5.7455218657
 20
11.1557871506
 30
0.0
 10
5.7513208743
 20
11.1557875406
 30
0.0
 10
5.7629494642
 20
11.1568986735
 30
0.0
 10
5.7769400517
 20
11.1610688672
 30
0.0
 10
5.7874679185
 20
11.1659922566
 30
0.0
 10
5.7949665714
 20
11.1704504899
 30
0.0
 10
5.8019869762
 20
11.1756293135
 30
0.0
 10
5.8084549
 20
11.1814838268
 30
0.0
 10
5.8143099502
 20
11.1879515593
 30
0.0
 10
5.8194890726
 20
11.1949723712
 30
0.0
 10
5.8239484132
 20
11.2024712917
 30
0.0
 10
5.8288721595
 20
11.2130003516
 30
0.0
 10
5.8330431393
 20
11.2269916551
 30
0.0
 10
5.8341541462
 20
11.2386208739
 30
0.0
 10
5.8341545635
 20
11.2444198484
 30
0.0
  0
SPLINE
  5
314
100
AcDbEntity
  8
0
100
AcDbSpline
 62
7
  6
CONTINUOUS
 70
0
 71
3
 72
19
 73
15
 74
0
 42
0.0000001
 43
0.0000001
 44
0.0000000001
 40
0.0
 40
0.0
 40
0.0
 40
0.0
 40
0.124913589
 40
0.2498506131
 40
0.3123760275
 40
0.3749124318
 40
0.437448923
 40
0.4999845674
 40
0.5625214113
 40
0.6250621308
 40
0.6876042534
 40
0.7501367544
 40
0.8750871465
 40
1.0
 40
1.0
 40
1.0
 40
1.0
 10
4.2889312034
 20
11.2444198485
 30
0.0
 10
4.2889315933
 20
11.2386208399
 30
0.0
 10
4.2900427262
 20
11.2269922499
 30
0.0
 10
4.2942129199
 20
11.2130016625
 30
0.0
 10
4.2991363094
 20
11.2024737957
 30
0.0
 10
4.3035945427
 20
11.1949751427
 30
0.0
 10
4.3087733662
 20
11.1879547379
 30
0.0
 10
4.3146278795
 20
11.1814868141
 30
0.0
 10
4.3210956121
 20
11.175631764
 30
0.0
 10
4.3281164239
 20
11.1704526415
 30
0.0
 10
4.3356153445
 20
11.1659933009
 30
0.0
 10
4.3461444043
 20
11.1610695546
 30
0.0
 10
4.3601357079
 20
11.1568985749
 30
0.0
 10
4.3717649267
 20
11.1557875679
 30
0.0
 10
4.3775639012
 20
11.1557871506
 30
0.0
  0
SPLINE
  5
315
100
AcDbEntity
  8
0
100
AcDbSpline
 62
7
  6
CONTINUOUS
 70
0
 71
3
 72
19
 73
15
 74
0
 42
0.0000001
 43
0.0000001
 44
0.0000000001
 40
0.0
 40
0.0
 40
0.0
 40
0.0
 40
0.124913589
 40
0.2498506131
 40
0.3123760275
 40
0.3749124318
 40
0.437448923
 40
0.4999845674
 40
0.5625214113
 40
0.6250621308
 40
0.6876042534
 40
0.7501367544
 40
0.8750871465
 40
1.0
 40
1.0
 40
1.0
 40
1.0
 10
4.3775639013
 20
12.7010105108
 30
0.0
 10
4.3717648926
 20
12.7010101208
 30
0.0
 10
4.3601363027
 20
12.6998989879
 30
0.0
 10
4.3461457152
 20
12.6957287942
 30
0.0
 10
4.3356178484
 20
12.6908054048
 30
0.0
 10
4.3281191955
 20
12.6863471715
 30
0.0
 10
4.3210987907
 20
12.6811683479
 30
0.0
 10
4.3146308669
 20
12.6753138346
 30
0.0
 10
4.3087758167
 20
12.6688461021
 30
0.0
 10
4.3035966943
 20
12.6618252902
 30
0.0
 10
4.2991373537
 20
12.6543263697
 30
0.0
 10
4.2942136074
 20
12.6437973098
 30
0.0
 10
4.2900426276
 20
12.6298060063
 30
0.0
 10
4.2889316207
 20
12.6181767875
 30
0.0
 10
4.2889312034
 20
12.612377813
 30
0.0
  0
SPLINE
  5
316
100
AcDbEntity
  8
0
100
AcDbSpline
 62
7
  6
CONTINUOUS
 70
0
 71
3
 72
19
 73
15
 74
0
 42
0.0000001
 43
0.0000001
 44
0.0000000001
 40
0.0
 40
0.0
 40
0.0
 40
0.0
 40
0.124913589
 40
0.2498506131
 40
0.3123760275
 40
0.3749124318
 40
0.437448923
 40
0.4999845674
 40
0.5625214113
 40
0.6250621308
 40
0.6876042534
 40
0.7501367544
 40
0.8750871465
 40
1.0
 40
1.0
 40
1.0
 40
1.0
 10
5.8341545635
 20
12.6123778129
 30
0.0
 10
5.8341541736
 20
12.6181768215
 30
0.0
 10
5.8330430407
 20
12.6298054115
 30
0.0
 10
5.828872847
 20
12.6437959989
 30
0.0
 10
5.8239494575
 20
12.6543238657
 30
0.0
 10
5.8194912242
 20
12.6618225187
 30
0.0
 10
5.8143124007
 20
12.6688429235
 30
0.0
 10
5.8084578874
 20
12.6753108473
 30
0.0
 10
5.8019901549
 20
12.6811658974
 30
0.0
 10
5.794969343
 20
12.6863450199
 30
0.0
 10
5.7874704225
 20
12.6908043605
 30
0.0
 10
5.7769413626
 20
12.6957281068
 30
0.0
 10
5.7629500591
 20
12.6998990865
 30
0.0
 10
5.7513208402
 20
12.7010100935
 30
0.0
 10
5.7455218657
 20
12.7010105108
 30
0.0
  0
SPLINE
  5
317
100
AcDbEntity
  8
0
100
AcDbSpline
 62
7
  6
CONTINUOUS
 70
0
 71
3
 72
19
 73
15
 74
0
 42
0.0000001
 43
0.0000001
 44
0.0000000001
 40
0.0
 40
0.0
 40
0.0
 40
0.0
 40
0.124913589
 40
0.2498506131
 40
0.3123760275
 40
0.3749124318
 40
0.437448923
 40
0.4999845674
 40
0.5625214113
 40
0.6250621308
 40
0.6876042534
 40
0.7501367544
 40
0.8750871465
 40
1.0
 40
1.0
 40
1.0
 40
1.0
 10
28.3775639013
 20
12.7010105108
 30
0.0
 10
28.3717648926
 20
12.7010101208
 30
0.0
 10
28.3601363027
 20
12.6998989879
 30
0.0
 10
28.3461457152
 20
12.6957287942
 30
0.0
 10
28.3356178484
 20
12.6908054048
 30
0.0
 10
28.3281191955
 20
12.6863471715
 30
0.0
 10
28.3210987907
 20
12.6811683479
 30
0.0
 10
28.3146308669
 20
12.6753138346
 30
0.0
 10
28.3087758167
 20
12.6688461021
 30
0.0
 10
28.3035966943
 20
12.6618252902
 30
0.0
 10
28.2991373537
 20
12.6543263697
 30
0.0
 10
28.2942136074
 20
12.6437973098
 30
0.0
 10
28.2900426276
 20
12.6298060063
 30
0.0
 10
28.2889316207
 20
12.6181767875
 30
0.0
 10
28.2889312034
 20
12.612377813
 30
0.0
  0
SPLINE
  5
318
100
AcDbEntity
  8
0
100
AcDbSpline
 62
7
  6
CONTINUOUS
 70
0
 71
3
 72
19
 73
15
 74
0
 42
0.0000001
 43
0.0000001
 44
0.0000000001
 40
0.0
 40
0.0
 40
0.0
 40
0.0
 40
0.124913589
 40
0.2498506131
 40
0.3123760275
 40
0.3749124318
 40
0.437448923
 40
0.4999845674
 40
0.5625214113
 40
0.6250621308
 40
0.6876042534
 40
0.7501367544
 40
0.8750871465
 40
1.0
 40
1.0
 40
1.0
 40
1.0
 10
29.8341545635
 20
12.6123778129
 30
0.0
 10
29.8341541736
 20
12.6181768215
 30
0.0
 10
29.8330430407
 20
12.6298054115
 30
0.0
 10
29.828872847
 20
12.6437959989
 30
0.0
 10
29.8239494575
 20
12.6543238657
 30
0.0
 10
29.8194912242
 20
12.6618225187
 30
0.0
 10
29.8143124007
 20
12.6688429235
 30
0.0
 10
29.8084578874
 20
12.6753108473
 30
0.0
 10
29.8019901549
 20
12.6811658974
 30
0.0
 10
29.794969343
 20
12.6863450199
 30
0.0
 10
29.7874704225
 20
12.6908043605
 30
0.0
 10
29.7769413626
 20
12.6957281068
 30
0.0
 10
29.7629500591
 20
12.6998990865
 30
0.0
 10
29.7513208402
 20
12.7010100935
 30
0.0
 10
29.7455218657
 20
12.7010105108
 30
0.0
  0
SPLINE
  5
319
100
AcDbEntity
  8
0
100
AcDbSpline
 62
7
  6
CONTINUOUS
 70
0
 71
3
 72
19
 73
15
 74
0
 42
0.0000001
 43
0.0000001
 44
0.0000000001
 40
0.0
 40
0.0
 40
0.0
 40
0.0
 40
0.124913589
 40
0.2498506131
 40
0.3123760275
 40
0.3749124318
 40
0.437448923
 40
0.4999845674
 40
0.5625214113
 40
0.6250621308
 40
0.6876042534
 40
0.7501367544
 40
0.8750871465
 40
1.0
 40
1.0
 40
1.0
 40
1.0
 10
29.7455218657
 20
11.1557871506
 30
0.0
 10
29.7513208743
 20
11.1557875406
 30
0.0
 10
29.7629494642
 20
11.1568986735
 30
0.0
 10
29.7769400517
 20
11.1610688672
 30
0.0
 10
29.7874679185
 20
11.1659922566
 30
0.0
 10
29.7949665714
 20
11.1704504899
 30
0.0
 10
29.8019869762
 20
11.1756293135
 30
0.0
 10
29.8084549
 20
11.1814838268
 30
0.0
 10
29.8143099502
 20
11.1879515593
 30
0.0
 10
29.8194890726
 20
11.1949723712
 30
0.0
 10
29.8239484132
 20
11.2024712917
 30
0.0
 10
29.8288721595
 20
11.2130003516
 30
0.0
 10
29.8330431393
 20
11.2269916551
 30
0.0
 10
29.8341541462
 20
11.2386208739
 30
0.0
 10
29.8341545635
 20
11.2444198484
 30
0.0
  0
SPLINE
  5
31A
100
AcDbEntity
  8
0
100
AcDbSpline
 62
7
  6
CONTINUOUS
 70
0
 71
3
 72
19
 73
15
 74
0
 42
0.0000001
 43
0.0000001
 44
0.0000000001
 40
0.0
 40
0.0
 40
0.0
 40
0.0
 40
0.124913589
 40
0.2498506131
 40
0.3123760275
 40
0.3749124318
 40
0.437448923
 40
0.4999845674
 40
0.5625214113
 40
0.6250621308
 40
0.6876042534
 40
0.7501367544
 40
0.8750871465
 40
1.0
 40
1.0
 40
1.0
 40
1.0
 10
28.2889312034
 20
11.2444198485
 30
0.0
 10
28.2889315933
 20
11.2386208399
 30
0.0
 10
28.2900427262
 20
11.2269922499
 30
0.0
 10
28.2942129199
 20
11.2130016625
 30
0.0
 10
28.2991363094
 20
11.2024737957
 30
0.0
 10
28.3035945427
 20
11.1949751427
 30
0.0
 10
28.3087733662
 20
11.1879547379
 30
0.0
 10
28.3146278795
 20
11.1814868141
 30
0.0
 10
28.3210956121
 20
11.175631764
 30
0.0
 10
28.3281164239
 20
11.1704526415
 30
0.0
 10
28.3356153445
 20
11.1659933009
 30
0.0
 10
28.3461444043
 20
11.1610695546
 30
0.0
 10
28.3601357079
 20
11.1568985749
 30
0.0
 10
28.3717649267
 20
11.1557875679
 30
0.0
 10
28.3775639012
 20
11.1557871506
 30
0.0
  0
SPLINE
  5
31B
100
AcDbEntity
  8
0
100
AcDbSpline
 62
9
  6
CONTINUOUS
 70
0
 71
3
 72
19
 73
15
 74
0
 42
0.0000001
 43
0.0000001
 44
0.0000000001
 40
0.0
 40
0.0
 40
0.0
 40
0.0
 40
0.1247240327
 40
0.2496187989
 40
0.3121721266
 40
0.3747624547
 40
0.4373684844
 40
0.4999838172
 40
0.5626002394
 40
0.6252108576
 40
0.6878074687
 40
0.7503679925
 40
0.8752767893
 40
1.0
 40
1.0
 40
1.0
 40
1.0
 10
4.3775639012
 20
12.6714662782
 30
0.0
 10
4.3736832709
 20
12.6715219483
 30
0.0
 10
4.3658861109
 20
12.6708988625
 30
0.0
 10
4.3564734212
 20
12.6682400158
 30
0.0
 10
4.3493784186
 20
12.665019
 30
0.0
 10
4.344322379
 20
12.6620710695
 30
0.0
 10
4.3395924857
 20
12.6586210972
 30
0.0
 10
4.3352444977
 20
12.6546993268
 30
0.0
 10
4.3313223161
 20
12.6503514908
 30
0.0
 10
4.3278721779
 20
12.6456212709
 30
0.0
 10
4.3249234057
 20
12.6405650678
 30
0.0
 10
4.3217021897
 20
12.6334691994
 30
0.0
 10
4.319042777
 20
12.6240560214
 30
0.0
 10
4.3184197668
 20
12.6162584177
 30
0.0
 10
4.318475436
 20
12.612377813
 30
0.0
  0
SPLINE
  5
31C
100
AcDbEntity
  8
0
100
AcDbSpline
 62
9
  6
CONTINUOUS
 70
0
 71
3
 72
19
 73
15
 74
0
 42
0.0000001
 43
0.0000001
 44
0.0000000001
 40
0.0
 40
0.0
 40
0.0
 40
0.0
 40
0.1247240327
 40
0.2496187989
 40
0.3121721266
 40
0.3747624547
 40
0.4373684844
 40
0.4999838172
 40
0.5626002394
 40
0.6252108576
 40
0.6878074687
 40
0.7503679925
 40
0.8752767893
 40
1.0
 40
1.0
 40
1.0
 40
1.0
 10
4.318475436
 20
11.2444198484
 30
0.0
 10
4.3184197658
 20
11.2405392181
 30
0.0
 10
4.3190428517
 20
11.2327420582
 30
0.0
 10
4.3217016984
 20
11.2233293684
 30
0.0
 10
4.3249227141
 20
11.2162343658
 30
0.0
 10
4.3278706447
 20
11.2111783262
 30
0.0
 10
4.331320617
 20
11.2064484329
 30
0.0
 10
4.3352423873
 20
11.202100445
 30
0.0
 10
4.3395902234
 20
11.1981782634
 30
0.0
 10
4.3443204432
 20
11.1947281252
 30
0.0
 10
4.3493766464
 20
11.1917793529
 30
0.0
 10
4.3564725148
 20
11.188558137
 30
0.0
 10
4.3658856928
 20
11.1858987242
 30
0.0
 10
4.3736832965
 20
11.185275714
 30
0.0
 10
4.3775639012
 20
11.1853313832
 30
0.0
  0
SPLINE
  5
31D
100
AcDbEntity
  8
0
100
AcDbSpline
 62
9
  6
CONTINUOUS
 70
0
 71
3
 72
19
 73
15
 74
0
 42
0.0000001
 43
0.0000001
 44
0.0000000001
 40
0.0
 40
0.0
 40
0.0
 40
0.0
 40
0.1247240327
 40
0.2496187989
 40
0.3121721266
 40
0.3747624547
 40
0.4373684844
 40
0.4999838172
 40
0.5626002394
 40
0.6252108576
 40
0.6878074687
 40
0.7503679925
 40
0.8752767893
 40
1.0
 40
1.0
 40
1.0
 40
1.0
 10
5.7455218657
 20
11.1853313832
 30
0.0
 10
5.749402496
 20
11.1852757131
 30
0.0
 10
5.757199656
 20
11.1858987989
 30
0.0
 10
5.7666123457
 20
11.1885576456
 30
0.0
 10
5.7737073484
 20
11.1917786614
 30
0.0
 10
5.7787633879
 20
11.1947265919
 30
0.0
 10
5.7834932812
 20
11.1981765642
 30
0.0
 10
5.7878412692
 20
11.2020983346
 30
0.0
 10
5.7917634508
 20
11.2064461706
 30
0.0
 10
5.795213589
 20
11.2111763905
 30
0.0
 10
5.7981623612
 20
11.2162325936
 30
0.0
 10
5.8013835772
 20
11.223328462
 30
0.0
 10
5.80404299
 20
11.23274164
 30
0.0
 10
5.8046660001
 20
11.2405392437
 30
0.0
 10
5.8046103309
 20
11.2444198484
 30
0.0
  0
SPLINE
  5
31E
100
AcDbEntity
  8
0
100
AcDbSpline
 62
9
  6
CONTINUOUS
 70
0
 71
3
 72
19
 73
15
 74
0
 42
0.0000001
 43
0.0000001
 44
0.0000000001
 40
0.0
 40
0.0
 40
0.0
 40
0.0
 40
0.1247240327
 40
0.2496187989
 40
0.3121721266
 40
0.3747624547
 40
0.4373684844
 40
0.4999838172
 40
0.5626002394
 40
0.6252108576
 40
0.6878074687
 40
0.7503679925
 40
0.8752767893
 40
1.0
 40
1.0
 40
1.0
 40
1.0
 10
5.8046103309
 20
12.612377813
 30
0.0
 10
5.8046660011
 20
12.6162584433
 30
0.0
 10
5.8040429153
 20
12.6240556032
 30
0.0
 10
5.8013840685
 20
12.633468293
 30
0.0
 10
5.7981630528
 20
12.6405632956
 30
0.0
 10
5.7952151223
 20
12.6456193352
 30
0.0
 10
5.7917651499
 20
12.6503492285
 30
0.0
 10
5.7878433796
 20
12.6546972164
 30
0.0
 10
5.7834955435
 20
12.658619398
 30
0.0
 10
5.7787653237
 20
12.6620695362
 30
0.0
 10
5.7737091205
 20
12.6650183085
 30
0.0
 10
5.7666132521
 20
12.6682395244
 30
0.0
 10
5.7572000742
 20
12.6708989372
 30
0.0
 10
5.7494024704
 20
12.6715219474
 30
0.0
 10
5.7455218657
 20
12.6714662782
 30
0.0
  0
SPLINE
  5
31F
100
AcDbEntity
  8
0
100
AcDbSpline
 62
9
  6
CONTINUOUS
 70
0
 71
3
 72
19
 73
15
 74
0
 42
0.0000001
 43
0.0000001
 44
0.0000000001
 40
0.0
 40
0.0
 40
0.0
 40
0.0
 40
0.1247240327
 40
0.2496187989
 40
0.3121721266
 40
0.3747624547
 40
0.4373684844
 40
0.4999838172
 40
0.5626002394
 40
0.6252108576
 40
0.6878074687
 40
0.7503679925
 40
0.8752767893
 40
1.0
 40
1.0
 40
1.0
 40
1.0
 10
29.7455218657
 20
11.1853313832
 30
0.0
 10
29.749402496
 20
11.1852757131
 30
0.0
 10
29.757199656
 20
11.1858987989
 30
0.0
 10
29.7666123457
 20
11.1885576456
 30
0.0
 10
29.7737073484
 20
11.1917786614
 30
0.0
 10
29.7787633879
 20
11.1947265919
 30
0.0
 10
29.7834932812
 20
11.1981765642
 30
0.0
 10
29.7878412692
 20
11.2020983346
 30
0.0
 10
29.7917634508
 20
11.2064461706
 30
0.0
 10
29.795213589
 20
11.2111763905
 30
0.0
 10
29.7981623612
 20
11.2162325936
 30
0.0
 10
29.8013835772
 20
11.223328462
 30
0.0
 10
29.80404299
 20
11.23274164
 30
0.0
 10
29.8046660001
 20
11.2405392437
 30
0.0
 10
29.8046103309
 20
11.2444198484
 30
0.0
  0
SPLINE
  5
320
100
AcDbEntity
  8
0
100
AcDbSpline
 62
9
  6
CONTINUOUS
 70
0
 71
3
 72
19
 73
15
 74
0
 42
0.0000001
 43
0.0000001
 44
0.0000000001
 40
0.0
 40
0.0
 40
0.0
 40
0.0
 40
0.1247240327
 40
0.2496187989
 40
0.3121721266
 40
0.3747624547
 40
0.4373684844
 40
0.4999838172
 40
0.5626002394
 40
0.6252108576
 40
0.6878074687
 40
0.7503679925
 40
0.8752767893
 40
1.0
 40
1.0
 40
1.0
 40
1.0
 10
29.8046103309
 20
12.612377813
 30
0.0
 10
29.8046660011
 20
12.6162584433
 30
0.0
 10
29.8040429153
 20
12.6240556032
 30
0.0
 10
29.8013840685
 20
12.633468293
 30
0.0
 10
29.7981630528
 20
12.6405632956
 30
0.0
 10
29.7952151223
 20
12.6456193352
 30
0.0
 10
29.7917651499
 20
12.6503492285
 30
0.0
 10
29.7878433796
 20
12.6546972164
 30
0.0
 10
29.7834955435
 20
12.658619398
 30
0.0
 10
29.7787653237
 20
12.6620695362
 30
0.0
 10
29.7737091205
 20
12.6650183085
 30
0.0
 10
29.7666132521
 20
12.6682395244
 30
0.0
 10
29.7572000742
 20
12.6708989372
 30
0.0
 10
29.7494024704
 20
12.6715219474
 30
0.0
 10
29.7455218657
 20
12.6714662782
 30
0.0
  0
SPLINE
  5
321
100
AcDbEntity
  8
0
100
AcDbSpline
 62
9
  6
CONTINUOUS
 70
0
 71
3
 72
19
 73
15
 74
0
 42
0.0000001
 43
0.0000001
 44
0.0000000001
 40
0.0
 40
0.0
 40
0.0
 40
0.0
 40
0.1247240327
 40
0.2496187989
 40
0.3121721266
 40
0.3747624547
 40
0.4373684844
 40
0.4999838172
 40
0.5626002394
 40
0.6252108576
 40
0.6878074687
 40
0.7503679925
 40
0.8752767893
 40
1.0
 40
1.0
 40
1.0
 40
1.0
 10
28.3775639012
 20
12.6714662782
 30
0.0
 10
28.3736832709
 20
12.6715219483
 30
0.0
 10
28.3658861109
 20
12.6708988625
 30
0.0
 10
28.3564734212
 20
12.6682400158
 30
0.0
 10
28.3493784186
 20
12.665019
 30
0.0
 10
28.344322379
 20
12.6620710695
 30
0.0
 10
28.3395924857
 20
12.6586210972
 30
0.0
 10
28.3352444977
 20
12.6546993268
 30
0.0
 10
28.3313223161
 20
12.6503514908
 30
0.0
 10
28.3278721779
 20
12.6456212709
 30
0.0
 10
28.3249234057
 20
12.6405650678
 30
0.0
 10
28.3217021897
 20
12.6334691994
 30
0.0
 10
28.319042777
 20
12.6240560214
 30
0.0
 10
28.3184197668
 20
12.6162584177
 30
0.0
 10
28.318475436
 20
12.612377813
 30
0.0
  0
SPLINE
  5
322
100
AcDbEntity
  8
0
100
AcDbSpline
 62
9
  6
CONTINUOUS
 70
0
 71
3
 72
19
 73
15
 74
0
 42
0.0000001
 43
0.0000001
 44
0.0000000001
 40
0.0
 40
0.0
 40
0.0
 40
0.0
 40
0.1247240327
 40
0.2496187989
 40
0.3121721266
 40
0.3747624547
 40
0.4373684844
 40
0.4999838172
 40
0.5626002394
 40
0.6252108576
 40
0.6878074687
 40
0.7503679925
 40
0.8752767893
 40
1.0
 40
1.0
 40
1.0
 40
1.0
 10
28.318475436
 20
11.2444198484
 30
0.0
 10
28.3184197658
 20
11.2405392181
 30
0.0
 10
28.3190428517
 20
11.2327420582
 30
0.0
 10
28.3217016984
 20
11.2233293684
 30
0.0
 10
28.3249227141
 20
11.2162343658
 30
0.0
 10
28.3278706447
 20
11.2111783262
 30
0.0
 10
28.331320617
 20
11.2064484329
 30
0.0
 10
28.3352423873
 20
11.202100445
 30
0.0
 10
28.3395902234
 20
11.1981782634
 30
0.0
 10
28.3443204432
 20
11.1947281252
 30
0.0
 10
28.3493766464
 20
11.1917793529
 30
0.0
 10
28.3564725148
 20
11.188558137
 30
0.0
 10
28.3658856928
 20
11.1858987242
 30
0.0
 10
28.3736832965
 20
11.185275714
 30
0.0
 10
28.3775639012
 20
11.1853313832
 30
0.0
  0
ENDSEC
  0
SECTION
  2
OBJECTS
  0
DICTIONARY
  5
C
100
AcDbDictionary
280
0
281
1
  3
ACAD_GROUP
350
D
  3
ACAD_MLINESTYLE
350
17
  3
ACAD_LAYOUT
350
1A
  3
ACAD_PLOTSETTINGS
350
19
  3
ACAD_PLOTSTYLENAME
350
E
  0
DICTIONARY
  5
D
102
{ACAD_REACTORS
330
C
102
}
100
AcDbDictionary
280
0
281
1
  0
ACDBDICTIONARYWDFLT
  5
E
102
{ACAD_REACTORS
330
C
102
}
100
AcDbDictionary
281
1
  3
Normal
350
F
100
AcDbDictionaryWithDefault
340
F
  0
DICTIONARY
  5
17
102
{ACAD_REACTORS
330
C
102
}
100
AcDbDictionary
280
0
281
1
  3
Standard
350
18
  0
DICTIONARY
  5
19
102
{ACAD_REACTORS
330
C
102
}
100
AcDbDictionary
281
1
  0
DICTIONARY
  5
1A
102
{ACAD_REACTORS
330
C
102
}
100
AcDbDictionary
281
1
  3
Model
350
323
  3
Layout1
350
324
  0
ACDBPLACEHOLDER
  5
F
102
{ACAD_REACTORS
330
E
102
}
  0
MLINESTYLE
  5
18
102
{ACAD_REACTORS
330
17
102
}
100
AcDbMlineStyle
  2
STANDARD
 70
0
  3

 62
256
 51
90.0
 52
90.0
 71
2
 49
0.5
 62
256
  6
BYLAYER
 49
-0.5
 62
256
  6
BYLAYER
  0
LAYOUT
  5
323
102
{ACAD_REACTORS
330
1A
102
}
100
AcDbPlotSettings
  1

  2
none_device
  4
ISO_A1_(594.00_x_841.00_MM)
  6

 40
0.0
 41
0.0
 42
0.0
 43
0.0
 44
841.0
 45
594.0
 46
0.0
 47
0.0
 48
0.0
 49
0.0
140
0.0
141
0.0
142
1.0
143
1.0
 70
1024
 72
0
 73
0
 74
0
  7

 75
0
147
1.0
148
0.0
149
0.0
100
AcDbLayout
  1
Model
 70
0
 71
0
 10
0.0
 20
0.0
 11
33.1102362205
 21
23.3858267717
 12
0.0
 22
0.0
 32
0.0
 14
0.0
 24
0.0
 34
0.0
 15
0.0
 25
0.0
 35
0.0
146
0.0
 13
0.0
 23
0.0
 33
0.0
 16
1.0
 26
0.0
 36
0.0
 17
0.0
 27
1.0
 37
0.0
 76
0
330
202
345
0
346
0
  0
LAYOUT
  5
324
102
{ACAD_REACTORS
330
1A
102
}
100
AcDbPlotSettings
  1

  2
none_device
  4
ISO_A1_(594.00_x_841.00_MM)
  6

 40
0.0
 41
0.0
 42
0.0
 43
0.0
 44
841.0
 45
594.0
 46
0.0
 47
0.0
 48
0.0
 49
0.0
140
0.0
141
0.0
142
1.0
143
1.0
 70
0
 72
0
 73
0
 74
0
  7

 75
0
147
1.0
148
0.0
149
0.0
100
AcDbLayout
  1
Layout1
 70
0
 71
1
 10
0.0
 20
0.0
 11
33.1102362205
 21
23.3858267717
 12
0.0
 22
0.0
 32
0.0
 14
0.0
 24
0.0
 34
0.0
 15
0.0
 25
0.0
 35
0.0
146
0.0
 13
0.0
 23
0.0
 33
0.0
 16
1.0
 26
0.0
 36
0.0
 17
0.0
 27
1.0
 37
0.0
 76
0
330
203
345
0
346
0
  0
ENDSEC
  0
EOF
