999
DXF file: 43-09_FRONT.dxf
999
Pro/ENGINEER 2014000 by Parametric Technology Corporation
  0
SECTION
  2
HEADER
  9
$ACADVER
  1
AC1015
  9
$DWGCODEPAGE
  3
ANSI_1252
  9
$EXTMAX
 10
11.6929133858
 20
8.2677165354
 30
0.0
  9
$EXTMIN
 10
0.0
 20
-0.0
 30
0.0
  9
$LIMMIN
 10
0.0
 20
-0.0
  9
$LIMMAX
 10
11.6929133858
 20
8.2677165354
  9
$VIEWCTR
 10
5.8464566929
 20
4.1338582677
  9
$VIEWSIZE
 40
8.2677165354
  9
$CLAYER
  8
0
  9
$LTSCALE
 40
0.6431102362
  9
$CELTYPE
  6
BYLAYER
  9
$DIMSCALE
 40
1.0
  9
$DIMASZ
 40
0.1875
  9
$DIMEXO
 40
0.0625
  9
$DIMDLI
 40
0.4443307087
  9
$DIMEXE
 40
0.125
  9
$DIMCEN
 40
0.1052362205
  9
$DIMLFAC
 40
1.0
  9
$DIMBLK
  1
_CLOSED
  9
$DIMTXT
 40
0.15625
  9
$DIMTOL
 70
0
  9
$DIMLIM
 70
0
  9
$DIMTFAC
 40
1.0
  9
$DIMGAP
 40
0.09
  9
$DIMDSEP
 70
46
  9
$PDMODE
 70
3
  9
$PDSIZE
 40
0.3125
  9
$HANDSEED
  5
2A3
  9
$TILEMODE
 70
1
  9
$MEASUREMENT
 70
0
  9
$INSUNITS
 70
1
  0
ENDSEC
  0
SECTION
  2
CLASSES
  0
CLASS
  1
ACDBDICTIONARYWDFLT
  2
AcDbDictionaryWithDefault
  3
AutoCAD 2000
 90
0
280
0
281
0
  0
CLASS
  1
ACDBPLACEHOLDER
  2
AcDbPlaceHolder
  3
AutoCAD 2000
 90
0
280
0
281
0
  0
CLASS
  1
LAYOUT
  2
AcDbLayout
  3
AutoCAD 2000
 90
0
280
0
281
0
  0
ENDSEC
  0
SECTION
  2
TABLES
  0
TABLE
  2
VPORT
  5
8
100
AcDbSymbolTable
 70
2
  0
VPORT
  5
1F4
100
AcDbSymbolTableRecord
100
AcDbViewportTableRecord
  2
*ACTIVE
 70
0
 10
0.0
 20
0.0
 11
1.0
 21
1.0
 12
5.8464566929
 22
4.1338582677
 13
0.0
 23
0.0
 14
1.0
 24
1.0
 15
0.0
 25
0.0
 16
0.0
 26
0.0
 36
1.0
 17
0.0
 27
0.0
 37
0.0
 40
8.2677165354
 41
1.4142857143
 42
50.0
 43
0.0
 44
0.0
 50
0.0
 51
0.0
 71
0
 72
100
 73
1
 74
1
 75
0
 76
0
 77
0
 78
0
  0
ENDTAB
  0
TABLE
  2
LTYPE
  5
5
100
AcDbSymbolTable
 70
6
  0
LTYPE
  5
14
100
AcDbSymbolTableRecord
100
AcDbLinetypeTableRecord
  2
BYBLOCK
 70
0
  3

 72
65
 73
0
 40
0.0
  0
LTYPE
  5
15
100
AcDbSymbolTableRecord
100
AcDbLinetypeTableRecord
  2
BYLAYER
 70
0
  3

 72
65
 73
0
 40
0.0
  0
LTYPE
  5
16
100
AcDbSymbolTableRecord
100
AcDbLinetypeTableRecord
  2
CONTINUOUS
 70
64
  3
Solid line
 72
65
 73
0
 40
0.0
  0
LTYPE
  5
1F5
100
AcDbSymbolTableRecord
100
AcDbLinetypeTableRecord
  2
CENTER
 70
64
  3
____ _ ____ _ ____ _ ____ _ ____ _ ____ _ ____
 72
65
 73
4
 40
0.6
 49
0.375
 74
0
 49
-0.075
 74
0
 49
0.075
 74
0
 49
-0.075
 74
0
  0
LTYPE
  5
1F6
100
AcDbSymbolTableRecord
100
AcDbLinetypeTableRecord
  2
HIDDEN
 70
64
  3
- - - - - - - - - - - - - - - - - - - -
 72
65
 73
2
 40
0.2
 49
0.1
 74
0
 49
-0.1
 74
0
  0
LTYPE
  5
1F7
100
AcDbSymbolTableRecord
100
AcDbLinetypeTableRecord
  2
PHANTOM
 70
64
  3
_____ _ _ _____ _ _ _____ _ _ _____
 72
65
 73
6
 40
0.8
 49
0.45
 74
0
 49
-0.05
 74
0
 49
0.1
 74
0
 49
-0.05
 74
0
 49
0.1
 74
0
 49
-0.05
 74
0
  0
LTYPE
  5
1F8
100
AcDbSymbolTableRecord
100
AcDbLinetypeTableRecord
  2
DOT
 70
64
  3
. . . . . . . . . . . . . . . . . . . .
 72
65
 73
2
 40
0.2
 49
0.1
 74
0
 49
-0.1
 74
0
  0
LTYPE
  5
1F9
100
AcDbSymbolTableRecord
100
AcDbLinetypeTableRecord
  2
DASHED
 70
64
  3
- - - - - - - - - - - - - - - - - - - -
 72
65
 73
2
 40
0.2
 49
0.1
 74
0
 49
-0.1
 74
0
  0
ENDTAB
  0
TABLE
  2
LAYER
  5
2
100
AcDbSymbolTable
 70
36
  0
LAYER
  5
10
100
AcDbSymbolTableRecord
100
AcDbLayerTableRecord
  2
0
 70
0
 62
7
  6
CONTINUOUS
370
-3
390
F
  0
LAYER
  5
1FA
100
AcDbSymbolTableRecord
100
AcDbLayerTableRecord
  2
DEFAULT_1
 70
0
 62
7
  6
CENTER
370
-3
390
F
  0
LAYER
  5
1FB
100
AcDbSymbolTableRecord
100
AcDbLayerTableRecord
  2
DEFAULT_2
 70
0
 62
8
  6
HIDDEN
370
-3
390
F
  0
LAYER
  5
1FC
100
AcDbSymbolTableRecord
100
AcDbLayerTableRecord
  2
DEFAULT_3
 70
0
 62
7
  6
PHANTOM
370
-3
390
F
  0
LAYER
  5
1FD
100
AcDbSymbolTableRecord
100
AcDbLayerTableRecord
  2
DEFAULT_COORDINATE_SYSTEM
 70
0
 62
7
  6
CONTINUOUS
370
-3
390
F
  0
LAYER
  5
1FE
100
AcDbSymbolTableRecord
100
AcDbLayerTableRecord
  2
DEFAULT_DATUM_AXES
 70
0
 62
7
  6
CONTINUOUS
370
-3
390
F
  0
LAYER
  5
1FF
100
AcDbSymbolTableRecord
100
AcDbLayerTableRecord
  2
DEFAULT_DATUM_PLANES
 70
0
 62
7
  6
CONTINUOUS
370
-3
390
F
  0
ENDTAB
  0
TABLE
  2
STYLE
  5
3
100
AcDbSymbolTable
 70
1
  0
STYLE
  5
11
100
AcDbSymbolTableRecord
100
AcDbTextStyleTableRecord
  2
STANDARD
 70
0
 40
0.0
 41
0.8
 50
0.0
 71
0
 42
0.2
  3
txt
  4

  0
STYLE
  5
200
100
AcDbSymbolTableRecord
100
AcDbTextStyleTableRecord
  2
TEXTSTYLE_1
 70
0
 40
0.0
 41
0.8
 50
0.0
 71
0
 42
0.2
  3
gdt
  4

  0
ENDTAB
  0
TABLE
  2
VIEW
  5
6
100
AcDbSymbolTable
 70
0
  0
ENDTAB
  0
TABLE
  2
UCS
  5
7
100
AcDbSymbolTable
 70
0
  0
ENDTAB
  0
TABLE
  2
APPID
  5
9
100
AcDbSymbolTable
 70
1
  0
APPID
  5
201
100
AcDbSymbolTableRecord
100
AcDbRegAppTableRecord
  2
ACAD
 70
0
  0
ENDTAB
  0
TABLE
  2
BLOCK_RECORD
  5
1
100
AcDbSymbolTable
 70
0
  0
BLOCK_RECORD
  5
202
100
AcDbSymbolTableRecord
100
AcDbBlockTableRecord
  2
*Model_Space
  0
BLOCK_RECORD
  5
203
100
AcDbSymbolTableRecord
100
AcDbBlockTableRecord
  2
*Paper_Space
  0
ENDTAB
  0
TABLE
  2
DIMSTYLE
  5
A
100
AcDbSymbolTable
 70
1
100
AcDbDimStyleTable
 71
0
  0
DIMSTYLE
105
204
100
AcDbSymbolTableRecord
100
AcDbDimStyleTableRecord
  2
STANDARD
 70
0
  3

  4

 40
1.0
 41
0.1875
 42
0.0625
 43
0.38
 44
0.125
 45
0.0
 46
0.0
 47
0.001
 48
0.001
140
0.15625
141
0.09
142
0.0
143
25.4
144
1.0
145
0.0
146
1.0
147
0.09
 71
0.0
 72
0.0
 73
1
 74
1
 75
0
 76
0
 77
0
 78
4
170
0
171
2
172
0
173
0
174
0
175
0
176
0
177
0
178
0
270
2
271
3
272
3
273
2
274
2
275
0
280
0
281
0
282
0
283
1
284
4
285
0
286
0
287
3
288
0
340
11
278
46
  0
ENDTAB
  0
ENDSEC
  0
SECTION
  2
BLOCKS
  0
BLOCK
  5
20
100
AcDbEntity
  8
0
100
AcDbBlockBegin
  2
*Model_Space
 70
0
 10
0.0
 20
0.0
 30
0.0
  3
*Model_Space
  1

  0
ENDBLK
  5
21
100
AcDbEntity
  8
0
100
AcDbBlockEnd
  0
BLOCK
  5
1C
100
AcDbEntity
  8
0
100
AcDbBlockBegin
  2
*Paper_Space
 70
0
 10
0.0
 20
0.0
 30
0.0
  3
*Paper_Space
  1

  0
ENDBLK
  5
1D
100
AcDbEntity
  8
0
100
AcDbBlockEnd
  0
ENDSEC
  0
SECTION
  2
ENTITIES
  0
LINE
  5
205
100
AcDbEntity
  8
0
100
AcDbLine
 62
7
  6
CONTINUOUS
 10
0.0
 20
-0.0
 11
0.0
 21
8.2677165354
  0
LINE
  5
206
100
AcDbEntity
  8
0
100
AcDbLine
 62
7
  6
CONTINUOUS
 10
0.0
 20
-0.0
 11
11.6929133858
 21
-0.0
  0
LINE
  5
207
100
AcDbEntity
  8
0
100
AcDbLine
 62
7
  6
CONTINUOUS
 10
0.0
 20
8.2677165354
 11
11.6929133858
 21
8.2677165354
  0
LINE
  5
208
100
AcDbEntity
  8
0
100
AcDbLine
 62
7
  6
CONTINUOUS
 10
11.6929133858
 20
-0.0
 11
11.6929133858
 21
8.2677165354
  0
LINE
  5
209
100
AcDbEntity
  8
0
100
AcDbLine
 62
9
  6
CONTINUOUS
 10
6.5018204531
 20
7.4543017171
 11
6.2976469608
 21
7.2501282248
  0
LINE
  5
20A
100
AcDbEntity
  8
0
100
AcDbLine
 62
9
  6
CONTINUOUS
 10
5.0747740233
 20
6.0272552873
 11
5.2789475156
 21
6.2314287796
  0
LINE
  5
20B
100
AcDbEntity
  8
0
100
AcDbLine
 62
9
  6
CONTINUOUS
 10
6.5609089183
 20
7.3952132519
 11
6.356735426
 21
7.1910397597
  0
LINE
  5
20C
100
AcDbEntity
  8
0
100
AcDbLine
 62
9
  6
CONTINUOUS
 10
5.1338624885
 20
5.9681668222
 11
5.3380359808
 21
6.1723403144
  0
LINE
  5
20D
100
AcDbEntity
  8
0
100
AcDbLine
 62
6
  6
CONTINUOUS
 10
4.6228414708
 20
7.8462342696
 11
4.6228414708
 21
6.5008673086
  0
LINE
  5
20E
100
AcDbEntity
  8
0
100
AcDbLine
 62
6
  6
CONTINUOUS
 10
4.6228414708
 20
5.8626251952
 11
4.6228414708
 21
5.5762342696
  0
LINE
  5
20F
100
AcDbEntity
  8
0
100
AcDbLine
 62
9
  6
CONTINUOUS
 10
4.6528414708
 20
7.8462342696
 11
4.6528414708
 21
6.5331086488
  0
LINE
  5
210
100
AcDbEntity
  8
0
100
AcDbLine
 62
9
  6
CONTINUOUS
 10
4.6528414708
 20
5.9054247823
 11
4.6528414708
 21
5.5762342696
  0
LINE
  5
211
100
AcDbEntity
  8
0
100
AcDbLine
 62
9
  6
CONTINUOUS
 10
4.6828414708
 20
5.5462342696
 11
4.6828414708
 21
5.5162342696
  0
LINE
  5
212
100
AcDbEntity
  8
0
100
AcDbLine
 62
9
  6
CONTINUOUS
 10
4.6828414708
 20
7.8762342696
 11
4.6828414708
 21
7.9062342696
  0
LINE
  5
213
100
AcDbEntity
  8
0
100
AcDbLine
 62
6
  6
CONTINUOUS
 10
4.9453414708
 20
7.5237342696
 11
4.9453414708
 21
6.772693653
  0
LINE
  5
214
100
AcDbEntity
  8
0
100
AcDbLine
 62
6
  6
CONTINUOUS
 10
4.9453414708
 20
6.2682145263
 11
4.9453414708
 21
5.8987342696
  0
LINE
  5
215
100
AcDbEntity
  8
0
100
AcDbLine
 62
9
  6
CONTINUOUS
 10
4.9753414708
 20
7.5237342696
 11
4.9753414708
 21
6.7874008848
  0
LINE
  5
216
100
AcDbEntity
  8
0
100
AcDbLine
 62
9
  6
CONTINUOUS
 10
4.9753414708
 20
6.2995794015
 11
4.9753414708
 21
5.8987342696
  0
LINE
  5
217
100
AcDbEntity
  8
0
100
AcDbLine
 62
9
  6
CONTINUOUS
 10
5.0053414708
 20
5.8687342696
 11
5.0053414708
 21
5.8387342696
  0
LINE
  5
218
100
AcDbEntity
  8
0
100
AcDbLine
 62
9
  6
CONTINUOUS
 10
5.0053414708
 20
7.5537342696
 11
5.0053414709
 21
7.5837342696
  0
LINE
  5
219
100
AcDbEntity
  8
0
100
AcDbLine
 62
7
  6
CONTINUOUS
 10
5.0452297907
 20
7.3952132519
 11
5.0452297907
 21
6.8216630089
  0
LINE
  5
21A
100
AcDbEntity
  8
0
100
AcDbLine
 62
7
  6
CONTINUOUS
 10
5.0452297907
 20
6.3603249419
 11
5.0452297907
 21
6.0272552873
  0
LINE
  5
21B
100
AcDbEntity
  8
0
100
AcDbLine
 62
9
  6
CONTINUOUS
 10
5.0747740233
 20
7.3952132519
 11
5.0747740233
 21
6.8361468048
  0
LINE
  5
21C
100
AcDbEntity
  8
0
100
AcDbLine
 62
9
  6
CONTINUOUS
 10
5.0747740233
 20
6.3847988386
 11
5.0747740233
 21
6.0272552873
  0
LINE
  5
21D
100
AcDbEntity
  8
0
100
AcDbLine
 62
9
  6
CONTINUOUS
 10
5.1338624885
 20
7.4838459497
 11
5.1338624885
 21
7.4543017171
  0
LINE
  5
21E
100
AcDbEntity
  8
0
100
AcDbLine
 62
9
  6
CONTINUOUS
 10
5.1338624885
 20
5.9386225896
 11
5.1338624885
 21
5.9681668222
  0
LINE
  5
21F
100
AcDbEntity
  8
0
100
AcDbLine
 62
6
  6
CONTINUOUS
 10
5.2788414708
 20
7.1902342696
 11
5.2788414708
 21
6.8934472299
  0
LINE
  5
220
100
AcDbEntity
  8
0
100
AcDbLine
 62
6
  6
CONTINUOUS
 10
5.2788414708
 20
6.4893412646
 11
5.2788414708
 21
6.2322342696
  0
LINE
  5
221
100
AcDbEntity
  8
0
100
AcDbLine
 62
9
  6
CONTINUOUS
 10
5.3088414708
 20
7.1902342696
 11
5.3088414708
 21
6.8962111625
  0
LINE
  5
222
100
AcDbEntity
  8
0
100
AcDbLine
 62
9
  6
CONTINUOUS
 10
5.3088414708
 20
6.4995927193
 11
5.3088414708
 21
6.2322342696
  0
LINE
  5
223
100
AcDbEntity
  8
0
100
AcDbLine
 62
9
  6
CONTINUOUS
 10
5.3388414708
 20
6.2022342696
 11
5.3388414708
 21
6.1722342696
  0
LINE
  5
224
100
AcDbEntity
  8
0
100
AcDbLine
 62
9
  6
CONTINUOUS
 10
5.3388414708
 20
7.2202342696
 11
5.3388414709
 21
7.2502342696
  0
LINE
  5
225
100
AcDbEntity
  8
0
100
AcDbLine
 62
7
  6
CONTINUOUS
 10
5.4128414708
 20
7.0562342702
 11
5.4128414708
 21
6.9057927958
  0
LINE
  5
226
100
AcDbEntity
  8
0
100
AcDbLine
 62
7
  6
CONTINUOUS
 10
5.4128414708
 20
6.5113992225
 11
5.4128414708
 21
6.3662342696
  0
LINE
  5
227
100
AcDbEntity
  8
0
100
AcDbLine
 62
7
  6
CONTINUOUS
 10
5.4393414708
 20
6.5142342696
 11
5.4393414708
 21
6.9082342696
  0
LINE
  5
228
100
AcDbEntity
  8
0
100
AcDbLine
 62
6
  6
CONTINUOUS
 10
5.4428414708
 20
7.0562342696
 11
5.4428414708
 21
6.3662342696
  0
LINE
  5
229
100
AcDbEntity
  8
0
100
AcDbLine
 62
9
  6
CONTINUOUS
 10
5.4728414702
 20
6.3062342696
 11
5.4728414708
 21
7.1162342696
  0
LINE
  5
22A
100
AcDbEntity
  8
0
100
AcDbLine
 62
9
  6
CONTINUOUS
 10
6.1628414708
 20
6.3062342696
 11
6.1628414714
 21
7.1162342696
  0
LINE
  5
22B
100
AcDbEntity
  8
0
100
AcDbLine
 62
6
  6
CONTINUOUS
 10
6.1928414708
 20
6.3662342696
 11
6.1928414708
 21
7.0562342696
  0
LINE
  5
22C
100
AcDbEntity
  8
0
100
AcDbLine
 62
7
  6
CONTINUOUS
 10
6.1963414708
 20
6.5142342696
 11
6.1963414708
 21
6.9082342696
  0
LINE
  5
22D
100
AcDbEntity
  8
0
100
AcDbLine
 62
7
  6
CONTINUOUS
 10
6.2228414708
 20
6.366234269
 11
6.2228414708
 21
6.5114181755
  0
LINE
  5
22E
100
AcDbEntity
  8
0
100
AcDbLine
 62
7
  6
CONTINUOUS
 10
6.2228414708
 20
6.9057803943
 11
6.2228414708
 21
7.0562342696
  0
LINE
  5
22F
100
AcDbEntity
  8
0
100
AcDbLine
 62
9
  6
CONTINUOUS
 10
6.2968414708
 20
6.2022342696
 11
6.2968414707
 21
6.1722342696
  0
LINE
  5
230
100
AcDbEntity
  8
0
100
AcDbLine
 62
9
  6
CONTINUOUS
 10
6.2968414708
 20
7.2202342696
 11
6.2968414708
 21
7.2502342696
  0
LINE
  5
231
100
AcDbEntity
  8
0
100
AcDbLine
 62
9
  6
CONTINUOUS
 10
6.3268414708
 20
6.2322342696
 11
6.3268414708
 21
6.4996783246
  0
LINE
  5
232
100
AcDbEntity
  8
0
100
AcDbLine
 62
9
  6
CONTINUOUS
 10
6.3268414708
 20
6.8961500914
 11
6.3268414708
 21
7.1902342696
  0
LINE
  5
233
100
AcDbEntity
  8
0
100
AcDbLine
 62
6
  6
CONTINUOUS
 10
6.3568414708
 20
6.2322342696
 11
6.3568414708
 21
6.4893819902
  0
LINE
  5
234
100
AcDbEntity
  8
0
100
AcDbLine
 62
6
  6
CONTINUOUS
 10
6.3568414708
 20
6.8933721194
 11
6.3568414708
 21
7.1902342696
  0
LINE
  5
235
100
AcDbEntity
  8
0
100
AcDbLine
 62
9
  6
CONTINUOUS
 10
6.5018204531
 20
7.4838459497
 11
6.5018204531
 21
7.4543017171
  0
LINE
  5
236
100
AcDbEntity
  8
0
100
AcDbLine
 62
9
  6
CONTINUOUS
 10
6.5018204531
 20
5.9386225896
 11
6.5018204531
 21
5.9681668222
  0
LINE
  5
237
100
AcDbEntity
  8
0
100
AcDbLine
 62
9
  6
CONTINUOUS
 10
6.5609089183
 20
6.0272552873
 11
6.5609089183
 21
6.3847484489
  0
LINE
  5
238
100
AcDbEntity
  8
0
100
AcDbLine
 62
9
  6
CONTINUOUS
 10
6.5609089183
 20
6.8361506533
 11
6.5609089183
 21
7.3952132519
  0
LINE
  5
239
100
AcDbEntity
  8
0
100
AcDbLine
 62
7
  6
CONTINUOUS
 10
6.5904531508
 20
6.0272552873
 11
6.5904531508
 21
6.3602587835
  0
LINE
  5
23A
100
AcDbEntity
  8
0
100
AcDbLine
 62
7
  6
CONTINUOUS
 10
6.5904531508
 20
6.8216667971
 11
6.5904531508
 21
7.3952132519
  0
LINE
  5
23B
100
AcDbEntity
  8
0
100
AcDbLine
 62
9
  6
CONTINUOUS
 10
6.6303414708
 20
5.8687342696
 11
6.6303414707
 21
5.8387342696
  0
LINE
  5
23C
100
AcDbEntity
  8
0
100
AcDbLine
 62
9
  6
CONTINUOUS
 10
6.6303414708
 20
7.5537342696
 11
6.6303414708
 21
7.5837342696
  0
LINE
  5
23D
100
AcDbEntity
  8
0
100
AcDbLine
 62
9
  6
CONTINUOUS
 10
6.6603414708
 20
5.8987342696
 11
6.6603414708
 21
6.2994621053
  0
LINE
  5
23E
100
AcDbEntity
  8
0
100
AcDbLine
 62
9
  6
CONTINUOUS
 10
6.6603414708
 20
6.7874045306
 11
6.6603414708
 21
7.5237342696
  0
LINE
  5
23F
100
AcDbEntity
  8
0
100
AcDbLine
 62
6
  6
CONTINUOUS
 10
6.6903414708
 20
5.8987342696
 11
6.6903414708
 21
6.2681060313
  0
LINE
  5
240
100
AcDbEntity
  8
0
100
AcDbLine
 62
6
  6
CONTINUOUS
 10
6.6903414708
 20
6.7726972376
 11
6.6903414708
 21
7.5237342696
  0
LINE
  5
241
100
AcDbEntity
  8
0
100
AcDbLine
 62
9
  6
CONTINUOUS
 10
6.9528414708
 20
5.5462342696
 11
6.9528414707
 21
5.5162342696
  0
LINE
  5
242
100
AcDbEntity
  8
0
100
AcDbLine
 62
9
  6
CONTINUOUS
 10
6.9528414708
 20
7.8762342696
 11
6.9528414708
 21
7.9062342696
  0
LINE
  5
243
100
AcDbEntity
  8
0
100
AcDbLine
 62
9
  6
CONTINUOUS
 10
6.9828414708
 20
5.5762342696
 11
6.9828414708
 21
5.9056769559
  0
LINE
  5
244
100
AcDbEntity
  8
0
100
AcDbLine
 62
9
  6
CONTINUOUS
 10
6.9828414708
 20
6.5330218311
 11
6.9828414708
 21
7.8462342696
  0
LINE
  5
245
100
AcDbEntity
  8
0
100
AcDbLine
 62
6
  6
CONTINUOUS
 10
7.0128414708
 20
5.5762342696
 11
7.0128414708
 21
5.8629571785
  0
LINE
  5
246
100
AcDbEntity
  8
0
100
AcDbLine
 62
6
  6
CONTINUOUS
 10
7.0128414708
 20
6.5007796583
 11
7.0128414708
 21
7.8462342696
  0
LINE
  5
247
100
AcDbEntity
  8
0
100
AcDbLine
 62
6
  6
CONTINUOUS
 10
4.6828414708
 20
5.5162342696
 11
6.9528414708
 21
5.5162342696
  0
LINE
  5
248
100
AcDbEntity
  8
0
100
AcDbLine
 62
9
  6
CONTINUOUS
 10
4.6828414708
 20
5.5462342696
 11
6.9528414708
 21
5.5462342696
  0
LINE
  5
249
100
AcDbEntity
  8
0
100
AcDbLine
 62
9
  6
CONTINUOUS
 10
4.6528414708
 20
5.5762342696
 11
4.6228414708
 21
5.5762342697
  0
LINE
  5
24A
100
AcDbEntity
  8
0
100
AcDbLine
 62
9
  6
CONTINUOUS
 10
6.9828414708
 20
5.5762342696
 11
7.0128414708
 21
5.5762342696
  0
LINE
  5
24B
100
AcDbEntity
  8
0
100
AcDbLine
 62
6
  6
CONTINUOUS
 10
5.0053414708
 20
5.8387342696
 11
6.6303414708
 21
5.8387342696
  0
LINE
  5
24C
100
AcDbEntity
  8
0
100
AcDbLine
 62
9
  6
CONTINUOUS
 10
5.0053414708
 20
5.8687342696
 11
6.6303414708
 21
5.8687342696
  0
LINE
  5
24D
100
AcDbEntity
  8
0
100
AcDbLine
 62
9
  6
CONTINUOUS
 10
4.9753414708
 20
5.8987342696
 11
4.9453414708
 21
5.8987342697
  0
LINE
  5
24E
100
AcDbEntity
  8
0
100
AcDbLine
 62
9
  6
CONTINUOUS
 10
6.6603414708
 20
5.8987342696
 11
6.6903414708
 21
5.8987342696
  0
LINE
  5
24F
100
AcDbEntity
  8
0
100
AcDbLine
 62
7
  6
CONTINUOUS
 10
5.1338624885
 20
5.9386225896
 11
6.5018204531
 21
5.9386225896
  0
LINE
  5
250
100
AcDbEntity
  8
0
100
AcDbLine
 62
9
  6
CONTINUOUS
 10
5.1338624885
 20
5.9681668222
 11
6.5018204531
 21
5.9681668222
  0
LINE
  5
251
100
AcDbEntity
  8
0
100
AcDbLine
 62
9
  6
CONTINUOUS
 10
6.5904531508
 20
6.0272552873
 11
6.5609089183
 21
6.0272552873
  0
LINE
  5
252
100
AcDbEntity
  8
0
100
AcDbLine
 62
9
  6
CONTINUOUS
 10
5.0452297907
 20
6.0272552873
 11
5.0747740233
 21
6.0272552873
  0
LINE
  5
253
100
AcDbEntity
  8
0
100
AcDbLine
 62
9
  6
CONTINUOUS
 10
5.0747740233
 20
7.3952132519
 11
5.2789475156
 21
7.1910397597
  0
LINE
  5
254
100
AcDbEntity
  8
0
100
AcDbLine
 62
9
  6
CONTINUOUS
 10
6.5018204531
 20
5.9681668222
 11
6.2976469608
 21
6.1723403144
  0
LINE
  5
255
100
AcDbEntity
  8
0
100
AcDbLine
 62
9
  6
CONTINUOUS
 10
5.1338624885
 20
7.4543017171
 11
5.3380359808
 21
7.2501282248
  0
LINE
  5
256
100
AcDbEntity
  8
0
100
AcDbLine
 62
9
  6
CONTINUOUS
 10
6.5609089183
 20
6.0272552873
 11
6.356735426
 21
6.2314287796
  0
LINE
  5
257
100
AcDbEntity
  8
0
100
AcDbLine
 62
6
  6
CONTINUOUS
 10
5.3388414708
 20
6.1722342696
 11
6.2968414708
 21
6.1722342696
  0
LINE
  5
258
100
AcDbEntity
  8
0
100
AcDbLine
 62
9
  6
CONTINUOUS
 10
5.3388414708
 20
6.2022342696
 11
6.2968414708
 21
6.2022342696
  0
LINE
  5
259
100
AcDbEntity
  8
0
100
AcDbLine
 62
9
  6
CONTINUOUS
 10
5.3088414708
 20
6.2322342696
 11
5.2788414708
 21
6.2322342697
  0
LINE
  5
25A
100
AcDbEntity
  8
0
100
AcDbLine
 62
9
  6
CONTINUOUS
 10
6.3268414708
 20
6.2322342696
 11
6.3568414708
 21
6.2322342696
  0
LINE
  5
25B
100
AcDbEntity
  8
0
100
AcDbLine
 62
7
  6
CONTINUOUS
 10
5.4728414702
 20
6.3062342696
 11
6.1628414708
 21
6.3062342696
  0
LINE
  5
25C
100
AcDbEntity
  8
0
100
AcDbLine
 62
6
  6
CONTINUOUS
 10
5.4728414708
 20
6.3362342696
 11
6.1628414708
 21
6.3362342696
  0
LINE
  5
25D
100
AcDbEntity
  8
0
100
AcDbLine
 62
9
  6
CONTINUOUS
 10
5.4128414708
 20
6.3662342696
 11
6.2228414708
 21
6.366234269
  0
LINE
  5
25E
100
AcDbEntity
  8
0
100
AcDbLine
 62
9
  6
CONTINUOUS
 10
5.4128414708
 20
7.0562342702
 11
6.2228414708
 21
7.0562342696
  0
LINE
  5
25F
100
AcDbEntity
  8
0
100
AcDbLine
 62
6
  6
CONTINUOUS
 10
6.1628414708
 20
7.0862342696
 11
5.4728414708
 21
7.0862342696
  0
LINE
  5
260
100
AcDbEntity
  8
0
100
AcDbLine
 62
7
  6
CONTINUOUS
 10
6.1628414714
 20
7.1162342696
 11
5.4728414708
 21
7.1162342696
  0
LINE
  5
261
100
AcDbEntity
  8
0
100
AcDbLine
 62
9
  6
CONTINUOUS
 10
5.3088414708
 20
7.1902342696
 11
5.2788414708
 21
7.1902342696
  0
LINE
  5
262
100
AcDbEntity
  8
0
100
AcDbLine
 62
9
  6
CONTINUOUS
 10
6.3268414708
 20
7.1902342696
 11
6.3568414708
 21
7.1902342695
  0
LINE
  5
263
100
AcDbEntity
  8
0
100
AcDbLine
 62
9
  6
CONTINUOUS
 10
6.2968414708
 20
7.2202342696
 11
5.3388414708
 21
7.2202342696
  0
LINE
  5
264
100
AcDbEntity
  8
0
100
AcDbLine
 62
6
  6
CONTINUOUS
 10
6.2968414708
 20
7.2502342696
 11
5.3388414708
 21
7.2502342696
  0
LINE
  5
265
100
AcDbEntity
  8
0
100
AcDbLine
 62
9
  6
CONTINUOUS
 10
6.5904531508
 20
7.3952132519
 11
6.5609089183
 21
7.3952132519
  0
LINE
  5
266
100
AcDbEntity
  8
0
100
AcDbLine
 62
9
  6
CONTINUOUS
 10
5.0452297907
 20
7.3952132519
 11
5.0747740233
 21
7.3952132519
  0
LINE
  5
267
100
AcDbEntity
  8
0
100
AcDbLine
 62
9
  6
CONTINUOUS
 10
6.5018204531
 20
7.4543017171
 11
5.1338624885
 21
7.4543017171
  0
LINE
  5
268
100
AcDbEntity
  8
0
100
AcDbLine
 62
7
  6
CONTINUOUS
 10
6.5018204531
 20
7.4838459497
 11
5.1338624885
 21
7.4838459497
  0
LINE
  5
269
100
AcDbEntity
  8
0
100
AcDbLine
 62
9
  6
CONTINUOUS
 10
4.9753414708
 20
7.5237342696
 11
4.9453414708
 21
7.5237342696
  0
LINE
  5
26A
100
AcDbEntity
  8
0
100
AcDbLine
 62
9
  6
CONTINUOUS
 10
6.6603414708
 20
7.5237342696
 11
6.6903414708
 21
7.5237342695
  0
LINE
  5
26B
100
AcDbEntity
  8
0
100
AcDbLine
 62
9
  6
CONTINUOUS
 10
6.6303414708
 20
7.5537342696
 11
5.0053414708
 21
7.5537342696
  0
LINE
  5
26C
100
AcDbEntity
  8
0
100
AcDbLine
 62
6
  6
CONTINUOUS
 10
6.6303414708
 20
7.5837342696
 11
5.0053414708
 21
7.5837342696
  0
LINE
  5
26D
100
AcDbEntity
  8
0
100
AcDbLine
 62
9
  6
CONTINUOUS
 10
4.6528414708
 20
7.8462342696
 11
4.6228414708
 21
7.8462342696
  0
LINE
  5
26E
100
AcDbEntity
  8
0
100
AcDbLine
 62
9
  6
CONTINUOUS
 10
6.9828414708
 20
7.8462342696
 11
7.0128414708
 21
7.8462342696
  0
LINE
  5
26F
100
AcDbEntity
  8
0
100
AcDbLine
 62
9
  6
CONTINUOUS
 10
6.9528414708
 20
7.8762342696
 11
4.6828414708
 21
7.8762342696
  0
LINE
  5
270
100
AcDbEntity
  8
0
100
AcDbLine
 62
6
  6
CONTINUOUS
 10
6.9528414708
 20
7.9062342696
 11
4.6828414708
 21
7.9062342696
  0
ARC
  5
271
100
AcDbEntity
  8
0
100
AcDbCircle
 62
6
  6
CONTINUOUS
 10
4.6828414708
 20
5.5762342696
 40
0.06
100
AcDbArc
 50
180.0
 51
270.0
  0
ARC
  5
272
100
AcDbEntity
  8
0
100
AcDbCircle
 62
6
  6
CONTINUOUS
 10
5.0053414708
 20
5.8987342696
 40
0.06
100
AcDbArc
 50
180.0
 51
270.0
  0
ARC
  5
273
100
AcDbEntity
  8
0
100
AcDbCircle
 62
6
  6
CONTINUOUS
 10
5.3388414708
 20
6.2322342696
 40
0.06
100
AcDbArc
 50
180.0
 51
270.0
  0
ARC
  5
274
100
AcDbEntity
  8
0
100
AcDbCircle
 62
7
  6
CONTINUOUS
 10
5.4728414708
 20
6.3662342696
 40
0.06
100
AcDbArc
 50
180.0000000263
 51
269.9999994539
  0
ARC
  5
275
100
AcDbEntity
  8
0
100
AcDbCircle
 62
6
  6
CONTINUOUS
 10
5.4728414708
 20
6.3662342696
 40
0.03
100
AcDbArc
 50
180.0
 51
270.0
  0
ARC
  5
276
100
AcDbEntity
  8
0
100
AcDbCircle
 62
9
  6
CONTINUOUS
 10
5.0053414708
 20
5.8987342696
 40
0.03
100
AcDbArc
 50
180.0
 51
270.0
  0
ARC
  5
277
100
AcDbEntity
  8
0
100
AcDbCircle
 62
9
  6
CONTINUOUS
 10
4.6828414708
 20
5.5762342696
 40
0.03
100
AcDbArc
 50
180.0
 51
270.0
  0
ARC
  5
278
100
AcDbEntity
  8
0
100
AcDbCircle
 62
9
  6
CONTINUOUS
 10
5.3388414708
 20
6.2322342696
 40
0.03
100
AcDbArc
 50
180.0
 51
270.0
  0
ARC
  5
279
100
AcDbEntity
  8
0
100
AcDbCircle
 62
6
  6
CONTINUOUS
 10
4.6828414708
 20
7.8462342696
 40
0.06
100
AcDbArc
 50
90.0
 51
180.0
  0
ARC
  5
27A
100
AcDbEntity
  8
0
100
AcDbCircle
 62
6
  6
CONTINUOUS
 10
5.0053414708
 20
7.5237342696
 40
0.06
100
AcDbArc
 50
150.0000000687
 51
180.0
  0
ARC
  5
27B
100
AcDbEntity
  8
0
100
AcDbCircle
 62
7
  6
CONTINUOUS
 10
5.0053414708
 20
7.5237342696
 40
0.06
100
AcDbArc
 50
90.0
 51
150.0000000687
  0
ARC
  5
27C
100
AcDbEntity
  8
0
100
AcDbCircle
 62
6
  6
CONTINUOUS
 10
5.3388414708
 20
7.1902342696
 40
0.06
100
AcDbArc
 50
90.0
 51
180.0
  0
ARC
  5
27D
100
AcDbEntity
  8
0
100
AcDbCircle
 62
7
  6
CONTINUOUS
 10
5.4728414708
 20
7.0562342696
 40
0.06
100
AcDbArc
 50
90.0000000263
 51
179.9999994539
  0
ARC
  5
27E
100
AcDbEntity
  8
0
100
AcDbCircle
 62
6
  6
CONTINUOUS
 10
5.4728414708
 20
7.0562342696
 40
0.03
100
AcDbArc
 50
90.0
 51
180.0
  0
ARC
  5
27F
100
AcDbEntity
  8
0
100
AcDbCircle
 62
9
  6
CONTINUOUS
 10
5.0053414708
 20
7.5237342696
 40
0.03
100
AcDbArc
 50
90.0
 51
180.0
  0
ARC
  5
280
100
AcDbEntity
  8
0
100
AcDbCircle
 62
9
  6
CONTINUOUS
 10
4.6828414708
 20
7.8462342696
 40
0.03
100
AcDbArc
 50
90.0
 51
180.0
  0
ARC
  5
281
100
AcDbEntity
  8
0
100
AcDbCircle
 62
9
  6
CONTINUOUS
 10
5.3388414708
 20
7.1902342696
 40
0.03
100
AcDbArc
 50
90.0
 51
180.0
  0
ARC
  5
282
100
AcDbEntity
  8
0
100
AcDbCircle
 62
6
  6
CONTINUOUS
 10
6.9528414708
 20
5.5762342696
 40
0.06
100
AcDbArc
 50
270.0
 51
360.0
  0
ARC
  5
283
100
AcDbEntity
  8
0
100
AcDbCircle
 62
6
  6
CONTINUOUS
 10
6.6303414708
 20
5.8987342696
 40
0.06
100
AcDbArc
 50
270.0
 51
284.9999999158
  0
ARC
  5
284
100
AcDbEntity
  8
0
100
AcDbCircle
 62
7
  6
CONTINUOUS
 10
6.6303414708
 20
5.8987342696
 40
0.06
100
AcDbArc
 50
335.2901739831
 51
360.0
  0
ARC
  5
285
100
AcDbEntity
  8
0
100
AcDbCircle
 62
7
  6
CONTINUOUS
 10
6.6303414708
 20
5.8987342696
 40
0.06
100
AcDbArc
 50
284.9999999158
 51
330.0000000687
  0
ARC
  5
286
100
AcDbEntity
  8
0
100
AcDbCircle
 62
6
  6
CONTINUOUS
 10
6.2968414708
 20
6.2322342696
 40
0.06
100
AcDbArc
 50
270.0
 51
360.0
  0
ARC
  5
287
100
AcDbEntity
  8
0
100
AcDbCircle
 62
7
  6
CONTINUOUS
 10
6.1628414708
 20
6.3662342696
 40
0.06
100
AcDbArc
 50
270.0000000263
 51
359.9999994539
  0
ARC
  5
288
100
AcDbEntity
  8
0
100
AcDbCircle
 62
6
  6
CONTINUOUS
 10
6.6303414708
 20
5.8987342696
 40
0.06
100
AcDbArc
 50
330.0000000687
 51
335.2901739831
  0
ARC
  5
289
100
AcDbEntity
  8
0
100
AcDbCircle
 62
6
  6
CONTINUOUS
 10
6.1628414708
 20
6.3662342696
 40
0.03
100
AcDbArc
 50
270.0
 51
360.0
  0
ARC
  5
28A
100
AcDbEntity
  8
0
100
AcDbCircle
 62
9
  6
CONTINUOUS
 10
6.6303414708
 20
5.8987342696
 40
0.03
100
AcDbArc
 50
270.0
 51
360.0
  0
ARC
  5
28B
100
AcDbEntity
  8
0
100
AcDbCircle
 62
9
  6
CONTINUOUS
 10
6.9528414708
 20
5.5762342696
 40
0.03
100
AcDbArc
 50
270.0
 51
360.0
  0
ARC
  5
28C
100
AcDbEntity
  8
0
100
AcDbCircle
 62
9
  6
CONTINUOUS
 10
6.2968414708
 20
6.2322342696
 40
0.03
100
AcDbArc
 50
270.0
 51
360.0
  0
ARC
  5
28D
100
AcDbEntity
  8
0
100
AcDbCircle
 62
6
  6
CONTINUOUS
 10
6.2968414708
 20
7.1902342696
 40
0.06
100
AcDbArc
 50
0.0
 51
90.0
  0
ARC
  5
28E
100
AcDbEntity
  8
0
100
AcDbCircle
 62
7
  6
CONTINUOUS
 10
6.1628414708
 20
7.0562342696
 40
0.06
100
AcDbArc
 50
0.0000000263
 51
89.9999994539
  0
ARC
  5
28F
100
AcDbEntity
  8
0
100
AcDbCircle
 62
6
  6
CONTINUOUS
 10
6.1628414708
 20
7.0562342696
 40
0.03
100
AcDbArc
 50
0.0
 51
90.0
  0
ARC
  5
290
100
AcDbEntity
  8
0
100
AcDbCircle
 62
9
  6
CONTINUOUS
 10
6.2968414708
 20
7.1902342696
 40
0.03
100
AcDbArc
 50
0.0
 51
90.0
  0
ARC
  5
291
100
AcDbEntity
  8
0
100
AcDbCircle
 62
6
  6
CONTINUOUS
 10
6.9528414708
 20
7.8462342696
 40
0.06
100
AcDbArc
 50
0.0
 51
90.0
  0
ARC
  5
292
100
AcDbEntity
  8
0
100
AcDbCircle
 62
7
  6
CONTINUOUS
 10
6.6303414708
 20
7.5237342696
 40
0.06
100
AcDbArc
 50
0.0
 51
90.0
  0
ARC
  5
293
100
AcDbEntity
  8
0
100
AcDbCircle
 62
9
  6
CONTINUOUS
 10
6.6303414708
 20
7.5237342696
 40
0.03
100
AcDbArc
 50
0.0
 51
90.0
  0
ARC
  5
294
100
AcDbEntity
  8
0
100
AcDbCircle
 62
9
  6
CONTINUOUS
 10
6.9528414708
 20
7.8462342696
 40
0.03
100
AcDbArc
 50
0.0
 51
90.0
  0
SPLINE
  5
295
100
AcDbEntity
  8
0
100
AcDbSpline
 62
6
  6
CONTINUOUS
 70
0
 71
3
 72
144
 73
140
 74
0
 42
0.0000001
 43
0.0000001
 44
0.0000000001
 40
0.0
 40
0.0
 40
0.0
 40
0.0
 40
0.0048344359
 40
0.0095903206
 40
0.0142733102
 40
0.0188885538
 40
0.0234407116
 40
0.0279339783
 40
0.0323729277
 40
0.0367643599
 40
0.0411143016
 40
0.0454272403
 40
0.0497061816
 40
0.0539527242
 40
0.0581673401
 40
0.0623531633
 40
0.0665157324
 40
0.0706595923
 40
0.0747882191
 40
0.0789040906
 40
0.0830087641
 40
0.0871028675
 40
0.091186019
 40
0.0952572289
 40
0.1033640409
 40
0.1114577036
 40
0.1195794047
 40
0.1277462976
 40
0.135969931
 40
0.1442615129
 40
0.152625628
 40
0.1610570254
 40
0.1695494938
 40
0.1780967091
 40
0.186693789
 40
0.2040261777
 40
0.212756145
 40
0.2215241335
 40
0.2391571247
 40
0.2568906815
 40
0.274689726
 40
0.2925189261
 40
0.3103421099
 40
0.3281222788
 40
0.3458191666
 40
0.3633886319
 40
0.3721130554
 40
0.3807929073
 40
0.3894252947
 40
0.3980073002
 40
0.4022784957
 40
0.4065359989
 40
0.415008515
 40
0.4234221409
 40
0.4317743172
 40
0.4400621916
 40
0.4482808815
 40
0.4564250747
 40
0.4644897202
 40
0.4724701611
 40
0.4803630123
 40
0.4881658387
 40
0.4958767295
 40
0.503494357
 40
0.5110180464
 40
0.5184478504
 40
0.5257846283
 40
0.5330301306
 40
0.5401870647
 40
0.5472592388
 40
0.5542519678
 40
0.5611722707
 40
0.5680286467
 40
0.5748283713
 40
0.5815794161
 40
0.588292399
 40
0.5949807506
 40
0.6016579579
 40
0.6083336431
 40
0.6150195912
 40
0.618371426
 40
0.6217317693
 40
0.6251030351
 40
0.6284873185
 40
0.6318857071
 40
0.6352991609
 40
0.6421742585
 40
0.6456388291
 40
0.6491224938
 40
0.6526263343
 40
0.6561514716
 40
0.6579224466
 40
0.6596991689
 40
0.6632692578
 40
0.6668598825
 40
0.6704684435
 40
0.6740919202
 40
0.6777288064
 40
0.6813809038
 40
0.6850501329
 40
0.6887381373
 40
0.6924461838
 40
0.6999228065
 40
0.7074787138
 40
0.7151095346
 40
0.7228088064
 40
0.7305680776
 40
0.7383762545
 40
0.7462206433
 40
0.7540876054
 40
0.761962679
 40
0.7698307093
 40
0.7776760055
 40
0.7854824021
 40
0.793233311
 40
0.7970826911
 40
0.8009118625
 40
0.8085078313
 40
0.8160251087
 40
0.8308448705
 40
0.8454131981
 40
0.8597697929
 40
0.873949467
 40
0.8879758736
 40
0.8949386202
 40
0.901874886
 40
0.908791684
 40
0.9156959505
 40
0.9191455345
 40
0.9225945671
 40
0.9260440069
 40
0.9294948636
 40
0.9364048826
 40
0.9433327884
 40
0.9502866933
 40
0.9572719632
 40
0.971346808
 40
0.9855790112
 40
1.0
 40
1.0
 40
1.0
 40
1.0
 10
5.4393414708
 20
6.9082342696
 30
0.0
 10
5.4220708969
 20
6.9082342696
 30
0.0
 10
5.3878036166
 20
6.9073631314
 30
0.0
 10
5.3369427049
 20
6.9034458161
 30
0.0
 10
5.2871268014
 20
6.8970124014
 30
0.0
 10
5.2384260992
 20
6.8881461304
 30
0.0
 10
5.1909086201
 20
6.8769302611
 30
0.0
 10
5.1446397858
 20
6.8634471137
 30
0.0
 10
5.0996745619
 20
6.847774644
 30
0.0
 10
5.0560261649
 20
6.8300647719
 30
0.0
 10
5.0136904009
 20
6.8104651092
 30
0.0
 10
4.9726604601
 20
6.7891221729
 30
0.0
 10
4.9329293401
 20
6.7661822375
 30
0.0
 10
4.8944893647
 20
6.7417910508
 30
0.0
 10
4.857321014
 20
6.716085526
 30
0.0
 10
4.8213838501
 20
6.6891849869
 30
0.0
 10
4.7866136301
 20
6.6611956197
 30
0.0
 10
4.7529350122
 20
6.6322160734
 30
0.0
 10
4.7202722686
 20
6.6023445349
 30
0.0
 10
4.6885497263
 20
6.5716789871
 30
0.0
 10
4.6576917996
 20
6.5403177427
 30
0.0
 10
4.6276244882
 20
6.5083591115
 30
0.0
 10
4.5982936829
 20
6.4758848486
 30
0.0
 10
4.5601483091
 20
6.4320686334
 30
0.0
 10
4.5139280244
 20
6.3763031111
 30
0.0
 10
4.460152675
 20
6.3080478181
 30
0.0
 10
4.4074056932
 20
6.2387268747
 30
0.0
 10
4.3555181281
 20
6.1681830001
 30
0.0
 10
4.304384307
 20
6.0963451358
 30
0.0
 10
4.253923338
 20
6.0231758945
 30
0.0
 10
4.2040883149
 20
5.9486845447
 30
0.0
 10
4.1548748488
 20
5.8729241171
 30
0.0
 10
4.1062989394
 20
5.7959789359
 30
0.0
 10
4.0583754811
 20
5.7179303352
 30
0.0
 10
3.9951890681
 20
5.6122061869
 30
0.0
 10
3.9335080065
 20
5.5048319207
 30
0.0
 10
3.8732442095
 20
5.3959694483
 30
0.0
 10
3.8135807454
 20
5.28555419
 30
0.0
 10
3.7406729979
 20
5.145745608
 30
0.0
 10
3.6559263948
 20
4.9757612407
 30
0.0
 10
3.573774347
 20
4.8037317076
 30
0.0
 10
3.4942304706
 20
4.6301297532
 30
0.0
 10
3.4173065216
 20
4.4554257499
 30
0.0
 10
3.3430177278
 20
4.2800990812
 30
0.0
 10
3.2713887895
 20
4.1046485074
 30
0.0
 10
3.2138078655
 20
3.9584198776
 30
0.0
 10
3.1690693455
 20
3.8417634515
 30
0.0
 10
3.1362669925
 20
3.7547253617
 30
0.0
 10
3.1041340101
 20
3.6679803708
 30
0.0
 10
3.0778702385
 20
3.5958579115
 30
0.0
 10
3.0571858843
 20
3.5383374552
 30
0.0
 10
3.0367949101
 20
3.4811274163
 30
0.0
 10
3.0117614102
 20
3.4098620504
 30
0.0
 10
2.9824776251
 20
3.3245877005
 30
0.0
 10
2.954082683
 20
3.239708291
 30
0.0
 10
2.9266613746
 20
3.1552409634
 30
0.0
 10
2.9003017742
 20
3.0712143948
 30
0.0
 10
2.8750951725
 20
2.987667057
 30
0.0
 10
2.8511341649
 20
2.9046391274
 30
0.0
 10
2.8285078933
 20
2.8221678261
 30
0.0
 10
2.8073208924
 20
2.7402802668
 30
0.0
 10
2.7876820576
 20
2.6589973279
 30
0.0
 10
2.769698426
 20
2.5783385237
 30
0.0
 10
2.7534774528
 20
2.4983232082
 30
0.0
 10
2.7391265425
 20
2.4189707192
 30
0.0
 10
2.7267532326
 20
2.340300351
 30
0.0
 10
2.7164650131
 20
2.2623313533
 30
0.0
 10
2.7083699628
 20
2.1850830786
 30
0.0
 10
2.7025745411
 20
2.1085746686
 30
0.0
 10
2.6992274778
 20
2.0328219444
 30
0.0
 10
2.6984796029
 20
1.9578421709
 30
0.0
 10
2.7004825809
 20
1.8836542885
 30
0.0
 10
2.7053833887
 20
1.8102897358
 30
0.0
 10
2.713351353
 20
1.7377997836
 30
0.0
 10
2.7245651895
 20
1.6662556098
 30
0.0
 10
2.7392014076
 20
1.5957350477
 30
0.0
 10
2.7574351203
 20
1.5263269879
 30
0.0
 10
2.7794267326
 20
1.4581523042
 30
0.0
 10
2.8053245716
 20
1.3913704365
 30
0.0
 10
2.8302642188
 20
1.3370750719
 30
0.0
 10
2.8522819762
 20
1.2945687405
 30
0.0
 10
2.8698734232
 20
1.2631265383
 30
0.0
 10
2.8885450804
 20
1.2321781502
 30
0.0
 10
2.908306124
 20
1.2017515473
 30
0.0
 10
2.9291458264
 20
1.171868844
 30
0.0
 10
2.9584217253
 20
1.1326984085
 30
0.0
 10
2.9897646068
 20
1.0948080271
 30
0.0
 10
3.0230623308
 20
1.0583315437
 30
0.0
 10
3.0491239407
 20
1.0315822173
 30
0.0
 10
3.0761947761
 20
1.0055427465
 30
0.0
 10
3.0995494875
 20
0.9844899699
 30
0.0
 10
3.1187211709
 20
0.9680303998
 30
0.0
 10
3.138280106
 20
0.9517804063
 30
0.0
 10
3.1633211748
 20
0.9319636024
 30
0.0
 10
3.1941936433
 20
0.9089982468
 30
0.0
 10
3.2258589036
 20
0.8868055563
 30
0.0
 10
3.2582436457
 20
0.8653766294
 30
0.0
 10
3.2912936036
 20
0.8446946344
 30
0.0
 10
3.3249753417
 20
0.824736443
 30
0.0
 10
3.3592665238
 20
0.8054697256
 30
0.0
 10
3.3941462085
 20
0.786862061
 30
0.0
 10
3.4415318025
 20
0.7628232812
 30
0.0
 10
3.5021229263
 20
0.7343061337
 30
0.0
 10
3.5765826107
 20
0.7024755506
 30
0.0
 10
3.6527822034
 20
0.6728074224
 30
0.0
 10
3.7305106504
 20
0.6451706827
 30
0.0
 10
3.8095524711
 20
0.61943091
 30
0.0
 10
3.8896990942
 20
0.5954955336
 30
0.0
 10
3.9707377761
 20
0.5732822579
 30
0.0
 10
4.0524533649
 20
0.5527077185
 30
0.0
 10
4.1346306227
 20
0.5336881694
 30
0.0
 10
4.2170555384
 20
0.5161435769
 30
0.0
 10
4.2995175212
 20
0.5000090656
 30
0.0
 10
4.381805374
 20
0.485217906
 30
0.0
 10
4.4502113716
 20
0.4739306756
 30
0.0
 10
4.5046839773
 20
0.4655033071
 30
0.0
 10
4.5586621222
 20
0.4575076537
 30
0.0
 10
4.6256940138
 20
0.4482218742
 30
0.0
 10
4.7317897968
 20
0.4348507462
 30
0.0
 10
4.8628820818
 20
0.4206985743
 30
0.0
 10
5.0186000918
 20
0.4073938489
 30
0.0
 10
5.172273901
 20
0.3974227211
 30
0.0
 10
5.3241683356
 20
0.3903596894
 30
0.0
 10
5.4497522265
 20
0.3865319858
 30
0.0
 10
5.5494931236
 20
0.3845064817
 30
0.0
 10
5.6238486599
 20
0.3834522052
 30
0.0
 10
5.6979998009
 20
0.3828069739
 30
0.0
 10
5.7596973409
 20
0.3825661558
 30
0.0
 10
5.8090068662
 20
0.3825259694
 30
0.0
 10
5.8459743408
 20
0.382564285
 30
0.0
 10
5.8829462222
 20
0.3826746864
 30
0.0
 10
5.932281676
 20
0.3829274212
 30
0.0
 10
5.9940422438
 20
0.3834569868
 30
0.0
 10
6.0683123889
 20
0.3844843434
 30
0.0
 10
6.142844131
 20
0.385954125
 30
0.0
 10
6.2428877803
 20
0.3885771833
 30
0.0
 10
6.3688858911
 20
0.3932287075
 30
0.0
 10
6.521317129
 20
0.401383814
 30
0.0
 10
6.6234195421
 20
0.4087645835
 30
0.0
 10
6.6747623715
 20
0.4130050611
 30
0.0
  0
SPLINE
  5
296
100
AcDbEntity
  8
0
100
AcDbSpline
 62
6
  6
CONTINUOUS
 70
0
 71
3
 72
147
 73
143
 74
0
 42
0.0000001
 43
0.0000001
 44
0.0000000001
 40
0.0
 40
0.0
 40
0.0
 40
0.0
 40
0.0033674502
 40
0.0066053481
 40
0.0097383558
 40
0.0127908943
 40
0.0157868079
 40
0.0187490303
 40
0.0216980462
 40
0.0246499724
 40
0.0276199924
 40
0.030622875
 40
0.0336728392
 40
0.0367834511
 40
0.0399669426
 40
0.0432292447
 40
0.0465726385
 40
0.0499987513
 40
0.0535086523
 40
0.0571029163
 40
0.0607816845
 40
0.064544924
 40
0.0683924637
 40
0.072323702
 40
0.0763357407
 40
0.0804187184
 40
0.0824832013
 40
0.0845610452
 40
0.0866507611
 40
0.0887509988
 40
0.0929810152
 40
0.0972483466
 40
0.1015504751
 40
0.1058848667
 40
0.1146401723
 40
0.1234945905
 40
0.1324391283
 40
0.1414726068
 40
0.1505938535
 40
0.1598012517
 40
0.1690902457
 40
0.1784545437
 40
0.1878877156
 40
0.2069355153
 40
0.2261889983
 40
0.2456040643
 40
0.2651341578
 40
0.2847310671
 40
0.3043456429
 40
0.3239283697
 40
0.3434333936
 40
0.3531430898
 40
0.3628159302
 40
0.3724433623
 40
0.382016507
 40
0.3867799441
 40
0.3915264673
 40
0.3962549588
 40
0.4009641837
 40
0.410318811
 40
0.4195782412
 40
0.4287304828
 40
0.437764037
 40
0.4466700781
 40
0.4554412324
 40
0.4640704377
 40
0.4725509091
 40
0.4808752585
 40
0.4890357669
 40
0.4970251181
 40
0.5048364785
 40
0.5124635737
 40
0.5199007793
 40
0.5271432282
 40
0.5341869379
 40
0.5410289908
 40
0.5476676266
 40
0.5541020698
 40
0.5603326362
 40
0.5663615692
 40
0.5721965588
 40
0.5778481553
 40
0.5833282645
 40
0.5886503458
 40
0.5938343192
 40
0.5989086965
 40
0.6039038107
 40
0.6063816963
 40
0.6088515219
 40
0.6137840595
 40
0.6162591061
 40
0.6187483086
 40
0.6212582588
 40
0.6237956635
 40
0.6263673076
 40
0.6289800169
 40
0.6316406227
 40
0.6343559286
 40
0.6399742136
 40
0.6458751201
 40
0.6489415597
 40
0.6520843974
 40
0.6553005687
 40
0.6585868608
 40
0.6653570317
 40
0.6688363768
 40
0.6723752824
 40
0.6796212884
 40
0.6870738101
 40
0.6947099211
 40
0.702506319
 40
0.7104398337
 40
0.7184863939
 40
0.7266210919
 40
0.734818323
 40
0.7430518278
 40
0.7512947622
 40
0.7595198017
 40
0.767699215
 40
0.7838469266
 40
0.7997330096
 40
0.8154040479
 40
0.8309043717
 40
0.8462785524
 40
0.8539349747
 40
0.8615801048
 40
0.8692202471
 40
0.8768581184
 40
0.8844947288
 40
0.8921309908
 40
0.8959492568
 40
0.8997677372
 40
0.9035864392
 40
0.907405311
 40
0.9150433662
 40
0.9226815684
 40
0.9303197926
 40
0.9379612767
 40
0.9532811134
 40
0.9686965704
 40
0.9842551364
 40
1.0
 40
1.0
 40
1.0
 40
1.0
 10
5.4393414708
 20
6.5142342696
 30
0.0
 10
5.4285576726
 20
6.5142342696
 30
0.0
 10
5.407400504
 20
6.5137254578
 30
0.0
 10
5.3762904456
 20
6.5113634465
 30
0.0
 10
5.3463503144
 20
6.5074706795
 30
0.0
 10
5.3174280478
 20
6.5020994368
 30
0.0
 10
5.2893704216
 20
6.4953022195
 30
0.0
 10
5.2620275079
 20
6.4871358497
 30
0.0
 10
5.2352624383
 20
6.477654291
 30
0.0
 10
5.2089824794
 20
6.466835492
 30
0.0
 10
5.1831092985
 20
6.4546674185
 30
0.0
 10
5.1575664952
 20
6.4411374659
 30
0.0
 10
5.1322772317
 20
6.4262335575
 30
0.0
 10
5.1071660959
 20
6.4099444073
 30
0.0
 10
5.0821729339
 20
6.3922708747
 30
0.0
 10
5.0572603909
 20
6.373231139
 30
0.0
 10
5.0324153013
 20
6.3528560916
 30
0.0
 10
5.007632253
 20
6.3311822285
 30
0.0
 10
4.9829061271
 20
6.3082458768
 30
0.0
 10
4.9582313657
 20
6.2840838081
 30
0.0
 10
4.9336038839
 20
6.2587304234
 30
0.0
 10
4.9090105032
 20
6.2322271465
 30
0.0
 10
4.8844213421
 20
6.2046281013
 30
0.0
 10
4.8598125125
 20
6.1759882145
 30
0.0
 10
4.8351759118
 20
6.1463850163
 30
0.0
 10
4.814703043
 20
6.1210985149
 30
0.0
 10
4.7983048259
 20
6.1004849087
 30
0.0
 10
4.7859632373
 20
6.0848011195
 30
0.0
 10
4.7736274412
 20
6.0689674004
 30
0.0
 10
4.7571496953
 20
6.0476241527
 30
0.0
 10
4.7365848599
 20
6.0206267534
 30
0.0
 10
4.7120216399
 20
5.9878129165
 30
0.0
 10
4.6875288717
 20
5.9545305152
 30
0.0
 10
4.6548755718
 20
5.9094113183
 30
0.0
 10
4.6143417259
 20
5.8520029178
 30
0.0
 10
4.5663328011
 20
5.7818115486
 30
0.0
 10
4.5188397889
 20
5.7101988295
 30
0.0
 10
4.4718666797
 20
5.6372260075
 30
0.0
 10
4.4254040807
 20
5.562932582
 30
0.0
 10
4.3794467298
 20
5.4873664129
 30
0.0
 10
4.3339988624
 20
5.4105870691
 30
0.0
 10
4.2890731195
 20
5.3326654238
 30
0.0
 10
4.2296986592
 20
5.2270092775
 30
0.0
 10
4.1569407444
 20
5.0925585809
 30
0.0
 10
4.0721745641
 20
4.9283018861
 30
0.0
 10
3.9897311442
 20
4.7611443176
 30
0.0
 10
3.9096632711
 20
4.5916203614
 30
0.0
 10
3.8320248324
 20
4.4202695262
 30
0.0
 10
3.7568702109
 20
4.2476318932
 30
0.0
 10
3.6842486386
 20
4.074233425
 30
0.0
 10
3.6257865145
 20
3.9293091434
 30
0.0
 10
3.5802828653
 20
3.8133875621
 30
0.0
 10
3.5468636453
 20
3.7267056158
 30
0.0
 10
3.5141133734
 20
3.6402362565
 30
0.0
 10
3.4873472089
 20
3.5683134081
 30
0.0
 10
3.4662763851
 20
3.5109497754
 30
0.0
 10
3.4506748495
 20
3.4681052201
 30
0.0
 10
3.4352508173
 20
3.4253809724
 30
0.0
 10
3.4149731986
 20
3.3687201691
 30
0.0
 10
3.3901229063
 20
3.2982852059
 30
0.0
 10
3.3611167198
 20
3.2142307549
 30
0.0
 10
3.3330970484
 20
3.1309261687
 30
0.0
 10
3.3061653583
 20
3.0484529252
 30
0.0
 10
3.2804198362
 20
2.9668802427
 30
0.0
 10
3.2559550854
 20
2.8862662205
 30
0.0
 10
3.232863772
 20
2.8066657136
 30
0.0
 10
3.2112423083
 20
2.7281360858
 30
0.0
 10
3.1911731474
 20
2.650744649
 30
0.0
 10
3.1727313804
 20
2.5745660842
 30
0.0
 10
3.1559947417
 20
2.4996766353
 30
0.0
 10
3.1410404388
 20
2.4261526615
 30
0.0
 10
3.1279458255
 20
2.3540703923
 30
0.0
 10
3.1167882185
 20
2.2835059467
 30
0.0
 10
3.1076450411
 20
2.2145353298
 30
0.0
 10
3.1005935476
 20
2.1472342091
 30
0.0
 10
3.0957119102
 20
2.0816784694
 30
0.0
 10
3.0930340214
 20
2.0179472691
 30
0.0
 10
3.092593273
 20
1.9561180663
 30
0.0
 10
3.0944224643
 20
1.8962658455
 30
0.0
 10
3.0985596762
 20
1.8384512006
 30
0.0
 10
3.105017364
 20
1.7827137228
 30
0.0
 10
3.113802623
 20
1.7290735062
 30
0.0
 10
3.1249246836
 20
1.6775455287
 30
0.0
 10
3.1383965325
 20
1.6281294696
 30
0.0
 10
3.1542493747
 20
1.5807904252
 30
0.0
 10
3.1725221958
 20
1.5354576426
 30
0.0
 10
3.1898510096
 20
1.4991728607
 30
0.0
 10
3.2049382942
 20
1.4711281217
 30
0.0
 10
3.220816981
 20
1.4437561424
 30
0.0
 10
3.2380032728
 20
1.4171689889
 30
0.0
 10
3.2565318466
 20
1.3914503854
 30
0.0
 10
3.2711808265
 20
1.3725153846
 30
0.0
 10
3.2866006432
 20
1.3539426866
 30
0.0
 10
3.3028272572
 20
1.3357153886
 30
0.0
 10
3.3198963564
 20
1.3178170389
 30
0.0
 10
3.3378436128
 20
1.3002310497
 30
0.0
 10
3.3567048561
 20
1.2829406279
 30
0.0
 10
3.3834198658
 20
1.2600006358
 30
0.0
 10
3.4194057738
 20
1.2319704175
 30
0.0
 10
3.4578741051
 20
1.205434457
 30
0.0
 10
3.4906334423
 20
1.1846724646
 30
0.0
 10
3.5165242118
 20
1.1691511143
 30
0.0
 10
3.5433852775
 20
1.1538963624
 30
0.0
 10
3.5808086627
 20
1.13373932
 30
0.0
 10
3.619632898
 20
1.114429921
 30
0.0
 10
3.6597155683
 20
1.0959032008
 30
0.0
 10
3.7015246034
 20
1.0774961418
 30
0.0
 10
3.7555836382
 20
1.0553630451
 30
0.0
 10
3.822600598
 20
1.0303463919
 30
0.0
 10
3.8919769907
 20
1.0066998177
 30
0.0
 10
3.9634234997
 20
0.9844381865
 30
0.0
 10
4.0366464532
 20
0.9635371912
 30
0.0
 10
4.1113583916
 20
0.9439771723
 30
0.0
 10
4.1872713125
 20
0.925736204
 30
0.0
 10
4.2640972646
 20
0.9087948423
 30
0.0
 10
4.3415441445
 20
0.8931175645
 30
0.0
 10
4.4193189205
 20
0.8786650519
 30
0.0
 10
4.497128796
 20
0.8653988032
 30
0.0
 10
4.600125379
 20
0.8493045237
 30
0.0
 10
4.7277351547
 20
0.8318914303
 30
0.0
 10
4.8795764259
 20
0.8149615911
 30
0.0
 10
5.0296991832
 20
0.8017006001
 30
0.0
 10
5.1784292687
 20
0.7917071319
 30
0.0
 10
5.301682748
 20
0.7857595873
 30
0.0
 10
5.3998553864
 20
0.7822431632
 30
0.0
 10
5.4732945739
 20
0.7801735781
 30
0.0
 10
5.5466868522
 20
0.7786184117
 30
0.0
 10
5.6200601104
 20
0.7775264264
 30
0.0
 10
5.6934258154
 20
0.7768468904
 30
0.0
 10
5.7545622248
 20
0.7765819111
 30
0.0
 10
5.8034719338
 20
0.7765258561
 30
0.0
 10
5.8401564503
 20
0.7765542248
 30
0.0
 10
5.8768427854
 20
0.7766544849
 30
0.0
 10
5.9257603408
 20
0.7768935444
 30
0.0
 10
5.9869080107
 20
0.7774045855
 30
0.0
 10
6.0602820309
 20
0.778406354
 30
0.0
 10
6.1336599092
 20
0.7798458683
 30
0.0
 10
6.231617611
 20
0.7824164157
 30
0.0
 10
6.3544346019
 20
0.786979019
 30
0.0
 10
6.5024759212
 20
0.79498841
 30
0.0
 10
6.6516961513
 20
0.8059227815
 30
0.0
 10
6.7515060056
 20
0.8153554529
 30
0.0
 10
6.8016461402
 20
0.820667782
 30
0.0
  0
SPLINE
  5
297
100
AcDbEntity
  8
0
100
AcDbSpline
 62
7
  6
CONTINUOUS
 70
0
 71
3
 72
23
 73
19
 74
0
 42
0.0000001
 43
0.0000001
 44
0.0000000001
 40
0.0
 40
0.0
 40
0.0
 40
0.0
 40
0.0624503731
 40
0.1249841029
 40
0.1875053094
 40
0.2499974549
 40
0.3124861635
 40
0.3749858555
 40
0.4374856343
 40
0.4999845669
 40
0.5624846983
 40
0.624988703
 40
0.6874941099
 40
0.7499899009
 40
0.8124904145
 40
0.8750166242
 40
0.9375504856
 40
1.0
 40
1.0
 40
1.0
 40
1.0
 10
5.1338624886
 20
7.4838459497
 30
0.0
 10
5.1309615794
 20
7.4838457546
 30
0.0
 10
5.1251521498
 20
7.4835665279
 30
0.0
 10
5.1165192786
 20
7.4823175457
 30
0.0
 10
5.1080455235
 20
7.4802351202
 30
0.0
 10
5.0998178622
 20
7.4773354276
 30
0.0
 10
5.0919159879
 20
7.4736407798
 30
0.0
 10
5.0844179028
 20
7.4691826269
 30
0.0
 10
5.0773973462
 20
7.4640037845
 30
0.0
 10
5.0709294616
 20
7.4581492661
 30
0.0
 10
5.0650744064
 20
7.451681573
 30
0.0
 10
5.059895265
 20
7.4446606088
 30
0.0
 10
5.0554360053
 20
7.4371622582
 30
0.0
 10
5.0517410576
 20
7.4292594159
 30
0.0
 10
5.0488408971
 20
7.421030925
 30
0.0
 10
5.0467581546
 20
7.4125565938
 30
0.0
 10
5.0455091675
 20
7.4039235171
 30
0.0
 10
5.0452299995
 20
7.3981141212
 30
0.0
 10
5.0452297907
 20
7.3952132519
 30
0.0
  0
SPLINE
  5
298
100
AcDbEntity
  8
0
100
AcDbSpline
 62
7
  6
CONTINUOUS
 70
0
 71
3
 72
23
 73
19
 74
0
 42
0.0000001
 43
0.0000001
 44
0.0000000001
 40
0.0
 40
0.0
 40
0.0
 40
0.0
 40
0.0624503731
 40
0.1249841029
 40
0.1875053094
 40
0.2499974549
 40
0.3124861635
 40
0.3749858555
 40
0.4374856343
 40
0.4999845669
 40
0.5624846983
 40
0.624988703
 40
0.6874941099
 40
0.7499899009
 40
0.8124904145
 40
0.8750166242
 40
0.9375504856
 40
1.0
 40
1.0
 40
1.0
 40
1.0
 10
6.5904531508
 20
7.3952132518
 30
0.0
 10
6.5904529558
 20
7.398114161
 30
0.0
 10
6.590173729
 20
7.4039235906
 30
0.0
 10
6.5889247468
 20
7.4125564618
 30
0.0
 10
6.5868423214
 20
7.4210302169
 30
0.0
 10
6.5839426287
 20
7.4292578782
 30
0.0
 10
6.5802479809
 20
7.4371597525
 30
0.0
 10
6.5757898281
 20
7.4446578376
 30
0.0
 10
6.5706109857
 20
7.4516783942
 30
0.0
 10
6.5647564673
 20
7.4581462788
 30
0.0
 10
6.5582887741
 20
7.464001334
 30
0.0
 10
6.5512678099
 20
7.4691804754
 30
0.0
 10
6.5437694594
 20
7.4736397351
 30
0.0
 10
6.5358666171
 20
7.4773346828
 30
0.0
 10
6.5276381262
 20
7.4802348433
 30
0.0
 10
6.519163795
 20
7.4823175858
 30
0.0
 10
6.5105307183
 20
7.483566573
 30
0.0
 10
6.5047213224
 20
7.4838457409
 30
0.0
 10
6.5018204531
 20
7.4838459497
 30
0.0
  0
SPLINE
  5
299
100
AcDbEntity
  8
0
100
AcDbSpline
 62
7
  6
CONTINUOUS
 70
0
 71
3
 72
23
 73
19
 74
0
 42
0.0000001
 43
0.0000001
 44
0.0000000001
 40
0.0
 40
0.0
 40
0.0
 40
0.0
 40
0.0624503731
 40
0.1249841029
 40
0.1875053094
 40
0.2499974549
 40
0.3124861635
 40
0.3749858555
 40
0.4374856343
 40
0.4999845669
 40
0.5624846983
 40
0.624988703
 40
0.6874941099
 40
0.7499899009
 40
0.8124904145
 40
0.8750166242
 40
0.9375504856
 40
1.0
 40
1.0
 40
1.0
 40
1.0
 10
6.501820453
 20
5.9386225896
 30
0.0
 10
6.5047213622
 20
5.9386227846
 30
0.0
 10
6.5105307918
 20
5.9389020114
 30
0.0
 10
6.519163663
 20
5.9401509936
 30
0.0
 10
6.5276374181
 20
5.942233419
 30
0.0
 10
6.5358650794
 20
5.9451331117
 30
0.0
 10
6.5437669537
 20
5.9488277595
 30
0.0
 10
6.5512650388
 20
5.9532859123
 30
0.0
 10
6.5582855954
 20
5.9584647547
 30
0.0
 10
6.56475348
 20
5.9643192731
 30
0.0
 10
6.5706085352
 20
5.9707869663
 30
0.0
 10
6.5757876766
 20
5.9778079305
 30
0.0
 10
6.5802469363
 20
5.9853062811
 30
0.0
 10
6.583941884
 20
5.9932091233
 30
0.0
 10
6.5868420445
 20
6.0014376143
 30
0.0
 10
6.588924787
 20
6.0099119454
 30
0.0
 10
6.5901737741
 20
6.0185450221
 30
0.0
 10
6.5904529421
 20
6.024354418
 30
0.0
 10
6.5904531508
 20
6.0272552873
 30
0.0
  0
SPLINE
  5
29A
100
AcDbEntity
  8
0
100
AcDbSpline
 62
7
  6
CONTINUOUS
 70
0
 71
3
 72
23
 73
19
 74
0
 42
0.0000001
 43
0.0000001
 44
0.0000000001
 40
0.0
 40
0.0
 40
0.0
 40
0.0
 40
0.0624503731
 40
0.1249841029
 40
0.1875053094
 40
0.2499974549
 40
0.3124861635
 40
0.3749858555
 40
0.4374856343
 40
0.4999845669
 40
0.5624846983
 40
0.624988703
 40
0.6874941099
 40
0.7499899009
 40
0.8124904145
 40
0.8750166242
 40
0.9375504856
 40
1.0
 40
1.0
 40
1.0
 40
1.0
 10
5.0452297907
 20
6.0272552874
 30
0.0
 10
5.0452299858
 20
6.0243543782
 30
0.0
 10
5.0455092126
 20
6.0185449487
 30
0.0
 10
5.0467581948
 20
6.0099120774
 30
0.0
 10
5.0488406202
 20
6.0014383223
 30
0.0
 10
5.0517403128
 20
5.993210661
 30
0.0
 10
5.0554349606
 20
5.9853087867
 30
0.0
 10
5.0598931135
 20
5.9778107016
 30
0.0
 10
5.0650719559
 20
5.970790145
 30
0.0
 10
5.0709264743
 20
5.9643222604
 30
0.0
 10
5.0773941675
 20
5.9584672052
 30
0.0
 10
5.0844151317
 20
5.9532880638
 30
0.0
 10
5.0919134822
 20
5.9488288041
 30
0.0
 10
5.0998163245
 20
5.9451338564
 30
0.0
 10
5.1080448154
 20
5.9422336959
 30
0.0
 10
5.1165191466
 20
5.9401509534
 30
0.0
 10
5.1251522233
 20
5.9389019663
 30
0.0
 10
5.1309616192
 20
5.9386227983
 30
0.0
 10
5.1338624885
 20
5.9386225896
 30
0.0
  0
SPLINE
  5
29B
100
AcDbEntity
  8
0
100
AcDbSpline
 62
6
  6
CONTINUOUS
 70
0
 71
3
 72
126
 73
122
 74
0
 42
0.0000001
 43
0.0000001
 44
0.0000000001
 40
0.0
 40
0.0
 40
0.0
 40
0.0
 40
0.0142315935
 40
0.0286706285
 40
0.0359765727
 40
0.0433447722
 40
0.0507787622
 40
0.058277125
 40
0.0658298533
 40
0.0734262583
 40
0.0887080952
 40
0.1040410061
 40
0.1117015275
 40
0.1193450389
 40
0.1269624209
 40
0.1345450895
 40
0.142085635
 40
0.1495780535
 40
0.1570172738
 40
0.1643992338
 40
0.1717209982
 40
0.1789814391
 40
0.186184671
 40
0.1933383747
 40
0.2004495431
 40
0.2075119097
 40
0.2110223354
 40
0.2145177744
 40
0.2162597692
 40
0.2179978891
 40
0.2214625622
 40
0.2249121969
 40
0.2283471097
 40
0.2351733262
 40
0.2419440998
 40
0.2486616231
 40
0.2553304286
 40
0.2619622145
 40
0.2685687109
 40
0.2751599179
 40
0.2817441331
 40
0.2883289557
 40
0.2949243776
 40
0.3015397126
 40
0.308182549
 40
0.3148588225
 40
0.3215735397
 40
0.3283336567
 40
0.3420144117
 40
0.3489468175
 40
0.3559449357
 40
0.3630115919
 40
0.3701493142
 40
0.3773600373
 40
0.384645119
 40
0.3994405078
 40
0.4145371917
 40
0.429929396
 40
0.437733022
 40
0.4456050694
 40
0.4535424957
 40
0.4615420684
 40
0.4777137341
 40
0.494095323
 40
0.5023594717
 40
0.5106696672
 40
0.519023679
 40
0.5232163995
 40
0.5274191991
 40
0.5358537863
 40
0.5443249403
 40
0.552830162
 40
0.5613669644
 40
0.5785253725
 40
0.5957805909
 40
0.6131130512
 40
0.6304998988
 40
0.6479153069
 40
0.6653336588
 40
0.6827297095
 40
0.7000787005
 40
0.717358156
 40
0.7345480721
 40
0.7516291619
 40
0.7685828373
 40
0.7853911401
 40
0.8020317874
 40
0.818477136
 40
0.8347047391
 40
0.8427398494
 40
0.8507271219
 40
0.8586702462
 40
0.8626264582
 40
0.8665730681
 40
0.8705109985
 40
0.8744444395
 40
0.88232095
 40
0.8902355307
 40
0.8942061631
 40
0.898184224
 40
0.9021694552
 40
0.9061624489
 40
0.9141757011
 40
0.9222377495
 40
0.9303697105
 40
0.9385893112
 40
0.9427340143
 40
0.9469033555
 40
0.9510995883
 40
0.9553257811
 40
0.9595858449
 40
0.9617301491
 40
0.9638846479
 40
0.968225083
 40
0.972609539
 40
0.9770404438
 40
0.9815205498
 40
0.9860529466
 40
0.9906410694
 40
0.995288706
 40
1.0
 40
1.0
 40
1.0
 40
1.0
 10
6.6747623715
 20
0.4130050611
 30
0.0
 10
6.7172997917
 20
0.4165182874
 30
0.0
 10
6.8029364751
 20
0.42432291
 30
0.0
 10
6.9102020307
 20
0.4360487727
 30
0.0
 10
6.9968567295
 20
0.4467672097
 30
0.0
 10
7.0625791089
 20
0.4555455896
 30
0.0
 10
7.1287826824
 20
0.4650556195
 30
0.0
 10
7.1954329431
 20
0.4753244087
 30
0.0
 10
7.2624479301
 20
0.4864002038
 30
0.0
 10
7.3523150515
 20
0.5023288514
 30
0.0
 10
7.4647778306
 20
0.5244270127
 30
0.0
 10
7.5767707636
 20
0.5497093068
 30
0.0
 10
7.6658869887
 20
0.5721066672
 30
0.0
 10
7.7322614411
 20
0.5900146948
 30
0.0
 10
7.7980686858
 20
0.6090850003
 30
0.0
 10
7.8631907853
 20
0.6293642673
 30
0.0
 10
7.9275100195
 20
0.6509118101
 30
0.0
 10
7.9909078572
 20
0.6738011771
 30
0.0
 10
8.0532683763
 20
0.6981039271
 30
0.0
 10
8.1144757086
 20
0.723892186
 30
0.0
 10
8.1744149172
 20
0.7512397858
 30
0.0
 10
8.2329850541
 20
0.7802228241
 30
0.0
 10
8.2900801952
 20
0.8109683801
 30
0.0
 10
8.3455954043
 20
0.8436130634
 30
0.0
 10
8.3993853912
 20
0.8782576313
 30
0.0
 10
8.4426786031
 20
0.9089296517
 30
0.0
 10
8.476202932
 20
0.9345540811
 30
0.0
 10
8.4966418914
 20
0.9510083269
 30
0.0
 10
8.5126762341
 20
0.9644467204
 30
0.0
 10
8.5284586347
 20
0.9780391707
 30
0.0
 10
8.5477782865
 20
0.9953686449
 30
0.0
 10
8.5703196747
 20
1.0167115074
 30
0.0
 10
8.5994080619
 20
1.0457816729
 30
0.0
 10
8.6340661417
 20
1.0833429171
 30
0.0
 10
8.6729038061
 20
1.1303234706
 30
0.0
 10
8.7088269713
 20
1.1789846663
 30
0.0
 10
8.7417709776
 20
1.2292114341
 30
0.0
 10
8.7717789092
 20
1.2808588679
 30
0.0
 10
8.7989130526
 20
1.3338091739
 30
0.0
 10
8.8232389249
 20
1.3879487331
 30
0.0
 10
8.8448233192
 20
1.443166965
 30
0.0
 10
8.8637362306
 20
1.4993678414
 30
0.0
 10
8.8800672812
 20
1.5564676858
 30
0.0
 10
8.8939135308
 20
1.6143974563
 30
0.0
 10
8.9053727803
 20
1.6730916264
 30
0.0
 10
8.914542985
 20
1.7324864414
 30
0.0
 10
8.9215233913
 20
1.7925315371
 30
0.0
 10
8.9280552434
 20
1.8737255307
 30
0.0
 10
8.9305127737
 20
1.9558495026
 30
0.0
 10
8.9293526749
 20
2.0386577979
 30
0.0
 10
8.9267457916
 20
2.1015850834
 30
0.0
 10
8.922485634
 20
2.1650374036
 30
0.0
 10
8.9166320016
 20
2.2290025132
 30
0.0
 10
8.9092485226
 20
2.2934679956
 30
0.0
 10
8.8973865549
 20
2.3805168639
 30
0.0
 10
8.8789979218
 20
2.4905184947
 30
0.0
 10
8.8519366008
 20
2.6236310216
 30
0.0
 10
8.8256685052
 20
2.735446877
 30
0.0
 10
8.8026183083
 20
2.825728776
 30
0.0
 10
8.7842758028
 20
2.8941324259
 30
0.0
 10
8.7650101298
 20
2.9628919634
 30
0.0
 10
8.7380645831
 20
3.0553445037
 30
0.0
 10
8.7023389429
 20
3.1716094077
 30
0.0
 10
8.6644604544
 20
3.2880229522
 30
0.0
 10
8.6329070021
 20
3.3816904146
 30
0.0
 10
8.6085938226
 20
3.452390243
 30
0.0
 10
8.5879160844
 20
3.5114264715
 30
0.0
 10
8.5711301227
 20
3.558772809
 30
0.0
 10
8.5541502145
 20
3.6063066263
 30
0.0
 10
8.5326415999
 20
3.6658481628
 30
0.0
 10
8.5064034361
 20
3.7373998693
 30
0.0
 10
8.4797079776
 20
3.8091094673
 30
0.0
 10
8.4434442094
 20
3.9050566406
 30
0.0
 10
8.3969860091
 20
4.0252031656
 30
0.0
 10
8.3394983414
 20
4.1693587876
 30
0.0
 10
8.280184898
 20
4.3135143134
 30
0.0
 10
8.2190563522
 20
4.4574319745
 30
0.0
 10
8.1561290106
 20
4.6008539724
 30
0.0
 10
8.091423445
 20
4.7435132568
 30
0.0
 10
8.0249599626
 20
4.8851425309
 30
0.0
 10
7.9567572147
 20
5.0254800231
 30
0.0
 10
7.8868246052
 20
5.1642722837
 30
0.0
 10
7.8151626594
 20
5.3012742313
 30
0.0
 10
7.7417701461
 20
5.4362466646
 30
0.0
 10
7.6666457128
 20
5.568950217
 30
0.0
 10
7.5897960062
 20
5.6991315786
 30
0.0
 10
7.5112481431
 20
5.8265091653
 30
0.0
 10
7.4310404587
 20
5.9507812166
 30
0.0
 10
7.3625868639
 20
6.0518878352
 30
0.0
 10
7.306935055
 20
6.1309974836
 30
0.0
 10
7.264856193
 20
6.1892702968
 30
0.0
 10
7.2293232477
 20
6.2371747265
 30
0.0
 10
7.2006333716
 20
6.2750619295
 30
0.0
 10
7.1790047709
 20
6.3032277383
 30
0.0
 10
7.1572288174
 20
6.3311933609
 30
0.0
 10
7.127919252
 20
6.3682290326
 30
0.0
 10
7.0905658121
 20
6.4141058534
 30
0.0
 10
7.0520702847
 20
6.4591797842
 30
0.0
 10
7.020397742
 20
6.4946828626
 30
0.0
 10
6.9961533594
 20
6.5210141988
 30
0.0
 10
6.9714119986
 20
6.5469725676
 30
0.0
 10
6.9376677709
 20
6.581056924
 30
0.0
 10
6.8939999038
 20
6.6225077469
 30
0.0
 10
6.8389806656
 20
6.6699241652
 30
0.0
 10
6.7809715957
 20
6.7146642789
 30
0.0
 10
6.7300838974
 20
6.749229179
 30
0.0
 10
6.6877173705
 20
6.7750112257
 30
0.0
 10
6.6549959346
 20
6.7933868708
 30
0.0
 10
6.6214067418
 20
6.8106658887
 30
0.0
 10
6.5869369565
 20
6.8267687931
 30
0.0
 10
6.5575317548
 20
6.8391144539
 30
0.0
 10
6.5335695797
 20
6.8483229811
 30
0.0
 10
6.509195067
 20
6.8571150176
 30
0.0
 10
6.4781623363
 20
6.867227414
 30
0.0
 10
6.4401611577
 20
6.8778835163
 30
0.0
 10
6.4013399712
 20
6.8870399629
 30
0.0
 10
6.3617333596
 20
6.8946454452
 30
0.0
 10
6.3213755136
 20
6.9006488677
 30
0.0
 10
6.2803004682
 20
6.9049990704
 30
0.0
 10
6.2385434745
 20
6.9076449103
 30
0.0
 10
6.210471206
 20
6.9082342696
 30
0.0
 10
6.1963414708
 20
6.9082342696
 30
0.0
  0
SPLINE
  5
29C
100
AcDbEntity
  8
0
100
AcDbSpline
 62
6
  6
CONTINUOUS
 70
0
 71
3
 72
133
 73
129
 74
0
 42
0.0000001
 43
0.0000001
 44
0.0000000001
 40
0.0
 40
0.0
 40
0.0
 40
0.0
 40
0.0157973513
 40
0.0237727349
 40
0.031804116
 40
0.0398931282
 40
0.0480275104
 40
0.05618952
 40
0.0643615898
 40
0.0806664163
 40
0.0887660281
 40
0.0968090556
 40
0.1047800471
 40
0.112663924
 40
0.1204460406
 40
0.1281121443
 40
0.1356476447
 40
0.1430380699
 40
0.1502695645
 40
0.1573290171
 40
0.164204214
 40
0.1708828532
 40
0.177349451
 40
0.1835885629
 40
0.1895910975
 40
0.1953671541
 40
0.2009320532
 40
0.2036408121
 40
0.2063047699
 40
0.2115170511
 40
0.2166079661
 40
0.2216157684
 40
0.2265777874
 40
0.2315275797
 40
0.2364890011
 40
0.2414836741
 40
0.246532861
 40
0.2516572505
 40
0.2568760953
 40
0.2622034725
 40
0.267651028
 40
0.273229697
 40
0.2789497083
 40
0.2848203173
 40
0.2908468229
 40
0.2970316865
 40
0.3033766555
 40
0.3098828745
 40
0.3165509534
 40
0.3233808446
 40
0.3303713536
 40
0.3375205589
 40
0.3448260028
 40
0.3522847561
 40
0.3598934728
 40
0.3676484393
 40
0.3755456159
 40
0.3835806739
 40
0.3917490276
 40
0.4000458658
 40
0.4084665261
 40
0.4170067902
 40
0.4256622957
 40
0.4433004454
 40
0.4613412005
 40
0.4704963825
 40
0.4797316045
 40
0.489039399
 40
0.4984122111
 40
0.5031206202
 40
0.5078425139
 40
0.5173243222
 40
0.5268529905
 40
0.5364239168
 40
0.5556741371
 40
0.5750384771
 40
0.5944806089
 40
0.613965885
 40
0.633465199
 40
0.6529509816
 40
0.6723960223
 40
0.6917735127
 40
0.7110566291
 40
0.7302162391
 40
0.7492227055
 40
0.7680470019
 40
0.7866608037
 40
0.8050373774
 40
0.8231588605
 40
0.8410130738
 40
0.8498352403
 40
0.8585789522
 40
0.8672357178
 40
0.8757971315
 40
0.8800395028
 40
0.8842549302
 40
0.8884423929
 40
0.8926007371
 40
0.8967249294
 40
0.900805713
 40
0.9088005504
 40
0.9127038802
 40
0.916543231
 40
0.9203184375
 40
0.924029371
 40
0.9276753566
 40
0.9312557057
 40
0.9347699313
 40
0.9382177703
 40
0.9415992089
 40
0.9449145101
 40
0.9481642447
 40
0.9513499082
 40
0.9575505032
 40
0.9605799264
 40
0.963571442
 40
0.9665325858
 40
0.9694711225
 40
0.9723950081
 40
0.9753126751
 40
0.9782354515
 40
0.9811764994
 40
0.9841495482
 40
0.9871687793
 40
0.9902487029
 40
0.9934040301
 40
0.996649547
 40
1.0
 40
1.0
 40
1.0
 40
1.0
 10
6.8016461402
 20
0.820667782
 30
0.0
 10
6.8416118204
 20
0.8249021314
 30
0.0
 10
6.9016989184
 20
0.8318174169
 30
0.0
 10
6.981942145
 20
0.842201759
 30
0.0
 10
7.0426585014
 20
0.8506556406
 30
0.0
 10
7.103689059
 20
0.8597644835
 30
0.0
 10
7.1649504999
 20
0.8695560095
 30
0.0
 10
7.2263092883
 20
0.8800556697
 30
0.0
 10
7.3079867992
 20
0.8950171234
 30
0.0
 10
7.3892256622
 20
0.9114708401
 30
0.0
 10
7.4697650378
 20
0.9295822413
 30
0.0
 10
7.5294087118
 20
0.9439467515
 30
0.0
 10
7.5882809646
 20
0.9591372217
 30
0.0
 10
7.6462415656
 20
0.9751696096
 30
0.0
 10
7.7031500857
 20
0.9920591574
 30
0.0
 10
7.7588629266
 20
1.0098225458
 30
0.0
 10
7.8132384228
 20
1.0284578196
 30
0.0
 10
7.8661336105
 20
1.0479578331
 30
0.0
 10
7.9174042914
 20
1.0683163079
 30
0.0
 10
7.9669065094
 20
1.0895266363
 30
0.0
 10
8.014493682
 20
1.1115814959
 30
0.0
 10
8.060006861
 20
1.1344655014
 30
0.0
 10
8.1032932938
 20
1.1581141683
 30
0.0
 10
8.1442004955
 20
1.1824656158
 30
0.0
 10
8.1826201872
 20
1.2074917848
 30
0.0
 10
8.2185143433
 20
1.2331769611
 30
0.0
 10
8.2465806996
 20
1.2553352503
 30
0.0
 10
8.2677438641
 20
1.2734062335
 30
0.0
 10
8.2877609965
 20
1.291423316
 30
0.0
 10
8.3113991406
 20
1.3144595573
 30
0.0
 10
8.3377816385
 20
1.3431426984
 30
0.0
 10
8.3621437759
 20
1.3727405384
 30
0.0
 10
8.3846527171
 20
1.4033246268
 30
0.0
 10
8.4054645893
 20
1.4349459301
 30
0.0
 10
8.4246352622
 20
1.4676846998
 30
0.0
 10
8.442201427
 20
1.5015961271
 30
0.0
 10
8.4581974852
 20
1.536731165
 30
0.0
 10
8.4726571089
 20
1.5731392695
 30
0.0
 10
8.4856122034
 20
1.610857566
 30
0.0
 10
8.4970775637
 20
1.6499117816
 30
0.0
 10
8.5070588267
 20
1.6903140544
 30
0.0
 10
8.5155607771
 20
1.7320722662
 30
0.0
 10
8.5225881794
 20
1.7751937369
 30
0.0
 10
8.5281436251
 20
1.8196769571
 30
0.0
 10
8.532237517
 20
1.8655049561
 30
0.0
 10
8.5348810836
 20
1.912647388
 30
0.0
 10
8.5360837786
 20
1.9610686622
 30
0.0
 10
8.535855365
 20
2.0107330379
 30
0.0
 10
8.5342050799
 20
2.0616043137
 30
0.0
 10
8.531143937
 20
2.1136438351
 30
0.0
 10
8.5267091264
 20
2.1668120187
 30
0.0
 10
8.52093643
 20
2.2210678897
 30
0.0
 10
8.5138619998
 20
2.2763700907
 30
0.0
 10
8.5055218608
 20
2.3326772302
 30
0.0
 10
8.4959520548
 20
2.3899478764
 30
0.0
 10
8.4851886036
 20
2.4481405635
 30
0.0
 10
8.4732675414
 20
2.5072138006
 30
0.0
 10
8.4602248428
 20
2.5671260579
 30
0.0
 10
8.4460967018
 20
2.627835845
 30
0.0
 10
8.4309182508
 20
2.689302335
 30
0.0
 10
8.4147273982
 20
2.7514879082
 30
0.0
 10
8.3975716618
 20
2.8143603877
 30
0.0
 10
8.3733194207
 20
2.8995982769
 30
0.0
 10
8.3408193265
 20
3.0076111222
 30
0.0
 10
8.3061034833
 20
3.1162650019
 30
0.0
 10
8.2769529851
 20
3.2042449995
 30
0.0
 10
8.2543518631
 20
3.270988459
 30
0.0
 10
8.2311719191
 20
3.3381189835
 30
0.0
 10
8.2114464072
 20
3.3942576029
 30
0.0
 10
8.1954237094
 20
3.4393306419
 30
0.0
 10
8.1792026112
 20
3.4846273101
 30
0.0
 10
8.1586464787
 20
3.5413969992
 30
0.0
 10
8.1335655401
 20
3.609647487
 30
0.0
 10
8.0994717451
 20
3.7010610138
 30
0.0
 10
8.0557911956
 20
3.8156037118
 30
0.0
 10
8.0017740202
 20
3.9530738951
 30
0.0
 10
7.9460993837
 20
4.090526921
 30
0.0
 10
7.8888021276
 20
4.2276839666
 30
0.0
 10
7.8299122511
 20
4.364286018
 30
0.0
 10
7.7694538357
 20
4.5000894258
 30
0.0
 10
7.7074497064
 20
4.6348534015
 30
0.0
 10
7.6439233188
 20
4.7683361826
 30
0.0
 10
7.5789014421
 20
4.9002883495
 30
0.0
 10
7.5124218368
 20
5.030453667
 30
0.0
 10
7.4445270143
 20
5.158567492
 30
0.0
 10
7.3752604422
 20
5.2843627798
 30
0.0
 10
7.3046646487
 20
5.407574273
 30
0.0
 10
7.2327704872
 20
5.5279559252
 30
0.0
 10
7.159589065
 20
5.6452887248
 30
0.0
 10
7.097288516
 20
5.7407329823
 30
0.0
 10
7.0467856504
 20
5.815363383
 30
0.0
 10
7.0087709513
 20
5.8701864462
 30
0.0
 10
6.9704996543
 20
5.9240187501
 30
0.0
 10
6.9383250078
 20
5.9681297344
 30
0.0
 10
6.9124781622
 20
6.0028668323
 30
0.0
 10
6.8931079882
 20
6.0285521967
 30
0.0
 10
6.8736984444
 20
6.0539392518
 30
0.0
 10
6.8542623796
 20
6.0790129641
 30
0.0
 10
6.8348135436
 20
6.1037325417
 30
0.0
 10
6.8090573506
 20
6.1359066314
 30
0.0
 10
6.7831986026
 20
6.1672782562
 30
0.0
 10
6.7571626663
 20
6.1976950858
 30
0.0
 10
6.7378044124
 20
6.2196936198
 30
0.0
 10
6.7184438258
 20
6.2410339414
 30
0.0
 10
6.6990659522
 20
6.2616893075
 30
0.0
 10
6.6796670041
 20
6.2816392916
 30
0.0
 10
6.6602448117
 20
6.3008619374
 30
0.0
 10
6.6407974959
 20
6.3193348796
 30
0.0
 10
6.6213231783
 20
6.3370357529
 30
0.0
 10
6.6018199194
 20
6.3539422254
 30
0.0
 10
6.5822859005
 20
6.3700318052
 30
0.0
 10
6.5627175907
 20
6.3852834544
 30
0.0
 10
6.5368006722
 20
6.4043076187
 30
0.0
 10
6.51049332
 20
6.4218364609
 30
0.0
 10
6.4837714234
 20
6.4377418864
 30
0.0
 10
6.4637347165
 20
6.4487385006
 30
0.0
 10
6.4435202249
 20
6.4588998119
 30
0.0
 10
6.4230987432
 20
6.4682324813
 30
0.0
 10
6.4024403184
 20
6.4767420775
 30
0.0
 10
6.3815087786
 20
6.4844411853
 30
0.0
 10
6.3602441999
 20
6.4913113168
 30
0.0
 10
6.3385760929
 20
6.4973288974
 30
0.0
 10
6.3164320493
 20
6.5024738118
 30
0.0
 10
6.2937395593
 20
6.5067255132
 30
0.0
 10
6.2704262757
 20
6.5100638284
 30
0.0
 10
6.2464196874
 20
6.5124687516
 30
0.0
 10
6.2216477997
 20
6.5139204697
 30
0.0
 10
6.2048652155
 20
6.5142342696
 30
0.0
 10
6.1963414708
 20
6.5142342696
 30
0.0
  0
SPLINE
  5
29D
100
AcDbEntity
  8
0
100
AcDbSpline
 62
9
  6
CONTINUOUS
 70
0
 71
3
 72
23
 73
19
 74
0
 42
0.0000001
 43
0.0000001
 44
0.0000000001
 40
0.0
 40
0.0
 40
0.0
 40
0.0
 40
0.0623367358
 40
0.1247928179
 40
0.1872770286
 40
0.2497672419
 40
0.3122834807
 40
0.3748366979
 40
0.4374056074
 40
0.4999838145
 40
0.5625631104
 40
0.6251366057
 40
0.6876961022
 40
0.7502195328
 40
0.8127185052
 40
0.8752079848
 40
0.9376642059
 40
1.0
 40
1.0
 40
1.0
 40
1.0
 10
6.5018204531
 20
5.9681668222
 30
0.0
 10
6.5037611323
 20
5.9681389819
 30
0.0
 10
6.507651354
 20
5.9682676055
 30
0.0
 10
6.5134428735
 20
5.9690153747
 30
0.0
 10
6.5191391884
 20
5.970326751
 30
0.0
 10
6.524679508
 20
5.9721963623
 30
0.0
 10
6.5300062422
 20
5.9746141391
 30
0.0
 10
6.5350618932
 20
5.9775620208
 30
0.0
 10
6.5397918904
 20
5.9810120044
 30
0.0
 10
6.5441398514
 20
5.9849337787
 30
0.0
 10
6.5480620369
 20
5.9892815876
 30
0.0
 10
6.5515121864
 20
5.9940119119
 30
0.0
 10
6.5544609096
 20
5.9990677248
 30
0.0
 10
6.5568788576
 20
6.0043951603
 30
0.0
 10
6.5587487905
 20
6.0099360575
 30
0.0
 10
6.5600603944
 20
6.0156327787
 30
0.0
 10
6.5608081793
 20
6.0214244402
 30
0.0
 10
6.5609367579
 20
6.0253146374
 30
0.0
 10
6.5609089183
 20
6.0272552873
 30
0.0
  0
SPLINE
  5
29E
100
AcDbEntity
  8
0
100
AcDbSpline
 62
9
  6
CONTINUOUS
 70
0
 71
3
 72
23
 73
19
 74
0
 42
0.0000001
 43
0.0000001
 44
0.0000000001
 40
0.0
 40
0.0
 40
0.0
 40
0.0
 40
0.0623367358
 40
0.1247928179
 40
0.1872770286
 40
0.2497672419
 40
0.3122834807
 40
0.3748366979
 40
0.4374056074
 40
0.4999838145
 40
0.5625631104
 40
0.6251366057
 40
0.6876961022
 40
0.7502195328
 40
0.8127185052
 40
0.8752079848
 40
0.9376642059
 40
1.0
 40
1.0
 40
1.0
 40
1.0
 10
6.5609089183
 20
7.3952132519
 30
0.0
 10
6.5609367586
 20
7.3971539311
 30
0.0
 10
6.5608081349
 20
7.4010441529
 30
0.0
 10
6.5600603657
 20
7.4068356723
 30
0.0
 10
6.5587489894
 20
7.4125319873
 30
0.0
 10
6.5568793781
 20
7.4180723068
 30
0.0
 10
6.5544616013
 20
7.423399041
 30
0.0
 10
6.5515137196
 20
7.428454692
 30
0.0
 10
6.548063736
 20
7.4331846892
 30
0.0
 10
6.5441419617
 20
7.4375326502
 30
0.0
 10
6.5397941528
 20
7.4414548357
 30
0.0
 10
6.5350638286
 20
7.4449049852
 30
0.0
 10
6.5300080157
 20
7.4478537085
 30
0.0
 10
6.5246805801
 20
7.4502716564
 30
0.0
 10
6.5191396829
 20
7.4521415893
 30
0.0
 10
6.5134429617
 20
7.4534531932
 30
0.0
 10
6.5076513002
 20
7.4542009781
 30
0.0
 10
6.503761103
 20
7.4543295567
 30
0.0
 10
6.5018204531
 20
7.4543017171
 30
0.0
  0
SPLINE
  5
29F
100
AcDbEntity
  8
0
100
AcDbSpline
 62
9
  6
CONTINUOUS
 70
0
 71
3
 72
23
 73
19
 74
0
 42
0.0000001
 43
0.0000001
 44
0.0000000001
 40
0.0
 40
0.0
 40
0.0
 40
0.0
 40
0.0623367358
 40
0.1247928179
 40
0.1872770286
 40
0.2497672419
 40
0.3122834807
 40
0.3748366979
 40
0.4374056074
 40
0.4999838145
 40
0.5625631104
 40
0.6251366057
 40
0.6876961022
 40
0.7502195328
 40
0.8127185052
 40
0.8752079848
 40
0.9376642059
 40
1.0
 40
1.0
 40
1.0
 40
1.0
 10
5.1338624885
 20
7.4543017171
 30
0.0
 10
5.1319218093
 20
7.4543295574
 30
0.0
 10
5.1280315876
 20
7.4542009337
 30
0.0
 10
5.1222400681
 20
7.4534531645
 30
0.0
 10
5.1165437532
 20
7.4521417882
 30
0.0
 10
5.1110034336
 20
7.4502721769
 30
0.0
 10
5.1056766994
 20
7.4478544001
 30
0.0
 10
5.1006210484
 20
7.4449065184
 30
0.0
 10
5.0958910512
 20
7.4414565349
 30
0.0
 10
5.0915430902
 20
7.4375347606
 30
0.0
 10
5.0876209047
 20
7.4331869516
 30
0.0
 10
5.0841707552
 20
7.4284566274
 30
0.0
 10
5.0812220319
 20
7.4234008145
 30
0.0
 10
5.078804084
 20
7.4180733789
 30
0.0
 10
5.0769341511
 20
7.4125324817
 30
0.0
 10
5.0756225472
 20
7.4068357605
 30
0.0
 10
5.0748747623
 20
7.4010440991
 30
0.0
 10
5.0747461837
 20
7.3971539018
 30
0.0
 10
5.0747740233
 20
7.3952132519
 30
0.0
  0
SPLINE
  5
2A0
100
AcDbEntity
  8
0
100
AcDbSpline
 62
9
  6
CONTINUOUS
 70
0
 71
3
 72
23
 73
19
 74
0
 42
0.0000001
 43
0.0000001
 44
0.0000000001
 40
0.0
 40
0.0
 40
0.0
 40
0.0
 40
0.0623367358
 40
0.1247928179
 40
0.1872770286
 40
0.2497672419
 40
0.3122834807
 40
0.3748366979
 40
0.4374056074
 40
0.4999838145
 40
0.5625631104
 40
0.6251366057
 40
0.6876961022
 40
0.7502195328
 40
0.8127185052
 40
0.8752079848
 40
0.9376642059
 40
1.0
 40
1.0
 40
1.0
 40
1.0
 10
5.0747740233
 20
6.0272552873
 30
0.0
 10
5.074746183
 20
6.0253146081
 30
0.0
 10
5.0748748067
 20
6.0214243864
 30
0.0
 10
5.0756225759
 20
6.015632867
 30
0.0
 10
5.0769339522
 20
6.009936552
 30
0.0
 10
5.0788035635
 20
6.0043962324
 30
0.0
 10
5.0812213403
 20
5.9990694983
 30
0.0
 10
5.084169222
 20
5.9940138472
 30
0.0
 10
5.0876192056
 20
5.98928385
 30
0.0
 10
5.0915409799
 20
5.9849358891
 30
0.0
 10
5.0958887888
 20
5.9810137035
 30
0.0
 10
5.100619113
 20
5.9775635541
 30
0.0
 10
5.1056749259
 20
5.9746148308
 30
0.0
 10
5.1110023615
 20
5.9721968828
 30
0.0
 10
5.1165432587
 20
5.9703269499
 30
0.0
 10
5.1222399799
 20
5.969015346
 30
0.0
 10
5.1280316414
 20
5.9682675611
 30
0.0
 10
5.1319218386
 20
5.9681389826
 30
0.0
 10
5.1338624885
 20
5.9681668222
 30
0.0
  0
ENDSEC
  0
SECTION
  2
OBJECTS
  0
DICTIONARY
  5
C
100
AcDbDictionary
280
0
281
1
  3
ACAD_GROUP
350
D
  3
ACAD_MLINESTYLE
350
17
  3
ACAD_LAYOUT
350
1A
  3
ACAD_PLOTSETTINGS
350
19
  3
ACAD_PLOTSTYLENAME
350
E
  0
DICTIONARY
  5
D
102
{ACAD_REACTORS
330
C
102
}
100
AcDbDictionary
280
0
281
1
  0
ACDBDICTIONARYWDFLT
  5
E
102
{ACAD_REACTORS
330
C
102
}
100
AcDbDictionary
281
1
  3
Normal
350
F
100
AcDbDictionaryWithDefault
340
F
  0
DICTIONARY
  5
17
102
{ACAD_REACTORS
330
C
102
}
100
AcDbDictionary
280
0
281
1
  3
Standard
350
18
  0
DICTIONARY
  5
19
102
{ACAD_REACTORS
330
C
102
}
100
AcDbDictionary
281
1
  0
DICTIONARY
  5
1A
102
{ACAD_REACTORS
330
C
102
}
100
AcDbDictionary
281
1
  3
Model
350
2A1
  3
Layout1
350
2A2
  0
ACDBPLACEHOLDER
  5
F
102
{ACAD_REACTORS
330
E
102
}
  0
MLINESTYLE
  5
18
102
{ACAD_REACTORS
330
17
102
}
100
AcDbMlineStyle
  2
STANDARD
 70
0
  3

 62
256
 51
90.0
 52
90.0
 71
2
 49
0.5
 62
256
  6
BYLAYER
 49
-0.5
 62
256
  6
BYLAYER
  0
LAYOUT
  5
2A1
102
{ACAD_REACTORS
330
1A
102
}
100
AcDbPlotSettings
  1

  2
none_device
  4
ISO_A4_(297.00_x_210.00_MM)
  6

 40
0.0
 41
0.0
 42
0.0
 43
0.0
 44
297.0
 45
210.0
 46
0.0
 47
0.0
 48
0.0
 49
0.0
140
0.0
141
0.0
142
1.0
143
1.0
 70
1024
 72
0
 73
0
 74
0
  7

 75
0
147
1.0
148
0.0
149
0.0
100
AcDbLayout
  1
Model
 70
0
 71
0
 10
0.0
 20
0.0
 11
11.6929133858
 21
8.2677165354
 12
0.0
 22
0.0
 32
0.0
 14
0.0
 24
0.0
 34
0.0
 15
0.0
 25
0.0
 35
0.0
146
0.0
 13
0.0
 23
0.0
 33
0.0
 16
1.0
 26
0.0
 36
0.0
 17
0.0
 27
1.0
 37
0.0
 76
0
330
202
345
0
346
0
  0
LAYOUT
  5
2A2
102
{ACAD_REACTORS
330
1A
102
}
100
AcDbPlotSettings
  1

  2
none_device
  4
ISO_A4_(297.00_x_210.00_MM)
  6

 40
0.0
 41
0.0
 42
0.0
 43
0.0
 44
297.0
 45
210.0
 46
0.0
 47
0.0
 48
0.0
 49
0.0
140
0.0
141
0.0
142
1.0
143
1.0
 70
0
 72
0
 73
0
 74
0
  7

 75
0
147
1.0
148
0.0
149
0.0
100
AcDbLayout
  1
Layout1
 70
0
 71
1
 10
0.0
 20
0.0
 11
11.6929133858
 21
8.2677165354
 12
0.0
 22
0.0
 32
0.0
 14
0.0
 24
0.0
 34
0.0
 15
0.0
 25
0.0
 35
0.0
146
0.0
 13
0.0
 23
0.0
 33
0.0
 16
1.0
 26
0.0
 36
0.0
 17
0.0
 27
1.0
 37
0.0
 76
0
330
203
345
0
346
0
  0
ENDSEC
  0
EOF
