999
DXF file: 43-09_TOP.dxf
999
Pro/ENGINEER 2014000 by Parametric Technology Corporation
  0
SECTION
  2
HEADER
  9
$ACADVER
  1
AC1015
  9
$DWGCODEPAGE
  3
ANSI_1252
  9
$EXTMAX
 10
11.6929133858
 20
8.2677165354
 30
0.0
  9
$EXTMIN
 10
0.0
 20
0.0
 30
0.0
  9
$LIMMIN
 10
0.0
 20
0.0
  9
$LIMMAX
 10
11.6929133858
 20
8.2677165354
  9
$VIEWCTR
 10
5.8464566929
 20
4.1338582677
  9
$VIEWSIZE
 40
8.2677165354
  9
$CLAYER
  8
0
  9
$LTSCALE
 40
0.6431102362
  9
$CELTYPE
  6
BYLAYER
  9
$DIMSCALE
 40
1.0
  9
$DIMASZ
 40
0.1875
  9
$DIMEXO
 40
0.0625
  9
$DIMDLI
 40
0.4443307087
  9
$DIMEXE
 40
0.125
  9
$DIMCEN
 40
0.1052362205
  9
$DIMLFAC
 40
1.0
  9
$DIMBLK
  1
_CLOSED
  9
$DIMTXT
 40
0.15625
  9
$DIMTOL
 70
0
  9
$DIMLIM
 70
0
  9
$DIMTFAC
 40
1.0
  9
$DIMGAP
 40
0.09
  9
$DIMDSEP
 70
46
  9
$PDMODE
 70
3
  9
$PDSIZE
 40
0.3125
  9
$HANDSEED
  5
293
  9
$TILEMODE
 70
1
  9
$MEASUREMENT
 70
0
  9
$INSUNITS
 70
1
  0
ENDSEC
  0
SECTION
  2
CLASSES
  0
CLASS
  1
ACDBDICTIONARYWDFLT
  2
AcDbDictionaryWithDefault
  3
AutoCAD 2000
 90
0
280
0
281
0
  0
CLASS
  1
ACDBPLACEHOLDER
  2
AcDbPlaceHolder
  3
AutoCAD 2000
 90
0
280
0
281
0
  0
CLASS
  1
LAYOUT
  2
AcDbLayout
  3
AutoCAD 2000
 90
0
280
0
281
0
  0
ENDSEC
  0
SECTION
  2
TABLES
  0
TABLE
  2
VPORT
  5
8
100
AcDbSymbolTable
 70
2
  0
VPORT
  5
1F4
100
AcDbSymbolTableRecord
100
AcDbViewportTableRecord
  2
*ACTIVE
 70
0
 10
0.0
 20
0.0
 11
1.0
 21
1.0
 12
5.8464566929
 22
4.1338582677
 13
0.0
 23
0.0
 14
1.0
 24
1.0
 15
0.0
 25
0.0
 16
0.0
 26
0.0
 36
1.0
 17
0.0
 27
0.0
 37
0.0
 40
8.2677165354
 41
1.4142857143
 42
50.0
 43
0.0
 44
0.0
 50
0.0
 51
0.0
 71
0
 72
100
 73
1
 74
1
 75
0
 76
0
 77
0
 78
0
  0
ENDTAB
  0
TABLE
  2
LTYPE
  5
5
100
AcDbSymbolTable
 70
6
  0
LTYPE
  5
14
100
AcDbSymbolTableRecord
100
AcDbLinetypeTableRecord
  2
BYBLOCK
 70
0
  3

 72
65
 73
0
 40
0.0
  0
LTYPE
  5
15
100
AcDbSymbolTableRecord
100
AcDbLinetypeTableRecord
  2
BYLAYER
 70
0
  3

 72
65
 73
0
 40
0.0
  0
LTYPE
  5
16
100
AcDbSymbolTableRecord
100
AcDbLinetypeTableRecord
  2
CONTINUOUS
 70
64
  3
Solid line
 72
65
 73
0
 40
0.0
  0
LTYPE
  5
1F5
100
AcDbSymbolTableRecord
100
AcDbLinetypeTableRecord
  2
CENTER
 70
64
  3
____ _ ____ _ ____ _ ____ _ ____ _ ____ _ ____
 72
65
 73
4
 40
0.6
 49
0.375
 74
0
 49
-0.075
 74
0
 49
0.075
 74
0
 49
-0.075
 74
0
  0
LTYPE
  5
1F6
100
AcDbSymbolTableRecord
100
AcDbLinetypeTableRecord
  2
HIDDEN
 70
64
  3
- - - - - - - - - - - - - - - - - - - -
 72
65
 73
2
 40
0.2
 49
0.1
 74
0
 49
-0.1
 74
0
  0
LTYPE
  5
1F7
100
AcDbSymbolTableRecord
100
AcDbLinetypeTableRecord
  2
PHANTOM
 70
64
  3
_____ _ _ _____ _ _ _____ _ _ _____
 72
65
 73
6
 40
0.8
 49
0.45
 74
0
 49
-0.05
 74
0
 49
0.1
 74
0
 49
-0.05
 74
0
 49
0.1
 74
0
 49
-0.05
 74
0
  0
LTYPE
  5
1F8
100
AcDbSymbolTableRecord
100
AcDbLinetypeTableRecord
  2
DOT
 70
64
  3
. . . . . . . . . . . . . . . . . . . .
 72
65
 73
2
 40
0.2
 49
0.1
 74
0
 49
-0.1
 74
0
  0
LTYPE
  5
1F9
100
AcDbSymbolTableRecord
100
AcDbLinetypeTableRecord
  2
DASHED
 70
64
  3
- - - - - - - - - - - - - - - - - - - -
 72
65
 73
2
 40
0.2
 49
0.1
 74
0
 49
-0.1
 74
0
  0
ENDTAB
  0
TABLE
  2
LAYER
  5
2
100
AcDbSymbolTable
 70
36
  0
LAYER
  5
10
100
AcDbSymbolTableRecord
100
AcDbLayerTableRecord
  2
0
 70
0
 62
7
  6
CONTINUOUS
370
-3
390
F
  0
LAYER
  5
1FA
100
AcDbSymbolTableRecord
100
AcDbLayerTableRecord
  2
DEFAULT_1
 70
0
 62
7
  6
CENTER
370
-3
390
F
  0
LAYER
  5
1FB
100
AcDbSymbolTableRecord
100
AcDbLayerTableRecord
  2
DEFAULT_2
 70
0
 62
8
  6
HIDDEN
370
-3
390
F
  0
LAYER
  5
1FC
100
AcDbSymbolTableRecord
100
AcDbLayerTableRecord
  2
DEFAULT_3
 70
0
 62
7
  6
PHANTOM
370
-3
390
F
  0
LAYER
  5
1FD
100
AcDbSymbolTableRecord
100
AcDbLayerTableRecord
  2
DEFAULT_COORDINATE_SYSTEM
 70
0
 62
7
  6
CONTINUOUS
370
-3
390
F
  0
LAYER
  5
1FE
100
AcDbSymbolTableRecord
100
AcDbLayerTableRecord
  2
DEFAULT_DATUM_AXES
 70
0
 62
7
  6
CONTINUOUS
370
-3
390
F
  0
LAYER
  5
1FF
100
AcDbSymbolTableRecord
100
AcDbLayerTableRecord
  2
DEFAULT_DATUM_PLANES
 70
0
 62
7
  6
CONTINUOUS
370
-3
390
F
  0
ENDTAB
  0
TABLE
  2
STYLE
  5
3
100
AcDbSymbolTable
 70
1
  0
STYLE
  5
11
100
AcDbSymbolTableRecord
100
AcDbTextStyleTableRecord
  2
STANDARD
 70
0
 40
0.0
 41
0.8
 50
0.0
 71
0
 42
0.2
  3
txt
  4

  0
STYLE
  5
200
100
AcDbSymbolTableRecord
100
AcDbTextStyleTableRecord
  2
TEXTSTYLE_1
 70
0
 40
0.0
 41
0.8
 50
0.0
 71
0
 42
0.2
  3
gdt
  4

  0
ENDTAB
  0
TABLE
  2
VIEW
  5
6
100
AcDbSymbolTable
 70
0
  0
ENDTAB
  0
TABLE
  2
UCS
  5
7
100
AcDbSymbolTable
 70
0
  0
ENDTAB
  0
TABLE
  2
APPID
  5
9
100
AcDbSymbolTable
 70
1
  0
APPID
  5
201
100
AcDbSymbolTableRecord
100
AcDbRegAppTableRecord
  2
ACAD
 70
0
  0
ENDTAB
  0
TABLE
  2
BLOCK_RECORD
  5
1
100
AcDbSymbolTable
 70
0
  0
BLOCK_RECORD
  5
202
100
AcDbSymbolTableRecord
100
AcDbBlockTableRecord
  2
*Model_Space
  0
BLOCK_RECORD
  5
203
100
AcDbSymbolTableRecord
100
AcDbBlockTableRecord
  2
*Paper_Space
  0
ENDTAB
  0
TABLE
  2
DIMSTYLE
  5
A
100
AcDbSymbolTable
 70
1
100
AcDbDimStyleTable
 71
0
  0
DIMSTYLE
105
204
100
AcDbSymbolTableRecord
100
AcDbDimStyleTableRecord
  2
STANDARD
 70
0
  3

  4

 40
1.0
 41
0.1875
 42
0.0625
 43
0.38
 44
0.125
 45
0.0
 46
0.0
 47
0.001
 48
0.001
140
0.15625
141
0.09
142
0.0
143
25.4
144
1.0
145
0.0
146
1.0
147
0.09
 71
0.0
 72
0.0
 73
1
 74
1
 75
0
 76
0
 77
0
 78
4
170
0
171
2
172
0
173
0
174
0
175
0
176
0
177
0
178
0
270
2
271
3
272
3
273
2
274
2
275
0
280
0
281
0
282
0
283
1
284
4
285
0
286
0
287
3
288
0
340
11
278
46
  0
ENDTAB
  0
ENDSEC
  0
SECTION
  2
BLOCKS
  0
BLOCK
  5
20
100
AcDbEntity
  8
0
100
AcDbBlockBegin
  2
*Model_Space
 70
0
 10
0.0
 20
0.0
 30
0.0
  3
*Model_Space
  1

  0
ENDBLK
  5
21
100
AcDbEntity
  8
0
100
AcDbBlockEnd
  0
BLOCK
  5
1C
100
AcDbEntity
  8
0
100
AcDbBlockBegin
  2
*Paper_Space
 70
0
 10
0.0
 20
0.0
 30
0.0
  3
*Paper_Space
  1

  0
ENDBLK
  5
1D
100
AcDbEntity
  8
0
100
AcDbBlockEnd
  0
ENDSEC
  0
SECTION
  2
ENTITIES
  0
LINE
  5
205
100
AcDbEntity
  8
0
100
AcDbLine
 62
7
  6
CONTINUOUS
 10
0.0
 20
0.0
 11
0.0
 21
8.2677165354
  0
LINE
  5
206
100
AcDbEntity
  8
0
100
AcDbLine
 62
7
  6
CONTINUOUS
 10
0.0
 20
0.0
 11
11.6929133858
 21
0.0
  0
LINE
  5
207
100
AcDbEntity
  8
0
100
AcDbLine
 62
7
  6
CONTINUOUS
 10
0.0
 20
8.2677165354
 11
11.6929133858
 21
8.2677165354
  0
LINE
  5
208
100
AcDbEntity
  8
0
100
AcDbLine
 62
7
  6
CONTINUOUS
 10
11.6929133858
 20
0.0
 11
11.6929133858
 21
8.2677165354
  0
LWPOLYLINE
  5
209
100
AcDbEntity
  8
0
100
AcDbPolyline
 62
6
  6
CONTINUOUS
 90
12
 70
0
 10
2.8678749977
 20
3.0098041296
 10
2.8693902422
 20
2.9859147191
 10
2.8749934516
 20
2.9580111861
 10
2.8846063679
 20
2.9309158776
 10
2.8979686696
 20
2.905441853
 10
2.9147112712
 20
2.8823372045
 10
2.9345702924
 20
2.862080551
 10
2.957335338
 20
2.8449080696
 10
2.9825260799
 20
2.8310860653
 10
3.0093932585
 20
2.8209802954
 10
3.0371270357
 20
2.8148466073
 10
3.0648746244
 20
2.8128041296
  0
LWPOLYLINE
  5
20A
100
AcDbEntity
  8
0
100
AcDbPolyline
 62
6
  6
CONTINUOUS
 90
12
 70
0
 10
8.9019343081
 20
2.8128041296
 10
8.9296813486
 20
2.814846577
 10
8.9574146147
 20
2.8209801833
 10
8.9842813453
 20
2.8310858378
 10
9.0094717261
 20
2.8449077163
 10
9.0322365119
 20
2.8620800885
 10
9.0520953654
 20
2.8823366688
 10
9.0688378725
 20
2.9054413028
 10
9.0822001364
 20
2.9309153855
 10
9.0918130478
 20
2.9580108166
 10
9.0974162655
 20
2.9859145203
 10
9.0989315166
 20
3.0098041296
  0
LINE
  5
20B
100
AcDbEntity
  8
0
100
AcDbLine
 62
6
  6
CONTINUOUS
 10
6.3318503902
 20
2.6348041296
 11
5.6418503902
 21
2.6348041296
  0
LINE
  5
20C
100
AcDbEntity
  8
0
100
AcDbLine
 62
9
  6
CONTINUOUS
 10
6.3618503902
 20
2.6648041296
 11
5.6118503902
 21
2.6648041296
  0
LINE
  5
20D
100
AcDbEntity
  8
0
100
AcDbLine
 62
6
  6
CONTINUOUS
 10
3.0648746244
 20
2.8128041296
 11
5.6118503902
 21
2.8128041296
  0
LINE
  5
20E
100
AcDbEntity
  8
0
100
AcDbLine
 62
6
  6
CONTINUOUS
 10
6.3618503902
 20
2.8128041296
 11
8.9019343081
 21
2.8128041296
  0
LINE
  5
20F
100
AcDbEntity
  8
0
100
AcDbLine
 62
6
  6
CONTINUOUS
 10
4.7918503902
 20
5.5503041296
 11
4.7918503902
 21
5.6534587637
  0
LINE
  5
210
100
AcDbEntity
  8
0
100
AcDbLine
 62
9
  6
CONTINUOUS
 10
4.8600319272
 20
5.6518767513
 11
4.8579848156
 21
5.677568147
  0
LINE
  5
211
100
AcDbEntity
  8
0
100
AcDbLine
 62
6
  6
CONTINUOUS
 10
4.8418503902
 20
5.7509267071
 11
4.8418503902
 21
5.9303041296
  0
LINE
  5
212
100
AcDbEntity
  8
0
100
AcDbLine
 62
9
  6
CONTINUOUS
 10
4.8518503902
 20
5.5203041296
 11
4.8518503902
 21
5.6507882375
  0
LINE
  5
213
100
AcDbEntity
  8
0
100
AcDbLine
 62
9
  6
CONTINUOUS
 10
4.9018504512
 20
5.6534587637
 11
4.9018503902
 21
5.9303041296
  0
LINE
  5
214
100
AcDbEntity
  8
0
100
AcDbLine
 62
6
  6
CONTINUOUS
 10
8.9019343081
 20
3.2068041296
 11
6.3618503902
 21
3.2068041296
  0
LINE
  5
215
100
AcDbEntity
  8
0
100
AcDbLine
 62
6
  6
CONTINUOUS
 10
5.6118503902
 20
3.2068041296
 11
3.0648746244
 21
3.2068041296
  0
LINE
  5
216
100
AcDbEntity
  8
0
100
AcDbLine
 62
9
  6
CONTINUOUS
 10
5.6118503902
 20
3.3548041296
 11
6.3618503902
 21
3.3548041296
  0
LINE
  5
217
100
AcDbEntity
  8
0
100
AcDbLine
 62
6
  6
CONTINUOUS
 10
5.1143503902
 20
5.3528041296
 11
5.1143503902
 21
5.5103041296
  0
LINE
  5
218
100
AcDbEntity
  8
0
100
AcDbLine
 62
9
  6
CONTINUOUS
 10
5.1743503902
 20
5.3228041296
 11
5.1743503902
 21
5.5103041296
  0
LINE
  5
219
100
AcDbEntity
  8
0
100
AcDbLine
 62
9
  6
CONTINUOUS
 10
5.3028714079
 20
5.3228041296
 11
5.3028714079
 21
5.298013575
  0
LWPOLYLINE
  5
21A
100
AcDbEntity
  8
0
100
AcDbPolyline
 62
6
  6
CONTINUOUS
 90
12
 70
0
 10
3.0648746244
 20
3.2068041296
 10
3.0370942515
 20
3.2047568352
 10
3.0093335095
 20
3.1986102027
 10
2.9824442783
 20
3.1884845967
 10
2.9572357219
 20
3.174635795
 10
2.9344578833
 20
3.1574290391
 10
2.914594778
 20
3.1371327372
 10
2.8978568136
 20
3.1139856511
 10
2.8845077504
 20
3.0884662845
 10
2.8749182899
 20
3.0613244527
 10
2.8693503544
 20
3.0333760596
 10
2.8678749977
 20
3.0098041296
  0
LINE
  5
21B
100
AcDbEntity
  8
0
100
AcDbLine
 62
6
  6
CONTINUOUS
 10
6.4958503902
 20
3.3848041296
 11
5.4778503902
 21
3.3848041296
  0
LINE
  5
21C
100
AcDbEntity
  8
0
100
AcDbLine
 62
9
  6
CONTINUOUS
 10
6.5258503902
 20
3.4148041296
 11
5.4478503902
 21
3.4148041296
  0
LINE
  5
21D
100
AcDbEntity
  8
0
100
AcDbLine
 62
9
  6
CONTINUOUS
 10
5.5896113256
 20
3.5417299125
 11
6.3840957625
 21
3.5417297198
  0
LINE
  5
21E
100
AcDbEntity
  8
0
100
AcDbLine
 62
9
  6
CONTINUOUS
 10
5.5896112396
 20
3.5703507493
 11
6.3840971893
 21
3.5703507309
  0
LINE
  5
21F
100
AcDbEntity
  8
0
100
AcDbLine
 62
9
  6
CONTINUOUS
 10
4.8518503906
 20
5.6507882375
 11
4.8472002871
 21
5.6772495095
  0
LINE
  5
220
100
AcDbEntity
  8
0
100
AcDbLine
 62
9
  6
CONTINUOUS
 10
5.5064402438
 20
3.566503804
 11
5.5078503902
 21
3.5365998564
  0
LINE
  5
221
100
AcDbEntity
  8
0
100
AcDbLine
 62
6
  6
CONTINUOUS
 10
5.4478503902
 20
3.4148041296
 11
5.4478503902
 21
3.5417298829
  0
LINE
  5
222
100
AcDbEntity
  8
0
100
AcDbLine
 62
9
  6
CONTINUOUS
 10
5.5078503902
 20
3.3848041296
 11
5.5078503902
 21
3.5365998564
  0
LINE
  5
223
100
AcDbEntity
  8
0
100
AcDbLine
 62
9
  6
CONTINUOUS
 10
6.3840915306
 20
3.6718424656
 11
5.5896092497
 21
3.6718424656
  0
LINE
  5
224
100
AcDbEntity
  8
0
100
AcDbLine
 62
6
  6
CONTINUOUS
 10
5.2437829427
 20
5.298013575
 11
5.5305207845
 21
3.6718424656
  0
LINE
  5
225
100
AcDbEntity
  8
0
100
AcDbLine
 62
9
  6
CONTINUOUS
 10
5.3028714079
 20
5.298013575
 11
5.5896092497
 21
3.6718424656
  0
LINE
  5
226
100
AcDbEntity
  8
0
100
AcDbLine
 62
9
  6
CONTINUOUS
 10
5.5896077158
 20
3.6718424656
 11
5.5896113256
 21
3.5417299125
  0
LINE
  5
227
100
AcDbEntity
  8
0
100
AcDbLine
 62
7
  6
CONTINUOUS
 10
5.6083503902
 20
2.8128041296
 11
5.6083503902
 21
3.2068041296
  0
LINE
  5
228
100
AcDbEntity
  8
0
100
AcDbLine
 62
6
  6
CONTINUOUS
 10
5.6118503902
 20
2.6648041296
 11
5.6118503902
 21
3.3548041296
  0
LINE
  5
229
100
AcDbEntity
  8
0
100
AcDbLine
 62
9
  6
CONTINUOUS
 10
5.6418503902
 20
2.6348041296
 11
5.6418503902
 21
3.3848041296
  0
LINE
  5
22A
100
AcDbEntity
  8
0
100
AcDbLine
 62
9
  6
CONTINUOUS
 10
6.3318503902
 20
2.6348041296
 11
6.3318503908
 21
3.3848041296
  0
LINE
  5
22B
100
AcDbEntity
  8
0
100
AcDbLine
 62
6
  6
CONTINUOUS
 10
6.3618503902
 20
2.6648041296
 11
6.3618503902
 21
3.3548041296
  0
LINE
  5
22C
100
AcDbEntity
  8
0
100
AcDbLine
 62
7
  6
CONTINUOUS
 10
6.3653503902
 20
2.8128041296
 11
6.3653503902
 21
3.2068041296
  0
LINE
  5
22D
100
AcDbEntity
  8
0
100
AcDbLine
 62
9
  6
CONTINUOUS
 10
6.3840964759
 20
3.5703507309
 11
6.3840957625
 21
3.5417297198
  0
LINE
  5
22E
100
AcDbEntity
  8
0
100
AcDbLine
 62
9
  6
CONTINUOUS
 10
6.4658503902
 20
3.3848041296
 11
6.4658503902
 21
3.536599803
  0
LINE
  5
22F
100
AcDbEntity
  8
0
100
AcDbLine
 62
9
  6
CONTINUOUS
 10
6.6708293725
 20
5.298013575
 11
6.3840915306
 21
3.6718424656
  0
LINE
  5
230
100
AcDbEntity
  8
0
100
AcDbLine
 62
6
  6
CONTINUOUS
 10
6.5258503902
 20
3.4148041296
 11
6.5258503902
 21
3.5417295829
  0
LINE
  5
231
100
AcDbEntity
  8
0
100
AcDbLine
 62
9
  6
CONTINUOUS
 10
6.6708293725
 20
5.3228041296
 11
6.6708293725
 21
5.298013575
  0
LINE
  5
232
100
AcDbEntity
  8
0
100
AcDbLine
 62
9
  6
CONTINUOUS
 10
6.4672635997
 20
3.5665037436
 11
6.46585039
 21
3.536599803
  0
LINE
  5
233
100
AcDbEntity
  8
0
100
AcDbLine
 62
6
  6
CONTINUOUS
 10
6.7299178376
 20
5.298013575
 11
6.4431799958
 21
3.6718424656
  0
LINE
  5
234
100
AcDbEntity
  8
0
100
AcDbLine
 62
9
  6
CONTINUOUS
 10
6.7993503902
 20
5.3228041296
 11
6.7993503902
 21
5.5103041296
  0
LINE
  5
235
100
AcDbEntity
  8
0
100
AcDbLine
 62
6
  6
CONTINUOUS
 10
6.8593503902
 20
5.3528041296
 11
6.8593503902
 21
5.5103041296
  0
LINE
  5
236
100
AcDbEntity
  8
0
100
AcDbLine
 62
9
  6
CONTINUOUS
 10
7.1218503902
 20
5.6507882767
 11
7.1265007399
 21
5.6772495147
  0
LINE
  5
237
100
AcDbEntity
  8
0
100
AcDbLine
 62
9
  6
CONTINUOUS
 10
7.0718503344
 20
5.6534587637
 11
7.0718503902
 21
5.9303041296
  0
LINE
  5
238
100
AcDbEntity
  8
0
100
AcDbLine
 62
9
  6
CONTINUOUS
 10
7.1218503902
 20
5.5203041296
 11
7.1218503902
 21
5.6507882767
  0
LINE
  5
239
100
AcDbEntity
  8
0
100
AcDbLine
 62
6
  6
CONTINUOUS
 10
7.1318503902
 20
5.7509267071
 11
7.1318503902
 21
5.9303041296
  0
LINE
  5
23A
100
AcDbEntity
  8
0
100
AcDbLine
 62
6
  6
CONTINUOUS
 10
7.1818503902
 20
5.5503041296
 11
7.1818503902
 21
5.6534587637
  0
LINE
  5
23B
100
AcDbEntity
  8
0
100
AcDbLine
 62
9
  6
CONTINUOUS
 10
7.1136687951
 20
5.6518767559
 11
7.1157150306
 21
5.6775677987
  0
LINE
  5
23C
100
AcDbEntity
  8
0
100
AcDbLine
 62
9
  6
CONTINUOUS
 10
6.6708293725
 20
5.298013575
 11
5.3028714079
 21
5.298013575
  0
LINE
  5
23D
100
AcDbEntity
  8
0
100
AcDbLine
 62
6
  6
CONTINUOUS
 10
6.8293503902
 20
5.3228041296
 11
5.1443503902
 21
5.3228041296
  0
LINE
  5
23E
100
AcDbEntity
  8
0
100
AcDbLine
 62
9
  6
CONTINUOUS
 10
6.8593503902
 20
5.3528041296
 11
5.1143503902
 21
5.3528041296
  0
LINE
  5
23F
100
AcDbEntity
  8
0
100
AcDbLine
 62
7
  6
CONTINUOUS
 10
5.1143503902
 20
5.5103041296
 11
6.8593503902
 21
5.5103041296
  0
LINE
  5
240
100
AcDbEntity
  8
0
100
AcDbLine
 62
6
  6
CONTINUOUS
 10
7.1518503902
 20
5.5203041296
 11
4.8218503902
 21
5.5203041296
  0
LINE
  5
241
100
AcDbEntity
  8
0
100
AcDbLine
 62
9
  6
CONTINUOUS
 10
7.1818503902
 20
5.5503041296
 11
4.7918503902
 21
5.5503041296
  0
LINE
  5
242
100
AcDbEntity
  8
0
100
AcDbLine
 62
9
  6
CONTINUOUS
 10
7.0718503344
 20
5.6534587637
 11
4.9018504512
 21
5.6534587637
  0
LINE
  5
243
100
AcDbEntity
  8
0
100
AcDbLine
 62
9
  6
CONTINUOUS
 10
7.0718503902
 20
5.6778257495
 11
4.9018502985
 21
5.6778257495
  0
LINE
  5
244
100
AcDbEntity
  8
0
100
AcDbLine
 62
9
  6
CONTINUOUS
 10
7.0718503902
 20
5.7509267071
 11
4.9018503902
 21
5.7509267071
  0
LINE
  5
245
100
AcDbEntity
  8
0
100
AcDbLine
 62
6
  6
CONTINUOUS
 10
4.8418503902
 20
5.9303041296
 11
7.1318503902
 21
5.9303041296
  0
LINE
  5
246
100
AcDbEntity
  8
0
100
AcDbLine
 62
6
  6
CONTINUOUS
 10
6.9858054116
 20
5.9498041296
 11
4.9878953688
 21
5.9498041296
  0
LWPOLYLINE
  5
247
100
AcDbEntity
  8
0
100
AcDbPolyline
 62
6
  6
CONTINUOUS
 90
12
 70
0
 10
9.0989315166
 20
3.0098041296
 10
9.0974561531
 20
3.0333762585
 10
9.091888209
 20
3.0613248225
 10
9.082298753
 20
3.0884667773
 10
9.0689497274
 20
3.1139862023
 10
9.0522118571
 20
3.1371332741
 10
9.0323489193
 20
3.1574295028
 10
9.0095713404
 20
3.1746361492
 10
8.9843631453
 20
3.1884848247
 10
8.9574743625
 20
3.198610315
 10
8.9297141321
 20
3.2047568657
 10
8.9019343081
 20
3.2068041296
  0
ARC
  5
248
100
AcDbEntity
  8
0
100
AcDbCircle
 62
6
  6
CONTINUOUS
 10
5.4418880868
 20
3.6562141296
 40
0.09
100
AcDbArc
 50
287.4388007452
 51
10.0
  0
ARC
  5
249
100
AcDbEntity
  8
0
100
AcDbCircle
 62
6
  6
CONTINUOUS
 10
5.4778503902
 20
3.4148041296
 40
0.03
100
AcDbArc
 50
180.0
 51
270.0
  0
ARC
  5
24A
100
AcDbEntity
  8
0
100
AcDbCircle
 62
6
  6
CONTINUOUS
 10
5.4778503902
 20
3.5417298829
 40
0.03
100
AcDbArc
 50
107.4387176713
 51
179.9999999614
  0
ARC
  5
24B
100
AcDbEntity
  8
0
100
AcDbCircle
 62
6
  6
CONTINUOUS
 10
5.5818503902
 20
3.3548041296
 40
0.03
100
AcDbArc
 50
0.0
 51
90.0
  0
ARC
  5
24C
100
AcDbEntity
  8
0
100
AcDbCircle
 62
6
  6
CONTINUOUS
 10
5.6418503902
 20
2.6648041296
 40
0.03
100
AcDbArc
 50
180.0
 51
270.0
  0
ARC
  5
24D
100
AcDbEntity
  8
0
100
AcDbCircle
 62
9
  6
CONTINUOUS
 10
5.4778301491
 20
3.5365824611
 40
0.0299807699
100
AcDbArc
 50
93.6756063851
 51
179.9690491809
  0
ARC
  5
24E
100
AcDbEntity
  8
0
100
AcDbCircle
 62
6
  6
CONTINUOUS
 10
4.7518503902
 20
5.7509267071
 40
0.09
100
AcDbArc
 50
305.6853347127
 51
360.0
  0
ARC
  5
24F
100
AcDbEntity
  8
0
100
AcDbCircle
 62
6
  6
CONTINUOUS
 10
4.9878953688
 20
5.8803041296
 40
0.0695
100
AcDbArc
 50
90.0
 51
133.7980138529
  0
ARC
  5
250
100
AcDbEntity
  8
0
100
AcDbCircle
 62
6
  6
CONTINUOUS
 10
4.8218503902
 20
5.5503041296
 40
0.03
100
AcDbArc
 50
180.0
 51
270.0
  0
ARC
  5
251
100
AcDbEntity
  8
0
100
AcDbCircle
 62
6
  6
CONTINUOUS
 10
4.8218503902
 20
5.6534587637
 40
0.03
100
AcDbArc
 50
125.6853347126
 51
179.9999999999
  0
ARC
  5
252
100
AcDbEntity
  8
0
100
AcDbCircle
 62
6
  6
CONTINUOUS
 10
5.1443503902
 20
5.3528041296
 40
0.03
100
AcDbArc
 50
180.0
 51
270.0
  0
ARC
  5
253
100
AcDbEntity
  8
0
100
AcDbCircle
 62
6
  6
CONTINUOUS
 10
5.2142387101
 20
5.2928041296
 40
0.03
100
AcDbArc
 50
10.0
 51
90.0000000008
  0
ARC
  5
254
100
AcDbEntity
  8
0
100
AcDbCircle
 62
9
  6
CONTINUOUS
 10
4.8217304658
 20
5.6518603489
 40
0.0298802292
100
AcDbArc
 50
120.6527567669
 51
179.9685390773
  0
ARC
  5
255
100
AcDbEntity
  8
0
100
AcDbCircle
 62
6
  6
CONTINUOUS
 10
6.5318125513
 20
3.6562141296
 40
0.0899999159
100
AcDbArc
 50
169.99998427
 51
252.5612911559
  0
ARC
  5
256
100
AcDbEntity
  8
0
100
AcDbCircle
 62
6
  6
CONTINUOUS
 10
6.4958503902
 20
3.5417295773
 40
0.03
100
AcDbArc
 50
0.0000107216
 51
72.5612700751
  0
ARC
  5
257
100
AcDbEntity
  8
0
100
AcDbCircle
 62
6
  6
CONTINUOUS
 10
6.4958503902
 20
3.4148041296
 40
0.03
100
AcDbArc
 50
270.0
 51
360.0
  0
ARC
  5
258
100
AcDbEntity
  8
0
100
AcDbCircle
 62
6
  6
CONTINUOUS
 10
6.3918503902
 20
3.3548041296
 40
0.03
100
AcDbArc
 50
90.0
 51
180.0
  0
ARC
  5
259
100
AcDbEntity
  8
0
100
AcDbCircle
 62
6
  6
CONTINUOUS
 10
6.3318503902
 20
2.6648041296
 40
0.03
100
AcDbArc
 50
270.0
 51
360.0
  0
ARC
  5
25A
100
AcDbEntity
  8
0
100
AcDbCircle
 62
9
  6
CONTINUOUS
 10
6.4958708295
 20
3.5365822363
 40
0.0299805863
100
AcDbArc
 50
0.0310406526
 51
86.3313573947
  0
ARC
  5
25B
100
AcDbEntity
  8
0
100
AcDbCircle
 62
6
  6
CONTINUOUS
 10
7.2218503902
 20
5.7509267071
 40
0.09
100
AcDbArc
 50
180.0
 51
234.3146652873
  0
ARC
  5
25C
100
AcDbEntity
  8
0
100
AcDbCircle
 62
6
  6
CONTINUOUS
 10
6.9858054116
 20
5.8803041296
 40
0.0695
100
AcDbArc
 50
46.2019861471
 51
90.0
  0
ARC
  5
25D
100
AcDbEntity
  8
0
100
AcDbCircle
 62
6
  6
CONTINUOUS
 10
7.1518503902
 20
5.5503041296
 40
0.03
100
AcDbArc
 50
270.0
 51
360.0
  0
ARC
  5
25E
100
AcDbEntity
  8
0
100
AcDbCircle
 62
6
  6
CONTINUOUS
 10
7.1518503902
 20
5.6534587637
 40
0.03
100
AcDbArc
 50
0.0000000002
 51
54.3146652875
  0
ARC
  5
25F
100
AcDbEntity
  8
0
100
AcDbCircle
 62
6
  6
CONTINUOUS
 10
6.7594620702
 20
5.2928041296
 40
0.03
100
AcDbArc
 50
89.9999999992
 51
169.9999999999
  0
ARC
  5
260
100
AcDbEntity
  8
0
100
AcDbCircle
 62
6
  6
CONTINUOUS
 10
6.8293503902
 20
5.3528041296
 40
0.03
100
AcDbArc
 50
270.0
 51
360.0
  0
ARC
  5
261
100
AcDbEntity
  8
0
100
AcDbCircle
 62
9
  6
CONTINUOUS
 10
7.1519703406
 20
5.651860283
 40
0.0298802076
100
AcDbArc
 50
0.0315784891
 51
59.3488578178
  0
SPLINE
  5
262
100
AcDbEntity
  8
0
100
AcDbSpline
 62
9
  6
CONTINUOUS
 70
0
 71
3
 72
22
 73
18
 74
0
 42
0.0000001
 43
0.0000001
 44
0.0000000001
 40
0.0
 40
0.0
 40
0.0
 40
0.0
 40
0.0841741786
 40
0.1665216867
 40
0.2466507986
 40
0.324235841
 40
0.3990619943
 40
0.4708934262
 40
0.6047163244
 40
0.6663567569
 40
0.7242928107
 40
0.7784542033
 40
0.8288678786
 40
0.8757299331
 40
0.9194303402
 40
0.9605818609
 40
1.0
 40
1.0
 40
1.0
 40
1.0
 10
4.8818503902
 20
5.7546409447
 30
0.0
 10
4.8808451122
 20
5.7549702151
 30
0.0
 10
4.8788411244
 20
5.7555760243
 30
0.0
 10
4.8758363106
 20
5.7563408627
 30
0.0
 10
4.8728823595
 20
5.7569584667
 30
0.0
 10
4.8699986307
 20
5.7574368675
 30
0.0
 10
4.8672021548
 20
5.7577907474
 30
0.0
 10
4.8636913406
 20
5.7581097701
 30
0.0
 10
4.860331346
 20
5.7582436222
 30
0.0
 10
4.8571466219
 20
5.7581851061
 30
0.0
 10
4.8549667455
 20
5.7580463728
 30
0.0
 10
4.8529372825
 20
5.7578075254
 30
0.0
 10
4.8510643977
 20
5.7574596635
 30
0.0
 10
4.8493541378
 20
5.756986692
 30
0.0
 10
4.8478130682
 20
5.7563712891
 30
0.0
 10
4.8464471759
 20
5.75560406
 30
0.0
 10
4.8456452821
 20
5.7549775608
 30
0.0
 10
4.8452818477
 20
5.7546409447
 30
0.0
  0
LINE
  5
263
100
AcDbEntity
  8
0
100
AcDbLine
 62
9
  6
CONTINUOUS
 10
4.8452818477
 20
5.7546409447
 11
4.8418503902
 21
5.7509267071
  0
SPLINE
  5
264
100
AcDbEntity
  8
0
100
AcDbSpline
 62
9
  6
CONTINUOUS
 70
0
 71
3
 72
15
 73
11
 74
0
 42
0.0000001
 43
0.0000001
 44
0.0000000001
 40
0.0
 40
0.0
 40
0.0
 40
0.0
 40
0.0673845755
 40
0.1417635667
 40
0.23081828
 40
0.339077322
 40
0.469015567
 40
0.6220072806
 40
0.798844985
 40
1.0
 40
1.0
 40
1.0
 40
1.0
 10
7.1818503902
 20
5.6507882375
 30
0.0
 10
7.1818503747
 20
5.650729185
 30
0.0
 10
7.1818241907
 20
5.6506037305
 30
0.0
 10
7.1817096145
 20
5.6504328292
 30
0.0
 10
7.1815281634
 20
5.6502759057
 30
0.0
 10
7.1812807344
 20
5.6501289878
 30
0.0
 10
7.1809665221
 20
5.6499904849
 30
0.0
 10
7.1805849738
 20
5.649859925
 30
0.0
 10
7.1801358905
 20
5.6497372006
 30
0.0
 10
7.1798124248
 20
5.6496652669
 30
0.0
 10
7.1796396977
 20
5.6496300423
 30
0.0
  0
SPLINE
  5
265
100
AcDbEntity
  8
0
100
AcDbSpline
 62
9
  6
CONTINUOUS
 70
0
 71
3
 72
19
 73
15
 74
0
 42
0.0000001
 43
0.0000001
 44
0.0000000001
 40
0.0
 40
0.0
 40
0.0
 40
0.0
 40
0.0123306882
 40
0.0262381594
 40
0.0587240011
 40
0.097312317
 40
0.1418171785
 40
0.1919595109
 40
0.2473982805
 40
0.3727342358
 40
0.5145057762
 40
0.6690222502
 40
0.8324226668
 40
1.0
 40
1.0
 40
1.0
 40
1.0
 10
7.1796396977
 20
5.6496300423
 30
0.0
 10
7.1794065668
 20
5.6495824995
 30
0.0
 10
7.1789080763
 20
5.6494930978
 30
0.0
 10
7.1777864449
 20
5.6493311338
 30
0.0
 10
7.1761546028
 20
5.6491638009
 30
0.0
 10
7.1739293595
 20
5.6490120954
 30
0.0
 10
7.1713606922
 20
5.6489005843
 30
0.0
 10
7.1684654413
 20
5.648828878
 30
0.0
 10
7.1640098148
 20
5.6487853714
 30
0.0
 10
7.1577857808
 20
5.6488427353
 30
0.0
 10
7.1496529899
 20
5.6490663453
 30
0.0
 10
7.1407909796
 20
5.6494523183
 30
0.0
 10
7.1314394354
 20
5.650013333
 30
0.0
 10
7.1250716172
 20
5.650506562
 30
0.0
 10
7.1218503902
 20
5.6507882767
 30
0.0
  0
SPLINE
  5
266
100
AcDbEntity
  8
0
100
AcDbSpline
 62
9
  6
CONTINUOUS
 70
0
 71
3
 72
19
 73
15
 74
0
 42
0.0000001
 43
0.0000001
 44
0.0000000001
 40
0.0
 40
0.0
 40
0.0
 40
0.0
 40
0.1681281587
 40
0.3320787659
 40
0.4870660679
 40
0.629088011
 40
0.7544122047
 40
0.8097162525
 40
0.8596382488
 40
0.9038680478
 40
0.9421220937
 40
0.9742102246
 40
0.9878988689
 40
1.0
 40
1.0
 40
1.0
 40
1.0
 10
4.8518503902
 20
5.6507882375
 30
0.0
 10
4.8486123814
 20
5.6505049767
 30
0.0
 10
4.8422110762
 20
5.6500096684
 30
0.0
 10
4.8328111765
 20
5.6494470924
 30
0.0
 10
4.8239075315
 20
5.6490608482
 30
0.0
 10
4.815745337
 20
5.6488395173
 30
0.0
 10
4.8095073146
 20
5.6487849778
 30
0.0
 10
4.8050502609
 20
5.6488319113
 30
0.0
 10
4.8021617055
 20
5.6489064941
 30
0.0
 10
4.799604297
 20
5.6490214302
 30
0.0
 10
4.7973945236
 20
5.6491767359
 30
0.0
 10
4.7957783165
 20
5.6493475156
 30
0.0
 10
4.7946714961
 20
5.649512791
 30
0.0
 10
4.7941811453
 20
5.6496039986
 30
0.0
 10
4.7939522865
 20
5.6496525292
 30
0.0
  0
SPLINE
  5
267
100
AcDbEntity
  8
0
100
AcDbSpline
 62
9
  6
CONTINUOUS
 70
0
 71
3
 72
15
 73
11
 74
0
 42
0.0000001
 43
0.0000001
 44
0.0000000001
 40
0.0
 40
0.0
 40
0.0
 40
0.0
 40
0.2000351022
 40
0.3760295589
 40
0.5284725431
 40
0.6581821843
 40
0.7665676118
 40
0.856141753
 40
0.9314362857
 40
1.0
 40
1.0
 40
1.0
 40
1.0
 10
4.7939522865
 20
5.6496525292
 30
0.0
 10
4.7937880322
 20
5.64968736
 30
0.0
 10
4.7934803883
 20
5.6497584346
 30
0.0
 10
4.7930533804
 20
5.6498794084
 30
0.0
 10
4.7926905423
 20
5.6500078754
 30
0.0
 10
4.7923916905
 20
5.6501439458
 30
0.0
 10
4.7921563295
 20
5.6502880868
 30
0.0
 10
4.7919837798
 20
5.6504418433
 30
0.0
 10
4.7918751229
 20
5.650608818
 30
0.0
 10
4.7918504001
 20
5.6507307253
 30
0.0
 10
4.7918503902
 20
5.6507882767
 30
0.0
  0
SPLINE
  5
268
100
AcDbEntity
  8
0
100
AcDbSpline
 62
9
  6
CONTINUOUS
 70
0
 71
3
 72
16
 73
12
 74
0
 42
0.0000001
 43
0.0000001
 44
0.0000000001
 40
0.0
 40
0.0
 40
0.0
 40
0.0
 40
0.124998211
 40
0.2499964476
 40
0.3749940981
 40
0.499992455
 40
0.624990548
 40
0.7499904714
 40
0.8124928818
 40
0.8749979279
 40
1.0
 40
1.0
 40
1.0
 40
1.0
 10
5.5078503902
 20
3.5365998564
 30
0.0
 10
5.5112609086
 20
3.5367607518
 30
0.0
 10
5.5180779759
 20
3.5371692911
 30
0.0
 10
5.5282900385
 20
3.537967039
 30
0.0
 10
5.5384939896
 20
3.5388600479
 30
0.0
 10
5.5486975867
 20
3.5397568097
 30
0.0
 10
5.5589084819
 20
3.5405697396
 30
0.0
 10
5.5674279117
 20
3.5411096658
 30
0.0
 10
5.5742496561
 20
3.5414264482
 30
0.0
 10
5.581074858
 20
3.5416570785
 30
0.0
 10
5.5861969086
 20
3.5417298108
 30
0.0
 10
5.5896113256
 20
3.5417299125
 30
0.0
  0
SPLINE
  5
269
100
AcDbEntity
  8
0
100
AcDbSpline
 62
9
  6
CONTINUOUS
 70
0
 71
3
 72
14
 73
10
 74
0
 42
0.0000001
 43
0.0000001
 44
0.0000000001
 40
0.0
 40
0.0
 40
0.0
 40
0.0
 40
0.1250008591
 40
0.2500014044
 40
0.3750026544
 40
0.500004059
 40
0.6250056555
 40
0.750007317
 40
1.0
 40
1.0
 40
1.0
 40
1.0
 10
6.3840957625
 20
3.5417297198
 30
0.0
 10
6.3875098429
 20
3.541729379
 30
0.0
 10
6.3943383486
 20
3.54163435
 30
0.0
 10
6.4045731867
 20
3.5412187129
 30
0.0
 10
6.4147954775
 20
3.5405687907
 30
0.0
 10
6.4250057696
 20
3.5397572621
 30
0.0
 10
6.4352087913
 20
3.538859969
 30
0.0
 10
6.4488123597
 20
3.5376680153
 30
0.0
 10
6.4590300863
 20
3.5369220825
 30
0.0
 10
6.4658503902
 20
3.536599803
 30
0.0
  0
LINE
  5
26A
100
AcDbEntity
  8
0
100
AcDbLine
 62
9
  6
CONTINUOUS
 10
4.8064952571
 20
5.6775677941
 11
4.8043503919
 21
5.6778257508
  0
SPLINE
  5
26B
100
AcDbEntity
  8
0
100
AcDbSpline
 62
9
  6
CONTINUOUS
 70
0
 71
3
 72
17
 73
13
 74
0
 42
0.0000001
 43
0.0000001
 44
0.0000000001
 40
0.0
 40
0.0
 40
0.0
 40
0.0
 40
0.1283136956
 40
0.1922559935
 40
0.2559459684
 40
0.3824517423
 40
0.5078933426
 40
0.6322599716
 40
0.7556105448
 40
0.8170075064
 40
0.8782268822
 40
1.0
 40
1.0
 40
1.0
 40
1.0
 10
4.8452818477
 20
5.7546409447
 30
0.0
 10
4.845441615
 20
5.7507815183
 30
0.0
 10
4.8453231236
 20
5.7449755693
 30
0.0
 10
4.8444485327
 20
5.73731673
 30
0.0
 10
4.8431024846
 20
5.729780962
 30
0.0
 10
4.8405461714
 20
5.7206003857
 30
0.0
 10
4.8361160348
 20
5.7101399272
 30
0.0
 10
4.8304082677
 20
5.7004272633
 30
0.0
 10
4.8246481608
 20
5.6930800212
 30
0.0
 10
4.8195078888
 20
5.6877431294
 30
0.0
 10
4.8140513624
 20
5.6828023327
 30
0.0
 10
4.8095934383
 20
5.6795272898
 30
0.0
 10
4.8064952571
 20
5.6775677941
 30
0.0
  0
SPLINE
  5
26C
100
AcDbEntity
  8
0
100
AcDbSpline
 62
9
  6
CONTINUOUS
 70
0
 71
3
 72
9
 73
5
 74
0
 42
0.0000001
 43
0.0000001
 44
0.0000000001
 40
0.0
 40
0.0
 40
0.0
 40
0.0
 40
0.5007441813
 40
1.0
 40
1.0
 40
1.0
 40
1.0
 10
4.8579855176
 20
5.677568137
 30
0.0
 10
4.8561843703
 20
5.6776037485
 30
0.0
 10
4.8525850197
 20
5.677579019
 30
0.0
 10
4.8489914593
 20
5.6773833376
 30
0.0
 10
4.8472003096
 20
5.6772494776
 30
0.0
  0
SPLINE
  5
26D
100
AcDbEntity
  8
0
100
AcDbSpline
 62
9
  6
CONTINUOUS
 70
0
 71
3
 72
18
 73
14
 74
0
 42
0.0000001
 43
0.0000001
 44
0.0000000001
 40
0.0
 40
0.0
 40
0.0
 40
0.0
 40
0.1803503112
 40
0.351784526
 40
0.5102159678
 40
0.6520420055
 40
0.7739725877
 40
0.8266631894
 40
0.8734958379
 40
0.9143105483
 40
0.948984959
 40
0.9775136339
 40
1.0
 40
1.0
 40
1.0
 40
1.0
 10
4.8472003096
 20
5.6772494776
 30
0.0
 10
4.8448734251
 20
5.6770757795
 30
0.0
 10
4.840332286
 20
5.6767680567
 30
0.0
 10
4.8337398876
 20
5.6764232197
 30
0.0
 10
4.8276404943
 20
5.6762107072
 30
0.0
 10
4.8221784112
 20
5.6761328937
 30
0.0
 10
4.8180837201
 20
5.6761823553
 30
0.0
 10
4.8152208358
 20
5.6763012807
 30
0.0
 10
4.8134087974
 20
5.6764197724
 30
0.0
 10
4.8118331629
 20
5.6765708819
 30
0.0
 10
4.8104992844
 20
5.6767540897
 30
0.0
 10
4.8094108625
 20
5.6769674428
 30
0.0
 10
4.8087742192
 20
5.6771481874
 30
0.0
 10
4.8085015688
 20
5.6772496772
 30
0.0
  0
SPLINE
  5
26E
100
AcDbEntity
  8
0
100
AcDbSpline
 62
9
  6
CONTINUOUS
 70
0
 71
3
 72
9
 73
5
 74
0
 42
0.0000001
 43
0.0000001
 44
0.0000000001
 40
0.0
 40
0.0
 40
0.0
 40
0.0
 40
0.530516825
 40
1.0
 40
1.0
 40
1.0
 40
1.0
 10
4.8085015688
 20
5.6772496772
 30
0.0
 10
4.8081627891
 20
5.6773760851
 30
0.0
 10
4.8075047896
 20
5.6775675138
 30
0.0
 10
4.8068135998
 20
5.6776059052
 30
0.0
 10
4.8064958388
 20
5.677568162
 30
0.0
  0
SPLINE
  5
26F
100
AcDbEntity
  8
0
100
AcDbSpline
 62
9
  6
CONTINUOUS
 70
0
 71
3
 72
18
 73
14
 74
0
 42
0.0000001
 43
0.0000001
 44
0.0000000001
 40
0.0
 40
0.0
 40
0.0
 40
0.0
 40
0.1437927447
 40
0.286265879
 40
0.4250867174
 40
0.5582887815
 40
0.683962553
 40
0.743423197
 40
0.8003819903
 40
0.8546714787
 40
0.9061337815
 40
0.9546205338
 40
1.0
 40
1.0
 40
1.0
 40
1.0
 10
4.8818503902
 20
5.7546409447
 30
0.0
 10
4.8813970059
 20
5.750768385
 30
0.0
 10
4.8803280956
 20
5.7430772501
 30
0.0
 10
4.8782524001
 20
5.7317357421
 30
0.0
 10
4.8757365807
 20
5.7207774851
 30
0.0
 10
4.8728243891
 20
5.7103900672
 30
0.0
 10
4.8700615052
 20
5.7022069415
 30
0.0
 10
4.867677345
 20
5.696089681
 30
0.0
 10
4.8658557475
 20
5.6918333174
 30
0.0
 10
4.8639749296
 20
5.6878411763
 30
0.0
 10
4.8620425541
 20
5.684130692
 30
0.0
 10
4.8600688166
 20
5.6807184264
 30
0.0
 10
4.8586848561
 20
5.6785805705
 30
0.0
 10
4.8579855176
 20
5.677568137
 30
0.0
  0
LINE
  5
270
100
AcDbEntity
  8
0
100
AcDbLine
 62
9
  6
CONTINUOUS
 10
4.9018502985
 20
5.6778257503
 11
4.857985217
 21
5.6775677017
  0
LINE
  5
271
100
AcDbEntity
  8
0
100
AcDbLine
 62
9
  6
CONTINUOUS
 10
6.3840863673
 20
3.6718424656
 11
6.3840971893
 21
3.5703507309
  0
LINE
  5
272
100
AcDbEntity
  8
0
100
AcDbLine
 62
9
  6
CONTINUOUS
 10
7.1157158533
 20
5.6775677941
 11
7.0718503902
 21
5.6778257508
  0
SPLINE
  5
273
100
AcDbEntity
  8
0
100
AcDbSpline
 62
9
  6
CONTINUOUS
 70
0
 71
3
 72
18
 73
14
 74
0
 42
0.0000001
 43
0.0000001
 44
0.0000000001
 40
0.0
 40
0.0
 40
0.0
 40
0.0
 40
0.1437931401
 40
0.2862666941
 40
0.4250879372
 40
0.5582903241
 40
0.6839642468
 40
0.743424873
 40
0.8003835709
 40
0.8546728717
 40
0.9061348732
 40
0.9546211756
 40
1.0
 40
1.0
 40
1.0
 40
1.0
 10
7.0918503902
 20
5.7546409447
 30
0.0
 10
7.0923038213
 20
5.7507683582
 30
0.0
 10
7.0933728179
 20
5.7430771701
 30
0.0
 10
7.0954486463
 20
5.7317355883
 30
0.0
 10
7.0979646059
 20
5.7207772684
 30
0.0
 10
7.1008769192
 20
5.7103897987
 30
0.0
 10
7.103639882
 20
5.7022066371
 30
0.0
 10
7.1060240856
 20
5.6960893539
 30
0.0
 10
7.1078457024
 20
5.6918329799
 30
0.0
 10
7.1097265269
 20
5.6878408328
 30
0.0
 10
7.111658894
 20
5.6841303472
 30
0.0
 10
7.1136326042
 20
5.6807180847
 30
0.0
 10
7.1150165341
 20
5.678580228
 30
0.0
 10
7.1157158533
 20
5.6775677941
 30
0.0
  0
SPLINE
  5
274
100
AcDbEntity
  8
0
100
AcDbSpline
 62
9
  6
CONTINUOUS
 70
0
 71
3
 72
10
 73
6
 74
0
 42
0.0000001
 43
0.0000001
 44
0.0000000001
 40
0.0
 40
0.0
 40
0.0
 40
0.0
 40
0.4692227262
 40
0.7270042722
 40
1.0
 40
1.0
 40
1.0
 40
1.0
 10
7.1672050283
 20
5.677568137
 30
0.0
 10
7.1668871596
 20
5.6776058954
 30
0.0
 10
7.166383455
 20
5.6775781583
 30
0.0
 10
7.1657179915
 20
5.677427822
 30
0.0
 10
7.165373259
 20
5.6773146054
 30
0.0
 10
7.1651987804
 20
5.6772494776
 30
0.0
  0
SPLINE
  5
275
100
AcDbEntity
  8
0
100
AcDbSpline
 62
9
  6
CONTINUOUS
 70
0
 71
3
 72
20
 73
16
 74
0
 42
0.0000001
 43
0.0000001
 44
0.0000000001
 40
0.0
 40
0.0
 40
0.0
 40
0.0
 40
0.0105028923
 40
0.0224951866
 40
0.051030781
 40
0.0857180174
 40
0.1265535585
 40
0.1734089103
 40
0.2261224964
 40
0.2844594717
 40
0.3481027579
 40
0.4899123595
 40
0.6482849329
 40
0.8196621915
 40
1.0
 40
1.0
 40
1.0
 40
1.0
 10
7.1651987804
 20
5.6772494776
 30
0.0
 10
7.1650714337
 20
5.6772020454
 30
0.0
 10
7.1647946512
 20
5.6771112034
 30
0.0
 10
7.1641565154
 20
5.6769407927
 30
0.0
 10
7.1632003894
 20
5.6767541056
 30
0.0
 10
7.161866174
 20
5.6765707404
 30
0.0
 10
7.1602896279
 20
5.6764196489
 30
0.0
 10
7.1584766558
 20
5.676301136
 30
0.0
 10
7.1564351713
 20
5.67621628
 30
0.0
 10
7.154175325
 20
5.6761655442
 30
0.0
 10
7.1507621941
 20
5.676143268
 30
0.0
 10
7.1460547623
 20
5.6762109744
 30
0.0
 10
7.1399567932
 20
5.6764233168
 30
0.0
 10
7.1333656633
 20
5.6767682021
 30
0.0
 10
7.1288251809
 20
5.6770760483
 30
0.0
 10
7.1264983207
 20
5.6772496772
 30
0.0
  0
SPLINE
  5
276
100
AcDbEntity
  8
0
100
AcDbSpline
 62
9
  6
CONTINUOUS
 70
0
 71
3
 72
9
 73
5
 74
0
 42
0.0000001
 43
0.0000001
 44
0.0000000001
 40
0.0
 40
0.0
 40
0.0
 40
0.0
 40
0.4992579558
 40
1.0
 40
1.0
 40
1.0
 40
1.0
 10
7.1264983207
 20
5.6772496772
 30
0.0
 10
7.1247075751
 20
5.6773834774
 30
0.0
 10
7.1211148385
 20
5.6775789576
 30
0.0
 10
7.1175163225
 20
5.6776037629
 30
0.0
 10
7.1157155992
 20
5.677568162
 30
0.0
  0
SPLINE
  5
277
100
AcDbEntity
  8
0
100
AcDbSpline
 62
9
  6
CONTINUOUS
 70
0
 71
3
 72
17
 73
13
 74
0
 42
0.0000001
 43
0.0000001
 44
0.0000000001
 40
0.0
 40
0.0
 40
0.0
 40
0.0
 40
0.128313795
 40
0.19225616
 40
0.2559462193
 40
0.3824521964
 40
0.5078939907
 40
0.632260748
 40
0.7556113144
 40
0.8170081921
 40
0.8782274192
 40
1.0
 40
1.0
 40
1.0
 40
1.0
 10
7.1284189327
 20
5.7546409447
 30
0.0
 10
7.1282591818
 20
5.7507815436
 30
0.0
 10
7.1283776899
 20
5.744975634
 30
0.0
 10
7.1292522901
 20
5.7373168463
 30
0.0
 10
7.1305983404
 20
5.7297811262
 30
0.0
 10
7.1331546418
 20
5.7206006064
 30
0.0
 10
7.1375847341
 20
5.7101402056
 30
0.0
 10
7.1432924263
 20
5.7004275858
 30
0.0
 10
7.1490524467
 20
5.6930803645
 30
0.0
 10
7.1541926353
 20
5.6877434797
 30
0.0
 10
7.1596490622
 20
5.68280269
 30
0.0
 10
7.1641069041
 20
5.6795276411
 30
0.0
 10
7.1672050283
 20
5.677568137
 30
0.0
  0
LINE
  5
278
100
AcDbEntity
  8
0
100
AcDbLine
 62
9
  6
CONTINUOUS
 10
7.1693503891
 20
5.6778257503
 11
7.1672057165
 21
5.6775677017
  0
SPLINE
  5
279
100
AcDbEntity
  8
0
100
AcDbSpline
 62
9
  6
CONTINUOUS
 70
0
 71
3
 72
31
 73
27
 74
0
 42
0.0000001
 43
0.0000001
 44
0.0000000001
 40
0.0
 40
0.0
 40
0.0
 40
0.0
 40
0.0019669839
 40
0.0039580837
 40
0.0061327449
 40
0.0086164362
 40
0.0114954819
 40
0.0148264642
 40
0.0229764228
 40
0.0332539874
 40
0.0457413544
 40
0.0604664233
 40
0.0774369183
 40
0.0966505292
 40
0.1180956375
 40
0.1417331375
 40
0.1675116081
 40
0.2252768147
 40
0.2908836768
 40
0.363637299
 40
0.4427829283
 40
0.5274271236
 40
0.6166328338
 40
0.7094612736
 40
0.8049717405
 40
1.0
 40
1.0
 40
1.0
 40
1.0
 10
6.7299178376
 20
5.298013575
 30
0.0
 10
6.7299246147
 20
5.2980521045
 30
0.0
 10
6.729927471
 20
5.2981321453
 30
0.0
 10
6.7298943372
 20
5.2982512946
 30
0.0
 10
6.7298252755
 20
5.2983656114
 30
0.0
 10
6.7297219113
 20
5.2984753102
 30
0.0
 10
6.729584605
 20
5.2985812688
 30
0.0
 10
6.7293390204
 20
5.2987280222
 30
0.0
 10
6.7289388285
 20
5.2988971029
 30
0.0
 10
6.7283501323
 20
5.299076245
 30
0.0
 10
6.7276226664
 20
5.2992421381
 30
0.0
 10
6.7267569841
 20
5.2993944529
 30
0.0
 10
6.7257537163
 20
5.2995324409
 30
0.0
 10
6.7246140464
 20
5.2996555512
 30
0.0
 10
6.723339715
 20
5.299763192
 30
0.0
 10
6.7219332993
 20
5.2998550611
 30
0.0
 10
6.7198041045
 20
5.2999599926
 30
0.0
 10
6.7168385387
 20
5.3000437712
 30
0.0
 10
6.7129377593
 20
5.300073993
 30
0.0
 10
6.7086118162
 20
5.3000367841
 30
0.0
 10
6.7039082992
 20
5.2999317901
 30
0.0
 10
6.6988793167
 20
5.2997610895
 30
0.0
 10
6.6935805008
 20
5.2995267205
 30
0.0
 10
6.6880682833
 20
5.2992316581
 30
0.0
 10
6.6804582208
 20
5.2987580801
 30
0.0
 10
6.6746954111
 20
5.2983289335
 30
0.0
 10
6.6708293725
 20
5.298013575
 30
0.0
  0
SPLINE
  5
27A
100
AcDbEntity
  8
0
100
AcDbSpline
 62
9
  6
CONTINUOUS
 70
0
 71
3
 72
29
 73
25
 74
0
 42
0.0000001
 43
0.0000001
 44
0.0000000001
 40
0.0
 40
0.0
 40
0.0
 40
0.0
 40
0.0108534232
 40
0.0212987526
 40
0.0317643939
 40
0.0427104632
 40
0.0545722594
 40
0.0677128437
 40
0.0824135739
 40
0.0988883092
 40
0.1172928497
 40
0.137716883
 40
0.1602156374
 40
0.1848253832
 40
0.2115542361
 40
0.2403639658
 40
0.304006474
 40
0.3751827058
 40
0.4530098572
 40
0.5364795246
 40
0.6244546418
 40
0.7158186302
 40
0.8095410174
 40
1.0
 40
1.0
 40
1.0
 40
1.0
 10
6.4431802925
 20
3.6718441482
 30
0.0
 10
6.4432195953
 20
3.6720668096
 30
0.0
 10
6.4432588266
 20
3.6725120027
 30
0.0
 10
6.4431800069
 20
3.6731740107
 30
0.0
 10
6.4429574604
 20
3.6738049902
 30
0.0
 10
6.4425898722
 20
3.6743984225
 30
0.0
 10
6.4420778676
 20
3.6749503339
 30
0.0
 10
6.4414226685
 20
3.6754599162
 30
0.0
 10
6.4406237519
 20
3.6759268657
 30
0.0
 10
6.4396798857
 20
3.676350242
 30
0.0
 10
6.4385903931
 20
3.6767285072
 30
0.0
 10
6.4373557999
 20
3.6770606376
 30
0.0
 10
6.4359772561
 20
3.6773449788
 30
0.0
 10
6.4344564902
 20
3.6775796455
 30
0.0
 10
6.432796456
 20
3.6777630246
 30
0.0
 10
6.4303197939
 20
3.6779443932
 30
0.0
 10
6.4269098332
 20
3.6780249018
 30
0.0
 10
6.4224801039
 20
3.6779073056
 30
0.0
 10
6.4176469196
 20
3.6775815707
 30
0.0
 10
6.4124800331
 20
3.6770533189
 30
0.0
 10
6.4070516662
 20
3.6763352258
 30
0.0
 10
6.401433357
 20
3.6754400877
 30
0.0
 10
6.3937381324
 20
3.6740262523
 30
0.0
 10
6.3879513323
 20
3.6727658158
 30
0.0
 10
6.3840919577
 20
3.6718448875
 30
0.0
  0
SPLINE
  5
27B
100
AcDbEntity
  8
0
100
AcDbSpline
 62
9
  6
CONTINUOUS
 70
0
 71
3
 72
31
 73
27
 74
0
 42
0.0000001
 43
0.0000001
 44
0.0000000001
 40
0.0
 40
0.0
 40
0.0
 40
0.0
 40
0.1950294714
 40
0.2905322418
 40
0.3833480439
 40
0.4725437398
 40
0.5571828217
 40
0.6363240165
 40
0.7090800995
 40
0.7746922312
 40
0.8324635364
 40
0.8582476369
 40
0.8818901778
 40
0.9033381064
 40
0.9225541688
 40
0.9395275514
 40
0.9542554429
 40
0.9667450539
 40
0.9770238036
 40
0.9851739497
 40
0.9885047896
 40
0.991383622
 40
0.9938671057
 40
0.9960416495
 40
0.9980327937
 40
1.0
 40
1.0
 40
1.0
 40
1.0
 10
5.3028714079
 20
5.298013575
 30
0.0
 10
5.2990053402
 20
5.2983288883
 30
0.0
 10
5.2932426628
 20
5.2987580918
 30
0.0
 10
5.2856329783
 20
5.299231662
 30
0.0
 10
5.2801213601
 20
5.299526662
 30
0.0
 10
5.2748230938
 20
5.2997609895
 30
0.0
 10
5.2697945014
 20
5.2999317574
 30
0.0
 10
5.2650911237
 20
5.3000367515
 30
0.0
 10
5.2607651143
 20
5.3000739889
 30
0.0
 10
5.2568640578
 20
5.3000438097
 30
0.0
 10
5.2538981538
 20
5.2999600141
 30
0.0
 10
5.2517686223
 20
5.2998551297
 30
0.0
 10
5.2503619355
 20
5.2997632862
 30
0.0
 10
5.2490873983
 20
5.2996556378
 30
0.0
 10
5.2479475678
 20
5.2995324991
 30
0.0
 10
5.2469441401
 20
5.2993944801
 30
0.0
 10
5.2460783021
 20
5.2992421359
 30
0.0
 10
5.2453507126
 20
5.2990762254
 30
0.0
 10
5.2447619409
 20
5.2988970854
 30
0.0
 10
5.2443617169
 20
5.2987280169
 30
0.0
 10
5.2441161299
 20
5.2985812734
 30
0.0
 10
5.2439788314
 20
5.2984753227
 30
0.0
 10
5.2438754779
 20
5.298365628
 30
0.0
 10
5.2438064282
 20
5.2982513098
 30
0.0
 10
5.2437733062
 20
5.2981321542
 30
0.0
 10
5.243776166
 20
5.298052109
 30
0.0
 10
5.2437829427
 20
5.298013575
 30
0.0
  0
SPLINE
  5
27C
100
AcDbEntity
  8
0
100
AcDbSpline
 62
9
  6
CONTINUOUS
 70
0
 71
3
 72
29
 73
25
 74
0
 42
0.0000001
 43
0.0000001
 44
0.0000000001
 40
0.0
 40
0.0
 40
0.0
 40
0.0
 40
0.1904164028
 40
0.2841051833
 40
0.3754444117
 40
0.4634082614
 40
0.5468636658
 40
0.6246878968
 40
0.6958624178
 40
0.7595122211
 40
0.7883293979
 40
0.8150564442
 40
0.8396674357
 40
0.8621755414
 40
0.882608787
 40
0.901015539
 40
0.9174938764
 40
0.9322021076
 40
0.9453508186
 40
0.9572194143
 40
0.9681732711
 40
0.9786515063
 40
0.989117063
 40
1.0
 40
1.0
 40
1.0
 40
1.0
 10
5.5896092367
 20
3.6718425397
 30
0.0
 10
5.5857507319
 20
3.672764926
 30
0.0
 10
5.5799645892
 20
3.6740237829
 30
0.0
 10
5.5722707554
 20
3.675437569
 30
0.0
 10
5.5666534203
 20
3.6763330684
 30
0.0
 10
5.5612256539
 20
3.6770516928
 30
0.0
 10
5.5560589275
 20
3.6775805721
 30
0.0
 10
5.5512257218
 20
3.6779069687
 30
0.0
 10
5.54679552
 20
3.6780252193
 30
0.0
 10
5.5433849653
 20
3.6779446538
 30
0.0
 10
5.5409077758
 20
3.6777635015
 30
0.0
 10
5.5392474737
 20
3.6775797326
 30
0.0
 10
5.5377264444
 20
3.6773446235
 30
0.0
 10
5.5363473918
 20
3.6770600635
 30
0.0
 10
5.5351122617
 20
3.6767277743
 30
0.0
 10
5.5340224654
 20
3.6763490746
 30
0.0
 10
5.5330783833
 20
3.6759252655
 30
0.0
 10
5.5322791291
 20
3.6754579323
 30
0.0
 10
5.5316235816
 20
3.6749478884
 30
0.0
 10
5.5311115236
 20
3.6743952537
 30
0.0
 10
5.5307441265
 20
3.6738009462
 30
0.0
 10
5.5305218441
 20
3.6731689076
 30
0.0
 10
5.5304433022
 20
3.6725055042
 30
0.0
 10
5.5304826286
 20
3.6720592568
 30
0.0
 10
5.5305219335
 20
3.6718359494
 30
0.0
  0
SPLINE
  5
27D
100
AcDbEntity
  8
0
100
AcDbSpline
 62
9
  6
CONTINUOUS
 70
0
 71
3
 72
33
 73
29
 74
0
 42
0.0000001
 43
0.0000001
 44
0.0000000001
 40
0.0
 40
0.0
 40
0.0
 40
0.0
 40
0.1948850984
 40
0.2900783445
 40
0.3823966193
 40
0.471004405
 40
0.555082801
 40
0.6338417973
 40
0.7065044095
 40
0.7723539517
 40
0.8307835542
 40
0.8570301438
 40
0.8812089495
 40
0.9032692237
 40
0.9231613041
 40
0.9408357303
 40
0.9562433875
 40
0.9693390301
 40
0.9800998552
 40
0.9846010625
 40
0.9885147299
 40
0.9918406425
 40
0.9945798923
 40
0.9967363113
 40
0.9983205024
 40
0.998907241
 40
0.9993679043
 40
1.0
 40
1.0
 40
1.0
 40
1.0
 10
6.4658503902
 20
3.536599803
 30
0.0
 10
6.4697498914
 20
3.5365080457
 30
0.0
 10
6.4755550616
 20
3.5364097366
 30
0.0
 10
6.4832082148
 20
3.536328907
 30
0.0
 10
6.4887345455
 20
3.5362888192
 30
0.0
 10
6.4940384941
 20
3.5362640386
 30
0.0
 10
6.4990710921
 20
3.5362492576
 30
0.0
 10
6.5037845663
 20
3.5362419839
 30
0.0
 10
6.5081331988
 20
3.5362400854
 30
0.0
 10
6.5120749431
 20
3.5362421299
 30
0.0
 10
6.515087677
 20
3.5362484536
 30
0.0
 10
6.5172663682
 20
3.5362571357
 30
0.0
 10
6.5187171302
 20
3.5362653132
 30
0.0
 10
6.5200406887
 20
3.5362760143
 30
0.0
 10
6.5212340289
 20
3.536289807
 30
0.0
 10
6.522294156
 20
3.5363072633
 30
0.0
 10
6.5232181519
 20
3.5363289053
 30
0.0
 10
6.5240035837
 20
3.5363552982
 30
0.0
 10
6.5245705283
 20
3.5363829955
 30
0.0
 10
6.524953421
 20
3.5364095227
 30
0.0
 10
6.5251875457
 20
3.5364298677
 30
0.0
 10
6.5253860663
 20
3.5364519501
 30
0.0
 10
6.5255489616
 20
3.5364756515
 30
0.0
 10
6.525676164
 20
3.5365013093
 30
0.0
 10
6.5257595813
 20
3.5365252781
 30
0.0
 10
6.5258076621
 20
3.5365476774
 30
0.0
 10
6.5258356364
 20
3.5365654232
 30
0.0
 10
6.525850378
 20
3.5365858268
 30
0.0
 10
6.5258503902
 20
3.5365984781
 30
0.0
  0
SPLINE
  5
27E
100
AcDbEntity
  8
0
100
AcDbSpline
 62
9
  6
CONTINUOUS
 70
0
 71
3
 72
33
 73
29
 74
0
 42
0.0000001
 43
0.0000001
 44
0.0000000001
 40
0.0
 40
0.0
 40
0.0
 40
0.0
 40
0.0006304439
 40
0.0010899382
 40
0.0016752619
 40
0.0032559272
 40
0.0054080093
 40
0.0081422858
 40
0.0114627769
 40
0.0153707689
 40
0.0198662438
 40
0.03061623
 40
0.0437014106
 40
0.0590898252
 40
0.0767384846
 40
0.0966036571
 40
0.1186412598
 40
0.1428059561
 40
0.1690383667
 40
0.2274288518
 40
0.2932558777
 40
0.3659014984
 40
0.4446374945
 40
0.5287199987
 40
0.6173623693
 40
0.7097524175
 40
0.8050377226
 40
1.0
 40
1.0
 40
1.0
 40
1.0
 10
5.4478503902
 20
3.5365986559
 30
0.0
 10
5.4478503986
 20
3.5365860378
 30
0.0
 10
5.4478650993
 20
3.5365656824
 30
0.0
 10
5.4478930055
 20
3.5365479847
 30
0.0
 10
5.4479409779
 20
3.5365256445
 30
0.0
 10
5.4480242212
 20
3.5365017438
 30
0.0
 10
5.4481511758
 20
3.5364761602
 30
0.0
 10
5.4483137828
 20
3.536452528
 30
0.0
 10
5.4485119863
 20
3.5364305085
 30
0.0
 10
5.4487457771
 20
3.5364102183
 30
0.0
 10
5.449128227
 20
3.5363837527
 30
0.0
 10
5.4496946308
 20
3.5363561023
 30
0.0
 10
5.4504792492
 20
3.5363297137
 30
0.0
 10
5.4514021332
 20
3.536308086
 30
0.0
 10
5.4524608183
 20
3.5362906154
 30
0.0
 10
5.453652647
 20
3.5362767339
 30
0.0
 10
5.4549749264
 20
3.5362658344
 30
0.0
 10
5.4564246633
 20
3.5362572546
 30
0.0
 10
5.4586019996
 20
3.5362481287
 30
0.0
 10
5.4616132105
 20
3.5362417594
 30
0.0
 10
5.4655533733
 20
3.5362394057
 30
0.0
 10
5.4699007468
 20
3.5362412865
 30
0.0
 10
5.4746134929
 20
3.5362491308
 30
0.0
 10
5.4796463955
 20
3.5362638433
 30
0.0
 10
5.4849525431
 20
3.5362891146
 30
0.0
 10
5.490482831
 20
3.5363296202
 30
0.0
 10
5.4981407947
 20
3.5364103162
 30
0.0
 10
5.5039493457
 20
3.5365083354
 30
0.0
 10
5.5078503902
 20
3.5365998564
 30
0.0
  0
SPLINE
  5
27F
100
AcDbEntity
  8
0
100
AcDbSpline
 62
9
  6
CONTINUOUS
 70
0
 71
3
 72
21
 73
17
 74
0
 42
0.0000001
 43
0.0000001
 44
0.0000000001
 40
0.0
 40
0.0
 40
0.0
 40
0.0
 40
0.0076637244
 40
0.0173262545
 40
0.0289621312
 40
0.0425281979
 40
0.0752412818
 40
0.1150486707
 40
0.1615470232
 40
0.2143311486
 40
0.2730143264
 40
0.3372166502
 40
0.4806077871
 40
0.6412731206
 40
0.8158850532
 40
1.0
 40
1.0
 40
1.0
 40
1.0
 10
5.4759080757
 20
3.5665025894
 30
0.0
 10
5.4759832728
 20
3.5664817389
 30
0.0
 10
5.4761563648
 20
3.5664460007
 30
0.0
 10
5.4764485007
 20
3.5664052861
 30
0.0
 10
5.4768019274
 20
3.5663709739
 30
0.0
 10
5.4773902688
 20
3.566330301
 30
0.0
 10
5.4782662552
 20
3.5662950534
 30
0.0
 10
5.479477843
 20
3.5662678787
 30
0.0
 10
5.4808940176
 20
3.5662511051
 30
0.0
 10
5.4825024346
 20
3.5662405653
 30
0.0
 10
5.4842911471
 20
3.566235078
 30
0.0
 10
5.4870024503
 20
3.5662325088
 30
0.0
 10
5.490752167
 20
3.5662380376
 30
0.0
 10
5.4956260568
 20
3.5662651454
 30
0.0
 10
5.5009142546
 20
3.5663346612
 30
0.0
 10
5.5045658646
 20
3.566432234
 30
0.0
 10
5.5064392096
 20
3.5665037666
 30
0.0
  0
SPLINE
  5
280
100
AcDbEntity
  8
0
100
AcDbSpline
 62
9
  6
CONTINUOUS
 70
0
 71
3
 72
32
 73
28
 74
0
 42
0.0000001
 43
0.0000001
 44
0.0000000001
 40
0.0
 40
0.0
 40
0.0
 40
0.0
 40
0.0000757869
 40
0.0003108
 40
0.0007050121
 40
0.001258306
 40
0.0028416285
 40
0.0050597304
 40
0.0079115636
 40
0.0113960776
 40
0.015512218
 40
0.0202576827
 40
0.0316144902
 40
0.0454199828
 40
0.0616272783
 40
0.0801899323
 40
0.1010621754
 40
0.124198477
 40
0.1770163994
 40
0.2379941531
 40
0.306276662
 40
0.3808541524
 40
0.4608564267
 40
0.5454445322
 40
0.6336056207
 40
0.8161554456
 40
1.0
 40
1.0
 40
1.0
 40
1.0
 10
5.4688598665
 20
3.5703513431
 30
0.0
 10
5.468859861
 20
3.5703515468
 30
0.0
 10
5.468861019
 20
3.5703503389
 30
0.0
 10
5.4688621189
 20
3.5703499871
 30
0.0
 10
5.4688649782
 20
3.5703477371
 30
0.0
 10
5.4688703673
 20
3.5703440524
 30
0.0
 10
5.4688800142
 20
3.5703370563
 30
0.0
 10
5.468894501
 20
3.5703267316
 30
0.0
 10
5.4689132142
 20
3.5703132895
 30
0.0
 10
5.4689360388
 20
3.5702969145
 30
0.0
 10
5.4689630078
 20
3.5702775489
 30
0.0
 10
5.4690071687
 20
3.5702458463
 30
0.0
 10
5.4690725407
 20
3.5701990096
 30
0.0
 10
5.4691631147
 20
3.5701344355
 30
0.0
 10
5.4692696864
 20
3.5700589236
 30
0.0
 10
5.4693920574
 20
3.5699728447
 30
0.0
 10
5.4695300477
 20
3.5698765897
 30
0.0
 10
5.4697442236
 20
3.5697285625
 30
0.0
 10
5.4700486031
 20
3.5695213903
 30
0.0
 10
5.4704557246
 20
3.5692494569
 30
0.0
 10
5.4709145976
 20
3.5689497094
 30
0.0
 10
5.4714203719
 20
3.5686282888
 30
0.0
 10
5.4719695729
 20
3.568293617
 30
0.0
 10
5.4725586649
 20
3.5679545658
 30
0.0
 10
5.4733997803
 20
3.5675013132
 30
0.0
 10
5.4745032364
 20
3.5669736252
 30
0.0
 10
5.4754318293
 20
3.5666350709
 30
0.0
 10
5.4759080757
 20
3.5665025894
 30
0.0
  0
SPLINE
  5
281
100
AcDbEntity
  8
0
100
AcDbSpline
 62
9
  6
CONTINUOUS
 70
0
 71
3
 72
15
 73
11
 74
0
 42
0.0000001
 43
0.0000001
 44
0.0000000001
 40
0.0
 40
0.0
 40
0.0
 40
0.0
 40
0.1244154173
 40
0.2489514016
 40
0.3736480449
 40
0.4985501428
 40
0.6236694944
 40
0.7489851009
 40
0.8744540437
 40
1.0
 40
1.0
 40
1.0
 40
1.0
 10
5.5064392096
 20
3.5665037666
 30
0.0
 10
5.5098902606
 20
3.5666356338
 30
0.0
 10
5.5167929197
 20
3.5669734066
 30
0.0
 10
5.5271449108
 20
3.5676163149
 30
0.0
 10
5.5375072016
 20
3.5683082868
 30
0.0
 10
5.5478875595
 20
3.5689727322
 30
0.0
 10
5.5582901328
 20
3.5695564485
 30
0.0
 10
5.5687153766
 20
3.5700045568
 30
0.0
 10
5.5791583675
 20
3.570286388
 30
0.0
 10
5.5861262882
 20
3.5703513298
 30
0.0
 10
5.5896112396
 20
3.5703514105
 30
0.0
  0
SPLINE
  5
282
100
AcDbEntity
  8
0
100
AcDbSpline
 62
9
  6
CONTINUOUS
 70
0
 71
3
 72
15
 73
11
 74
0
 42
0.0000001
 43
0.0000001
 44
0.0000000001
 40
0.0
 40
0.0
 40
0.0
 40
0.0
 40
0.1255432955
 40
0.2510063828
 40
0.3763217494
 40
0.5014422257
 40
0.6263446869
 40
0.751047507
 40
0.8755845664
 40
1.0
 40
1.0
 40
1.0
 40
1.0
 10
6.3840971893
 20
3.5703510219
 30
0.0
 10
6.3875818364
 20
3.5703506825
 30
0.0
 10
6.3945490543
 20
3.5702865542
 30
0.0
 10
6.4049911661
 20
3.5700058482
 30
0.0
 10
6.415415439
 20
3.5695546118
 30
0.0
 10
6.4258175083
 20
3.568973781
 30
0.0
 10
6.4361973386
 20
3.5683083826
 30
0.0
 10
6.4465590573
 20
3.5676149551
 30
0.0
 10
6.4569107181
 20
3.5669745592
 30
0.0
 10
6.4638128987
 20
3.5666359655
 30
0.0
 10
6.4672637079
 20
3.5665037401
 30
0.0
  0
SPLINE
  5
283
100
AcDbEntity
  8
0
100
AcDbSpline
 62
9
  6
CONTINUOUS
 70
0
 71
3
 72
32
 73
28
 74
0
 42
0.0000001
 43
0.0000001
 44
0.0000000001
 40
0.0
 40
0.0
 40
0.0
 40
0.0
 40
0.18418707
 40
0.3666287571
 40
0.4545767818
 40
0.5391052451
 40
0.619238076
 40
0.6938988366
 40
0.7620723539
 40
0.8229443168
 40
0.8757404302
 40
0.8989081981
 40
0.9198306991
 40
0.9384390596
 40
0.9546641792
 40
0.968445836
 40
0.97975905
 40
0.984484875
 40
0.9885874497
 40
0.9920647269
 40
0.9949146595
 40
0.9971352001
 40
0.998724301
 40
0.9992814218
 40
0.999679915
 40
0.9999195252
 40
1.0
 40
1.0
 40
1.0
 40
1.0
 10
6.4977893816
 20
3.5665024363
 30
0.0
 10
6.4982665262
 20
3.5666357903
 30
0.0
 10
6.499196368
 20
3.5669733456
 30
0.0
 10
6.5003012953
 20
3.5674993884
 30
0.0
 10
6.5011410309
 20
3.5679537938
 30
0.0
 10
6.5017293833
 20
3.5682938318
 30
0.0
 10
6.5022793912
 20
3.5686284012
 30
0.0
 10
6.5027862209
 20
3.5689490866
 30
0.0
 10
6.5032454187
 20
3.5692480546
 30
0.0
 10
6.5036521093
 20
3.5695198117
 30
0.0
 10
6.5039559501
 20
3.569727552
 30
0.0
 10
6.504170035
 20
3.5698761581
 30
0.0
 10
6.5043081975
 20
3.5699728706
 30
0.0
 10
6.5044307832
 20
3.5700592698
 30
0.0
 10
6.5045374963
 20
3.5701348477
 30
0.0
 10
6.5046281446
 20
3.5701991569
 30
0.0
 10
6.504693532
 20
3.5702456168
 30
0.0
 10
6.5047376752
 20
3.5702770254
 30
0.0
 10
6.5047646398
 20
3.5702962243
 30
0.0
 10
6.5047874783
 20
3.5703125108
 30
0.0
 10
6.5048062134
 20
3.5703258548
 30
0.0
 10
6.5048207423
 20
3.5703362909
 30
0.0
 10
6.5048303949
 20
3.5703430731
 30
0.0
 10
6.5048358255
 20
3.5703471285
 30
0.0
 10
6.5048386567
 20
3.5703488904
 30
0.0
 10
6.5048398364
 20
3.5703502198
 30
0.0
 10
6.5048409379
 20
3.5703505172
 30
0.0
 10
6.5048409437
 20
3.5703507336
 30
0.0
  0
SPLINE
  5
284
100
AcDbEntity
  8
0
100
AcDbSpline
 62
9
  6
CONTINUOUS
 70
0
 71
3
 72
21
 73
17
 74
0
 42
0.0000001
 43
0.0000001
 44
0.0000000001
 40
0.0
 40
0.0
 40
0.0
 40
0.0
 40
0.1840798255
 40
0.3585888263
 40
0.5192381236
 40
0.6626469152
 40
0.7268654753
 40
0.7855777047
 40
0.838402244
 40
0.8849378395
 40
0.9247719224
 40
0.9574939132
 40
0.971056103
 40
0.9826853739
 40
0.9923409937
 40
1.0
 40
1.0
 40
1.0
 40
1.0
 10
6.4672637079
 20
3.5665037401
 30
0.0
 10
6.4691363599
 20
3.5664320227
 30
0.0
 10
6.4727859164
 20
3.5663340791
 30
0.0
 10
6.4780716237
 20
3.5662646067
 30
0.0
 10
6.4829436349
 20
3.5662382338
 30
0.0
 10
6.486692877
 20
3.566233332
 30
0.0
 10
6.4894043473
 20
3.5662354594
 30
0.0
 10
6.4911936193
 20
3.5662408809
 30
0.0
 10
6.4928028458
 20
3.5662506511
 30
0.0
 10
6.4942198404
 20
3.5662671342
 30
0.0
 10
6.4954319573
 20
3.5662942502
 30
0.0
 10
6.4963081247
 20
3.5663292926
 30
0.0
 10
6.4968963371
 20
3.5663701248
 30
0.0
 10
6.4972495076
 20
3.5664046143
 30
0.0
 10
6.4975413732
 20
3.5664455594
 30
0.0
 10
6.4977142752
 20
3.5664814902
 30
0.0
 10
6.4977893816
 20
3.5665024363
 30
0.0
  0
SPLINE
  5
285
100
AcDbEntity
  8
0
100
AcDbSpline
 62
9
  6
CONTINUOUS
 70
0
 71
3
 72
15
 73
11
 74
0
 42
0.0000001
 43
0.0000001
 44
0.0000000001
 40
0.0
 40
0.0
 40
0.0
 40
0.0
 40
0.1240868846
 40
0.2487246456
 40
0.3734941022
 40
0.4982815501
 40
0.6233061095
 40
0.7487714967
 40
0.8745058387
 40
1.0
 40
1.0
 40
1.0
 40
1.0
 10
4.7918503902
 20
5.6507882767
 30
0.0
 10
4.7918503902
 20
5.6521499965
 30
0.0
 10
4.7920469424
 20
5.6548831214
 30
0.0
 10
4.7929071395
 20
5.6589032858
 30
0.0
 10
4.7943216071
 20
5.66277313
 30
0.0
 10
4.7962703217
 20
5.6664077996
 30
0.0
 10
4.7987089535
 20
5.6697430331
 30
0.0
 10
4.8015984218
 20
5.6727111019
 30
0.0
 10
4.8048705655
 20
5.675257075
 30
0.0
 10
4.8072650852
 20
5.6766442058
 30
0.0
 10
4.8085020893
 20
5.6772495147
 30
0.0
  0
SPLINE
  5
286
100
AcDbEntity
  8
0
100
AcDbSpline
 62
9
  6
CONTINUOUS
 70
0
 71
3
 72
15
 73
11
 74
0
 42
0.0000001
 43
0.0000001
 44
0.0000000001
 40
0.0
 40
0.0
 40
0.0
 40
0.0
 40
0.1240868708
 40
0.2487246617
 40
0.373494161
 40
0.4982816261
 40
0.6233061823
 40
0.7487715535
 40
0.8745058745
 40
1.0
 40
1.0
 40
1.0
 40
1.0
 10
7.1818503902
 20
5.6507882375
 30
0.0
 10
7.1818503902
 20
5.6521499576
 30
0.0
 10
7.1816538378
 20
5.6548830838
 30
0.0
 10
7.1807936412
 20
5.6589032505
 30
0.0
 10
7.1793791754
 20
5.6627730981
 30
0.0
 10
7.1774304627
 20
5.6664077712
 30
0.0
 10
7.1749918337
 20
5.6697430086
 30
0.0
 10
7.1721023694
 20
5.6727110829
 30
0.0
 10
7.1688302298
 20
5.6752570624
 30
0.0
 10
7.1664357125
 20
5.6766441982
 30
0.0
 10
7.1651987094
 20
5.6772495095
 30
0.0
  0
SPLINE
  5
287
100
AcDbEntity
  8
0
100
AcDbSpline
 62
9
  6
CONTINUOUS
 70
0
 71
3
 72
15
 73
11
 74
0
 42
0.0000001
 43
0.0000001
 44
0.0000000001
 40
0.0
 40
0.0
 40
0.0
 40
0.0
 40
0.1247724252
 40
0.2498174497
 40
0.3748144548
 40
0.4997079172
 40
0.6246429891
 40
0.749762102
 40
0.8749925962
 40
1.0
 40
1.0
 40
1.0
 40
1.0
 10
7.1818095695
 20
5.6534238912
 30
0.0
 10
7.1817484942
 20
5.6545834206
 30
0.0
 10
7.1814895187
 20
5.6568999843
 30
0.0
 10
7.1807035484
 20
5.6603059391
 30
0.0
 10
7.179525095
 20
5.6635987613
 30
0.0
 10
7.1779682636
 20
5.666729086
 30
0.0
 10
7.1760574669
 20
5.6696581565
 30
0.0
 10
7.173813729
 20
5.6723450913
 30
0.0
 10
7.1712729134
 20
5.674752904
 30
0.0
 10
7.1694049558
 20
5.6761537515
 30
0.0
 10
7.1684350662
 20
5.6767961188
 30
0.0
  0
SPLINE
  5
288
100
AcDbEntity
  8
0
100
AcDbSpline
 62
9
  6
CONTINUOUS
 70
0
 71
3
 72
15
 73
11
 74
0
 42
0.0000001
 43
0.0000001
 44
0.0000000001
 40
0.0
 40
0.0
 40
0.0
 40
0.0
 40
0.1247720813
 40
0.2498168398
 40
0.3748136635
 40
0.4997070328
 40
0.6246421214
 40
0.749761383
 40
0.8749921762
 40
1.0
 40
1.0
 40
1.0
 40
1.0
 10
4.7918912114
 20
5.653423889
 30
0.0
 10
4.7919522872
 20
5.6545834137
 30
0.0
 10
4.792211264
 20
5.6568999685
 30
0.0
 10
4.7929972364
 20
5.6603059106
 30
0.0
 10
4.7941756919
 20
5.663598722
 30
0.0
 10
4.7957325259
 20
5.6667290377
 30
0.0
 10
4.7976433259
 20
5.6696581014
 30
0.0
 10
4.7998870678
 20
5.6723450325
 30
0.0
 10
4.8024278891
 20
5.6747528444
 30
0.0
 10
4.8042958501
 20
5.6761536933
 30
0.0
 10
4.8052657414
 20
5.6767960622
 30
0.0
  0
LINE
  5
289
100
AcDbEntity
  8
0
100
AcDbLine
 62
9
  6
CONTINUOUS
 10
4.8600319272
 20
5.6518767513
 11
4.8518503902
 21
5.6507882375
  0
SPLINE
  5
28A
100
AcDbEntity
  8
0
100
AcDbSpline
 62
9
  6
CONTINUOUS
 70
0
 71
3
 72
10
 73
6
 74
0
 42
0.0000001
 43
0.0000001
 44
0.0000000001
 40
0.0
 40
0.0
 40
0.0
 40
0.0
 40
0.4999893998
 40
0.7499947714
 40
1.0
 40
1.0
 40
1.0
 40
1.0
 10
4.9018504512
 20
5.6534587637
 30
0.0
 10
4.8948743338
 20
5.6534586885
 30
0.0
 10
4.8844085029
 20
5.6532717674
 30
0.0
 10
4.8704704712
 20
5.6526231378
 30
0.0
 10
4.8635091356
 20
5.652153519
 30
0.0
 10
4.8600319272
 20
5.6518767513
 30
0.0
  0
SPLINE
  5
28B
100
AcDbEntity
  8
0
100
AcDbSpline
 62
9
  6
CONTINUOUS
 70
0
 71
3
 72
11
 73
7
 74
0
 42
0.0000001
 43
0.0000001
 44
0.0000000001
 40
0.0
 40
0.0
 40
0.0
 40
0.0
 40
0.2499999242
 40
0.4999998341
 40
0.7499998942
 40
1.0
 40
1.0
 40
1.0
 40
1.0
 10
7.1136687951
 20
5.6518767559
 30
0.0
 10
7.1101915997
 20
5.6521536316
 30
0.0
 10
7.1032302789
 20
5.652622579
 30
0.0
 10
7.0927764239
 20
5.6531106264
 30
0.0
 10
7.0823151062
 20
5.6533959764
 30
0.0
 10
7.0753385382
 20
5.6534589456
 30
0.0
 10
7.0718503344
 20
5.6534587637
 30
0.0
  0
LINE
  5
28C
100
AcDbEntity
  8
0
100
AcDbLine
 62
9
  6
CONTINUOUS
 10
7.1218503902
 20
5.6507882767
 11
7.1136687951
 21
5.6518767559
  0
LINE
  5
28D
100
AcDbEntity
  8
0
100
AcDbLine
 62
9
  6
CONTINUOUS
 10
7.1318503902
 20
5.7509267071
 11
7.1284189327
 21
5.7546409447
  0
SPLINE
  5
28E
100
AcDbEntity
  8
0
100
AcDbSpline
 62
9
  6
CONTINUOUS
 70
0
 71
3
 72
21
 73
17
 74
0
 42
0.0000001
 43
0.0000001
 44
0.0000000001
 40
0.0
 40
0.0
 40
0.0
 40
0.0
 40
0.0394203209
 40
0.0805705294
 40
0.1242684919
 40
0.1711293088
 40
0.2215437485
 40
0.2757077856
 40
0.3336460257
 40
0.3952888475
 40
0.5291138504
 40
0.6009474056
 40
0.675775706
 40
0.7533666525
 40
0.8335067277
 40
1.0
 40
1.0
 40
1.0
 40
1.0
 10
7.1284189327
 20
5.7546409447
 30
0.0
 10
7.1280555247
 20
5.7549776001
 30
0.0
 10
7.1272537291
 20
5.7556041747
 30
0.0
 10
7.1258879397
 20
5.7563714446
 30
0.0
 10
7.1243468864
 20
5.7569865526
 30
0.0
 10
7.1226367108
 20
5.757459384
 30
0.0
 10
7.1207639012
 20
5.7578073475
 30
0.0
 10
7.1187344792
 20
5.7580464683
 30
0.0
 10
7.1165545899
 20
5.7581850761
 30
0.0
 10
7.1133699128
 20
5.758243661
 30
0.0
 10
7.1100099849
 20
5.7581096166
 30
0.0
 10
7.1064991984
 20
5.7577909403
 30
0.0
 10
7.1037027173
 20
5.757437147
 30
0.0
 10
7.1008187992
 20
5.7569585756
 30
0.0
 10
7.0968299449
 20
5.7561242021
 30
0.0
 10
7.093838747
 20
5.7552920914
 30
0.0
 10
7.0918503902
 20
5.7546409447
 30
0.0
  0
SPLINE
  5
28F
100
AcDbEntity
  8
0
100
AcDbSpline
 62
9
  6
CONTINUOUS
 70
0
 71
3
 72
12
 73
8
 74
0
 42
0.0000001
 43
0.0000001
 44
0.0000000001
 40
0.0
 40
0.0
 40
0.0
 40
0.0
 40
0.2441833097
 40
0.4932268943
 40
0.6191345938
 40
0.7457443689
 40
1.0
 40
1.0
 40
1.0
 40
1.0
 10
7.0918503902
 20
5.7546409447
 30
0.0
 10
7.0902712098
 20
5.754120315
 30
0.0
 10
7.0870622449
 20
5.7531244936
 30
0.0
 10
7.0829630295
 20
5.7521213289
 30
0.0
 10
7.0796001532
 20
5.7515177435
 30
0.0
 10
7.076177772
 20
5.7510682993
 30
0.0
 10
7.0735817672
 20
5.7509267097
 30
0.0
 10
7.0718503902
 20
5.7509267071
 30
0.0
  0
SPLINE
  5
290
100
AcDbEntity
  8
0
100
AcDbSpline
 62
9
  6
CONTINUOUS
 70
0
 71
3
 72
11
 73
7
 74
0
 42
0.0000001
 43
0.0000001
 44
0.0000000001
 40
0.0
 40
0.0
 40
0.0
 40
0.0
 40
0.2543443786
 40
0.5068283465
 40
0.7558227935
 40
1.0
 40
1.0
 40
1.0
 40
1.0
 10
4.9018503902
 20
5.7509267071
 30
0.0
 10
4.9001185267
 20
5.7509267043
 30
0.0
 10
4.8966648177
 20
5.7511146672
 30
0.0
 10
4.8915737341
 20
5.751915486
 30
0.0
 10
4.8866380864
 20
5.7531253728
 30
0.0
 10
4.8834295104
 20
5.7541206266
 30
0.0
 10
4.8818503902
 20
5.7546409447
 30
0.0
  0
ENDSEC
  0
SECTION
  2
OBJECTS
  0
DICTIONARY
  5
C
100
AcDbDictionary
280
0
281
1
  3
ACAD_GROUP
350
D
  3
ACAD_MLINESTYLE
350
17
  3
ACAD_LAYOUT
350
1A
  3
ACAD_PLOTSETTINGS
350
19
  3
ACAD_PLOTSTYLENAME
350
E
  0
DICTIONARY
  5
D
102
{ACAD_REACTORS
330
C
102
}
100
AcDbDictionary
280
0
281
1
  0
ACDBDICTIONARYWDFLT
  5
E
102
{ACAD_REACTORS
330
C
102
}
100
AcDbDictionary
281
1
  3
Normal
350
F
100
AcDbDictionaryWithDefault
340
F
  0
DICTIONARY
  5
17
102
{ACAD_REACTORS
330
C
102
}
100
AcDbDictionary
280
0
281
1
  3
Standard
350
18
  0
DICTIONARY
  5
19
102
{ACAD_REACTORS
330
C
102
}
100
AcDbDictionary
281
1
  0
DICTIONARY
  5
1A
102
{ACAD_REACTORS
330
C
102
}
100
AcDbDictionary
281
1
  3
Model
350
291
  3
Layout1
350
292
  0
ACDBPLACEHOLDER
  5
F
102
{ACAD_REACTORS
330
E
102
}
  0
MLINESTYLE
  5
18
102
{ACAD_REACTORS
330
17
102
}
100
AcDbMlineStyle
  2
STANDARD
 70
0
  3

 62
256
 51
90.0
 52
90.0
 71
2
 49
0.5
 62
256
  6
BYLAYER
 49
-0.5
 62
256
  6
BYLAYER
  0
LAYOUT
  5
291
102
{ACAD_REACTORS
330
1A
102
}
100
AcDbPlotSettings
  1

  2
none_device
  4
ISO_A4_(297.00_x_210.00_MM)
  6

 40
0.0
 41
0.0
 42
0.0
 43
0.0
 44
297.0
 45
210.0
 46
0.0
 47
0.0
 48
0.0
 49
0.0
140
0.0
141
0.0
142
1.0
143
1.0
 70
1024
 72
0
 73
0
 74
0
  7

 75
0
147
1.0
148
0.0
149
0.0
100
AcDbLayout
  1
Model
 70
0
 71
0
 10
0.0
 20
0.0
 11
11.6929133858
 21
8.2677165354
 12
0.0
 22
0.0
 32
0.0
 14
0.0
 24
0.0
 34
0.0
 15
0.0
 25
0.0
 35
0.0
146
0.0
 13
0.0
 23
0.0
 33
0.0
 16
1.0
 26
0.0
 36
0.0
 17
0.0
 27
1.0
 37
0.0
 76
0
330
202
345
0
346
0
  0
LAYOUT
  5
292
102
{ACAD_REACTORS
330
1A
102
}
100
AcDbPlotSettings
  1

  2
none_device
  4
ISO_A4_(297.00_x_210.00_MM)
  6

 40
0.0
 41
0.0
 42
0.0
 43
0.0
 44
297.0
 45
210.0
 46
0.0
 47
0.0
 48
0.0
 49
0.0
140
0.0
141
0.0
142
1.0
143
1.0
 70
0
 72
0
 73
0
 74
0
  7

 75
0
147
1.0
148
0.0
149
0.0
100
AcDbLayout
  1
Layout1
 70
0
 71
1
 10
0.0
 20
0.0
 11
11.6929133858
 21
8.2677165354
 12
0.0
 22
0.0
 32
0.0
 14
0.0
 24
0.0
 34
0.0
 15
0.0
 25
0.0
 35
0.0
146
0.0
 13
0.0
 23
0.0
 33
0.0
 16
1.0
 26
0.0
 36
0.0
 17
0.0
 27
1.0
 37
0.0
 76
0
330
203
345
0
346
0
  0
ENDSEC
  0
EOF
