999
DXF file: 43-12_FRONT.dxf
999
Pro/ENGINEER 2014000 by Parametric Technology Corporation
  0
SECTION
  2
HEADER
  9
$ACADVER
  1
AC1015
  9
$DWGCODEPAGE
  3
ANSI_1252
  9
$EXTMAX
 10
11.6929133858
 20
8.2677165354
 30
0.0
  9
$EXTMIN
 10
0.0
 20
-0.0
 30
0.0
  9
$LIMMIN
 10
0.0
 20
-0.0
  9
$LIMMAX
 10
11.6929133858
 20
8.2677165354
  9
$VIEWCTR
 10
5.8464566929
 20
4.1338582677
  9
$VIEWSIZE
 40
8.2677165354
  9
$CLAYER
  8
0
  9
$LTSCALE
 40
0.6431102362
  9
$CELTYPE
  6
BYLAYER
  9
$DIMSCALE
 40
1.0
  9
$DIMASZ
 40
0.1875
  9
$DIMEXO
 40
0.0625
  9
$DIMDLI
 40
0.4443307087
  9
$DIMEXE
 40
0.125
  9
$DIMCEN
 40
0.1052362205
  9
$DIMLFAC
 40
1.0
  9
$DIMBLK
  1
_CLOSED
  9
$DIMTXT
 40
0.15625
  9
$DIMTOL
 70
0
  9
$DIMLIM
 70
0
  9
$DIMTFAC
 40
1.0
  9
$DIMGAP
 40
0.09
  9
$DIMDSEP
 70
46
  9
$PDMODE
 70
3
  9
$PDSIZE
 40
0.3125
  9
$HANDSEED
  5
2C6
  9
$TILEMODE
 70
1
  9
$MEASUREMENT
 70
0
  9
$INSUNITS
 70
1
  0
ENDSEC
  0
SECTION
  2
CLASSES
  0
CLASS
  1
ACDBDICTIONARYWDFLT
  2
AcDbDictionaryWithDefault
  3
AutoCAD 2000
 90
0
280
0
281
0
  0
CLASS
  1
ACDBPLACEHOLDER
  2
AcDbPlaceHolder
  3
AutoCAD 2000
 90
0
280
0
281
0
  0
CLASS
  1
LAYOUT
  2
AcDbLayout
  3
AutoCAD 2000
 90
0
280
0
281
0
  0
ENDSEC
  0
SECTION
  2
TABLES
  0
TABLE
  2
VPORT
  5
8
100
AcDbSymbolTable
 70
2
  0
VPORT
  5
1F4
100
AcDbSymbolTableRecord
100
AcDbViewportTableRecord
  2
*ACTIVE
 70
0
 10
0.0
 20
0.0
 11
1.0
 21
1.0
 12
5.8464566929
 22
4.1338582677
 13
0.0
 23
0.0
 14
1.0
 24
1.0
 15
0.0
 25
0.0
 16
0.0
 26
0.0
 36
1.0
 17
0.0
 27
0.0
 37
0.0
 40
8.2677165354
 41
1.4142857143
 42
50.0
 43
0.0
 44
0.0
 50
0.0
 51
0.0
 71
0
 72
100
 73
1
 74
1
 75
0
 76
0
 77
0
 78
0
  0
ENDTAB
  0
TABLE
  2
LTYPE
  5
5
100
AcDbSymbolTable
 70
6
  0
LTYPE
  5
14
100
AcDbSymbolTableRecord
100
AcDbLinetypeTableRecord
  2
BYBLOCK
 70
0
  3

 72
65
 73
0
 40
0.0
  0
LTYPE
  5
15
100
AcDbSymbolTableRecord
100
AcDbLinetypeTableRecord
  2
BYLAYER
 70
0
  3

 72
65
 73
0
 40
0.0
  0
LTYPE
  5
16
100
AcDbSymbolTableRecord
100
AcDbLinetypeTableRecord
  2
CONTINUOUS
 70
64
  3
Solid line
 72
65
 73
0
 40
0.0
  0
LTYPE
  5
1F5
100
AcDbSymbolTableRecord
100
AcDbLinetypeTableRecord
  2
CENTER
 70
64
  3
____ _ ____ _ ____ _ ____ _ ____ _ ____ _ ____
 72
65
 73
4
 40
0.6
 49
0.375
 74
0
 49
-0.075
 74
0
 49
0.075
 74
0
 49
-0.075
 74
0
  0
LTYPE
  5
1F6
100
AcDbSymbolTableRecord
100
AcDbLinetypeTableRecord
  2
HIDDEN
 70
64
  3
- - - - - - - - - - - - - - - - - - - -
 72
65
 73
2
 40
0.2
 49
0.1
 74
0
 49
-0.1
 74
0
  0
LTYPE
  5
1F7
100
AcDbSymbolTableRecord
100
AcDbLinetypeTableRecord
  2
PHANTOM
 70
64
  3
_____ _ _ _____ _ _ _____ _ _ _____
 72
65
 73
6
 40
0.8
 49
0.45
 74
0
 49
-0.05
 74
0
 49
0.1
 74
0
 49
-0.05
 74
0
 49
0.1
 74
0
 49
-0.05
 74
0
  0
LTYPE
  5
1F8
100
AcDbSymbolTableRecord
100
AcDbLinetypeTableRecord
  2
DOT
 70
64
  3
. . . . . . . . . . . . . . . . . . . .
 72
65
 73
2
 40
0.2
 49
0.1
 74
0
 49
-0.1
 74
0
  0
LTYPE
  5
1F9
100
AcDbSymbolTableRecord
100
AcDbLinetypeTableRecord
  2
DASHED
 70
64
  3
- - - - - - - - - - - - - - - - - - - -
 72
65
 73
2
 40
0.2
 49
0.1
 74
0
 49
-0.1
 74
0
  0
ENDTAB
  0
TABLE
  2
LAYER
  5
2
100
AcDbSymbolTable
 70
36
  0
LAYER
  5
10
100
AcDbSymbolTableRecord
100
AcDbLayerTableRecord
  2
0
 70
0
 62
7
  6
CONTINUOUS
370
-3
390
F
  0
LAYER
  5
1FA
100
AcDbSymbolTableRecord
100
AcDbLayerTableRecord
  2
DEFAULT_1
 70
0
 62
7
  6
CENTER
370
-3
390
F
  0
LAYER
  5
1FB
100
AcDbSymbolTableRecord
100
AcDbLayerTableRecord
  2
DEFAULT_2
 70
0
 62
8
  6
HIDDEN
370
-3
390
F
  0
LAYER
  5
1FC
100
AcDbSymbolTableRecord
100
AcDbLayerTableRecord
  2
DEFAULT_3
 70
0
 62
7
  6
PHANTOM
370
-3
390
F
  0
LAYER
  5
1FD
100
AcDbSymbolTableRecord
100
AcDbLayerTableRecord
  2
DEFAULT_COORDINATE_SYSTEM
 70
0
 62
7
  6
CONTINUOUS
370
-3
390
F
  0
LAYER
  5
1FE
100
AcDbSymbolTableRecord
100
AcDbLayerTableRecord
  2
DEFAULT_DATUM_AXES
 70
0
 62
7
  6
CONTINUOUS
370
-3
390
F
  0
LAYER
  5
1FF
100
AcDbSymbolTableRecord
100
AcDbLayerTableRecord
  2
DEFAULT_DATUM_PLANES
 70
0
 62
7
  6
CONTINUOUS
370
-3
390
F
  0
ENDTAB
  0
TABLE
  2
STYLE
  5
3
100
AcDbSymbolTable
 70
1
  0
STYLE
  5
11
100
AcDbSymbolTableRecord
100
AcDbTextStyleTableRecord
  2
STANDARD
 70
0
 40
0.0
 41
0.8
 50
0.0
 71
0
 42
0.2
  3
txt
  4

  0
STYLE
  5
200
100
AcDbSymbolTableRecord
100
AcDbTextStyleTableRecord
  2
TEXTSTYLE_1
 70
0
 40
0.0
 41
0.8
 50
0.0
 71
0
 42
0.2
  3
gdt
  4

  0
ENDTAB
  0
TABLE
  2
VIEW
  5
6
100
AcDbSymbolTable
 70
0
  0
ENDTAB
  0
TABLE
  2
UCS
  5
7
100
AcDbSymbolTable
 70
0
  0
ENDTAB
  0
TABLE
  2
APPID
  5
9
100
AcDbSymbolTable
 70
1
  0
APPID
  5
201
100
AcDbSymbolTableRecord
100
AcDbRegAppTableRecord
  2
ACAD
 70
0
  0
ENDTAB
  0
TABLE
  2
BLOCK_RECORD
  5
1
100
AcDbSymbolTable
 70
0
  0
BLOCK_RECORD
  5
202
100
AcDbSymbolTableRecord
100
AcDbBlockTableRecord
  2
*Model_Space
  0
BLOCK_RECORD
  5
203
100
AcDbSymbolTableRecord
100
AcDbBlockTableRecord
  2
*Paper_Space
  0
ENDTAB
  0
TABLE
  2
DIMSTYLE
  5
A
100
AcDbSymbolTable
 70
1
100
AcDbDimStyleTable
 71
0
  0
DIMSTYLE
105
204
100
AcDbSymbolTableRecord
100
AcDbDimStyleTableRecord
  2
STANDARD
 70
0
  3

  4

 40
1.0
 41
0.1875
 42
0.0625
 43
0.38
 44
0.125
 45
0.0
 46
0.0
 47
0.001
 48
0.001
140
0.15625
141
0.09
142
0.0
143
25.4
144
1.0
145
0.0
146
1.0
147
0.09
 71
0.0
 72
0.0
 73
1
 74
1
 75
0
 76
0
 77
0
 78
4
170
0
171
2
172
0
173
0
174
0
175
0
176
0
177
0
178
0
270
2
271
3
272
3
273
2
274
2
275
0
280
0
281
0
282
0
283
1
284
4
285
0
286
0
287
3
288
0
340
11
278
46
  0
ENDTAB
  0
ENDSEC
  0
SECTION
  2
BLOCKS
  0
BLOCK
  5
20
100
AcDbEntity
  8
0
100
AcDbBlockBegin
  2
*Model_Space
 70
0
 10
0.0
 20
0.0
 30
0.0
  3
*Model_Space
  1

  0
ENDBLK
  5
21
100
AcDbEntity
  8
0
100
AcDbBlockEnd
  0
BLOCK
  5
1C
100
AcDbEntity
  8
0
100
AcDbBlockBegin
  2
*Paper_Space
 70
0
 10
0.0
 20
0.0
 30
0.0
  3
*Paper_Space
  1

  0
ENDBLK
  5
1D
100
AcDbEntity
  8
0
100
AcDbBlockEnd
  0
ENDSEC
  0
SECTION
  2
ENTITIES
  0
LINE
  5
205
100
AcDbEntity
  8
0
100
AcDbLine
 62
7
  6
CONTINUOUS
 10
0.0
 20
-0.0
 11
0.0
 21
8.2677165354
  0
LINE
  5
206
100
AcDbEntity
  8
0
100
AcDbLine
 62
7
  6
CONTINUOUS
 10
0.0
 20
-0.0
 11
11.6929133858
 21
-0.0
  0
LINE
  5
207
100
AcDbEntity
  8
0
100
AcDbLine
 62
7
  6
CONTINUOUS
 10
0.0
 20
8.2677165354
 11
11.6929133858
 21
8.2677165354
  0
LINE
  5
208
100
AcDbEntity
  8
0
100
AcDbLine
 62
7
  6
CONTINUOUS
 10
11.6929133858
 20
-0.0
 11
11.6929133858
 21
8.2677165354
  0
LINE
  5
209
100
AcDbEntity
  8
0
100
AcDbLine
 62
6
  6
CONTINUOUS
 10
4.7782133825
 20
5.321673555
 11
4.7782133825
 21
3.051673555
  0
LINE
  5
20A
100
AcDbEntity
  8
0
100
AcDbLine
 62
9
  6
CONTINUOUS
 10
4.8082133825
 20
5.321673555
 11
4.8082133825
 21
3.051673555
  0
LINE
  5
20B
100
AcDbEntity
  8
0
100
AcDbLine
 62
9
  6
CONTINUOUS
 10
4.8382133825
 20
3.021673555
 11
4.8382133825
 21
2.991673555
  0
LINE
  5
20C
100
AcDbEntity
  8
0
100
AcDbLine
 62
9
  6
CONTINUOUS
 10
4.8382133825
 20
5.351673555
 11
4.8382133825
 21
5.381673555
  0
LINE
  5
20D
100
AcDbEntity
  8
0
100
AcDbLine
 62
6
  6
CONTINUOUS
 10
4.8382133825
 20
2.991673555
 11
7.1082133825
 21
2.991673555
  0
LINE
  5
20E
100
AcDbEntity
  8
0
100
AcDbLine
 62
9
  6
CONTINUOUS
 10
4.8382133825
 20
3.021673555
 11
7.1082133825
 21
3.021673555
  0
LINE
  5
20F
100
AcDbEntity
  8
0
100
AcDbLine
 62
9
  6
CONTINUOUS
 10
4.8082133825
 20
3.051673555
 11
4.7782133825
 21
3.0516735551
  0
LINE
  5
210
100
AcDbEntity
  8
0
100
AcDbLine
 62
9
  6
CONTINUOUS
 10
7.1382133825
 20
3.051673555
 11
7.1682133825
 21
3.051673555
  0
LINE
  5
211
100
AcDbEntity
  8
0
100
AcDbLine
 62
6
  6
CONTINUOUS
 10
5.1007133825
 20
4.999173555
 11
5.1007133825
 21
3.374173555
  0
LINE
  5
212
100
AcDbEntity
  8
0
100
AcDbLine
 62
9
  6
CONTINUOUS
 10
5.1307133825
 20
4.999173555
 11
5.1307133825
 21
3.374173555
  0
LINE
  5
213
100
AcDbEntity
  8
0
100
AcDbLine
 62
9
  6
CONTINUOUS
 10
5.1607133825
 20
3.344173555
 11
5.1607133825
 21
3.314173555
  0
LINE
  5
214
100
AcDbEntity
  8
0
100
AcDbLine
 62
9
  6
CONTINUOUS
 10
5.1607133825
 20
5.029173555
 11
5.1607133826
 21
5.059173555
  0
LINE
  5
215
100
AcDbEntity
  8
0
100
AcDbLine
 62
6
  6
CONTINUOUS
 10
5.1607133825
 20
3.314173555
 11
6.7857133825
 21
3.314173555
  0
LINE
  5
216
100
AcDbEntity
  8
0
100
AcDbLine
 62
9
  6
CONTINUOUS
 10
5.1607133825
 20
3.344173555
 11
6.7857133825
 21
3.344173555
  0
LINE
  5
217
100
AcDbEntity
  8
0
100
AcDbLine
 62
9
  6
CONTINUOUS
 10
5.1307133825
 20
3.374173555
 11
5.1007133825
 21
3.3741735552
  0
LINE
  5
218
100
AcDbEntity
  8
0
100
AcDbLine
 62
9
  6
CONTINUOUS
 10
6.8157133825
 20
3.374173555
 11
6.8457133825
 21
3.374173555
  0
LINE
  5
219
100
AcDbEntity
  8
0
100
AcDbLine
 62
9
  6
CONTINUOUS
 10
5.2199340464
 20
4.8530195667
 11
5.2199340464
 21
3.5203275433
  0
LINE
  5
21A
100
AcDbEntity
  8
0
100
AcDbLine
 62
9
  6
CONTINUOUS
 10
5.2489118212
 20
4.8530195667
 11
5.2489118212
 21
3.5203275433
  0
LINE
  5
21B
100
AcDbEntity
  8
0
100
AcDbLine
 62
9
  6
CONTINUOUS
 10
5.3068673708
 20
4.9399528911
 11
5.3068673708
 21
4.9109751163
  0
LINE
  5
21C
100
AcDbEntity
  8
0
100
AcDbLine
 62
9
  6
CONTINUOUS
 10
5.3068673708
 20
3.433394219
 11
5.3068673708
 21
3.4623719938
  0
LINE
  5
21D
100
AcDbEntity
  8
0
100
AcDbLine
 62
9
  6
CONTINUOUS
 10
5.3068673708
 20
3.433394219
 11
6.6395593941
 21
3.433394219
  0
LINE
  5
21E
100
AcDbEntity
  8
0
100
AcDbLine
 62
9
  6
CONTINUOUS
 10
5.3068673708
 20
3.4623719938
 11
6.6395593941
 21
3.4623719938
  0
LINE
  5
21F
100
AcDbEntity
  8
0
100
AcDbLine
 62
9
  6
CONTINUOUS
 10
6.7264927185
 20
3.5203275433
 11
6.6975149437
 21
3.5203275433
  0
LINE
  5
220
100
AcDbEntity
  8
0
100
AcDbLine
 62
9
  6
CONTINUOUS
 10
5.2199340464
 20
3.5203275433
 11
5.2489118212
 21
3.5203275433
  0
LINE
  5
221
100
AcDbEntity
  8
0
100
AcDbLine
 62
6
  6
CONTINUOUS
 10
5.4342133825
 20
4.665673555
 11
5.4342133825
 21
3.707673555
  0
LINE
  5
222
100
AcDbEntity
  8
0
100
AcDbLine
 62
9
  6
CONTINUOUS
 10
5.4642133825
 20
4.665673555
 11
5.4642133825
 21
3.707673555
  0
LINE
  5
223
100
AcDbEntity
  8
0
100
AcDbLine
 62
9
  6
CONTINUOUS
 10
5.4942133825
 20
3.677673555
 11
5.4942133825
 21
3.647673555
  0
LINE
  5
224
100
AcDbEntity
  8
0
100
AcDbLine
 62
9
  6
CONTINUOUS
 10
5.4942133825
 20
4.695673555
 11
5.4942133826
 21
4.725673555
  0
LINE
  5
225
100
AcDbEntity
  8
0
100
AcDbLine
 62
6
  6
CONTINUOUS
 10
5.4942133825
 20
3.647673555
 11
6.4522133825
 21
3.647673555
  0
LINE
  5
226
100
AcDbEntity
  8
0
100
AcDbLine
 62
9
  6
CONTINUOUS
 10
5.4942133825
 20
3.677673555
 11
6.4522133825
 21
3.677673555
  0
LINE
  5
227
100
AcDbEntity
  8
0
100
AcDbLine
 62
9
  6
CONTINUOUS
 10
5.4642133825
 20
3.707673555
 11
5.4342133825
 21
3.7076735552
  0
LINE
  5
228
100
AcDbEntity
  8
0
100
AcDbLine
 62
9
  6
CONTINUOUS
 10
6.4822133825
 20
3.707673555
 11
6.5122133825
 21
3.707673555
  0
LINE
  5
229
100
AcDbEntity
  8
0
100
AcDbLine
 62
6
  6
CONTINUOUS
 10
5.5482133825
 20
4.685673555
 11
5.5482133825
 21
5.0508975961
  0
LINE
  5
22A
100
AcDbEntity
  8
0
100
AcDbLine
 62
9
  6
CONTINUOUS
 10
5.5882133825
 20
5.0508975961
 11
5.5882133825
 21
4.752673555
  0
LINE
  5
22B
100
AcDbEntity
  8
0
100
AcDbLine
 62
9
  6
CONTINUOUS
 10
5.5982133825
 20
4.658673555
 11
5.5982133825
 21
4.752673555
  0
LINE
  5
22C
100
AcDbEntity
  8
0
100
AcDbLine
 62
9
  6
CONTINUOUS
 10
5.6307133825
 20
4.469173555
 11
5.6307133825
 21
3.904173555
  0
LINE
  5
22D
100
AcDbEntity
  8
0
100
AcDbLine
 62
9
  6
CONTINUOUS
 10
5.6907133825
 20
3.844173555
 11
6.2557133825
 21
3.844173555
  0
LINE
  5
22E
100
AcDbEntity
  8
0
100
AcDbLine
 62
6
  6
CONTINUOUS
 10
5.6607133825
 20
4.469173555
 11
5.6607133825
 21
3.904173555
  0
LINE
  5
22F
100
AcDbEntity
  8
0
100
AcDbLine
 62
9
  6
CONTINUOUS
 10
5.6907133823
 20
3.8441735549
 11
5.6907133822
 21
4.529173555
  0
LINE
  5
230
100
AcDbEntity
  8
0
100
AcDbLine
 62
6
  6
CONTINUOUS
 10
5.6982133825
 20
3.931673555
 11
5.6982133825
 21
4.441673555
  0
LINE
  5
231
100
AcDbEntity
  8
0
100
AcDbLine
 62
6
  6
CONTINUOUS
 10
5.7372133825
 20
3.970673555
 11
5.7372133825
 21
4.658673555
  0
LINE
  5
232
100
AcDbEntity
  8
0
100
AcDbLine
 62
9
  6
CONTINUOUS
 10
5.7572133825
 20
3.950673555
 11
5.7572133825
 21
4.6594676397
  0
LINE
  5
233
100
AcDbEntity
  8
0
100
AcDbLine
 62
6
  6
CONTINUOUS
 10
5.6907133825
 20
3.874173555
 11
6.2557133825
 21
3.874173555
  0
LINE
  5
234
100
AcDbEntity
  8
0
100
AcDbLine
 62
9
  6
CONTINUOUS
 10
5.6307133825
 20
3.9041735547
 11
6.3157133825
 21
3.9041735549
  0
LINE
  5
235
100
AcDbEntity
  8
0
100
AcDbLine
 62
6
  6
CONTINUOUS
 10
5.7182133825
 20
3.911673555
 11
6.2282133825
 21
3.911673555
  0
LINE
  5
236
100
AcDbEntity
  8
0
100
AcDbLine
 62
6
  6
CONTINUOUS
 10
6.1892133825
 20
3.950673555
 11
5.7572133825
 21
3.950673555
  0
LINE
  5
237
100
AcDbEntity
  8
0
100
AcDbLine
 62
9
  6
CONTINUOUS
 10
6.3745555436
 20
5.0868039461
 11
6.3582133825
 21
5.0502945806
  0
LINE
  5
238
100
AcDbEntity
  8
0
100
AcDbLine
 62
9
  6
CONTINUOUS
 10
6.6395593941
 20
4.9109751163
 11
6.4541136635
 21
4.7255293856
  0
LINE
  5
239
100
AcDbEntity
  8
0
100
AcDbLine
 62
9
  6
CONTINUOUS
 10
5.2489118212
 20
3.5203275433
 11
5.4343398966
 21
3.7057556187
  0
LINE
  5
23A
100
AcDbEntity
  8
0
100
AcDbLine
 62
9
  6
CONTINUOUS
 10
5.7372133825
 20
4.147673555
 11
6.2092133825
 21
4.147673555
  0
LINE
  5
23B
100
AcDbEntity
  8
0
100
AcDbLine
 62
9
  6
CONTINUOUS
 10
6.6395593941
 20
3.4623719938
 11
6.4541313187
 21
3.6478000692
  0
LINE
  5
23C
100
AcDbEntity
  8
0
100
AcDbLine
 62
9
  6
CONTINUOUS
 10
5.2489118212
 20
4.8530195667
 11
5.4343575518
 21
4.6675738361
  0
LINE
  5
23D
100
AcDbEntity
  8
0
100
AcDbLine
 62
9
  6
CONTINUOUS
 10
5.571928425
 20
5.0874325131
 11
5.5882133825
 21
5.0508975961
  0
LINE
  5
23E
100
AcDbEntity
  8
0
100
AcDbLine
 62
9
  6
CONTINUOUS
 10
6.6975149437
 20
4.8530195667
 11
6.5120868683
 21
4.6675914913
  0
LINE
  5
23F
100
AcDbEntity
  8
0
100
AcDbLine
 62
9
  6
CONTINUOUS
 10
5.3068673708
 20
3.4623719938
 11
5.4923131014
 21
3.6478177244
  0
LINE
  5
240
100
AcDbEntity
  8
0
100
AcDbLine
 62
9
  6
CONTINUOUS
 10
6.6975149437
 20
3.5203275433
 11
6.5120692131
 21
3.705773274
  0
LINE
  5
241
100
AcDbEntity
  8
0
100
AcDbLine
 62
9
  6
CONTINUOUS
 10
5.3068673708
 20
4.9109751163
 11
5.4922954462
 21
4.7255470409
  0
LINE
  5
242
100
AcDbEntity
  8
0
100
AcDbLine
 62
9
  6
CONTINUOUS
 10
6.1892133825
 20
4.6594676397
 11
6.1892133825
 21
3.950673555
  0
LINE
  5
243
100
AcDbEntity
  8
0
100
AcDbLine
 62
6
  6
CONTINUOUS
 10
6.2092133825
 20
4.658673555
 11
6.2092133825
 21
3.970673555
  0
LINE
  5
244
100
AcDbEntity
  8
0
100
AcDbLine
 62
6
  6
CONTINUOUS
 10
6.2482133825
 20
3.931673555
 11
6.2482133825
 21
4.441673555
  0
LINE
  5
245
100
AcDbEntity
  8
0
100
AcDbLine
 62
9
  6
CONTINUOUS
 10
6.2557133828
 20
3.844173555
 11
6.2557133826
 21
4.5291735559
  0
LINE
  5
246
100
AcDbEntity
  8
0
100
AcDbLine
 62
6
  6
CONTINUOUS
 10
6.2857133825
 20
3.904173555
 11
6.2857133825
 21
4.469173555
  0
LINE
  5
247
100
AcDbEntity
  8
0
100
AcDbLine
 62
9
  6
CONTINUOUS
 10
6.3157133825
 20
3.904173555
 11
6.3157133825
 21
4.469173555
  0
LINE
  5
248
100
AcDbEntity
  8
0
100
AcDbLine
 62
6
  6
CONTINUOUS
 10
5.7182133825
 20
4.461673555
 11
5.7372133825
 21
4.461673555
  0
LINE
  5
249
100
AcDbEntity
  8
0
100
AcDbLine
 62
6
  6
CONTINUOUS
 10
6.2092133825
 20
4.461673555
 11
6.2282133825
 21
4.461673555
  0
LINE
  5
24A
100
AcDbEntity
  8
0
100
AcDbLine
 62
9
  6
CONTINUOUS
 10
5.6307133825
 20
4.4691735552
 11
5.7372133825
 21
4.469173555
  0
LINE
  5
24B
100
AcDbEntity
  8
0
100
AcDbLine
 62
9
  6
CONTINUOUS
 10
6.2092133825
 20
4.469173555
 11
6.3157133825
 21
4.4691735553
  0
LINE
  5
24C
100
AcDbEntity
  8
0
100
AcDbLine
 62
6
  6
CONTINUOUS
 10
6.2557133825
 20
4.499173555
 11
6.2092133825
 21
4.499173555
  0
LINE
  5
24D
100
AcDbEntity
  8
0
100
AcDbLine
 62
6
  6
CONTINUOUS
 10
5.7372133825
 20
4.499173555
 11
5.6907133825
 21
4.499173555
  0
LINE
  5
24E
100
AcDbEntity
  8
0
100
AcDbLine
 62
9
  6
CONTINUOUS
 10
6.2557133825
 20
4.529173555
 11
6.2092133825
 21
4.529173555
  0
LINE
  5
24F
100
AcDbEntity
  8
0
100
AcDbLine
 62
9
  6
CONTINUOUS
 10
5.7372133825
 20
4.529173555
 11
5.6907133825
 21
4.529173555
  0
LINE
  5
250
100
AcDbEntity
  8
0
100
AcDbLine
 62
9
  6
CONTINUOUS
 10
6.3482133825
 20
4.658673555
 11
6.3482133825
 21
4.752673555
  0
LINE
  5
251
100
AcDbEntity
  8
0
100
AcDbLine
 62
9
  6
CONTINUOUS
 10
6.3582133825
 20
4.752673555
 11
6.3582133825
 21
5.0502945806
  0
LINE
  5
252
100
AcDbEntity
  8
0
100
AcDbLine
 62
6
  6
CONTINUOUS
 10
6.3982133825
 20
4.685673555
 11
6.3982133825
 21
5.0502945806
  0
LINE
  5
253
100
AcDbEntity
  8
0
100
AcDbLine
 62
9
  6
CONTINUOUS
 10
6.4522133825
 20
3.677673555
 11
6.4522133823
 21
3.647673555
  0
LINE
  5
254
100
AcDbEntity
  8
0
100
AcDbLine
 62
9
  6
CONTINUOUS
 10
6.4522133825
 20
4.695673555
 11
6.4522133825
 21
4.725673555
  0
LINE
  5
255
100
AcDbEntity
  8
0
100
AcDbLine
 62
9
  6
CONTINUOUS
 10
6.4822133825
 20
3.707673555
 11
6.4822133825
 21
4.665673555
  0
LINE
  5
256
100
AcDbEntity
  8
0
100
AcDbLine
 62
6
  6
CONTINUOUS
 10
6.5122133825
 20
3.707673555
 11
6.5122133825
 21
4.665673555
  0
LINE
  5
257
100
AcDbEntity
  8
0
100
AcDbLine
 62
6
  6
CONTINUOUS
 10
6.3712133825
 20
4.658673555
 11
6.203969737
 21
4.658673555
  0
LINE
  5
258
100
AcDbEntity
  8
0
100
AcDbLine
 62
6
  6
CONTINUOUS
 10
5.7424570279
 20
4.658673555
 11
5.5752133825
 21
4.658673555
  0
LINE
  5
259
100
AcDbEntity
  8
0
100
AcDbLine
 62
6
  6
CONTINUOUS
 10
6.1892133825
 20
4.6594676397
 11
5.7572133825
 21
4.6594676397
  0
LINE
  5
25A
100
AcDbEntity
  8
0
100
AcDbLine
 62
9
  6
CONTINUOUS
 10
5.4642133825
 20
4.665673555
 11
5.4342133825
 21
4.665673555
  0
LINE
  5
25B
100
AcDbEntity
  8
0
100
AcDbLine
 62
9
  6
CONTINUOUS
 10
6.4822133825
 20
4.665673555
 11
6.5122133825
 21
4.6656735549
  0
LINE
  5
25C
100
AcDbEntity
  8
0
100
AcDbLine
 62
9
  6
CONTINUOUS
 10
5.5482133825
 20
4.685673555
 11
6.3982133825
 21
4.685673555
  0
LINE
  5
25D
100
AcDbEntity
  8
0
100
AcDbLine
 62
9
  6
CONTINUOUS
 10
6.4522133825
 20
4.695673555
 11
6.3982133825
 21
4.695673555
  0
LINE
  5
25E
100
AcDbEntity
  8
0
100
AcDbLine
 62
9
  6
CONTINUOUS
 10
5.5482133825
 20
4.695673555
 11
5.4942133825
 21
4.695673555
  0
LINE
  5
25F
100
AcDbEntity
  8
0
100
AcDbLine
 62
6
  6
CONTINUOUS
 10
6.4522133825
 20
4.725673555
 11
6.3982133825
 21
4.725673555
  0
LINE
  5
260
100
AcDbEntity
  8
0
100
AcDbLine
 62
6
  6
CONTINUOUS
 10
5.5482133825
 20
4.725673555
 11
5.4942133825
 21
4.725673555
  0
LINE
  5
261
100
AcDbEntity
  8
0
100
AcDbLine
 62
9
  6
CONTINUOUS
 10
5.5482133825
 20
4.725673555
 11
6.3982133825
 21
4.725673555
  0
LINE
  5
262
100
AcDbEntity
  8
0
100
AcDbLine
 62
6
  6
CONTINUOUS
 10
5.5752133825
 20
4.752673555
 11
6.3712133825
 21
4.752673555
  0
LINE
  5
263
100
AcDbEntity
  8
0
100
AcDbLine
 62
9
  6
CONTINUOUS
 10
6.6395593941
 20
4.9399528911
 11
6.6395593941
 21
4.9109751163
  0
LINE
  5
264
100
AcDbEntity
  8
0
100
AcDbLine
 62
9
  6
CONTINUOUS
 10
6.6395593941
 20
3.433394219
 11
6.6395593941
 21
3.4623719938
  0
LINE
  5
265
100
AcDbEntity
  8
0
100
AcDbLine
 62
9
  6
CONTINUOUS
 10
6.7264927185
 20
4.8530195667
 11
6.6975149437
 21
4.8530195667
  0
LINE
  5
266
100
AcDbEntity
  8
0
100
AcDbLine
 62
9
  6
CONTINUOUS
 10
5.2199340464
 20
4.8530195667
 11
5.2489118212
 21
4.8530195667
  0
LINE
  5
267
100
AcDbEntity
  8
0
100
AcDbLine
 62
9
  6
CONTINUOUS
 10
6.6975149437
 20
3.5203275433
 11
6.6975149437
 21
4.8530195667
  0
LINE
  5
268
100
AcDbEntity
  8
0
100
AcDbLine
 62
9
  6
CONTINUOUS
 10
6.7264927185
 20
3.5203275433
 11
6.7264927185
 21
4.8530195667
  0
LINE
  5
269
100
AcDbEntity
  8
0
100
AcDbLine
 62
9
  6
CONTINUOUS
 10
6.6395593941
 20
4.9109751163
 11
6.3982133825
 21
4.9109751163
  0
LINE
  5
26A
100
AcDbEntity
  8
0
100
AcDbLine
 62
9
  6
CONTINUOUS
 10
5.5482133825
 20
4.9109751163
 11
5.3068673708
 21
4.9109751163
  0
LINE
  5
26B
100
AcDbEntity
  8
0
100
AcDbLine
 62
9
  6
CONTINUOUS
 10
6.6395593941
 20
4.9399528911
 11
6.3982133825
 21
4.9399528911
  0
LINE
  5
26C
100
AcDbEntity
  8
0
100
AcDbLine
 62
9
  6
CONTINUOUS
 10
5.5482133825
 20
4.9399528911
 11
5.3068673708
 21
4.9399528911
  0
LINE
  5
26D
100
AcDbEntity
  8
0
100
AcDbLine
 62
9
  6
CONTINUOUS
 10
6.7857133825
 20
3.344173555
 11
6.7857133823
 21
3.314173555
  0
LINE
  5
26E
100
AcDbEntity
  8
0
100
AcDbLine
 62
9
  6
CONTINUOUS
 10
6.7857133825
 20
5.029173555
 11
6.7857133825
 21
5.059173555
  0
LINE
  5
26F
100
AcDbEntity
  8
0
100
AcDbLine
 62
9
  6
CONTINUOUS
 10
6.8157133825
 20
3.374173555
 11
6.8157133825
 21
4.999173555
  0
LINE
  5
270
100
AcDbEntity
  8
0
100
AcDbLine
 62
6
  6
CONTINUOUS
 10
6.8457133825
 20
3.374173555
 11
6.8457133825
 21
4.999173555
  0
LINE
  5
271
100
AcDbEntity
  8
0
100
AcDbLine
 62
9
  6
CONTINUOUS
 10
5.1307133825
 20
4.999173555
 11
5.1007133825
 21
4.999173555
  0
LINE
  5
272
100
AcDbEntity
  8
0
100
AcDbLine
 62
9
  6
CONTINUOUS
 10
6.8157133825
 20
4.999173555
 11
6.8457133825
 21
4.9991735549
  0
LINE
  5
273
100
AcDbEntity
  8
0
100
AcDbLine
 62
9
  6
CONTINUOUS
 10
6.7857133825
 20
5.029173555
 11
6.3982133825
 21
5.029173555
  0
LINE
  5
274
100
AcDbEntity
  8
0
100
AcDbLine
 62
9
  6
CONTINUOUS
 10
5.5482133825
 20
5.029173555
 11
5.1607133825
 21
5.029173555
  0
LINE
  5
275
100
AcDbEntity
  8
0
100
AcDbLine
 62
6
  6
CONTINUOUS
 10
6.7857133825
 20
5.059173555
 11
6.3971971322
 21
5.059173555
  0
LINE
  5
276
100
AcDbEntity
  8
0
100
AcDbLine
 62
6
  6
CONTINUOUS
 10
5.5491618798
 20
5.059173555
 11
5.1607133825
 21
5.059173555
  0
LINE
  5
277
100
AcDbEntity
  8
0
100
AcDbLine
 62
9
  6
CONTINUOUS
 10
7.1082133825
 20
3.021673555
 11
7.1082133824
 21
2.991673555
  0
LINE
  5
278
100
AcDbEntity
  8
0
100
AcDbLine
 62
9
  6
CONTINUOUS
 10
7.1082133825
 20
5.351673555
 11
7.1082133825
 21
5.381673555
  0
LINE
  5
279
100
AcDbEntity
  8
0
100
AcDbLine
 62
9
  6
CONTINUOUS
 10
4.8082133825
 20
5.321673555
 11
4.7782133825
 21
5.321673555
  0
LINE
  5
27A
100
AcDbEntity
  8
0
100
AcDbLine
 62
9
  6
CONTINUOUS
 10
7.1382133825
 20
5.321673555
 11
7.1682133825
 21
5.321673555
  0
LINE
  5
27B
100
AcDbEntity
  8
0
100
AcDbLine
 62
9
  6
CONTINUOUS
 10
7.1382133825
 20
3.051673555
 11
7.1382133825
 21
5.321673555
  0
LINE
  5
27C
100
AcDbEntity
  8
0
100
AcDbLine
 62
6
  6
CONTINUOUS
 10
7.1682133825
 20
3.051673555
 11
7.1682133825
 21
5.321673555
  0
LINE
  5
27D
100
AcDbEntity
  8
0
100
AcDbLine
 62
9
  6
CONTINUOUS
 10
7.1082133825
 20
5.351673555
 11
4.8382133825
 21
5.351673555
  0
LINE
  5
27E
100
AcDbEntity
  8
0
100
AcDbLine
 62
6
  6
CONTINUOUS
 10
7.1082133825
 20
5.381673555
 11
4.8382133825
 21
5.381673555
  0
ARC
  5
27F
100
AcDbEntity
  8
0
100
AcDbCircle
 62
6
  6
CONTINUOUS
 10
4.8382133825
 20
3.051673555
 40
0.06
100
AcDbArc
 50
180.0
 51
270.0
  0
ARC
  5
280
100
AcDbEntity
  8
0
100
AcDbCircle
 62
6
  6
CONTINUOUS
 10
5.1607133825
 20
3.374173555
 40
0.06
100
AcDbArc
 50
180.0
 51
270.0
  0
ARC
  5
281
100
AcDbEntity
  8
0
100
AcDbCircle
 62
9
  6
CONTINUOUS
 10
4.8382133825
 20
3.051673555
 40
0.03
100
AcDbArc
 50
180.0
 51
270.0
  0
ARC
  5
282
100
AcDbEntity
  8
0
100
AcDbCircle
 62
9
  6
CONTINUOUS
 10
5.1607133825
 20
3.374173555
 40
0.03
100
AcDbArc
 50
180.0
 51
270.0
  0
ARC
  5
283
100
AcDbEntity
  8
0
100
AcDbCircle
 62
6
  6
CONTINUOUS
 10
5.4942133825
 20
3.707673555
 40
0.06
100
AcDbArc
 50
180.0
 51
270.0
  0
ARC
  5
284
100
AcDbEntity
  8
0
100
AcDbCircle
 62
9
  6
CONTINUOUS
 10
5.6907133825
 20
3.904173555
 40
0.06
100
AcDbArc
 50
180.0
 51
270.0
  0
ARC
  5
285
100
AcDbEntity
  8
0
100
AcDbCircle
 62
9
  6
CONTINUOUS
 10
5.7572133825
 20
3.970673555
 40
0.06
100
AcDbArc
 50
190.4800530306
 51
259.5205696758
  0
ARC
  5
286
100
AcDbEntity
  8
0
100
AcDbCircle
 62
6
  6
CONTINUOUS
 10
5.6907133825
 20
3.904173555
 40
0.03
100
AcDbArc
 50
180.0
 51
270.0
  0
ARC
  5
287
100
AcDbEntity
  8
0
100
AcDbCircle
 62
9
  6
CONTINUOUS
 10
5.4942133825
 20
3.707673555
 40
0.03
100
AcDbArc
 50
180.0
 51
270.0
  0
ARC
  5
288
100
AcDbEntity
  8
0
100
AcDbCircle
 62
6
  6
CONTINUOUS
 10
5.7182133825
 20
3.931673555
 40
0.02
100
AcDbArc
 50
180.0
 51
270.0
  0
ARC
  5
289
100
AcDbEntity
  8
0
100
AcDbCircle
 62
6
  6
CONTINUOUS
 10
5.7572133825
 20
3.970673555
 40
0.02
100
AcDbArc
 50
180.0
 51
270.0
  0
ARC
  5
28A
100
AcDbEntity
  8
0
100
AcDbCircle
 62
6
  6
CONTINUOUS
 10
4.8382133825
 20
5.321673555
 40
0.06
100
AcDbArc
 50
90.0
 51
180.0
  0
ARC
  5
28B
100
AcDbEntity
  8
0
100
AcDbCircle
 62
6
  6
CONTINUOUS
 10
5.1607133825
 20
4.999173555
 40
0.06
100
AcDbArc
 50
90.0
 51
180.0
  0
ARC
  5
28C
100
AcDbEntity
  8
0
100
AcDbCircle
 62
9
  6
CONTINUOUS
 10
5.1607133825
 20
4.999173555
 40
0.03
100
AcDbArc
 50
90.0
 51
180.0
  0
ARC
  5
28D
100
AcDbEntity
  8
0
100
AcDbCircle
 62
9
  6
CONTINUOUS
 10
4.8382133825
 20
5.321673555
 40
0.03
100
AcDbArc
 50
90.0
 51
180.0
  0
ARC
  5
28E
100
AcDbEntity
  8
0
100
AcDbCircle
 62
6
  6
CONTINUOUS
 10
5.972538379
 20
4.188673555
 40
0.984
100
AcDbArc
 50
65.8859665126
 51
114.0242926079
  0
ARC
  5
28F
100
AcDbEntity
  8
0
100
AcDbCircle
 62
9
  6
CONTINUOUS
 10
5.972538379
 20
4.188673555
 40
0.9440000056
100
AcDbArc
 50
65.8859665126
 51
114.0242926079
  0
ARC
  5
290
100
AcDbEntity
  8
0
100
AcDbCircle
 62
6
  6
CONTINUOUS
 10
5.4942133825
 20
4.665673555
 40
0.06
100
AcDbArc
 50
90.0
 51
180.0
  0
ARC
  5
291
100
AcDbEntity
  8
0
100
AcDbCircle
 62
9
  6
CONTINUOUS
 10
5.6907133825
 20
4.469173555
 40
0.06
100
AcDbArc
 50
90.0
 51
180.0
  0
ARC
  5
292
100
AcDbEntity
  8
0
100
AcDbCircle
 62
9
  6
CONTINUOUS
 10
5.7572133825
 20
4.402673555
 40
0.06
100
AcDbArc
 50
109.5563454217
 51
169.5205570258
  0
ARC
  5
293
100
AcDbEntity
  8
0
100
AcDbCircle
 62
6
  6
CONTINUOUS
 10
5.6907133825
 20
4.469173555
 40
0.03
100
AcDbArc
 50
90.0
 51
180.0
  0
ARC
  5
294
100
AcDbEntity
  8
0
100
AcDbCircle
 62
9
  6
CONTINUOUS
 10
5.4942133825
 20
4.665673555
 40
0.03
100
AcDbArc
 50
90.0
 51
180.0
  0
ARC
  5
295
100
AcDbEntity
  8
0
100
AcDbCircle
 62
6
  6
CONTINUOUS
 10
5.5752133825
 20
4.685673555
 40
0.027
100
AcDbArc
 50
180.0
 51
270.0
  0
ARC
  5
296
100
AcDbEntity
  8
0
100
AcDbCircle
 62
6
  6
CONTINUOUS
 10
5.5752133825
 20
4.725673555
 40
0.027
100
AcDbArc
 50
90.0
 51
180.0
  0
ARC
  5
297
100
AcDbEntity
  8
0
100
AcDbCircle
 62
6
  6
CONTINUOUS
 10
5.7182133825
 20
4.441673555
 40
0.02
100
AcDbArc
 50
90.0
 51
180.0
  0
ARC
  5
298
100
AcDbEntity
  8
0
100
AcDbCircle
 62
6
  6
CONTINUOUS
 10
5.5882133825
 20
5.0508975961
 40
0.04
100
AcDbArc
 50
114.0242926079
 51
180.0
  0
ARC
  5
299
100
AcDbEntity
  8
0
100
AcDbCircle
 62
6
  6
CONTINUOUS
 10
7.1082133825
 20
3.051673555
 40
0.06
100
AcDbArc
 50
270.0
 51
360.0
  0
ARC
  5
29A
100
AcDbEntity
  8
0
100
AcDbCircle
 62
6
  6
CONTINUOUS
 10
6.7857133825
 20
3.374173555
 40
0.06
100
AcDbArc
 50
270.0
 51
360.0
  0
ARC
  5
29B
100
AcDbEntity
  8
0
100
AcDbCircle
 62
6
  6
CONTINUOUS
 10
6.4522133825
 20
3.707673555
 40
0.06
100
AcDbArc
 50
270.0
 51
360.0
  0
ARC
  5
29C
100
AcDbEntity
  8
0
100
AcDbCircle
 62
9
  6
CONTINUOUS
 10
6.2557133825
 20
3.904173555
 40
0.06
100
AcDbArc
 50
270.0
 51
360.0
  0
ARC
  5
29D
100
AcDbEntity
  8
0
100
AcDbCircle
 62
9
  6
CONTINUOUS
 10
6.1892133825
 20
3.970673555
 40
0.06
100
AcDbArc
 50
280.4800219024
 51
349.5204288361
  0
ARC
  5
29E
100
AcDbEntity
  8
0
100
AcDbCircle
 62
6
  6
CONTINUOUS
 10
6.2557133825
 20
3.904173555
 40
0.03
100
AcDbArc
 50
270.0
 51
360.0
  0
ARC
  5
29F
100
AcDbEntity
  8
0
100
AcDbCircle
 62
9
  6
CONTINUOUS
 10
7.1082133825
 20
3.051673555
 40
0.03
100
AcDbArc
 50
270.0
 51
360.0
  0
ARC
  5
2A0
100
AcDbEntity
  8
0
100
AcDbCircle
 62
9
  6
CONTINUOUS
 10
6.7857133825
 20
3.374173555
 40
0.03
100
AcDbArc
 50
270.0
 51
360.0
  0
ARC
  5
2A1
100
AcDbEntity
  8
0
100
AcDbCircle
 62
9
  6
CONTINUOUS
 10
6.4522133825
 20
3.707673555
 40
0.03
100
AcDbArc
 50
270.0
 51
360.0
  0
ARC
  5
2A2
100
AcDbEntity
  8
0
100
AcDbCircle
 62
6
  6
CONTINUOUS
 10
6.2282133825
 20
3.931673555
 40
0.02
100
AcDbArc
 50
270.0
 51
360.0
  0
ARC
  5
2A3
100
AcDbEntity
  8
0
100
AcDbCircle
 62
6
  6
CONTINUOUS
 10
6.1892133825
 20
3.970673555
 40
0.02
100
AcDbArc
 50
270.0
 51
360.0
  0
ARC
  5
2A4
100
AcDbEntity
  8
0
100
AcDbCircle
 62
6
  6
CONTINUOUS
 10
7.1082133825
 20
5.321673555
 40
0.06
100
AcDbArc
 50
0.0
 51
90.0
  0
ARC
  5
2A5
100
AcDbEntity
  8
0
100
AcDbCircle
 62
6
  6
CONTINUOUS
 10
6.7857133825
 20
4.999173555
 40
0.06
100
AcDbArc
 50
0.0
 51
90.0
  0
ARC
  5
2A6
100
AcDbEntity
  8
0
100
AcDbCircle
 62
6
  6
CONTINUOUS
 10
6.4522133825
 20
4.665673555
 40
0.06
100
AcDbArc
 50
0.0
 51
90.0
  0
ARC
  5
2A7
100
AcDbEntity
  8
0
100
AcDbCircle
 62
9
  6
CONTINUOUS
 10
6.2557133825
 20
4.469173555
 40
0.06
100
AcDbArc
 50
0.0
 51
90.0
  0
ARC
  5
2A8
100
AcDbEntity
  8
0
100
AcDbCircle
 62
9
  6
CONTINUOUS
 10
6.1892133825
 20
4.402673555
 40
0.06
100
AcDbArc
 50
10.4800219024
 51
70.4526867753
  0
ARC
  5
2A9
100
AcDbEntity
  8
0
100
AcDbCircle
 62
6
  6
CONTINUOUS
 10
6.3582133825
 20
5.0502945806
 40
0.04
100
AcDbArc
 50
0.0
 51
65.8859665126
  0
ARC
  5
2AA
100
AcDbEntity
  8
0
100
AcDbCircle
 62
6
  6
CONTINUOUS
 10
6.2557133825
 20
4.469173555
 40
0.03
100
AcDbArc
 50
0.0
 51
90.0
  0
ARC
  5
2AB
100
AcDbEntity
  8
0
100
AcDbCircle
 62
9
  6
CONTINUOUS
 10
6.7857133825
 20
4.999173555
 40
0.03
100
AcDbArc
 50
0.0
 51
90.0
  0
ARC
  5
2AC
100
AcDbEntity
  8
0
100
AcDbCircle
 62
9
  6
CONTINUOUS
 10
6.4522133825
 20
4.665673555
 40
0.03
100
AcDbArc
 50
0.0
 51
90.0
  0
ARC
  5
2AD
100
AcDbEntity
  8
0
100
AcDbCircle
 62
9
  6
CONTINUOUS
 10
7.1082133825
 20
5.321673555
 40
0.03
100
AcDbArc
 50
0.0
 51
90.0
  0
ARC
  5
2AE
100
AcDbEntity
  8
0
100
AcDbCircle
 62
6
  6
CONTINUOUS
 10
6.3712133825
 20
4.725673555
 40
0.027
100
AcDbArc
 50
0.0
 51
90.0
  0
ARC
  5
2AF
100
AcDbEntity
  8
0
100
AcDbCircle
 62
6
  6
CONTINUOUS
 10
6.3712133825
 20
4.685673555
 40
0.027
100
AcDbArc
 50
270.0
 51
360.0
  0
ARC
  5
2B0
100
AcDbEntity
  8
0
100
AcDbCircle
 62
6
  6
CONTINUOUS
 10
6.2282133825
 20
4.441673555
 40
0.02
100
AcDbArc
 50
0.0
 51
90.0
  0
SPLINE
  5
2B1
100
AcDbEntity
  8
0
100
AcDbSpline
 62
9
  6
CONTINUOUS
 70
0
 71
3
 72
36
 73
32
 74
0
 42
0.0000001
 43
0.0000001
 44
0.0000000001
 40
0.0
 40
0.0
 40
0.0
 40
0.0
 40
0.0624350676
 40
0.0936977191
 40
0.1249672293
 40
0.1562334124
 40
0.1874915363
 40
0.2187423603
 40
0.2499881015
 40
0.281232595
 40
0.3124808897
 40
0.343733032
 40
0.3749865286
 40
0.4062396981
 40
0.437492308
 40
0.4687453704
 40
0.4999991123
 40
0.5624870416
 40
0.5937415635
 40
0.6249974712
 40
0.6562541912
 40
0.6875097966
 40
0.7187616617
 40
0.7500099478
 40
0.7812593458
 40
0.812513114
 40
0.8437728535
 40
0.8750388133
 40
0.9063067797
 40
0.9375673993
 40
1.0
 40
1.0
 40
1.0
 40
1.0
 10
6.6395593941
 20
3.433394219
 30
0.0
 10
6.6424092351
 20
3.4333944219
 30
0.0
 10
6.6466896068
 20
3.4335932806
 30
0.0
 10
6.6523564271
 20
3.4342567745
 30
0.0
 10
6.6565822619
 20
3.4349552269
 30
0.0
 10
6.6607694412
 20
3.4358553429
 30
0.0
 10
6.6649072908
 20
3.436957224
 30
0.0
 10
6.668985789
 20
3.4382586854
 30
0.0
 10
6.6729951398
 20
3.4397580092
 30
0.0
 10
6.6769255587
 20
3.441453298
 30
0.0
 10
6.6807667624
 20
3.443342759
 30
0.0
 10
6.6845091044
 20
3.445422015
 30
0.0
 10
6.6881428728
 20
3.447686111
 30
0.0
 10
6.6916582279
 20
3.4501301188
 30
0.0
 10
6.6950450832
 20
3.4527492509
 30
0.0
 10
6.6982941168
 20
3.4555377953
 30
0.0
 10
6.7024308752
 20
3.4594696061
 30
0.0
 10
6.7062638002
 20
3.4637117261
 30
0.0
 10
6.7097551216
 20
3.4682266946
 30
0.0
 10
6.7121995268
 20
3.4717423466
 30
0.0
 10
6.7144639873
 20
3.4753763592
 30
0.0
 10
6.7165436308
 20
3.4791190325
 30
0.0
 10
6.7184333349
 20
3.4829606679
 30
0.0
 10
6.7201287713
 20
3.4868915723
 30
0.0
 10
6.7216282132
 20
3.490901385
 30
0.0
 10
6.7229297707
 20
3.4949802458
 30
0.0
 10
6.7240317451
 20
3.4991182738
 30
0.0
 10
6.7249319724
 20
3.5033054227
 30
0.0
 10
6.7256303895
 20
3.5075310892
 30
0.0
 10
6.7262937663
 20
3.5131976469
 30
0.0
 10
6.7264925098
 20
3.5174778149
 30
0.0
 10
6.7264927185
 20
3.5203275433
 30
0.0
  0
SPLINE
  5
2B2
100
AcDbEntity
  8
0
100
AcDbSpline
 62
9
  6
CONTINUOUS
 70
0
 71
3
 72
36
 73
32
 74
0
 42
0.0000001
 43
0.0000001
 44
0.0000000001
 40
0.0
 40
0.0
 40
0.0
 40
0.0
 40
0.0624350676
 40
0.0936977191
 40
0.1249672293
 40
0.1562334124
 40
0.1874915363
 40
0.2187423603
 40
0.2499881015
 40
0.281232595
 40
0.3124808897
 40
0.343733032
 40
0.3749865286
 40
0.4062396981
 40
0.437492308
 40
0.4687453704
 40
0.4999991123
 40
0.5624870416
 40
0.5937415635
 40
0.6249974712
 40
0.6562541912
 40
0.6875097966
 40
0.7187616617
 40
0.7500099478
 40
0.7812593458
 40
0.812513114
 40
0.8437728535
 40
0.8750388133
 40
0.9063067797
 40
0.9375673993
 40
1.0
 40
1.0
 40
1.0
 40
1.0
 10
6.7264927185
 20
4.8530195667
 30
0.0
 10
6.7264925156
 20
4.8558694077
 30
0.0
 10
6.7262936569
 20
4.8601497794
 30
0.0
 10
6.725630163
 20
4.8658165996
 30
0.0
 10
6.7249317106
 20
4.8700424344
 30
0.0
 10
6.7240315946
 20
4.8742296138
 30
0.0
 10
6.7229297135
 20
4.8783674633
 30
0.0
 10
6.7216282521
 20
4.8824459616
 30
0.0
 10
6.7201289283
 20
4.8864553124
 30
0.0
 10
6.7184336395
 20
4.8903857312
 30
0.0
 10
6.7165441785
 20
4.8942269349
 30
0.0
 10
6.7144649225
 20
4.8979692769
 30
0.0
 10
6.7122008265
 20
4.9016030453
 30
0.0
 10
6.7097568186
 20
4.9051184004
 30
0.0
 10
6.7071376866
 20
4.9085052558
 30
0.0
 10
6.7043491421
 20
4.9117542893
 30
0.0
 10
6.7004173314
 20
4.9158910478
 30
0.0
 10
6.6961752113
 20
4.9197239727
 30
0.0
 10
6.6916602429
 20
4.9232152942
 30
0.0
 10
6.6881445909
 20
4.9256596994
 30
0.0
 10
6.6845105782
 20
4.9279241599
 30
0.0
 10
6.680767905
 20
4.9300038033
 30
0.0
 10
6.6769262696
 20
4.9318935075
 30
0.0
 10
6.6729953652
 20
4.9335889438
 30
0.0
 10
6.6689855525
 20
4.9350883858
 30
0.0
 10
6.6649066917
 20
4.9363899433
 30
0.0
 10
6.6607686637
 20
4.9374919177
 30
0.0
 10
6.6565815148
 20
4.9383921449
 30
0.0
 10
6.6523558483
 20
4.9390905621
 30
0.0
 10
6.6466892905
 20
4.9397539389
 30
0.0
 10
6.6424091225
 20
4.9399526824
 30
0.0
 10
6.6395593941
 20
4.9399528911
 30
0.0
  0
SPLINE
  5
2B3
100
AcDbEntity
  8
0
100
AcDbSpline
 62
9
  6
CONTINUOUS
 70
0
 71
3
 72
36
 73
32
 74
0
 42
0.0000001
 43
0.0000001
 44
0.0000000001
 40
0.0
 40
0.0
 40
0.0
 40
0.0
 40
0.0624350676
 40
0.0936977191
 40
0.1249672293
 40
0.1562334124
 40
0.1874915363
 40
0.2187423603
 40
0.2499881015
 40
0.281232595
 40
0.3124808897
 40
0.343733032
 40
0.3749865286
 40
0.4062396981
 40
0.437492308
 40
0.4687453704
 40
0.4999991123
 40
0.5624870416
 40
0.5937415635
 40
0.6249974712
 40
0.6562541912
 40
0.6875097966
 40
0.7187616617
 40
0.7500099478
 40
0.7812593458
 40
0.812513114
 40
0.8437728535
 40
0.8750388133
 40
0.9063067797
 40
0.9375673993
 40
1.0
 40
1.0
 40
1.0
 40
1.0
 10
5.3068673708
 20
4.9399528911
 30
0.0
 10
5.3040175298
 20
4.9399526882
 30
0.0
 10
5.2997371581
 20
4.9397538295
 30
0.0
 10
5.2940703378
 20
4.9390903356
 30
0.0
 10
5.289844503
 20
4.9383918831
 30
0.0
 10
5.2856573237
 20
4.9374917672
 30
0.0
 10
5.2815194742
 20
4.936389886
 30
0.0
 10
5.2774409759
 20
4.9350884247
 30
0.0
 10
5.2734316251
 20
4.9335891009
 30
0.0
 10
5.2695012062
 20
4.931893812
 30
0.0
 10
5.2656600025
 20
4.9300043511
 30
0.0
 10
5.2619176605
 20
4.9279250951
 30
0.0
 10
5.2582838922
 20
4.9256609991
 30
0.0
 10
5.254768537
 20
4.9232169912
 30
0.0
 10
5.2513816817
 20
4.9205978592
 30
0.0
 10
5.2481326482
 20
4.9178093147
 30
0.0
 10
5.2439958897
 20
4.913877504
 30
0.0
 10
5.2401629647
 20
4.9096353839
 30
0.0
 10
5.2366716433
 20
4.9051204155
 30
0.0
 10
5.2342272381
 20
4.9016047635
 30
0.0
 10
5.2319627776
 20
4.8979707508
 30
0.0
 10
5.2298831341
 20
4.8942280775
 30
0.0
 10
5.22799343
 20
4.8903864422
 30
0.0
 10
5.2262979937
 20
4.8864555377
 30
0.0
 10
5.2247985517
 20
4.8824457251
 30
0.0
 10
5.2234969942
 20
4.8783668643
 30
0.0
 10
5.2223950198
 20
4.8742288363
 30
0.0
 10
5.2214947926
 20
4.8700416874
 30
0.0
 10
5.2207963754
 20
4.8658160209
 30
0.0
 10
5.2201329986
 20
4.8601494631
 30
0.0
 10
5.2199342551
 20
4.8558692951
 30
0.0
 10
5.2199340464
 20
4.8530195667
 30
0.0
  0
SPLINE
  5
2B4
100
AcDbEntity
  8
0
100
AcDbSpline
 62
9
  6
CONTINUOUS
 70
0
 71
3
 72
36
 73
32
 74
0
 42
0.0000001
 43
0.0000001
 44
0.0000000001
 40
0.0
 40
0.0
 40
0.0
 40
0.0
 40
0.0624350676
 40
0.0936977191
 40
0.1249672293
 40
0.1562334124
 40
0.1874915363
 40
0.2187423603
 40
0.2499881015
 40
0.281232595
 40
0.3124808897
 40
0.343733032
 40
0.3749865286
 40
0.4062396981
 40
0.437492308
 40
0.4687453704
 40
0.4999991123
 40
0.5624870416
 40
0.5937415635
 40
0.6249974712
 40
0.6562541912
 40
0.6875097966
 40
0.7187616617
 40
0.7500099478
 40
0.7812593458
 40
0.812513114
 40
0.8437728535
 40
0.8750388133
 40
0.9063067797
 40
0.9375673993
 40
1.0
 40
1.0
 40
1.0
 40
1.0
 10
5.2199340464
 20
3.5203275433
 30
0.0
 10
5.2199342493
 20
3.5174777023
 30
0.0
 10
5.220133108
 20
3.5131973307
 30
0.0
 10
5.2207966019
 20
3.5075305104
 30
0.0
 10
5.2214950543
 20
3.5033046756
 30
0.0
 10
5.2223951703
 20
3.4991174963
 30
0.0
 10
5.2234970514
 20
3.4949796467
 30
0.0
 10
5.2247985128
 20
3.4909011485
 30
0.0
 10
5.2262978366
 20
3.4868917977
 30
0.0
 10
5.2279931254
 20
3.4829613788
 30
0.0
 10
5.2298825864
 20
3.4791201751
 30
0.0
 10
5.2319618424
 20
3.4753778331
 30
0.0
 10
5.2342259384
 20
3.4717440647
 30
0.0
 10
5.2366699463
 20
3.4682287096
 30
0.0
 10
5.2392890783
 20
3.4648418543
 30
0.0
 10
5.2420776228
 20
3.4615928207
 30
0.0
 10
5.2460094335
 20
3.4574560622
 30
0.0
 10
5.2502515536
 20
3.4536231373
 30
0.0
 10
5.254766522
 20
3.4501318158
 30
0.0
 10
5.258282174
 20
3.4476874106
 30
0.0
 10
5.2619161867
 20
3.4454229502
 30
0.0
 10
5.2656588599
 20
3.4433433067
 30
0.0
 10
5.2695004953
 20
3.4414536026
 30
0.0
 10
5.2734313997
 20
3.4397581662
 30
0.0
 10
5.2774412124
 20
3.4382587243
 30
0.0
 10
5.2815200732
 20
3.4369571668
 30
0.0
 10
5.2856581012
 20
3.4358551924
 30
0.0
 10
5.2898452501
 20
3.4349549651
 30
0.0
 10
5.2940709166
 20
3.4342565479
 30
0.0
 10
5.2997374744
 20
3.4335931711
 30
0.0
 10
5.3040176424
 20
3.4333944277
 30
0.0
 10
5.3068673708
 20
3.433394219
 30
0.0
  0
SPLINE
  5
2B5
100
AcDbEntity
  8
0
100
AcDbSpline
 62
9
  6
CONTINUOUS
 70
0
 71
3
 72
36
 73
32
 74
0
 42
0.0000001
 43
0.0000001
 44
0.0000000001
 40
0.0
 40
0.0
 40
0.0
 40
0.0
 40
0.0622171143
 40
0.0933948618
 40
0.1245963718
 40
0.1558143511
 40
0.1870449253
 40
0.2182850349
 40
0.2495344705
 40
0.280796805
 40
0.3120787638
 40
0.343378766
 40
0.3746903509
 40
0.4060092453
 40
0.4373342846
 40
0.4686658418
 40
0.5000013213
 40
0.5626460194
 40
0.5939731109
 40
0.625295314
 40
0.6566108174
 40
0.6879148358
 40
0.7192005936
 40
0.7504668386
 40
0.8129432624
 40
0.8441757816
 40
0.8753939012
 40
0.9065939335
 40
0.9377695039
 40
0.9689097578
 40
1.0
 40
1.0
 40
1.0
 40
1.0
 10
6.6395593941
 20
3.4623719938
 30
0.0
 10
6.6414743584
 20
3.462313933
 30
0.0
 10
6.6443552456
 20
3.462356661
 30
0.0
 10
6.6481792406
 20
3.4626800909
 30
0.0
 10
6.6510375932
 20
3.4630586782
 30
0.0
 10
6.653875821
 20
3.4635754253
 30
0.0
 10
6.6566862777
 20
3.4642320266
 30
0.0
 10
6.6594614112
 20
3.4650283521
 30
0.0
 10
6.6621936075
 20
3.4659645593
 30
0.0
 10
6.6648752397
 20
3.4670406466
 30
0.0
 10
6.6674981201
 20
3.4682567217
 30
0.0
 10
6.6700543821
 20
3.4696104967
 30
0.0
 10
6.6725360393
 20
3.4710988671
 30
0.0
 10
6.6749348882
 20
3.4727187768
 30
0.0
 10
6.6772424737
 20
3.4744672752
 30
0.0
 10
6.6794509141
 20
3.476340421
 30
0.0
 10
6.6822540583
 20
3.4789942761
 30
0.0
 10
6.6848360574
 20
3.4818741226
 30
0.0
 10
6.6871668371
 20
3.4849505026
 30
0.0
 10
6.6887870587
 20
3.4873495872
 30
0.0
 10
6.690275733
 20
3.4898314448
 30
0.0
 10
6.6916298209
 20
3.4923879348
 30
0.0
 10
6.692846091
 20
3.4950112115
 30
0.0
 10
6.6942803791
 20
3.498585499
 30
0.0
 10
6.6954361367
 20
3.5022644807
 30
0.0
 10
6.6963115574
 20
3.5060115896
 30
0.0
 10
6.6968284255
 20
3.5088499275
 30
0.0
 10
6.6972069958
 20
3.5117080596
 30
0.0
 10
6.697449722
 20
3.5145785105
 30
0.0
 10
6.6975588204
 20
3.5174536499
 30
0.0
 10
6.6975439634
 20
3.5193706251
 30
0.0
 10
6.6975149437
 20
3.5203275433
 30
0.0
  0
SPLINE
  5
2B6
100
AcDbEntity
  8
0
100
AcDbSpline
 62
9
  6
CONTINUOUS
 70
0
 71
3
 72
36
 73
32
 74
0
 42
0.0000001
 43
0.0000001
 44
0.0000000001
 40
0.0
 40
0.0
 40
0.0
 40
0.0
 40
0.0622171143
 40
0.0933948618
 40
0.1245963718
 40
0.1558143511
 40
0.1870449253
 40
0.2182850349
 40
0.2495344705
 40
0.280796805
 40
0.3120787638
 40
0.343378766
 40
0.3746903509
 40
0.4060092453
 40
0.4373342846
 40
0.4686658418
 40
0.5000013213
 40
0.5626460194
 40
0.5939731109
 40
0.625295314
 40
0.6566108174
 40
0.6879148358
 40
0.7192005936
 40
0.7504668386
 40
0.8129432624
 40
0.8441757816
 40
0.8753939012
 40
0.9065939335
 40
0.9377695039
 40
0.9689097578
 40
1.0
 40
1.0
 40
1.0
 40
1.0
 10
6.6975149437
 20
4.8530195667
 30
0.0
 10
6.6975730045
 20
4.854934531
 30
0.0
 10
6.6975302765
 20
4.8578154182
 30
0.0
 10
6.6972068466
 20
4.8616394131
 30
0.0
 10
6.6968282593
 20
4.8644977658
 30
0.0
 10
6.6963115122
 20
4.8673359936
 30
0.0
 10
6.6956549109
 20
4.8701464503
 30
0.0
 10
6.6948585854
 20
4.8729215837
 30
0.0
 10
6.6939223782
 20
4.87565378
 30
0.0
 10
6.6928462909
 20
4.8783354123
 30
0.0
 10
6.6916302158
 20
4.8809582926
 30
0.0
 10
6.6902764407
 20
4.8835145547
 30
0.0
 10
6.6887880704
 20
4.8859962119
 30
0.0
 10
6.6871681607
 20
4.8883950607
 30
0.0
 10
6.6854196623
 20
4.8907026463
 30
0.0
 10
6.6835465164
 20
4.8929110867
 30
0.0
 10
6.6808926614
 20
4.8957142308
 30
0.0
 10
6.6780128149
 20
4.89829623
 30
0.0
 10
6.6749364349
 20
4.9006270096
 30
0.0
 10
6.6725373502
 20
4.9022472312
 30
0.0
 10
6.6700554927
 20
4.9037359056
 30
0.0
 10
6.6674990026
 20
4.9050899935
 30
0.0
 10
6.664875726
 20
4.9063062635
 30
0.0
 10
6.6613014385
 20
4.9077405517
 30
0.0
 10
6.6576224568
 20
4.9088963093
 30
0.0
 10
6.6538753479
 20
4.90977173
 30
0.0
 10
6.6510370099
 20
4.910288598
 30
0.0
 10
6.6481788779
 20
4.9106671684
 30
0.0
 10
6.645308427
 20
4.9109098946
 30
0.0
 10
6.6424332876
 20
4.911018993
 30
0.0
 10
6.6405163124
 20
4.9110041359
 30
0.0
 10
6.6395593941
 20
4.9109751163
 30
0.0
  0
SPLINE
  5
2B7
100
AcDbEntity
  8
0
100
AcDbSpline
 62
9
  6
CONTINUOUS
 70
0
 71
3
 72
36
 73
32
 74
0
 42
0.0000001
 43
0.0000001
 44
0.0000000001
 40
0.0
 40
0.0
 40
0.0
 40
0.0
 40
0.0622171143
 40
0.0933948618
 40
0.1245963718
 40
0.1558143511
 40
0.1870449253
 40
0.2182850349
 40
0.2495344705
 40
0.280796805
 40
0.3120787638
 40
0.343378766
 40
0.3746903509
 40
0.4060092453
 40
0.4373342846
 40
0.4686658418
 40
0.5000013213
 40
0.5626460194
 40
0.5939731109
 40
0.625295314
 40
0.6566108174
 40
0.6879148358
 40
0.7192005936
 40
0.7504668386
 40
0.8129432624
 40
0.8441757816
 40
0.8753939012
 40
0.9065939335
 40
0.9377695039
 40
0.9689097578
 40
1.0
 40
1.0
 40
1.0
 40
1.0
 10
5.3068673708
 20
4.9109751163
 30
0.0
 10
5.3049524065
 20
4.9110331771
 30
0.0
 10
5.3020715193
 20
4.910990449
 30
0.0
 10
5.2982475243
 20
4.9106670191
 30
0.0
 10
5.2953891717
 20
4.9102884318
 30
0.0
 10
5.2925509439
 20
4.9097716848
 30
0.0
 10
5.2897404872
 20
4.9091150834
 30
0.0
 10
5.2869653537
 20
4.9083187579
 30
0.0
 10
5.2842331575
 20
4.9073825508
 30
0.0
 10
5.2815515252
 20
4.9063064634
 30
0.0
 10
5.2789286448
 20
4.9050903884
 30
0.0
 10
5.2763723828
 20
4.9037366133
 30
0.0
 10
5.2738907256
 20
4.902248243
 30
0.0
 10
5.2714918768
 20
4.9006283333
 30
0.0
 10
5.2691842912
 20
4.8988798349
 30
0.0
 10
5.2669758508
 20
4.897006689
 30
0.0
 10
5.2641727067
 20
4.894352834
 30
0.0
 10
5.2615907075
 20
4.8914729874
 30
0.0
 10
5.2592599279
 20
4.8883966075
 30
0.0
 10
5.2576397063
 20
4.8859975228
 30
0.0
 10
5.2561510319
 20
4.8835156653
 30
0.0
 10
5.254796944
 20
4.8809591752
 30
0.0
 10
5.2535806739
 20
4.8783358985
 30
0.0
 10
5.2521463858
 20
4.8747616111
 30
0.0
 10
5.2509906282
 20
4.8710826294
 30
0.0
 10
5.2501152075
 20
4.8673355204
 30
0.0
 10
5.2495983394
 20
4.8644971825
 30
0.0
 10
5.2492197691
 20
4.8616390505
 30
0.0
 10
5.2489770429
 20
4.8587685995
 30
0.0
 10
5.2488679445
 20
4.8558934602
 30
0.0
 10
5.2488828015
 20
4.8539764849
 30
0.0
 10
5.2489118212
 20
4.8530195667
 30
0.0
  0
SPLINE
  5
2B8
100
AcDbEntity
  8
0
100
AcDbSpline
 62
9
  6
CONTINUOUS
 70
0
 71
3
 72
36
 73
32
 74
0
 42
0.0000001
 43
0.0000001
 44
0.0000000001
 40
0.0
 40
0.0
 40
0.0
 40
0.0
 40
0.0622171143
 40
0.0933948618
 40
0.1245963718
 40
0.1558143511
 40
0.1870449253
 40
0.2182850349
 40
0.2495344705
 40
0.280796805
 40
0.3120787638
 40
0.343378766
 40
0.3746903509
 40
0.4060092453
 40
0.4373342846
 40
0.4686658418
 40
0.5000013213
 40
0.5626460194
 40
0.5939731109
 40
0.625295314
 40
0.6566108174
 40
0.6879148358
 40
0.7192005936
 40
0.7504668386
 40
0.8129432624
 40
0.8441757816
 40
0.8753939012
 40
0.9065939335
 40
0.9377695039
 40
0.9689097578
 40
1.0
 40
1.0
 40
1.0
 40
1.0
 10
5.2489118212
 20
3.5203275433
 30
0.0
 10
5.2488537604
 20
3.5184125791
 30
0.0
 10
5.2488964885
 20
3.5155316919
 30
0.0
 10
5.2492199183
 20
3.5117076969
 30
0.0
 10
5.2495985056
 20
3.5088493443
 30
0.0
 10
5.2501152527
 20
3.5060111165
 30
0.0
 10
5.2507718541
 20
3.5032006598
 30
0.0
 10
5.2515681795
 20
3.5004255263
 30
0.0
 10
5.2525043867
 20
3.49769333
 30
0.0
 10
5.2535804741
 20
3.4950116978
 30
0.0
 10
5.2547965491
 20
3.4923888174
 30
0.0
 10
5.2561503242
 20
3.4898325553
 30
0.0
 10
5.2576386945
 20
3.4873508982
 30
0.0
 10
5.2592586042
 20
3.4849520493
 30
0.0
 10
5.2610071026
 20
3.4826444638
 30
0.0
 10
5.2628802485
 20
3.4804360233
 30
0.0
 10
5.2655341035
 20
3.4776328792
 30
0.0
 10
5.26841395
 20
3.4750508801
 30
0.0
 10
5.27149033
 20
3.4727201004
 30
0.0
 10
5.2738894147
 20
3.4710998788
 30
0.0
 10
5.2763712722
 20
3.4696112045
 30
0.0
 10
5.2789277623
 20
3.4682571166
 30
0.0
 10
5.2815510389
 20
3.4670408465
 30
0.0
 10
5.2851253264
 20
3.4656065584
 30
0.0
 10
5.2888043081
 20
3.4644508007
 30
0.0
 10
5.292551417
 20
3.4635753801
 30
0.0
 10
5.295389755
 20
3.463058512
 30
0.0
 10
5.298247887
 20
3.4626799417
 30
0.0
 10
5.301118338
 20
3.4624372155
 30
0.0
 10
5.3039934773
 20
3.4623281171
 30
0.0
 10
5.3059104525
 20
3.4623429741
 30
0.0
 10
5.3068673708
 20
3.4623719938
 30
0.0
  0
SPLINE
  5
2B9
100
AcDbEntity
  8
0
100
AcDbSpline
 62
6
  6
CONTINUOUS
 70
0
 71
3
 72
20
 73
16
 74
0
 42
0.0000001
 43
0.0000001
 44
0.0000000001
 40
0.0
 40
0.0
 40
0.0
 40
0.0
 40
0.0486509184
 40
0.099956154
 40
0.1537516323
 40
0.2098598965
 40
0.2680946678
 40
0.3282671673
 40
0.4537668859
 40
0.5187824189
 40
0.585102826
 40
0.65257648
 40
0.7210219549
 40
0.8599225629
 40
1.0
 40
1.0
 40
1.0
 40
1.0
 10
5.7424570279
 20
4.658673555
 30
0.0
 10
5.7426967501
 20
4.658673555
 30
0.0
 10
5.7431892855
 20
4.6586813845
 30
0.0
 10
5.7439463365
 20
4.6587112422
 30
0.0
 10
5.7447394206
 20
4.6587564294
 30
0.0
 10
5.7455659278
 20
4.6588138249
 30
0.0
 10
5.7464232651
 20
4.6588803146
 30
0.0
 10
5.747621091
 20
4.6589782862
 30
0.0
 10
5.7488520406
 20
4.6590811558
 30
0.0
 10
5.750113763
 20
4.6591793236
 30
0.0
 10
5.7510908739
 20
4.6592494071
 30
0.0
 10
5.7520854134
 20
4.6593123468
 30
0.0
 10
5.7534376598
 20
4.6593843904
 30
0.0
 10
5.7551484828
 20
4.6594486708
 30
0.0
 10
5.7565231659
 20
4.6594676397
 30
0.0
 10
5.7572133825
 20
4.6594676397
 30
0.0
  0
SPLINE
  5
2BA
100
AcDbEntity
  8
0
100
AcDbSpline
 62
6
  6
CONTINUOUS
 70
0
 71
3
 72
20
 73
16
 74
0
 42
0.0000001
 43
0.0000001
 44
0.0000000001
 40
0.0
 40
0.0
 40
0.0
 40
0.0
 40
0.1400774519
 40
0.2789782145
 40
0.3474238633
 40
0.4148977583
 40
0.4812183951
 40
0.5462341094
 40
0.6717339172
 40
0.7319062634
 40
0.7901408023
 40
0.8462488194
 40
0.9000440737
 40
0.951349146
 40
1.0
 40
1.0
 40
1.0
 40
1.0
 10
6.1892133825
 20
4.6594676397
 30
0.0
 10
6.189903599
 20
4.6594676397
 30
0.0
 10
6.1912782831
 20
4.6594486703
 30
0.0
 10
6.1929891077
 20
4.6593843892
 30
0.0
 10
6.1943413569
 20
4.6593123458
 30
0.0
 10
6.1953358996
 20
4.6592494068
 30
0.0
 10
6.1963130137
 20
4.659179323
 30
0.0
 10
6.1975747386
 20
4.6590811544
 30
0.0
 10
6.1988056886
 20
4.6589782838
 30
0.0
 10
6.2000035131
 20
4.6588803131
 30
0.0
 10
6.2008608474
 20
4.6588138242
 30
0.0
 10
6.2016873511
 20
4.6587564291
 30
0.0
 10
6.2024804321
 20
4.6587112421
 30
0.0
 10
6.2032374808
 20
4.6586813845
 30
0.0
 10
6.2037300152
 20
4.658673555
 30
0.0
 10
6.203969737
 20
4.658673555
 30
0.0
  0
LINE
  5
2BB
100
AcDbEntity
  8
0
100
AcDbLine
 62
9
  6
CONTINUOUS
 10
5.7372133825
 20
4.4026713604
 11
5.6982133825
 21
4.4026798345
  0
LINE
  5
2BC
100
AcDbEntity
  8
0
100
AcDbLine
 62
9
  6
CONTINUOUS
 10
5.7572155771
 20
3.950673555
 11
5.7572071029
 21
3.911673555
  0
LINE
  5
2BD
100
AcDbEntity
  8
0
100
AcDbLine
 62
9
  6
CONTINUOUS
 10
6.2092133825
 20
3.9706758044
 11
6.2482133825
 21
3.9706671317
  0
LINE
  5
2BE
100
AcDbEntity
  8
0
100
AcDbLine
 62
9
  6
CONTINUOUS
 10
5.7372133825
 20
3.9706758306
 11
5.6982133825
 21
3.970667048
  0
LINE
  5
2BF
100
AcDbEntity
  8
0
100
AcDbLine
 62
9
  6
CONTINUOUS
 10
6.1892114188
 20
3.950673555
 11
6.1892190071
 21
3.911673555
  0
LINE
  5
2C0
100
AcDbEntity
  8
0
100
AcDbLine
 62
9
  6
CONTINUOUS
 10
6.2092133825
 20
4.4026715914
 11
6.2482133825
 21
4.4026791796
  0
LINE
  5
2C1
100
AcDbEntity
  8
0
100
AcDbLine
 62
9
  6
CONTINUOUS
 10
5.5482133825
 20
5.0508975961
 11
5.5882133825
 21
5.0508975961
  0
LINE
  5
2C2
100
AcDbEntity
  8
0
100
AcDbLine
 62
9
  6
CONTINUOUS
 10
6.3582133825
 20
5.0502945806
 11
6.3982133825
 21
5.0502945806
  0
ELLIPSE
  5
2C3
100
AcDbEntity
  8
0
100
AcDbEllipse
 62
6
  6
CONTINUOUS
 10
5.9732133825
 20
3.6218726549
 30
0.0
 11
0.13
 21
0.0
 31
0.0
 40
0.2679491924
 41
8.5849603636
 42
13.4061905026
  0
ENDSEC
  0
SECTION
  2
OBJECTS
  0
DICTIONARY
  5
C
100
AcDbDictionary
280
0
281
1
  3
ACAD_GROUP
350
D
  3
ACAD_MLINESTYLE
350
17
  3
ACAD_LAYOUT
350
1A
  3
ACAD_PLOTSETTINGS
350
19
  3
ACAD_PLOTSTYLENAME
350
E
  0
DICTIONARY
  5
D
102
{ACAD_REACTORS
330
C
102
}
100
AcDbDictionary
280
0
281
1
  0
ACDBDICTIONARYWDFLT
  5
E
102
{ACAD_REACTORS
330
C
102
}
100
AcDbDictionary
281
1
  3
Normal
350
F
100
AcDbDictionaryWithDefault
340
F
  0
DICTIONARY
  5
17
102
{ACAD_REACTORS
330
C
102
}
100
AcDbDictionary
280
0
281
1
  3
Standard
350
18
  0
DICTIONARY
  5
19
102
{ACAD_REACTORS
330
C
102
}
100
AcDbDictionary
281
1
  0
DICTIONARY
  5
1A
102
{ACAD_REACTORS
330
C
102
}
100
AcDbDictionary
281
1
  3
Model
350
2C4
  3
Layout1
350
2C5
  0
ACDBPLACEHOLDER
  5
F
102
{ACAD_REACTORS
330
E
102
}
  0
MLINESTYLE
  5
18
102
{ACAD_REACTORS
330
17
102
}
100
AcDbMlineStyle
  2
STANDARD
 70
0
  3

 62
256
 51
90.0
 52
90.0
 71
2
 49
0.5
 62
256
  6
BYLAYER
 49
-0.5
 62
256
  6
BYLAYER
  0
LAYOUT
  5
2C4
102
{ACAD_REACTORS
330
1A
102
}
100
AcDbPlotSettings
  1

  2
none_device
  4
ISO_A4_(297.00_x_210.00_MM)
  6

 40
0.0
 41
0.0
 42
0.0
 43
0.0
 44
297.0
 45
210.0
 46
0.0
 47
0.0
 48
0.0
 49
0.0
140
0.0
141
0.0
142
1.0
143
1.0
 70
1024
 72
0
 73
0
 74
0
  7

 75
0
147
1.0
148
0.0
149
0.0
100
AcDbLayout
  1
Model
 70
0
 71
0
 10
0.0
 20
0.0
 11
11.6929133858
 21
8.2677165354
 12
0.0
 22
0.0
 32
0.0
 14
0.0
 24
0.0
 34
0.0
 15
0.0
 25
0.0
 35
0.0
146
0.0
 13
0.0
 23
0.0
 33
0.0
 16
1.0
 26
0.0
 36
0.0
 17
0.0
 27
1.0
 37
0.0
 76
0
330
202
345
0
346
0
  0
LAYOUT
  5
2C5
102
{ACAD_REACTORS
330
1A
102
}
100
AcDbPlotSettings
  1

  2
none_device
  4
ISO_A4_(297.00_x_210.00_MM)
  6

 40
0.0
 41
0.0
 42
0.0
 43
0.0
 44
297.0
 45
210.0
 46
0.0
 47
0.0
 48
0.0
 49
0.0
140
0.0
141
0.0
142
1.0
143
1.0
 70
0
 72
0
 73
0
 74
0
  7

 75
0
147
1.0
148
0.0
149
0.0
100
AcDbLayout
  1
Layout1
 70
0
 71
1
 10
0.0
 20
0.0
 11
11.6929133858
 21
8.2677165354
 12
0.0
 22
0.0
 32
0.0
 14
0.0
 24
0.0
 34
0.0
 15
0.0
 25
0.0
 35
0.0
146
0.0
 13
0.0
 23
0.0
 33
0.0
 16
1.0
 26
0.0
 36
0.0
 17
0.0
 27
1.0
 37
0.0
 76
0
330
203
345
0
346
0
  0
ENDSEC
  0
EOF
