999
DXF file: 43-12_TOP.dxf
999
Pro/ENGINEER 2014000 by Parametric Technology Corporation
  0
SECTION
  2
HEADER
  9
$ACADVER
  1
AC1015
  9
$DWGCODEPAGE
  3
ANSI_1252
  9
$EXTMAX
 10
11.6929133858
 20
8.2677165354
 30
0.0
  9
$EXTMIN
 10
0.0
 20
0.0
 30
0.0
  9
$LIMMIN
 10
0.0
 20
0.0
  9
$LIMMAX
 10
11.6929133858
 20
8.2677165354
  9
$VIEWCTR
 10
5.8464566929
 20
4.1338582677
  9
$VIEWSIZE
 40
8.2677165354
  9
$CLAYER
  8
0
  9
$LTSCALE
 40
0.6431102362
  9
$CELTYPE
  6
BYLAYER
  9
$DIMSCALE
 40
1.0
  9
$DIMASZ
 40
0.1875
  9
$DIMEXO
 40
0.0625
  9
$DIMDLI
 40
0.4443307087
  9
$DIMEXE
 40
0.125
  9
$DIMCEN
 40
0.1052362205
  9
$DIMLFAC
 40
1.0
  9
$DIMBLK
  1
_CLOSED
  9
$DIMTXT
 40
0.15625
  9
$DIMTOL
 70
0
  9
$DIMLIM
 70
0
  9
$DIMTFAC
 40
1.0
  9
$DIMGAP
 40
0.09
  9
$DIMDSEP
 70
46
  9
$PDMODE
 70
3
  9
$PDSIZE
 40
0.3125
  9
$HANDSEED
  5
2D7
  9
$TILEMODE
 70
1
  9
$MEASUREMENT
 70
0
  9
$INSUNITS
 70
1
  0
ENDSEC
  0
SECTION
  2
CLASSES
  0
CLASS
  1
ACDBDICTIONARYWDFLT
  2
AcDbDictionaryWithDefault
  3
AutoCAD 2000
 90
0
280
0
281
0
  0
CLASS
  1
ACDBPLACEHOLDER
  2
AcDbPlaceHolder
  3
AutoCAD 2000
 90
0
280
0
281
0
  0
CLASS
  1
LAYOUT
  2
AcDbLayout
  3
AutoCAD 2000
 90
0
280
0
281
0
  0
ENDSEC
  0
SECTION
  2
TABLES
  0
TABLE
  2
VPORT
  5
8
100
AcDbSymbolTable
 70
2
  0
VPORT
  5
1F4
100
AcDbSymbolTableRecord
100
AcDbViewportTableRecord
  2
*ACTIVE
 70
0
 10
0.0
 20
0.0
 11
1.0
 21
1.0
 12
5.8464566929
 22
4.1338582677
 13
0.0
 23
0.0
 14
1.0
 24
1.0
 15
0.0
 25
0.0
 16
0.0
 26
0.0
 36
1.0
 17
0.0
 27
0.0
 37
0.0
 40
8.2677165354
 41
1.4142857143
 42
50.0
 43
0.0
 44
0.0
 50
0.0
 51
0.0
 71
0
 72
100
 73
1
 74
1
 75
0
 76
0
 77
0
 78
0
  0
ENDTAB
  0
TABLE
  2
LTYPE
  5
5
100
AcDbSymbolTable
 70
6
  0
LTYPE
  5
14
100
AcDbSymbolTableRecord
100
AcDbLinetypeTableRecord
  2
BYBLOCK
 70
0
  3

 72
65
 73
0
 40
0.0
  0
LTYPE
  5
15
100
AcDbSymbolTableRecord
100
AcDbLinetypeTableRecord
  2
BYLAYER
 70
0
  3

 72
65
 73
0
 40
0.0
  0
LTYPE
  5
16
100
AcDbSymbolTableRecord
100
AcDbLinetypeTableRecord
  2
CONTINUOUS
 70
64
  3
Solid line
 72
65
 73
0
 40
0.0
  0
LTYPE
  5
1F5
100
AcDbSymbolTableRecord
100
AcDbLinetypeTableRecord
  2
CENTER
 70
64
  3
____ _ ____ _ ____ _ ____ _ ____ _ ____ _ ____
 72
65
 73
4
 40
0.6
 49
0.375
 74
0
 49
-0.075
 74
0
 49
0.075
 74
0
 49
-0.075
 74
0
  0
LTYPE
  5
1F6
100
AcDbSymbolTableRecord
100
AcDbLinetypeTableRecord
  2
HIDDEN
 70
64
  3
- - - - - - - - - - - - - - - - - - - -
 72
65
 73
2
 40
0.2
 49
0.1
 74
0
 49
-0.1
 74
0
  0
LTYPE
  5
1F7
100
AcDbSymbolTableRecord
100
AcDbLinetypeTableRecord
  2
PHANTOM
 70
64
  3
_____ _ _ _____ _ _ _____ _ _ _____
 72
65
 73
6
 40
0.8
 49
0.45
 74
0
 49
-0.05
 74
0
 49
0.1
 74
0
 49
-0.05
 74
0
 49
0.1
 74
0
 49
-0.05
 74
0
  0
LTYPE
  5
1F8
100
AcDbSymbolTableRecord
100
AcDbLinetypeTableRecord
  2
DOT
 70
64
  3
. . . . . . . . . . . . . . . . . . . .
 72
65
 73
2
 40
0.2
 49
0.1
 74
0
 49
-0.1
 74
0
  0
LTYPE
  5
1F9
100
AcDbSymbolTableRecord
100
AcDbLinetypeTableRecord
  2
DASHED
 70
64
  3
- - - - - - - - - - - - - - - - - - - -
 72
65
 73
2
 40
0.2
 49
0.1
 74
0
 49
-0.1
 74
0
  0
ENDTAB
  0
TABLE
  2
LAYER
  5
2
100
AcDbSymbolTable
 70
36
  0
LAYER
  5
10
100
AcDbSymbolTableRecord
100
AcDbLayerTableRecord
  2
0
 70
0
 62
7
  6
CONTINUOUS
370
-3
390
F
  0
LAYER
  5
1FA
100
AcDbSymbolTableRecord
100
AcDbLayerTableRecord
  2
DEFAULT_1
 70
0
 62
7
  6
CENTER
370
-3
390
F
  0
LAYER
  5
1FB
100
AcDbSymbolTableRecord
100
AcDbLayerTableRecord
  2
DEFAULT_2
 70
0
 62
8
  6
HIDDEN
370
-3
390
F
  0
LAYER
  5
1FC
100
AcDbSymbolTableRecord
100
AcDbLayerTableRecord
  2
DEFAULT_3
 70
0
 62
7
  6
PHANTOM
370
-3
390
F
  0
LAYER
  5
1FD
100
AcDbSymbolTableRecord
100
AcDbLayerTableRecord
  2
DEFAULT_COORDINATE_SYSTEM
 70
0
 62
7
  6
CONTINUOUS
370
-3
390
F
  0
LAYER
  5
1FE
100
AcDbSymbolTableRecord
100
AcDbLayerTableRecord
  2
DEFAULT_DATUM_AXES
 70
0
 62
7
  6
CONTINUOUS
370
-3
390
F
  0
LAYER
  5
1FF
100
AcDbSymbolTableRecord
100
AcDbLayerTableRecord
  2
DEFAULT_DATUM_PLANES
 70
0
 62
7
  6
CONTINUOUS
370
-3
390
F
  0
ENDTAB
  0
TABLE
  2
STYLE
  5
3
100
AcDbSymbolTable
 70
1
  0
STYLE
  5
11
100
AcDbSymbolTableRecord
100
AcDbTextStyleTableRecord
  2
STANDARD
 70
0
 40
0.0
 41
0.8
 50
0.0
 71
0
 42
0.2
  3
txt
  4

  0
STYLE
  5
200
100
AcDbSymbolTableRecord
100
AcDbTextStyleTableRecord
  2
TEXTSTYLE_1
 70
0
 40
0.0
 41
0.8
 50
0.0
 71
0
 42
0.2
  3
gdt
  4

  0
ENDTAB
  0
TABLE
  2
VIEW
  5
6
100
AcDbSymbolTable
 70
0
  0
ENDTAB
  0
TABLE
  2
UCS
  5
7
100
AcDbSymbolTable
 70
0
  0
ENDTAB
  0
TABLE
  2
APPID
  5
9
100
AcDbSymbolTable
 70
1
  0
APPID
  5
201
100
AcDbSymbolTableRecord
100
AcDbRegAppTableRecord
  2
ACAD
 70
0
  0
ENDTAB
  0
TABLE
  2
BLOCK_RECORD
  5
1
100
AcDbSymbolTable
 70
0
  0
BLOCK_RECORD
  5
202
100
AcDbSymbolTableRecord
100
AcDbBlockTableRecord
  2
*Model_Space
  0
BLOCK_RECORD
  5
203
100
AcDbSymbolTableRecord
100
AcDbBlockTableRecord
  2
*Paper_Space
  0
ENDTAB
  0
TABLE
  2
DIMSTYLE
  5
A
100
AcDbSymbolTable
 70
1
100
AcDbDimStyleTable
 71
0
  0
DIMSTYLE
105
204
100
AcDbSymbolTableRecord
100
AcDbDimStyleTableRecord
  2
STANDARD
 70
0
  3

  4

 40
1.0
 41
0.1875
 42
0.0625
 43
0.38
 44
0.125
 45
0.0
 46
0.0
 47
0.001
 48
0.001
140
0.15625
141
0.09
142
0.0
143
25.4
144
1.0
145
0.0
146
1.0
147
0.09
 71
0.0
 72
0.0
 73
1
 74
1
 75
0
 76
0
 77
0
 78
4
170
0
171
2
172
0
173
0
174
0
175
0
176
0
177
0
178
0
270
2
271
3
272
3
273
2
274
2
275
0
280
0
281
0
282
0
283
1
284
4
285
0
286
0
287
3
288
0
340
11
278
46
  0
ENDTAB
  0
ENDSEC
  0
SECTION
  2
BLOCKS
  0
BLOCK
  5
20
100
AcDbEntity
  8
0
100
AcDbBlockBegin
  2
*Model_Space
 70
0
 10
0.0
 20
0.0
 30
0.0
  3
*Model_Space
  1

  0
ENDBLK
  5
21
100
AcDbEntity
  8
0
100
AcDbBlockEnd
  0
BLOCK
  5
1C
100
AcDbEntity
  8
0
100
AcDbBlockBegin
  2
*Paper_Space
 70
0
 10
0.0
 20
0.0
 30
0.0
  3
*Paper_Space
  1

  0
ENDBLK
  5
1D
100
AcDbEntity
  8
0
100
AcDbBlockEnd
  0
ENDSEC
  0
SECTION
  2
ENTITIES
  0
LINE
  5
205
100
AcDbEntity
  8
0
100
AcDbLine
 62
7
  6
CONTINUOUS
 10
0.0
 20
0.0
 11
0.0
 21
8.2677165354
  0
LINE
  5
206
100
AcDbEntity
  8
0
100
AcDbLine
 62
7
  6
CONTINUOUS
 10
0.0
 20
0.0
 11
11.6929133858
 21
0.0
  0
LINE
  5
207
100
AcDbEntity
  8
0
100
AcDbLine
 62
7
  6
CONTINUOUS
 10
0.0
 20
8.2677165354
 11
11.6929133858
 21
8.2677165354
  0
LINE
  5
208
100
AcDbEntity
  8
0
100
AcDbLine
 62
7
  6
CONTINUOUS
 10
11.6929133858
 20
0.0
 11
11.6929133858
 21
8.2677165354
  0
LWPOLYLINE
  5
209
100
AcDbEntity
  8
0
100
AcDbPolyline
 62
6
  6
CONTINUOUS
 90
4
 70
0
 10
4.6889440346
 20
5.3119928337
 10
4.6872112512
 20
5.3093447806
 10
4.6857669472
 20
5.3065286901
 10
4.6846307133
 20
5.3035848738
  0
LWPOLYLINE
  5
20A
100
AcDbEntity
  8
0
100
AcDbPolyline
 62
6
  6
CONTINUOUS
 90
4
 70
0
 10
4.6956458663
 20
5.3186321191
 10
4.6931948512
 20
5.3166695302
 10
4.6909459721
 20
5.314443456
 10
4.6889440346
 20
5.3119928337
  0
LWPOLYLINE
  5
20B
100
AcDbEntity
  8
0
100
AcDbPolyline
 62
6
  6
CONTINUOUS
 90
4
 70
0
 10
4.684627458
 20
5.3035764397
 10
4.6838055337
 20
5.3005217243
 10
4.6833100419
 20
5.297399401
 10
4.6831458653
 20
5.2942651321
  0
LINE
  5
20C
100
AcDbEntity
  8
0
100
AcDbLine
 62
6
  6
CONTINUOUS
 10
5.5031458653
 20
2.7616104976
 11
6.2531458653
 21
2.7616104976
  0
LINE
  5
20D
100
AcDbEntity
  8
0
100
AcDbLine
 62
9
  6
CONTINUOUS
 10
5.5031458653
 20
2.7886104976
 11
6.2531458653
 21
2.7886104976
  0
LINE
  5
20E
100
AcDbEntity
  8
0
100
AcDbLine
 62
9
  6
CONTINUOUS
 10
5.4801458653
 20
2.8116104976
 11
5.4531458653
 21
2.8116104977
  0
LINE
  5
20F
100
AcDbEntity
  8
0
100
AcDbLine
 62
9
  6
CONTINUOUS
 10
6.2761458653
 20
2.8116104976
 11
6.3031458653
 21
2.8116104976
  0
LINE
  5
210
100
AcDbEntity
  8
0
100
AcDbLine
 62
6
  6
CONTINUOUS
 10
5.4931458653
 20
2.8211104976
 11
6.2631458653
 21
2.8211104976
  0
LINE
  5
211
100
AcDbEntity
  8
0
100
AcDbLine
 62
9
  6
CONTINUOUS
 10
5.4531458653
 20
2.8611104977
 11
6.3031458653
 21
2.8611104976
  0
LINE
  5
212
100
AcDbEntity
  8
0
100
AcDbLine
 62
6
  6
CONTINUOUS
 10
4.6831458653
 20
5.1911104976
 11
4.6831458653
 21
5.2942651316
  0
LINE
  5
213
100
AcDbEntity
  8
0
100
AcDbLine
 62
6
  6
CONTINUOUS
 10
4.7331458653
 20
5.391733075
 11
4.7331458653
 21
5.5711104976
  0
LINE
  5
214
100
AcDbEntity
  8
0
100
AcDbLine
 62
9
  6
CONTINUOUS
 10
4.7431458653
 20
5.1611104976
 11
4.7431458653
 21
5.2915946054
  0
LINE
  5
215
100
AcDbEntity
  8
0
100
AcDbLine
 62
9
  6
CONTINUOUS
 10
4.7513274024
 20
5.2926831192
 11
4.7492802907
 21
5.3183745149
  0
LINE
  5
216
100
AcDbEntity
  8
0
100
AcDbLine
 62
9
  6
CONTINUOUS
 10
4.7931459263
 20
5.2942651316
 11
4.7931458653
 21
5.5711104976
  0
LINE
  5
217
100
AcDbEntity
  8
0
100
AcDbLine
 62
9
  6
CONTINUOUS
 10
5.4531458653
 20
3.1751104976
 11
6.3031458653
 21
3.1751104975
  0
LINE
  5
218
100
AcDbEntity
  8
0
100
AcDbLine
 62
6
  6
CONTINUOUS
 10
5.0056458653
 20
4.9936104976
 11
5.0056458653
 21
5.1511104976
  0
LINE
  5
219
100
AcDbEntity
  8
0
100
AcDbLine
 62
6
  6
CONTINUOUS
 10
6.2631458653
 20
3.2151104976
 11
5.4931458653
 21
3.2151104976
  0
LINE
  5
21A
100
AcDbEntity
  8
0
100
AcDbLine
 62
9
  6
CONTINUOUS
 10
5.4801458653
 20
3.2246104976
 11
5.4531458653
 21
3.2246104976
  0
LINE
  5
21B
100
AcDbEntity
  8
0
100
AcDbLine
 62
9
  6
CONTINUOUS
 10
6.2761458653
 20
3.2246104976
 11
6.3031458653
 21
3.2246104974
  0
LINE
  5
21C
100
AcDbEntity
  8
0
100
AcDbLine
 62
9
  6
CONTINUOUS
 10
6.2531458653
 20
3.2476104976
 11
5.5031458653
 21
3.2476104976
  0
LINE
  5
21D
100
AcDbEntity
  8
0
100
AcDbLine
 62
6
  6
CONTINUOUS
 10
6.2531458653
 20
3.2746104976
 11
5.5031458653
 21
3.2746104976
  0
LINE
  5
21E
100
AcDbEntity
  8
0
100
AcDbLine
 62
9
  6
CONTINUOUS
 10
5.6421458653
 20
3.2931104976
 11
6.1141458653
 21
3.2931104976
  0
LINE
  5
21F
100
AcDbEntity
  8
0
100
AcDbLine
 62
9
  6
CONTINUOUS
 10
4.7431458657
 20
5.2915946055
 11
4.7384957622
 21
5.3180558774
  0
LINE
  5
220
100
AcDbEntity
  8
0
100
AcDbLine
 62
9
  6
CONTINUOUS
 10
5.0656458653
 20
4.9636104976
 11
5.0656458653
 21
5.1511104976
  0
LINE
  5
221
100
AcDbEntity
  8
0
100
AcDbLine
 62
6
  6
CONTINUOUS
 10
5.1281458653
 20
5.1611104976
 11
5.1281458653
 21
5.1511104976
  0
LINE
  5
222
100
AcDbEntity
  8
0
100
AcDbLine
 62
9
  6
CONTINUOUS
 10
5.6421458653
 20
3.4101104976
 11
6.1141458653
 21
3.4101104976
  0
LINE
  5
223
100
AcDbEntity
  8
0
100
AcDbLine
 62
6
  6
CONTINUOUS
 10
6.0941522885
 20
3.4500979956
 11
5.6621393582
 21
3.4500979956
  0
LINE
  5
224
100
AcDbEntity
  8
0
100
AcDbLine
 62
6
  6
CONTINUOUS
 10
5.6031458653
 20
3.4501104976
 11
5.6512321251
 21
3.4501104976
  0
LINE
  5
225
100
AcDbEntity
  8
0
100
AcDbLine
 62
6
  6
CONTINUOUS
 10
6.1050591113
 20
3.4501104976
 11
6.1531458653
 21
3.4501104976
  0
LINE
  5
226
100
AcDbEntity
  8
0
100
AcDbLine
 62
9
  6
CONTINUOUS
 10
5.2117998536
 20
4.9636104976
 11
5.2117998536
 21
4.9413750689
  0
LINE
  5
227
100
AcDbEntity
  8
0
100
AcDbLine
 62
6
  6
CONTINUOUS
 10
6.1606458653
 20
3.4911104976
 11
5.5956458653
 21
3.4911104976
  0
LINE
  5
228
100
AcDbEntity
  8
0
100
AcDbLine
 62
9
  6
CONTINUOUS
 10
6.1906458653
 20
3.5211104976
 11
5.5656458653
 21
3.5211104976
  0
LINE
  5
229
100
AcDbEntity
  8
0
100
AcDbLine
 62
9
  6
CONTINUOUS
 10
5.3981680541
 20
3.8226624191
 11
5.3991458653
 21
3.7927091079
  0
LINE
  5
22A
100
AcDbEntity
  8
0
100
AcDbLine
 62
6
  6
CONTINUOUS
 10
5.3391458653
 20
3.6711104976
 11
5.3391458653
 21
3.7970892243
  0
LINE
  5
22B
100
AcDbEntity
  8
0
100
AcDbLine
 62
9
  6
CONTINUOUS
 10
5.3581458653
 20
5.1611104976
 11
5.3581458653
 21
5.1511104976
  0
LINE
  5
22C
100
AcDbEntity
  8
0
100
AcDbLine
 62
9
  6
CONTINUOUS
 10
5.3991458653
 20
3.6411104976
 11
5.3991458653
 21
3.7927091079
  0
LINE
  5
22D
100
AcDbEntity
  8
0
100
AcDbLine
 62
9
  6
CONTINUOUS
 10
5.5656458653
 20
3.6111104976
 11
6.1906458653
 21
3.6111104976
  0
LINE
  5
22E
100
AcDbEntity
  8
0
100
AcDbLine
 62
6
  6
CONTINUOUS
 10
6.3871458653
 20
3.6411104976
 11
5.3691458653
 21
3.6411104976
  0
LINE
  5
22F
100
AcDbEntity
  8
0
100
AcDbLine
 62
9
  6
CONTINUOUS
 10
6.4171458653
 20
3.6711104976
 11
5.3391458653
 21
3.6711104976
  0
LINE
  5
230
100
AcDbEntity
  8
0
100
AcDbLine
 62
6
  6
CONTINUOUS
 10
5.153844304
 20
4.9413750689
 11
5.4232835237
 21
3.9358142116
  0
LINE
  5
231
100
AcDbEntity
  8
0
100
AcDbLine
 62
6
  6
CONTINUOUS
 10
5.4531458653
 20
3.2246104976
 11
5.4531458653
 21
2.8116104976
  0
LINE
  5
232
100
AcDbEntity
  8
0
100
AcDbLine
 62
9
  6
CONTINUOUS
 10
5.4768609078
 20
3.1751104976
 11
5.4768609078
 21
2.8611104976
  0
LINE
  5
233
100
AcDbEntity
  8
0
100
AcDbLine
 62
9
  6
CONTINUOUS
 10
5.4801458653
 20
3.2246104976
 11
5.4801458653
 21
3.2129390582
  0
LINE
  5
234
100
AcDbEntity
  8
0
100
AcDbLine
 62
9
  6
CONTINUOUS
 10
5.4801458653
 20
2.8232819369
 11
5.4801458653
 21
2.8116104976
  0
LINE
  5
235
100
AcDbEntity
  8
0
100
AcDbLine
 62
9
  6
CONTINUOUS
 10
5.4812412835
 20
3.8259468496
 11
5.4812411973
 21
3.7970891653
  0
LINE
  5
236
100
AcDbEntity
  8
0
100
AcDbLine
 62
9
  6
CONTINUOUS
 10
5.5031458653
 20
2.7886104976
 11
5.5031458653
 21
2.7616104976
  0
LINE
  5
237
100
AcDbEntity
  8
0
100
AcDbLine
 62
9
  6
CONTINUOUS
 10
5.5031458653
 20
3.2476104976
 11
5.5031458654
 21
3.2746104976
  0
LINE
  5
238
100
AcDbEntity
  8
0
100
AcDbLine
 62
9
  6
CONTINUOUS
 10
5.349660387
 20
3.7925212567
 11
5.365213854
 21
3.7925205488
  0
LINE
  5
239
100
AcDbEntity
  8
0
100
AcDbLine
 62
9
  6
CONTINUOUS
 10
6.3910750199
 20
3.7925212567
 11
6.4066293824
 21
3.7925205488
  0
LINE
  5
23A
100
AcDbEntity
  8
0
100
AcDbLine
 62
9
  6
CONTINUOUS
 10
5.4812411973
 20
3.7970891653
 11
6.2750501085
 21
3.7970892243
  0
LINE
  5
23B
100
AcDbEntity
  8
0
100
AcDbLine
 62
9
  6
CONTINUOUS
 10
5.2117998536
 20
4.9413750689
 11
5.4812390733
 21
3.9358142116
  0
LINE
  5
23C
100
AcDbEntity
  8
0
100
AcDbLine
 62
6
  6
CONTINUOUS
 10
5.5656458653
 20
3.5211104976
 11
5.5656458653
 21
3.6111104976
  0
LINE
  5
23D
100
AcDbEntity
  8
0
100
AcDbLine
 62
9
  6
CONTINUOUS
 10
5.5956458653
 20
3.4911104976
 11
5.595645865
 21
3.6411104976
  0
LINE
  5
23E
100
AcDbEntity
  8
0
100
AcDbLine
 62
6
  6
CONTINUOUS
 10
5.6031458653
 20
3.4911104976
 11
5.6031458653
 21
3.4501104976
  0
LINE
  5
23F
100
AcDbEntity
  8
0
100
AcDbLine
 62
9
  6
CONTINUOUS
 10
5.6231458653
 20
3.4911104976
 11
5.6231458653
 21
3.4501104976
  0
LINE
  5
240
100
AcDbEntity
  8
0
100
AcDbLine
 62
6
  6
CONTINUOUS
 10
5.6421458653
 20
3.4101104976
 11
5.6421458653
 21
3.2746104976
  0
LINE
  5
241
100
AcDbEntity
  8
0
100
AcDbLine
 62
6
  6
CONTINUOUS
 10
5.3744046015
 20
3.8225204976
 11
5.382179093
 21
3.8225204976
  0
LINE
  5
242
100
AcDbEntity
  8
0
100
AcDbLine
 62
6
  6
CONTINUOUS
 10
6.3741120723
 20
3.8225204976
 11
6.3818869
 21
3.8225204976
  0
LINE
  5
243
100
AcDbEntity
  8
0
100
AcDbLine
 62
9
  6
CONTINUOUS
 10
5.4812413698
 20
3.8259468496
 11
6.2750497059
 21
3.8259468544
  0
LINE
  5
244
100
AcDbEntity
  8
0
100
AcDbLine
 62
9
  6
CONTINUOUS
 10
6.2750526573
 20
3.9358142116
 11
5.4812390733
 21
3.9358142116
  0
LINE
  5
245
100
AcDbEntity
  8
0
100
AcDbLine
 62
9
  6
CONTINUOUS
 10
5.6621458653
 20
3.4101104976
 11
5.6621458653
 21
3.2746104976
  0
LINE
  5
246
100
AcDbEntity
  8
0
100
AcDbLine
 62
9
  6
CONTINUOUS
 10
6.0941458653
 20
3.2746104976
 11
6.0941458653
 21
3.4101104976
  0
LINE
  5
247
100
AcDbEntity
  8
0
100
AcDbLine
 62
6
  6
CONTINUOUS
 10
6.1141458653
 20
3.2746104976
 11
6.1141458653
 21
3.4101104976
  0
LINE
  5
248
100
AcDbEntity
  8
0
100
AcDbLine
 62
9
  6
CONTINUOUS
 10
6.1331458653
 20
3.4911104976
 11
6.1331458653
 21
3.4501104976
  0
LINE
  5
249
100
AcDbEntity
  8
0
100
AcDbLine
 62
6
  6
CONTINUOUS
 10
6.1531458653
 20
3.4911104976
 11
6.1531458653
 21
3.4501104976
  0
LINE
  5
24A
100
AcDbEntity
  8
0
100
AcDbLine
 62
9
  6
CONTINUOUS
 10
6.1606458653
 20
3.4911104976
 11
6.1606458655
 21
3.6411104976
  0
LINE
  5
24B
100
AcDbEntity
  8
0
100
AcDbLine
 62
6
  6
CONTINUOUS
 10
6.1906458653
 20
3.5211104976
 11
6.1906458653
 21
3.6111104976
  0
LINE
  5
24C
100
AcDbEntity
  8
0
100
AcDbLine
 62
9
  6
CONTINUOUS
 10
6.2531458653
 20
3.2476104976
 11
6.2531458653
 21
3.2746104976
  0
LINE
  5
24D
100
AcDbEntity
  8
0
100
AcDbLine
 62
9
  6
CONTINUOUS
 10
6.2531458653
 20
2.7886104976
 11
6.2531458652
 21
2.7616104976
  0
LINE
  5
24E
100
AcDbEntity
  8
0
100
AcDbLine
 62
9
  6
CONTINUOUS
 10
6.2750499072
 20
3.8259468544
 11
6.2750501085
 21
3.7970892243
  0
LINE
  5
24F
100
AcDbEntity
  8
0
100
AcDbLine
 62
9
  6
CONTINUOUS
 10
6.2761458653
 20
2.8116104976
 11
6.2761458653
 21
2.8232819369
  0
LINE
  5
250
100
AcDbEntity
  8
0
100
AcDbLine
 62
9
  6
CONTINUOUS
 10
6.2761458653
 20
3.2129390582
 11
6.2761458653
 21
3.2246104976
  0
LINE
  5
251
100
AcDbEntity
  8
0
100
AcDbLine
 62
9
  6
CONTINUOUS
 10
6.2794880265
 20
2.8611104976
 11
6.2794880265
 21
3.1751104976
  0
LINE
  5
252
100
AcDbEntity
  8
0
100
AcDbLine
 62
6
  6
CONTINUOUS
 10
6.3031458653
 20
2.8116104976
 11
6.3031458653
 21
3.2246104976
  0
LINE
  5
253
100
AcDbEntity
  8
0
100
AcDbLine
 62
9
  6
CONTINUOUS
 10
6.3571458653
 20
3.6411104976
 11
6.3571458653
 21
3.7927080022
  0
LINE
  5
254
100
AcDbEntity
  8
0
100
AcDbLine
 62
9
  6
CONTINUOUS
 10
6.3581209989
 20
3.8226613083
 11
6.3571458652
 21
3.7927080022
  0
LINE
  5
255
100
AcDbEntity
  8
0
100
AcDbLine
 62
9
  6
CONTINUOUS
 10
6.544491877
 20
4.9413750689
 11
6.2750526573
 21
3.9358142116
  0
LINE
  5
256
100
AcDbEntity
  8
0
100
AcDbLine
 62
6
  6
CONTINUOUS
 10
6.6024474266
 20
4.9413750689
 11
6.3330082069
 21
3.9358142116
  0
LINE
  5
257
100
AcDbEntity
  8
0
100
AcDbLine
 62
9
  6
CONTINUOUS
 10
6.3981458653
 20
5.1611104976
 11
6.3981458653
 21
5.1511104976
  0
LINE
  5
258
100
AcDbEntity
  8
0
100
AcDbLine
 62
6
  6
CONTINUOUS
 10
6.4171458653
 20
3.6711104976
 11
6.4171458653
 21
3.7970892243
  0
LINE
  5
259
100
AcDbEntity
  8
0
100
AcDbLine
 62
9
  6
CONTINUOUS
 10
6.544491877
 20
4.9636104976
 11
6.544491877
 21
4.9413750689
  0
LINE
  5
25A
100
AcDbEntity
  8
0
100
AcDbLine
 62
6
  6
CONTINUOUS
 10
6.6281458653
 20
5.1611104976
 11
6.6281458653
 21
5.1511104976
  0
LINE
  5
25B
100
AcDbEntity
  8
0
100
AcDbLine
 62
9
  6
CONTINUOUS
 10
6.6906458653
 20
4.9636104976
 11
6.6906458653
 21
5.1511104976
  0
LINE
  5
25C
100
AcDbEntity
  8
0
100
AcDbLine
 62
6
  6
CONTINUOUS
 10
6.7506458653
 20
4.9936104976
 11
6.7506458653
 21
5.1511104976
  0
LINE
  5
25D
100
AcDbEntity
  8
0
100
AcDbLine
 62
9
  6
CONTINUOUS
 10
6.544491877
 20
4.9413750689
 11
5.2117998536
 21
4.9413750689
  0
LINE
  5
25E
100
AcDbEntity
  8
0
100
AcDbLine
 62
6
  6
CONTINUOUS
 10
6.7206458653
 20
4.9636104976
 11
5.0356458653
 21
4.9636104976
  0
LINE
  5
25F
100
AcDbEntity
  8
0
100
AcDbLine
 62
9
  6
CONTINUOUS
 10
6.7506458653
 20
4.9936104976
 11
5.0056458653
 21
4.9936104976
  0
LINE
  5
260
100
AcDbEntity
  8
0
100
AcDbLine
 62
9
  6
CONTINUOUS
 10
7.0131458653
 20
5.2915946447
 11
7.017796215
 21
5.3180558826
  0
LINE
  5
261
100
AcDbEntity
  8
0
100
AcDbLine
 62
6
  6
CONTINUOUS
 10
5.0056458653
 20
5.1511104976
 11
6.7506458653
 21
5.1511104976
  0
LINE
  5
262
100
AcDbEntity
  8
0
100
AcDbLine
 62
6
  6
CONTINUOUS
 10
7.0431458653
 20
5.1611104976
 11
4.7131458653
 21
5.1611104976
  0
LINE
  5
263
100
AcDbEntity
  8
0
100
AcDbLine
 62
9
  6
CONTINUOUS
 10
6.9631458095
 20
5.2942651316
 11
6.9631458653
 21
5.5711104976
  0
LINE
  5
264
100
AcDbEntity
  8
0
100
AcDbLine
 62
9
  6
CONTINUOUS
 10
7.0049642702
 20
5.2926831239
 11
7.0070105057
 21
5.3183741666
  0
LINE
  5
265
100
AcDbEntity
  8
0
100
AcDbLine
 62
9
  6
CONTINUOUS
 10
7.0731458653
 20
5.1911104976
 11
4.6831458653
 21
5.1911104976
  0
LINE
  5
266
100
AcDbEntity
  8
0
100
AcDbLine
 62
9
  6
CONTINUOUS
 10
6.9631458095
 20
5.2942651316
 11
4.7931459263
 21
5.2942651316
  0
LINE
  5
267
100
AcDbEntity
  8
0
100
AcDbLine
 62
9
  6
CONTINUOUS
 10
7.0131458653
 20
5.1611104976
 11
7.0131458653
 21
5.2915946447
  0
LINE
  5
268
100
AcDbEntity
  8
0
100
AcDbLine
 62
6
  6
CONTINUOUS
 10
7.0231458653
 20
5.391733075
 11
7.0231458653
 21
5.5711104976
  0
LINE
  5
269
100
AcDbEntity
  8
0
100
AcDbLine
 62
6
  6
CONTINUOUS
 10
7.0731458653
 20
5.1911104976
 11
7.0731458653
 21
5.2942651316
  0
LINE
  5
26A
100
AcDbEntity
  8
0
100
AcDbLine
 62
9
  6
CONTINUOUS
 10
6.9631458654
 20
5.3186321175
 11
4.7931457736
 21
5.3186321175
  0
LINE
  5
26B
100
AcDbEntity
  8
0
100
AcDbLine
 62
9
  6
CONTINUOUS
 10
6.9631458653
 20
5.391733075
 11
4.7931458653
 21
5.391733075
  0
LWPOLYLINE
  5
26C
100
AcDbEntity
  8
0
100
AcDbPolyline
 62
6
  6
CONTINUOUS
 90
4
 70
0
 10
7.0731458653
 20
5.2942651321
 10
7.0729816887
 20
5.297399401
 10
7.0724861969
 20
5.3005217243
 10
7.0716642726
 20
5.3035764397
  0
LINE
  5
26D
100
AcDbEntity
  8
0
100
AcDbLine
 62
6
  6
CONTINUOUS
 10
4.7331458653
 20
5.5711104976
 11
7.0231458653
 21
5.5711104976
  0
LINE
  5
26E
100
AcDbEntity
  8
0
100
AcDbLine
 62
6
  6
CONTINUOUS
 10
6.8771008867
 20
5.5906104976
 11
4.8791908439
 21
5.5906104976
  0
LWPOLYLINE
  5
26F
100
AcDbEntity
  8
0
100
AcDbPolyline
 62
6
  6
CONTINUOUS
 90
4
 70
0
 10
7.0716642726
 20
5.3035764397
 10
7.0705247834
 20
5.3065286901
 10
7.0690804794
 20
5.3093447806
 10
7.0673531767
 20
5.3119844581
  0
LWPOLYLINE
  5
270
100
AcDbEntity
  8
0
100
AcDbPolyline
 62
6
  6
CONTINUOUS
 90
4
 70
0
 10
7.067347696
 20
5.3119928337
 10
7.0653457585
 20
5.314443456
 10
7.0630968794
 20
5.3166695302
 10
7.0606458643
 20
5.3186321191
  0
ARC
  5
271
100
AcDbEntity
  8
0
100
AcDbCircle
 62
6
  6
CONTINUOUS
 10
5.3363501993
 20
3.9125204976
 40
0.09
100
AcDbArc
 50
285.8606218634
 51
15.0
  0
ARC
  5
272
100
AcDbEntity
  8
0
100
AcDbCircle
 62
6
  6
CONTINUOUS
 10
5.5031458653
 20
3.2246104976
 40
0.05
100
AcDbArc
 50
90.0
 51
180.0
  0
ARC
  5
273
100
AcDbEntity
  8
0
100
AcDbCircle
 62
6
  6
CONTINUOUS
 10
5.5031458653
 20
2.8116104976
 40
0.05
100
AcDbArc
 50
180.0
 51
270.0
  0
ARC
  5
274
100
AcDbEntity
  8
0
100
AcDbCircle
 62
6
  6
CONTINUOUS
 10
5.4931458653
 20
2.8611104976
 40
0.04
100
AcDbArc
 50
180.0
 51
270.0
  0
ARC
  5
275
100
AcDbEntity
  8
0
100
AcDbCircle
 62
6
  6
CONTINUOUS
 10
5.4931458653
 20
3.1751104976
 40
0.04
100
AcDbArc
 50
90.0
 51
180.0
  0
ARC
  5
276
100
AcDbEntity
  8
0
100
AcDbCircle
 62
6
  6
CONTINUOUS
 10
5.6021458653
 20
3.4101104976
 40
0.04
100
AcDbArc
 50
0.0
 51
88.5674562618
  0
ARC
  5
277
100
AcDbEntity
  8
0
100
AcDbCircle
 62
9
  6
CONTINUOUS
 10
5.3691458653
 20
3.7970892243
 40
0.0300002727
100
AcDbArc
 50
105.8605425898
 51
179.9999999975
  0
ARC
  5
278
100
AcDbEntity
  8
0
100
AcDbCircle
 62
6
  6
CONTINUOUS
 10
5.3691458653
 20
3.6711104976
 40
0.03
100
AcDbArc
 50
180.0
 51
270.0
  0
ARC
  5
279
100
AcDbEntity
  8
0
100
AcDbCircle
 62
6
  6
CONTINUOUS
 10
5.5356458653
 20
3.6111104976
 40
0.03
100
AcDbArc
 50
0.0
 51
90.0
  0
ARC
  5
27A
100
AcDbEntity
  8
0
100
AcDbCircle
 62
6
  6
CONTINUOUS
 10
5.5956458653
 20
3.5211104976
 40
0.03
100
AcDbArc
 50
180.0
 51
270.0
  0
ARC
  5
27B
100
AcDbEntity
  8
0
100
AcDbCircle
 62
9
  6
CONTINUOUS
 10
5.3691347603
 20
3.7927004566
 40
0.029989412
100
AcDbArc
 50
92.5770979875
 51
179.9855837326
  0
ARC
  5
27C
100
AcDbEntity
  8
0
100
AcDbCircle
 62
9
  6
CONTINUOUS
 10
5.5031458653
 20
3.2246104976
 40
0.0229999697
100
AcDbArc
 50
90.0
 51
180.0
  0
ARC
  5
27D
100
AcDbEntity
  8
0
100
AcDbCircle
 62
9
  6
CONTINUOUS
 10
5.5031458653
 20
2.8116104976
 40
0.0229999697
100
AcDbArc
 50
180.0
 51
270.0
  0
ARC
  5
27E
100
AcDbEntity
  8
0
100
AcDbCircle
 62
6
  6
CONTINUOUS
 10
4.6431458653
 20
5.391733075
 40
0.09
100
AcDbArc
 50
305.6853347127
 51
360.0
  0
ARC
  5
27F
100
AcDbEntity
  8
0
100
AcDbCircle
 62
6
  6
CONTINUOUS
 10
4.8791908439
 20
5.5211104976
 40
0.0695
100
AcDbArc
 50
90.0
 51
133.932502684
  0
ARC
  5
280
100
AcDbEntity
  8
0
100
AcDbCircle
 62
6
  6
CONTINUOUS
 10
5.1248665292
 20
4.9336104976
 40
0.03
100
AcDbArc
 50
15.0
 51
88.2034825199
  0
ARC
  5
281
100
AcDbEntity
  8
0
100
AcDbCircle
 62
6
  6
CONTINUOUS
 10
4.7131458653
 20
5.1911104976
 40
0.03
100
AcDbArc
 50
180.0
 51
270.0
  0
ARC
  5
282
100
AcDbEntity
  8
0
100
AcDbCircle
 62
9
  6
CONTINUOUS
 10
4.7131458653
 20
5.2942651316
 40
0.03
100
AcDbArc
 50
125.6853347125
 51
179.9999999998
  0
ARC
  5
283
100
AcDbEntity
  8
0
100
AcDbCircle
 62
6
  6
CONTINUOUS
 10
5.0356458653
 20
4.9936104976
 40
0.03
100
AcDbArc
 50
180.0
 51
270.0
  0
ARC
  5
284
100
AcDbEntity
  8
0
100
AcDbCircle
 62
9
  6
CONTINUOUS
 10
4.7130206551
 20
5.2926685597
 40
0.0298748572
100
AcDbArc
 50
120.645838537
 51
179.9720678677
  0
ARC
  5
285
100
AcDbEntity
  8
0
100
AcDbCircle
 62
6
  6
CONTINUOUS
 10
6.4199415313
 20
3.9125204976
 40
0.09
100
AcDbArc
 50
165.0
 51
254.1393893469
  0
ARC
  5
286
100
AcDbEntity
  8
0
100
AcDbCircle
 62
6
  6
CONTINUOUS
 10
6.2531458653
 20
3.2246104976
 40
0.05
100
AcDbArc
 50
0.0
 51
90.0
  0
ARC
  5
287
100
AcDbEntity
  8
0
100
AcDbCircle
 62
6
  6
CONTINUOUS
 10
6.2531458653
 20
2.8116104976
 40
0.05
100
AcDbArc
 50
270.0
 51
360.0
  0
ARC
  5
288
100
AcDbEntity
  8
0
100
AcDbCircle
 62
6
  6
CONTINUOUS
 10
6.2631458653
 20
2.8611104976
 40
0.04
100
AcDbArc
 50
270.0
 51
360.0
  0
ARC
  5
289
100
AcDbEntity
  8
0
100
AcDbCircle
 62
6
  6
CONTINUOUS
 10
6.2631458653
 20
3.1751104976
 40
0.04
100
AcDbArc
 50
0.0
 51
90.0
  0
ARC
  5
28A
100
AcDbEntity
  8
0
100
AcDbCircle
 62
6
  6
CONTINUOUS
 10
6.1541458653
 20
3.4101104976
 40
0.04
100
AcDbArc
 50
91.4325437376
 51
180.0
  0
ARC
  5
28B
100
AcDbEntity
  8
0
100
AcDbCircle
 62
6
  6
CONTINUOUS
 10
6.3871458653
 20
3.7970889408
 40
0.03
100
AcDbArc
 50
0.0004287387
 51
74.1395717367
  0
ARC
  5
28C
100
AcDbEntity
  8
0
100
AcDbCircle
 62
6
  6
CONTINUOUS
 10
6.3871458653
 20
3.6711104976
 40
0.03
100
AcDbArc
 50
270.0
 51
360.0
  0
ARC
  5
28D
100
AcDbEntity
  8
0
100
AcDbCircle
 62
6
  6
CONTINUOUS
 10
6.2206458653
 20
3.6111104976
 40
0.03
100
AcDbArc
 50
90.0
 51
180.0
  0
ARC
  5
28E
100
AcDbEntity
  8
0
100
AcDbCircle
 62
6
  6
CONTINUOUS
 10
6.1606458653
 20
3.5211104976
 40
0.03
100
AcDbArc
 50
270.0
 51
360.0
  0
ARC
  5
28F
100
AcDbEntity
  8
0
100
AcDbCircle
 62
9
  6
CONTINUOUS
 10
6.3871570084
 20
3.7927014941
 40
0.0299893825
100
AcDbArc
 50
0.0145466293
 51
87.4268667392
  0
ARC
  5
290
100
AcDbEntity
  8
0
100
AcDbCircle
 62
9
  6
CONTINUOUS
 10
6.2531458653
 20
3.2246104976
 40
0.0229999697
100
AcDbArc
 50
0.0
 51
90.0
  0
ARC
  5
291
100
AcDbEntity
  8
0
100
AcDbCircle
 62
9
  6
CONTINUOUS
 10
6.2531458653
 20
2.8116104976
 40
0.0229999697
100
AcDbArc
 50
270.0
 51
360.0
  0
ARC
  5
292
100
AcDbEntity
  8
0
100
AcDbCircle
 62
6
  6
CONTINUOUS
 10
7.1131458653
 20
5.391733075
 40
0.09
100
AcDbArc
 50
180.0
 51
234.3146652873
  0
ARC
  5
293
100
AcDbEntity
  8
0
100
AcDbCircle
 62
6
  6
CONTINUOUS
 10
6.8771008867
 20
5.5211104976
 40
0.0695
100
AcDbArc
 50
46.067497316
 51
90.0
  0
ARC
  5
294
100
AcDbEntity
  8
0
100
AcDbCircle
 62
6
  6
CONTINUOUS
 10
6.6314252014
 20
4.9336104976
 40
0.03
100
AcDbArc
 50
91.7695582312
 51
164.9999999994
  0
ARC
  5
295
100
AcDbEntity
  8
0
100
AcDbCircle
 62
6
  6
CONTINUOUS
 10
7.0431458653
 20
5.1911104976
 40
0.03
100
AcDbArc
 50
270.0
 51
360.0
  0
ARC
  5
296
100
AcDbEntity
  8
0
100
AcDbCircle
 62
6
  6
CONTINUOUS
 10
7.0431458653
 20
5.2942651316
 40
0.03
100
AcDbArc
 50
0.0000000001
 51
54.3146652874
  0
ARC
  5
297
100
AcDbEntity
  8
0
100
AcDbCircle
 62
6
  6
CONTINUOUS
 10
6.7206458653
 20
4.9936104976
 40
0.03
100
AcDbArc
 50
270.0
 51
360.0
  0
ARC
  5
298
100
AcDbEntity
  8
0
100
AcDbCircle
 62
9
  6
CONTINUOUS
 10
7.0432711032
 20
5.2926684903
 40
0.0298748357
100
AcDbArc
 50
0.028056377
 51
59.3557822925
  0
LINE
  5
299
100
AcDbEntity
  8
0
100
AcDbLine
 62
6
  6
CONTINUOUS
 10
5.382177848
 20
3.8225205998
 11
5.3981660168
 21
3.822662368
  0
LINE
  5
29A
100
AcDbEntity
  8
0
100
AcDbLine
 62
6
  6
CONTINUOUS
 10
6.3581210097
 20
3.8226613045
 11
6.3741143009
 21
3.8225220149
  0
SPLINE
  5
29B
100
AcDbEntity
  8
0
100
AcDbSpline
 62
9
  6
CONTINUOUS
 70
0
 71
3
 72
11
 73
7
 74
0
 42
0.0000001
 43
0.0000001
 44
0.0000000001
 40
0.0
 40
0.0
 40
0.0
 40
0.0
 40
0.2499999242
 40
0.4999998341
 40
0.7499998942
 40
1.0
 40
1.0
 40
1.0
 40
1.0
 10
7.0049642702
 20
5.2926831239
 30
0.0
 10
7.0014870748
 20
5.2929599995
 30
0.0
 10
6.994525754
 20
5.2934289469
 30
0.0
 10
6.984071899
 20
5.2939169943
 30
0.0
 10
6.9736105813
 20
5.2942023443
 30
0.0
 10
6.9666340133
 20
5.2942653135
 30
0.0
 10
6.9631458095
 20
5.2942651316
 30
0.0
  0
LINE
  5
29C
100
AcDbEntity
  8
0
100
AcDbLine
 62
9
  6
CONTINUOUS
 10
7.0131458653
 20
5.2915946447
 11
7.0049642702
 21
5.2926831239
  0
SPLINE
  5
29D
100
AcDbEntity
  8
0
100
AcDbSpline
 62
9
  6
CONTINUOUS
 70
0
 71
3
 72
26
 73
22
 74
0
 42
0.0000001
 43
0.0000001
 44
0.0000000001
 40
0.0
 40
0.0
 40
0.0
 40
0.0
 40
0.0562686416
 40
0.1129423468
 40
0.1701545217
 40
0.1990145432
 40
0.2280637677
 40
0.2868012201
 40
0.3465482164
 40
0.3768497921
 40
0.4074452762
 40
0.4695057782
 40
0.5327290501
 40
0.5647691644
 40
0.5970783144
 40
0.6624494227
 40
0.7287629172
 40
0.7959008153
 40
0.8636900285
 40
0.9318326285
 40
1.0
 40
1.0
 40
1.0
 40
1.0
 10
6.3818869064
 20
3.8225204976
 30
0.0
 10
6.3826948862
 20
3.8225205029
 30
0.0
 10
6.3843182813
 20
3.8224223476
 30
0.0
 10
6.3867278785
 20
3.8219878396
 30
0.0
 10
6.3886941499
 20
3.8213913122
 30
0.0
 10
6.3902294882
 20
3.8207765957
 30
0.0
 10
6.3917472377
 20
3.8200662084
 30
0.0
 10
6.3935878249
 20
3.8190081536
 30
0.0
 10
6.3953183897
 20
3.8177481615
 30
0.0
 10
6.3966358732
 20
3.8166222791
 30
0.0
 10
6.3979179986
 20
3.8154074209
 30
0.0
 10
6.3994249859
 20
3.8137472341
 30
0.0
 10
6.4007786595
 20
3.8119342884
 30
0.0
 10
6.401770757
 20
3.8103936784
 30
0.0
 10
6.4027065311
 20
3.8087824347
 30
0.0
 10
6.4037500094
 20
3.8066676725
 30
0.0
 10
6.4047877666
 20
3.8040043464
 30
0.0
 10
6.4056053031
 20
3.8012291137
 30
0.0
 10
6.4061930993
 20
3.7983696183
 30
0.0
 10
6.4065490478
 20
3.795457556
 30
0.0
 10
6.4066293482
 20
3.7934993352
 30
0.0
 10
6.4066293823
 20
3.7925204976
 30
0.0
  0
SPLINE
  5
29E
100
AcDbEntity
  8
0
100
AcDbSpline
 62
9
  6
CONTINUOUS
 70
0
 71
3
 72
28
 73
24
 74
0
 42
0.0000001
 43
0.0000001
 44
0.0000000001
 40
0.0
 40
0.0
 40
0.0
 40
0.0
 40
0.0221025879
 40
0.0443584607
 40
0.0668667263
 40
0.0897200987
 40
0.1130046531
 40
0.1367998471
 40
0.1611788127
 40
0.1862079271
 40
0.2384035129
 40
0.2656758062
 40
0.2937616352
 40
0.3524259942
 40
0.4144292403
 40
0.4796313902
 40
0.547822258
 40
0.6187284681
 40
0.6920107753
 40
0.7672971662
 40
0.8441361914
 40
0.9219181073
 40
1.0
 40
1.0
 40
1.0
 40
1.0
 10
5.3821791036
 20
3.8225204976
 30
0.0
 10
5.3819021473
 20
3.8225205002
 30
0.0
 10
5.3813460163
 20
3.8224959919
 30
0.0
 10
5.3805143248
 20
3.8223866509
 30
0.0
 10
5.3796856592
 20
3.8222052747
 30
0.0
 10
5.3788624889
 20
3.8219524822
 30
0.0
 10
5.3780471622
 20
3.8216288805
 30
0.0
 10
5.3772420333
 20
3.821235116
 30
0.0
 10
5.3764494873
 20
3.8207716617
 30
0.0
 10
5.3753977687
 20
3.8200526879
 30
0.0
 10
5.3743934204
 20
3.8192062035
 30
0.0
 10
5.3734417804
 20
3.818251256
 30
0.0
 10
5.3724904435
 20
3.8171843472
 30
0.0
 10
5.3713630021
 20
3.8156957899
 30
0.0
 10
5.3701339272
 20
3.8137140909
 30
0.0
 10
5.3690194518
 20
3.8115311109
 30
0.0
 10
5.3680315786
 20
3.8091669538
 30
0.0
 10
5.36718003
 20
3.8066435231
 30
0.0
 10
5.3664712117
 20
3.8039844253
 30
0.0
 10
5.3659129042
 20
3.8012139328
 30
0.0
 10
5.365511516
 20
3.798359548
 30
0.0
 10
5.3652684973
 20
3.7954523821
 30
0.0
 10
5.3652138042
 20
3.7934989021
 30
0.0
 10
5.365213854
 20
3.7925204976
 30
0.0
  0
SPLINE
  5
29F
100
AcDbEntity
  8
0
100
AcDbSpline
 62
9
  6
CONTINUOUS
 70
0
 71
3
 72
28
 73
24
 74
0
 42
0.0000001
 43
0.0000001
 44
0.0000000001
 40
0.0
 40
0.0
 40
0.0
 40
0.0
 40
0.0220982655
 40
0.0443498725
 40
0.0668541261
 40
0.0897039235
 40
0.1129855028
 40
0.1367784607
 40
0.1611560306
 40
0.1861845142
 40
0.2383803917
 40
0.2656532678
 40
0.293739785
 40
0.3524054291
 40
0.4144098333
 40
0.4796132971
 40
0.5478058303
 40
0.6187141028
 40
0.6919988174
 40
0.7672879184
 40
0.844129888
 40
0.9219149085
 40
1.0
 40
1.0
 40
1.0
 40
1.0
 10
6.3741118941
 20
3.8225204976
 30
0.0
 10
6.3743887855
 20
3.8225205021
 30
0.0
 10
6.3749447876
 20
3.8224959974
 30
0.0
 10
6.3757762878
 20
3.8223866607
 30
0.0
 10
6.3766047685
 20
3.8222052879
 30
0.0
 10
6.3774277663
 20
3.8219524981
 30
0.0
 10
6.3782429387
 20
3.8216288985
 30
0.0
 10
6.3790479374
 20
3.8212351357
 30
0.0
 10
6.3798403817
 20
3.8207716847
 30
0.0
 10
6.3808920125
 20
3.8200527092
 30
0.0
 10
6.3818963037
 20
3.8192062333
 30
0.0
 10
6.3828479068
 20
3.8182512954
 30
0.0
 10
6.3837992141
 20
3.8171843916
 30
0.0
 10
6.3849266049
 20
3.8156958366
 30
0.0
 10
6.3861555906
 20
3.8137141327
 30
0.0
 10
6.3872699623
 20
3.8115311483
 30
0.0
 10
6.3882577333
 20
3.8091669881
 30
0.0
 10
6.3891091915
 20
3.8066435552
 30
0.0
 10
6.3898179277
 20
3.8039844531
 30
0.0
 10
6.390376159
 20
3.8012139544
 30
0.0
 10
6.3907774762
 20
3.7983595619
 30
0.0
 10
6.3910204309
 20
3.7954523882
 30
0.0
 10
6.3910750868
 20
3.7934989041
 30
0.0
 10
6.39107502
 20
3.7925204976
 30
0.0
  0
SPLINE
  5
2A0
100
AcDbEntity
  8
0
100
AcDbSpline
 62
9
  6
CONTINUOUS
 70
0
 71
3
 72
26
 73
22
 74
0
 42
0.0000001
 43
0.0000001
 44
0.0000000001
 40
0.0
 40
0.0
 40
0.0
 40
0.0
 40
0.0562734069
 40
0.1129513453
 40
0.1701664253
 40
0.1990271906
 40
0.2280766965
 40
0.2868137638
 40
0.3465598029
 40
0.3768609104
 40
0.4074560037
 40
0.4695158544
 40
0.532738462
 40
0.5647781844
 40
0.5970868828
 40
0.6624569193
 40
0.7287691618
 40
0.7959056779
 40
0.8636933897
 40
0.9318343649
 40
1.0
 40
1.0
 40
1.0
 40
1.0
 10
5.3744044612
 20
3.8225204976
 30
0.0
 10
5.3735963898
 20
3.8225205067
 30
0.0
 10
5.3719728187
 20
3.8224223595
 30
0.0
 10
5.3695629744
 20
3.8219878663
 30
0.0
 10
5.3675965203
 20
3.8213913473
 30
0.0
 10
5.36606107
 20
3.8207766308
 30
0.0
 10
5.3645432538
 20
3.8200662505
 30
0.0
 10
5.3627026111
 20
3.8190081994
 30
0.0
 10
5.3609720061
 20
3.8177482027
 30
0.0
 10
5.3596544914
 20
3.8166223205
 30
0.0
 10
5.3583723261
 20
3.8154074626
 30
0.0
 10
5.3568652783
 20
3.8137472776
 30
0.0
 10
5.3555115368
 20
3.8119343326
 30
0.0
 10
5.3545193849
 20
3.8103937207
 30
0.0
 10
5.35358356
 20
3.8087824766
 30
0.0
 10
5.3525400224
 20
3.8066677127
 30
0.0
 10
5.3515022005
 20
3.8040043809
 30
0.0
 10
5.3506846059
 20
3.8012291407
 30
0.0
 10
5.3500967561
 20
3.7983696369
 30
0.0
 10
5.34974076
 20
3.7954575661
 30
0.0
 10
5.3496604329
 20
3.7934993383
 30
0.0
 10
5.3496603871
 20
3.7925204976
 30
0.0
  0
LINE
  5
2A1
100
AcDbEntity
  8
0
100
AcDbLine
 62
9
  6
CONTINUOUS
 10
7.0231458653
 20
5.391733075
 11
7.0197144078
 21
5.3954473126
  0
SPLINE
  5
2A2
100
AcDbEntity
  8
0
100
AcDbSpline
 62
9
  6
CONTINUOUS
 70
0
 71
3
 72
30
 73
26
 74
0
 42
0.0000001
 43
0.0000001
 44
0.0000000001
 40
0.0
 40
0.0
 40
0.0
 40
0.0
 40
0.019565376
 40
0.0394444113
 40
0.0597575429
 40
0.0806132288
 40
0.1021074494
 40
0.1243238436
 40
0.1473330694
 40
0.1711906621
 40
0.1959382757
 40
0.2216056864
 40
0.2482125422
 40
0.2757664927
 40
0.3336947624
 40
0.3953269763
 40
0.4605393917
 40
0.5291510588
 40
0.5646737803
 40
0.6009749594
 40
0.6757903829
 40
0.7533679771
 40
0.8334942614
 40
0.9158355771
 40
1.0
 40
1.0
 40
1.0
 40
1.0
 10
7.0197144078
 20
5.3954473126
 30
0.0
 10
7.0195340075
 20
5.3956144326
 30
0.0
 10
7.0191561809
 20
5.3959364147
 30
0.0
 10
7.0185471215
 20
5.3963771352
 30
0.0
 10
7.0178928172
 20
5.3967792526
 30
0.0
 10
7.0171937924
 20
5.3971434435
 30
0.0
 10
7.0164504957
 20
5.3974704915
 30
0.0
 10
7.015663335
 20
5.3977610073
 30
0.0
 10
7.0148330758
 20
5.3980165029
 30
0.0
 10
7.0139605661
 20
5.3982389673
 30
0.0
 10
7.0130465957
 20
5.3984302646
 30
0.0
 10
7.0120919625
 20
5.3985922457
 30
0.0
 10
7.0110975184
 20
5.3987268548
 30
0.0
 10
7.0096962428
 20
5.3988741712
 30
0.0
 10
7.0078500501
 20
5.3989913926
 30
0.0
 10
7.0055274663
 20
5.3990342262
 30
0.0
 10
7.0030707366
 20
5.3989862158
 30
0.0
 10
7.0009450767
 20
5.3988675201
 30
0.0
 10
6.9991857886
 20
5.3987234233
 30
0.0
 10
6.9973516438
 20
5.398541354
 30
0.0
 10
6.9949981781
 20
5.3982434806
 30
0.0
 10
6.9921143465
 20
5.3977649569
 30
0.0
 10
6.9891602604
 20
5.397147076
 30
0.0
 10
6.986155267
 20
5.3963822626
 30
0.0
 10
6.9841511774
 20
5.3957765321
 30
0.0
 10
6.9831458653
 20
5.3954473126
 30
0.0
  0
SPLINE
  5
2A3
100
AcDbEntity
  8
0
100
AcDbSpline
 62
9
  6
CONTINUOUS
 70
0
 71
3
 72
16
 73
12
 74
0
 42
0.0000001
 43
0.0000001
 44
0.0000000001
 40
0.0
 40
0.0
 40
0.0
 40
0.0
 40
0.2441476796
 40
0.3681505664
 40
0.4931959572
 40
0.5560495074
 40
0.6190929648
 40
0.6823118855
 40
0.7456938817
 40
0.8727784376
 40
1.0
 40
1.0
 40
1.0
 40
1.0
 10
6.9831458653
 20
5.3954473126
 30
0.0
 10
6.9815666849
 20
5.394926683
 30
0.0
 10
6.979170679
 20
5.3941834589
 30
0.0
 10
6.9759203715
 20
5.3933338988
 30
0.0
 10
6.9738463457
 20
5.3928719498
 30
0.0
 10
6.9721672958
 20
5.3925524506
 30
0.0
 10
6.9708968878
 20
5.3923396769
 30
0.0
 10
6.9696182715
 20
5.3921561546
 30
0.0
 10
6.9679023367
 20
5.3919531577
 30
0.0
 10
6.9657446057
 20
5.3917806083
 30
0.0
 10
6.9640123186
 20
5.3917330763
 30
0.0
 10
6.9631458653
 20
5.391733075
 30
0.0
  0
SPLINE
  5
2A4
100
AcDbEntity
  8
0
100
AcDbSpline
 62
9
  6
CONTINUOUS
 70
0
 71
3
 72
16
 73
12
 74
0
 42
0.0000001
 43
0.0000001
 44
0.0000000001
 40
0.0
 40
0.0
 40
0.0
 40
0.0
 40
0.1272614526
 40
0.2543750228
 40
0.3177648503
 40
0.3809907166
 40
0.5068808447
 40
0.6318898729
 40
0.7558603549
 40
0.8786246478
 40
1.0
 40
1.0
 40
1.0
 40
1.0
 10
4.7931458653
 20
5.391733075
 30
0.0
 10
4.7922791314
 20
5.3917330736
 30
0.0
 10
4.7905463569
 20
5.3917806011
 30
0.0
 10
4.7883880811
 20
5.3919531745
 30
0.0
 10
4.7866718404
 20
5.3921563189
 30
0.0
 10
4.7849693965
 20
5.3924005979
 30
0.0
 10
4.7828628265
 20
5.3927783632
 30
0.0
 10
4.7803703204
 20
5.3933342433
 30
0.0
 10
4.777920413
 20
5.3939749076
 30
0.0
 10
4.7755147971
 20
5.3946819327
 30
0.0
 10
4.7739309887
 20
5.3951886154
 30
0.0
 10
4.7731458653
 20
5.3954473126
 30
0.0
  0
SPLINE
  5
2A5
100
AcDbEntity
  8
0
100
AcDbSpline
 62
9
  6
CONTINUOUS
 70
0
 71
3
 72
32
 73
28
 74
0
 42
0.0000001
 43
0.0000001
 44
0.0000000001
 40
0.0
 40
0.0
 40
0.0
 40
0.0
 40
0.0841625393
 40
0.1664986606
 40
0.2068622687
 40
0.2466212407
 40
0.3241955549
 40
0.3990113614
 40
0.4353125713
 40
0.4708355802
 40
0.5394487629
 40
0.5724938722
 40
0.6046648806
 40
0.6662967897
 40
0.7242248322
 40
0.7517784225
 40
0.7783848021
 40
0.8040524014
 40
0.8288007922
 40
0.8526596292
 40
0.8756704669
 40
0.8978887666
 40
0.9193849642
 40
0.940242307
 40
0.9605564439
 40
0.9804355804
 40
1.0
 40
1.0
 40
1.0
 40
1.0
 10
4.7731458653
 20
5.3954473126
 30
0.0
 10
4.7721405873
 20
5.3957765831
 30
0.0
 10
4.7701366228
 20
5.3963824096
 30
0.0
 10
4.7676160971
 20
5.3970238927
 30
0.0
 10
4.7656218096
 20
5.3974630331
 30
0.0
 10
4.7636773091
 20
5.3978478158
 30
0.0
 10
4.7612940903
 20
5.3982432292
 30
0.0
 10
4.758940668
 20
5.3985411253
 30
0.0
 10
4.7571065184
 20
5.3987233979
 30
0.0
 10
4.7553472088
 20
5.3988675791
 30
0.0
 10
4.7536252365
 20
5.3989636778
 30
0.0
 10
4.7519437404
 20
5.399011161
 30
0.0
 10
4.7503494024
 20
5.3990265769
 30
0.0
 10
4.7484421039
 20
5.3989914098
 30
0.0
 10
4.7465959256
 20
5.3988741115
 30
0.0
 10
4.7451946457
 20
5.3987268779
 30
0.0
 10
4.7442001833
 20
5.3985924161
 30
0.0
 10
4.743245525
 20
5.3984305015
 30
0.0
 10
4.7423315156
 20
5.3982392215
 30
0.0
 10
4.7414589622
 20
5.3980167165
 30
0.0
 10
4.7406286601
 20
5.3977611316
 30
0.0
 10
4.7398414785
 20
5.397470457
 30
0.0
 10
4.7390981391
 20
5.3971433241
 30
0.0
 10
4.7383990579
 20
5.3967791062
 30
0.0
 10
4.7377446952
 20
5.3963770094
 30
0.0
 10
4.7371355869
 20
5.3959363454
 30
0.0
 10
4.7367577313
 20
5.3956144085
 30
0.0
 10
4.7365773228
 20
5.3954473126
 30
0.0
  0
LINE
  5
2A6
100
AcDbEntity
  8
0
100
AcDbLine
 62
9
  6
CONTINUOUS
 10
4.7365773228
 20
5.3954473126
 11
4.7331458653
 21
5.391733075
  0
SPLINE
  5
2A7
100
AcDbEntity
  8
0
100
AcDbSpline
 62
9
  6
CONTINUOUS
 70
0
 71
3
 72
38
 73
34
 74
0
 42
0.0000001
 43
0.0000001
 44
0.0000000001
 40
0.0
 40
0.0
 40
0.0
 40
0.0
 40
0.0021025017
 40
0.0043026048
 40
0.0067476949
 40
0.0095456614
 40
0.0127682362
 40
0.016461701
 40
0.0206560798
 40
0.0253712163
 40
0.0306204954
 40
0.0364130968
 40
0.0427553831
 40
0.0496513013
 40
0.0571007796
 40
0.0651017952
 40
0.0827461582
 40
0.102556517
 40
0.1244985955
 40
0.1485346311
 40
0.1746211098
 40
0.2026936031
 40
0.2326799756
 40
0.2645074084
 40
0.2981025936
 40
0.370290191
 40
0.4485336545
 40
0.532059703
 40
0.6200840211
 40
0.7118014859
 40
0.8063865436
 40
0.9028261381
 40
1.0
 40
1.0
 40
1.0
 40
1.0
 10
7.0731458653
 20
5.2915946054
 30
0.0
 10
7.0731458542
 20
5.2915521921
 30
0.0
 10
7.0731331902
 20
5.2914648732
 30
0.0
 10
7.073075705
 20
5.2913398067
 30
0.0
 10
7.0729818654
 20
5.2912211813
 30
0.0
 10
7.0728528576
 20
5.2911082371
 30
0.0
 10
7.0726888714
 20
5.2910001443
 30
0.0
 10
7.0724898187
 20
5.2908964937
 30
0.0
 10
7.0722555999
 20
5.2907970929
 30
0.0
 10
7.0719861693
 20
5.2907018664
 30
0.0
 10
7.0716815289
 20
5.290610783
 30
0.0
 10
7.0713417143
 20
5.2905238301
 30
0.0
 10
7.0709667924
 20
5.2904410021
 30
0.0
 10
7.0705569056
 20
5.2903623088
 30
0.0
 10
7.070112298
 20
5.2902876989
 30
0.0
 10
7.0694517688
 20
5.2901904397
 30
0.0
 10
7.0685411995
 20
5.2900809524
 30
0.0
 10
7.0673481507
 20
5.2899689687
 30
0.0
 10
7.066024458
 20
5.2898723436
 30
0.0
 10
7.0645729482
 20
5.2897908354
 30
0.0
 10
7.0629969033
 20
5.2897242176
 30
0.0
 10
7.0613002146
 20
5.2896724633
 30
0.0
 10
7.059487307
 20
5.2896355979
 30
0.0
 10
7.0575627461
 20
5.2896136255
 30
0.0
 10
7.05478676
 20
5.2896040105
 30
0.0
 10
7.051074425
 20
5.2896316412
 30
0.0
 10
7.0463556575
 20
5.2897231245
 30
0.0
 10
7.0413188001
 20
5.2898741076
 30
0.0
 10
7.0360120764
 20
5.290085292
 30
0.0
 10
7.0304848633
 20
5.2903597355
 30
0.0
 10
7.0247912255
 20
5.2906999301
 30
0.0
 10
7.0189916403
 20
5.2911071632
 30
0.0
 10
7.0150986771
 20
5.2914238601
 30
0.0
 10
7.0131458653
 20
5.2915946447
 30
0.0
  0
SPLINE
  5
2A8
100
AcDbEntity
  8
0
100
AcDbSpline
 62
9
  6
CONTINUOUS
 70
0
 71
3
 72
37
 73
33
 74
0
 42
0.0000001
 43
0.0000001
 44
0.0000000001
 40
0.0
 40
0.0
 40
0.0
 40
0.0
 40
0.0971731926
 40
0.1936231484
 40
0.2882472607
 40
0.3800247252
 40
0.4681088071
 40
0.55167472
 40
0.6299304702
 40
0.702123488
 40
0.735713133
 40
0.7675191351
 40
0.7974748963
 40
0.8255151964
 40
0.8515754973
 40
0.8755924476
 40
0.8975139243
 40
0.9173034475
 40
0.9349290099
 40
0.9503642486
 40
0.9572552816
 40
0.9635940846
 40
0.9693840373
 40
0.9746314044
 40
0.9793452672
 40
0.9835389063
 40
0.9872320531
 40
0.9904546054
 40
0.9932526991
 40
0.9956978971
 40
0.9978979112
 40
1.0
 40
1.0
 40
1.0
 40
1.0
 10
4.7431458653
 20
5.2915946054
 30
0.0
 10
4.7411930711
 20
5.2914237751
 30
0.0
 10
4.7372999113
 20
5.2911070783
 30
0.0
 10
4.7314993332
 20
5.2906999506
 30
0.0
 10
4.72580349
 20
5.290359679
 30
0.0
 10
4.720273086
 20
5.2900849103
 30
0.0
 10
4.714963145
 20
5.289873559
 30
0.0
 10
4.7099240184
 20
5.2897229311
 30
0.0
 10
4.7052040889
 20
5.2896315301
 30
0.0
 10
4.7014915077
 20
5.2896039885
 30
0.0
 10
4.6987159568
 20
5.289613678
 30
0.0
 10
4.6967925582
 20
5.2896356963
 30
0.0
 10
4.6949813514
 20
5.2896726213
 30
0.0
 10
4.6932864609
 20
5.2897244587
 30
0.0
 10
4.6917119858
 20
5.2897912059
 30
0.0
 10
4.6902618122
 20
5.2898728336
 30
0.0
 10
4.6889393491
 20
5.2899694466
 30
0.0
 10
4.6877474921
 20
5.2900813032
 30
0.0
 10
4.6866888548
 20
5.2902086705
 30
0.0
 10
4.6858921564
 20
5.2903320108
 30
0.0
 10
4.6853242081
 20
5.2904410124
 30
0.0
 10
4.6849495053
 20
5.2905238051
 30
0.0
 10
4.684609854
 20
5.2906107417
 30
0.0
 10
4.6843053368
 20
5.2907018267
 30
0.0
 10
4.6840359949
 20
5.2907970669
 30
0.0
 10
4.6838018364
 20
5.2908964894
 30
0.0
 10
4.6836028214
 20
5.2910001651
 30
0.0
 10
4.6834388562
 20
5.2911082815
 30
0.0
 10
4.6833098583
 20
5.2912212427
 30
0.0
 10
4.683216022
 20
5.2913398733
 30
0.0
 10
4.683158536
 20
5.2914649301
 30
0.0
 10
4.6831458726
 20
5.2915522397
 30
0.0
 10
4.6831458653
 20
5.2915946447
 30
0.0
  0
LINE
  5
2A9
100
AcDbEntity
  8
0
100
AcDbLine
 62
9
  6
CONTINUOUS
 10
4.6977907322
 20
5.318374162
 11
4.6956458684
 21
5.3186321196
  0
SPLINE
  5
2AA
100
AcDbEntity
  8
0
100
AcDbSpline
 62
9
  6
CONTINUOUS
 70
0
 71
3
 72
25
 73
21
 74
0
 42
0.0000001
 43
0.0000001
 44
0.0000000001
 40
0.0
 40
0.0
 40
0.0
 40
0.0
 40
0.0642177762
 40
0.1283214416
 40
0.1922369129
 40
0.2559001672
 40
0.3192931468
 40
0.3824173381
 40
0.4452770388
 40
0.5078724865
 40
0.570198854
 40
0.6322548446
 40
0.6940537995
 40
0.7556232117
 40
0.7863358774
 40
0.8170033162
 40
0.8476273462
 40
0.8782059311
 40
0.9392080881
 40
1.0
 40
1.0
 40
1.0
 40
1.0
 10
4.7365773228
 20
5.3954473126
 30
0.0
 10
4.7366573159
 20
5.3935149561
 30
0.0
 10
4.7366974982
 20
5.3896476551
 30
0.0
 10
4.736399306
 20
5.3838623212
 30
0.0
 10
4.7357440293
 20
5.3781229888
 30
0.0
 10
4.7347319849
 20
5.3724574452
 30
0.0
 10
4.7333684757
 20
5.3668905795
 30
0.0
 10
4.7316601471
 20
5.3614449786
 30
0.0
 10
4.7296127338
 20
5.3561432589
 30
0.0
 10
4.7272354618
 20
5.3510074664
 30
0.0
 10
4.7245396591
 20
5.3460589778
 30
0.0
 10
4.7215356054
 20
5.3413195484
 30
0.0
 10
4.7182354293
 20
5.3368096741
 30
0.0
 10
4.7152476446
 20
5.3332541358
 30
0.0
 10
4.7127241129
 20
5.3305436186
 30
0.0
 10
4.7107676451
 20
5.3285807455
 30
0.0
 10
4.7087481732
 20
5.3266886622
 30
0.0
 10
4.7059776505
 20
5.3242650618
 30
0.0
 10
4.7023707375
 20
5.3214220791
 30
0.0
 10
4.699338064
 20
5.3193527974
 30
0.0
 10
4.6977907322
 20
5.318374162
 30
0.0
  0
SPLINE
  5
2AB
100
AcDbEntity
  8
0
100
AcDbSpline
 62
9
  6
CONTINUOUS
 70
0
 71
3
 72
10
 73
6
 74
0
 42
0.0000001
 43
0.0000001
 44
0.0000000001
 40
0.0
 40
0.0
 40
0.0
 40
0.0
 40
0.2506041879
 40
0.5007641252
 40
1.0
 40
1.0
 40
1.0
 40
1.0
 10
4.7492809927
 20
5.3183745049
 30
0.0
 10
4.7483795482
 20
5.3183923279
 30
0.0
 10
4.7465776879
 20
5.3184040306
 30
0.0
 10
4.7429802784
 20
5.3183362896
 30
0.0
 10
4.7402869344
 20
5.3181897055
 30
0.0
 10
4.7384957847
 20
5.3180558456
 30
0.0
  0
SPLINE
  5
2AC
100
AcDbEntity
  8
0
100
AcDbSpline
 62
9
  6
CONTINUOUS
 70
0
 71
3
 72
27
 73
23
 74
0
 42
0.0000001
 43
0.0000001
 44
0.0000000001
 40
0.0
 40
0.0
 40
0.0
 40
0.0
 40
0.0910020348
 40
0.1803463456
 40
0.3517756359
 40
0.4328462315
 40
0.5102043409
 40
0.5834065683
 40
0.6520288174
 40
0.715657854
 40
0.7739598713
 40
0.8266489595
 40
0.8508082539
 40
0.8734813519
 40
0.894649867
 40
0.9142965455
 40
0.9324059682
 40
0.9489726527
 40
0.9640024026
 40
0.9775051354
 40
0.9894962956
 40
1.0
 40
1.0
 40
1.0
 40
1.0
 10
4.7384957847
 20
5.3180558456
 30
0.0
 10
4.7373216403
 20
5.3179681976
 30
0.0
 10
4.7349941201
 20
5.3178026386
 30
0.0
 10
4.7304519527
 20
5.3175128802
 30
0.0
 10
4.7260348671
 20
5.317281784
 30
0.0
 10
4.7217702389
 20
5.317115974
 30
0.0
 10
4.7187745687
 20
5.3170280343
 30
0.0
 10
4.7159391662
 20
5.3169745583
 30
0.0
 10
4.7132809447
 20
5.3169557482
 30
0.0
 10
4.7108154712
 20
5.3169719078
 30
0.0
 10
4.7085566532
 20
5.3170227805
 30
0.0
 10
4.7068093949
 20
5.3170954458
 30
0.0
 10
4.7055240374
 20
5.3171725975
 30
0.0
 10
4.7046465682
 20
5.317237237
 30
0.0
 10
4.7038283518
 20
5.3173102515
 30
0.0
 10
4.7030702695
 20
5.3173915693
 30
0.0
 10
4.7023730974
 20
5.3174811549
 30
0.0
 10
4.7017373766
 20
5.3175788695
 30
0.0
 10
4.7011633943
 20
5.3176844028
 30
0.0
 10
4.7006512819
 20
5.317797486
 30
0.0
 10
4.7002011858
 20
5.3179178332
 30
0.0
 10
4.6999244065
 20
5.3180086364
 30
0.0
 10
4.6997970439
 20
5.3180560451
 30
0.0
  0
SPLINE
  5
2AD
100
AcDbEntity
  8
0
100
AcDbSpline
 62
9
  6
CONTINUOUS
 70
0
 71
3
 72
10
 73
6
 74
0
 42
0.0000001
 43
0.0000001
 44
0.0000000001
 40
0.0
 40
0.0
 40
0.0
 40
0.0
 40
0.2730122875
 40
0.5308083402
 40
1.0
 40
1.0
 40
1.0
 40
1.0
 10
4.6997970439
 20
5.3180560451
 30
0.0
 10
4.6996225942
 20
5.318121137
 30
0.0
 10
4.6992779277
 20
5.3182343095
 30
0.0
 10
4.6986126188
 20
5.3183844657
 30
0.0
 10
4.6981090749
 20
5.3184122732
 30
0.0
 10
4.697791314
 20
5.31837453
 30
0.0
  0
SPLINE
  5
2AE
100
AcDbEntity
  8
0
100
AcDbSpline
 62
9
  6
CONTINUOUS
 70
0
 71
3
 72
23
 73
19
 74
0
 42
0.0000001
 43
0.0000001
 44
0.0000000001
 40
0.0
 40
0.0
 40
0.0
 40
0.0
 40
0.0718993462
 40
0.1437939799
 40
0.2153569045
 40
0.2862687327
 40
0.3562617592
 40
0.4250920081
 40
0.4925174486
 40
0.5582980186
 40
0.6221959902
 40
0.683978112
 40
0.7434358287
 40
0.8003918178
 40
0.8546786335
 40
0.9061384027
 40
0.9546227679
 40
1.0
 40
1.0
 40
1.0
 40
1.0
 10
4.7731458653
 20
5.3954473126
 30
0.0
 10
4.7729191526
 20
5.3935108574
 30
0.0
 10
4.77242375
 20
5.3896428613
 30
0.0
 10
4.7715577729
 20
5.3838672022
 30
0.0
 10
4.7705720931
 20
5.3781378926
 30
0.0
 10
4.769470446
 20
5.3724822644
 30
0.0
 10
4.7682579792
 20
5.3669251597
 30
0.0
 10
4.7669400824
 20
5.361489315
 30
0.0
 10
4.7655217009
 20
5.3561969571
 30
0.0
 10
4.7640089884
 20
5.3510700479
 30
0.0
 10
4.7624089152
 20
5.3461302889
 30
0.0
 10
4.7607279218
 20
5.3413989775
 30
0.0
 10
4.758972789
 20
5.3368960443
 30
0.0
 10
4.7571512304
 20
5.3326396865
 30
0.0
 10
4.7552704028
 20
5.3286475439
 30
0.0
 10
4.7533380297
 20
5.32493706
 30
0.0
 10
4.7513642915
 20
5.3215247943
 30
0.0
 10
4.7499803312
 20
5.3193869384
 30
0.0
 10
4.7492809927
 20
5.3183745049
 30
0.0
  0
LINE
  5
2AF
100
AcDbEntity
  8
0
100
AcDbLine
 62
9
  6
CONTINUOUS
 10
4.7931457736
 20
5.3186321182
 11
4.7492806921
 21
5.3183740696
  0
SPLINE
  5
2B0
100
AcDbEntity
  8
0
100
AcDbSpline
 62
9
  6
CONTINUOUS
 70
0
 71
3
 72
33
 73
29
 74
0
 42
0.0000001
 43
0.0000001
 44
0.0000000001
 40
0.0
 40
0.0
 40
0.0
 40
0.0
 40
0.0847986545
 40
0.169082404
 40
0.2520275746
 40
0.3329062309
 40
0.4111348882
 40
0.486159402
 40
0.522312852
 40
0.5574788939
 40
0.5916007982
 40
0.6246248752
 40
0.656503846
 40
0.6872051591
 40
0.7167033287
 40
0.7449783054
 40
0.772016961
 40
0.7978157448
 40
0.8223911495
 40
0.8457774402
 40
0.8680227085
 40
0.8891918467
 40
0.9093700538
 40
0.9286670513
 40
0.9472159293
 40
0.9651698889
 40
0.9827014525
 40
1.0
 40
1.0
 40
1.0
 40
1.0
 10
5.4768609078
 20
2.8611104976
 30
0.0
 10
5.4768609078
 20
2.859805039
 30
0.0
 10
5.476913234
 20
2.8572017546
 30
0.0
 10
5.4771459411
 20
2.8533278243
 30
0.0
 10
5.4775313123
 20
2.8495266051
 30
0.0
 10
5.4780666565
 20
2.8458376832
 30
0.0
 10
5.478745171
 20
2.8422964191
 30
0.0
 10
5.4794336222
 20
2.8394615151
 30
0.0
 10
5.4800539935
 20
2.837295416
 30
0.0
 10
5.4805448928
 20
2.8357479278
 30
0.0
 10
5.4810659738
 20
2.8342612826
 30
0.0
 10
5.4816160824
 20
2.8328392268
 30
0.0
 10
5.4821941606
 20
2.8314853559
 30
0.0
 10
5.4827985846
 20
2.830202766
 30
0.0
 10
5.4834277867
 20
2.8289943255
 30
0.0
 10
5.4840802373
 20
2.8278628654
 30
0.0
 10
5.4847543984
 20
2.8268111797
 30
0.0
 10
5.485448929
 20
2.825842004
 30
0.0
 10
5.4861622066
 20
2.8249575922
 30
0.0
 10
5.4868925197
 20
2.824159783
 30
0.0
 10
5.4876383064
 20
2.823450392
 30
0.0
 10
5.4883980052
 20
2.8228312275
 30
0.0
 10
5.4891701645
 20
2.822304245
 30
0.0
 10
5.4899530312
 20
2.8218711445
 30
0.0
 10
5.4907442763
 20
2.8215326903
 30
0.0
 10
5.491541711
 20
2.8212897893
 30
0.0
 10
5.4923428096
 20
2.8211433399
 30
0.0
 10
5.4928795576
 20
2.8211104976
 30
0.0
 10
5.4931458653
 20
2.8211104976
 30
0.0
  0
SPLINE
  5
2B1
100
AcDbEntity
  8
0
100
AcDbSpline
 62
9
  6
CONTINUOUS
 70
0
 71
3
 72
33
 73
29
 74
0
 42
0.0000001
 43
0.0000001
 44
0.0000000001
 40
0.0
 40
0.0
 40
0.0
 40
0.0
 40
0.0847378893
 40
0.1689621968
 40
0.2518508062
 40
0.3326773018
 40
0.410859624
 40
0.485845102
 40
0.5219822541
 40
0.557134381
 40
0.5912449486
 40
0.6242604727
 40
0.6561338849
 40
0.6868328264
 40
0.7163320027
 40
0.7446115628
 40
0.7716585822
 40
0.797469715
 40
0.8220616285
 40
0.8454687245
 40
0.8677391932
 40
0.8889379628
 40
0.9091501717
 40
0.9284853111
 40
0.9470760148
 40
0.9650748195
 40
0.9826533739
 40
1.0
 40
1.0
 40
1.0
 40
1.0
 10
6.2794880265
 20
2.8611104976
 30
0.0
 10
6.2794880265
 20
2.8598050372
 30
0.0
 10
6.2794355158
 20
2.8572017323
 30
0.0
 10
6.2792019886
 20
2.8533277797
 30
0.0
 10
6.2788152588
 20
2.8495265361
 30
0.0
 10
6.2782780267
 20
2.8458375887
 30
0.0
 10
6.2775971182
 20
2.8422962957
 30
0.0
 10
6.2769062505
 20
2.8394614261
 30
0.0
 10
6.2762837116
 20
2.8372953731
 30
0.0
 10
6.275791085
 20
2.8357478802
 30
0.0
 10
6.27526817
 20
2.8342612299
 30
0.0
 10
6.2747161249
 20
2.8328391686
 30
0.0
 10
6.2741360112
 20
2.8314852924
 30
0.0
 10
6.2735294585
 20
2.8302026972
 30
0.0
 10
6.2728980396
 20
2.8289942512
 30
0.0
 10
6.2722432894
 20
2.8278627856
 30
0.0
 10
6.2715667511
 20
2.8268110946
 30
0.0
 10
6.2708697708
 20
2.825841915
 30
0.0
 10
6.2701539771
 20
2.824957501
 30
0.0
 10
6.2694210875
 20
2.8241596917
 30
0.0
 10
6.2686726703
 20
2.8234503035
 30
0.0
 10
6.2679102939
 20
2.8228311458
 30
0.0
 10
6.2671354178
 20
2.8223041752
 30
0.0
 10
6.2663498048
 20
2.8218710911
 30
0.0
 10
6.265555793
 20
2.8215326555
 30
0.0
 10
6.2647555809
 20
2.8212897722
 30
0.0
 10
6.2639517011
 20
2.821143336
 30
0.0
 10
6.2634131051
 20
2.8211104976
 30
0.0
 10
6.2631458653
 20
2.8211104976
 30
0.0
  0
LINE
  5
2B2
100
AcDbEntity
  8
0
100
AcDbLine
 62
9
  6
CONTINUOUS
 10
7.0070113284
 20
5.318374162
 11
6.9631458654
 21
5.3186321187
  0
SPLINE
  5
2B3
100
AcDbEntity
  8
0
100
AcDbSpline
 62
9
  6
CONTINUOUS
 70
0
 71
3
 72
23
 73
19
 74
0
 42
0.0000001
 43
0.0000001
 44
0.0000000001
 40
0.0
 40
0.0
 40
0.0
 40
0.0
 40
0.0718995375
 40
0.1437943752
 40
0.2153575095
 40
0.2862695483
 40
0.3562627826
 40
0.4250932285
 40
0.4925188458
 40
0.5582995614
 40
0.6221976358
 40
0.6839798051
 40
0.743437504
 40
0.8003933979
 40
0.8546800261
 40
0.9061394941
 40
0.9546234095
 40
1.0
 40
1.0
 40
1.0
 40
1.0
 10
6.9831458653
 20
5.3954473126
 30
0.0
 10
6.9833726014
 20
5.3935108441
 30
0.0
 10
6.9838680492
 20
5.3896428215
 30
0.0
 10
6.9847340917
 20
5.3838671232
 30
0.0
 10
6.9857198372
 20
5.3781377754
 30
0.0
 10
6.986821553
 20
5.3724821111
 30
0.0
 10
6.9880340897
 20
5.3669249726
 30
0.0
 10
6.9893520547
 20
5.3614890967
 30
0.0
 10
6.9907705001
 20
5.3561967102
 30
0.0
 10
6.9922832701
 20
5.3510697755
 30
0.0
 10
6.9938833934
 20
5.3461299945
 30
0.0
 10
6.995564428
 20
5.3413986648
 30
0.0
 10
6.9973195918
 20
5.3368957172
 30
0.0
 10
6.9991411697
 20
5.332639349
 30
0.0
 10
7.0010220039
 20
5.3286472004
 30
0.0
 10
7.0029543686
 20
5.3249367152
 30
0.0
 10
7.0049280795
 20
5.3215244526
 30
0.0
 10
7.0063120092
 20
5.3193865959
 30
0.0
 10
7.0070113284
 20
5.318374162
 30
0.0
  0
SPLINE
  5
2B4
100
AcDbEntity
  8
0
100
AcDbSpline
 62
9
  6
CONTINUOUS
 70
0
 71
3
 72
10
 73
6
 74
0
 42
0.0000001
 43
0.0000001
 44
0.0000000001
 40
0.0
 40
0.0
 40
0.0
 40
0.0
 40
0.4692227262
 40
0.7270042722
 40
1.0
 40
1.0
 40
1.0
 40
1.0
 10
7.0585005035
 20
5.3183745049
 30
0.0
 10
7.0581826347
 20
5.3184122634
 30
0.0
 10
7.0576789301
 20
5.3183845262
 30
0.0
 10
7.0570134666
 20
5.3182341899
 30
0.0
 10
7.0566687342
 20
5.3181209733
 30
0.0
 10
7.0564942555
 20
5.3180558456
 30
0.0
  0
SPLINE
  5
2B5
100
AcDbEntity
  8
0
100
AcDbSpline
 62
9
  6
CONTINUOUS
 70
0
 71
3
 72
28
 73
24
 74
0
 42
0.0000001
 43
0.0000001
 44
0.0000000001
 40
0.0
 40
0.0
 40
0.0
 40
0.0
 40
0.0105027249
 40
0.0224948279
 40
0.0360003626
 40
0.0510345977
 40
0.0676072075
 40
0.0857239638
 40
0.1053804793
 40
0.1265605083
 40
0.1492456067
 40
0.1734162029
 40
0.2261289484
 40
0.2844649934
 40
0.3481072648
 40
0.3818165859
 40
0.4167240958
 40
0.4899174804
 40
0.5672526113
 40
0.6482893359
 40
0.8196638618
 40
0.9090011503
 40
1.0
 40
1.0
 40
1.0
 40
1.0
 10
7.0564942555
 20
5.3180558456
 30
0.0
 10
7.0563669088
 20
5.3180084133
 30
0.0
 10
7.0560901211
 20
5.317917591
 30
0.0
 10
7.0556399599
 20
5.3177972675
 30
0.0
 10
7.0551277047
 20
5.3176842293
 30
0.0
 10
7.0545535138
 20
5.3175787439
 30
0.0
 10
7.0539175272
 20
5.317481063
 30
0.0
 10
7.0532200238
 20
5.3173914712
 30
0.0
 10
7.0524615358
 20
5.3173101402
 30
0.0
 10
7.0516428518
 20
5.3172371059
 30
0.0
 10
7.0507648934
 20
5.3171724491
 30
0.0
 10
7.0494788714
 20
5.3170952833
 30
0.0
 10
7.0477306402
 20
5.3170226555
 30
0.0
 10
7.0454708037
 20
5.3169719269
 30
0.0
 10
7.043456347
 20
5.3169587048
 30
0.0
 10
7.0417450662
 20
5.3169646634
 30
0.0
 10
7.0399102811
 20
5.3169827971
 30
0.0
 10
7.0375113237
 20
5.3170281564
 30
0.0
 10
7.0345163757
 20
5.3171161366
 30
0.0
 10
7.0302530029
 20
5.317281908
 30
0.0
 10
7.0258369614
 20
5.3175129968
 30
0.0
 10
7.0212954434
 20
5.3178028714
 30
0.0
 10
7.0189679532
 20
5.3179684302
 30
0.0
 10
7.0177937958
 20
5.3180560451
 30
0.0
  0
SPLINE
  5
2B6
100
AcDbEntity
  8
0
100
AcDbSpline
 62
9
  6
CONTINUOUS
 70
0
 71
3
 72
10
 73
6
 74
0
 42
0.0000001
 43
0.0000001
 44
0.0000000001
 40
0.0
 40
0.0
 40
0.0
 40
0.0
 40
0.4992380277
 40
0.7493963796
 40
1.0
 40
1.0
 40
1.0
 40
1.0
 10
7.0177937958
 20
5.3180560451
 30
0.0
 10
7.0160030502
 20
5.3181898453
 30
0.0
 10
7.0133103213
 20
5.3183362848
 30
0.0
 10
7.0097137447
 20
5.3184040158
 30
0.0
 10
7.0079123084
 20
5.3183923476
 30
0.0
 10
7.0070110743
 20
5.31837453
 30
0.0
  0
SPLINE
  5
2B7
100
AcDbEntity
  8
0
100
AcDbSpline
 62
9
  6
CONTINUOUS
 70
0
 71
3
 72
25
 73
21
 74
0
 42
0.0000001
 43
0.0000001
 44
0.0000000001
 40
0.0
 40
0.0
 40
0.0
 40
0.0
 40
0.064217821
 40
0.1283215408
 40
0.19223708
 40
0.2559004194
 40
0.3192934976
 40
0.3824177934
 40
0.4452775958
 40
0.5078731351
 40
0.5701995782
 40
0.6322556209
 40
0.6940545946
 40
0.7556239805
 40
0.7863366123
 40
0.8170040016
 40
0.8476279661
 40
0.8782064683
 40
0.9392084013
 40
1.0
 40
1.0
 40
1.0
 40
1.0
 10
7.0197144078
 20
5.3954473126
 30
0.0
 10
7.0196344229
 20
5.3935149689
 30
0.0
 10
7.0195942544
 20
5.389647694
 30
0.0
 10
7.0198924599
 20
5.3838623993
 30
0.0
 10
7.0205477436
 20
5.3781231052
 30
0.0
 10
7.0215597897
 20
5.372457598
 30
0.0
 10
7.0229232948
 20
5.3668907668
 30
0.0
 10
7.0246316126
 20
5.361445198
 30
0.0
 10
7.0266790079
 20
5.3561435075
 30
0.0
 10
7.0290562544
 20
5.3510077413
 30
0.0
 10
7.0317520241
 20
5.3460592755
 30
0.0
 10
7.0347560373
 20
5.3413198652
 30
0.0
 10
7.0380561652
 20
5.3368100061
 30
0.0
 10
7.0410439038
 20
5.3332544764
 30
0.0
 10
7.0435673949
 20
5.330543964
 30
0.0
 10
7.0455238298
 20
5.3285810937
 30
0.0
 10
7.0475432668
 20
5.3266890123
 30
0.0
 10
7.0503137395
 20
5.3242654138
 30
0.0
 10
7.0539205846
 20
5.3214224309
 30
0.0
 10
7.0569532013
 20
5.3193531438
 30
0.0
 10
7.0585005035
 20
5.3183745049
 30
0.0
  0
LINE
  5
2B8
100
AcDbEntity
  8
0
100
AcDbLine
 62
9
  6
CONTINUOUS
 10
7.0606458642
 20
5.3186321182
 11
7.0585011916
 21
5.3183740696
  0
SPLINE
  5
2B9
100
AcDbEntity
  8
0
100
AcDbSpline
 62
9
  6
CONTINUOUS
 70
0
 71
3
 72
33
 73
29
 74
0
 42
0.0000001
 43
0.0000001
 44
0.0000000001
 40
0.0
 40
0.0
 40
0.0
 40
0.0
 40
0.0847378892
 40
0.1689621967
 40
0.251850806
 40
0.3326773015
 40
0.4108596237
 40
0.4858451017
 40
0.5219822537
 40
0.5571343806
 40
0.5912449483
 40
0.6242604724
 40
0.6561338847
 40
0.6868328262
 40
0.7163320026
 40
0.7446115627
 40
0.7716585821
 40
0.7974697149
 40
0.8220616284
 40
0.8454687245
 40
0.8677391932
 40
0.8889379628
 40
0.9091501717
 40
0.9284853111
 40
0.9470760147
 40
0.9650748195
 40
0.9826533739
 40
1.0
 40
1.0
 40
1.0
 40
1.0
 10
6.2794880265
 20
3.1751104976
 30
0.0
 10
6.2794880265
 20
3.1764159579
 30
0.0
 10
6.2794355158
 20
3.1790192628
 30
0.0
 10
6.2792019886
 20
3.1828932154
 30
0.0
 10
6.2788152588
 20
3.186694459
 30
0.0
 10
6.2782780267
 20
3.1903834064
 30
0.0
 10
6.2775971182
 20
3.1939246994
 30
0.0
 10
6.2769062506
 20
3.196759569
 30
0.0
 10
6.2762837116
 20
3.198925622
 30
0.0
 10
6.275791085
 20
3.2004731149
 30
0.0
 10
6.27526817
 20
3.2019597653
 30
0.0
 10
6.2747161249
 20
3.2033818266
 30
0.0
 10
6.2741360112
 20
3.2047357027
 30
0.0
 10
6.2735294585
 20
3.206018298
 30
0.0
 10
6.2728980396
 20
3.207226744
 30
0.0
 10
6.2722432894
 20
3.2083582095
 30
0.0
 10
6.2715667511
 20
3.2094099005
 30
0.0
 10
6.2708697708
 20
3.2103790801
 30
0.0
 10
6.2701539771
 20
3.2112634942
 30
0.0
 10
6.2694210875
 20
3.2120613034
 30
0.0
 10
6.2686726703
 20
3.2127706916
 30
0.0
 10
6.2679102939
 20
3.2133898493
 30
0.0
 10
6.2671354178
 20
3.21391682
 30
0.0
 10
6.2663498048
 20
3.2143499041
 30
0.0
 10
6.265555793
 20
3.2146883397
 30
0.0
 10
6.2647555809
 20
3.2149312229
 30
0.0
 10
6.2639517011
 20
3.2150776591
 30
0.0
 10
6.2634131051
 20
3.2151104976
 30
0.0
 10
6.2631458653
 20
3.2151104976
 30
0.0
  0
SPLINE
  5
2BA
100
AcDbEntity
  8
0
100
AcDbSpline
 62
9
  6
CONTINUOUS
 70
0
 71
3
 72
33
 73
29
 74
0
 42
0.0000001
 43
0.0000001
 44
0.0000000001
 40
0.0
 40
0.0
 40
0.0
 40
0.0
 40
0.0847986546
 40
0.1690824041
 40
0.2520275748
 40
0.3329062313
 40
0.4111348886
 40
0.4861594024
 40
0.5223128524
 40
0.5574788943
 40
0.5916007985
 40
0.6246248756
 40
0.6565038463
 40
0.6872051594
 40
0.7167033289
 40
0.7449783056
 40
0.7720169611
 40
0.7978157449
 40
0.8223911496
 40
0.8457774403
 40
0.8680227085
 40
0.8891918467
 40
0.9093700538
 40
0.9286670513
 40
0.9472159293
 40
0.9651698889
 40
0.9827014525
 40
1.0
 40
1.0
 40
1.0
 40
1.0
 10
5.4768609078
 20
3.1751104976
 30
0.0
 10
5.4768609078
 20
3.1764159561
 30
0.0
 10
5.476913234
 20
3.1790192405
 30
0.0
 10
5.4771459411
 20
3.1828931709
 30
0.0
 10
5.4775313123
 20
3.18669439
 30
0.0
 10
5.4780666565
 20
3.1903833119
 30
0.0
 10
5.478745171
 20
3.1939245761
 30
0.0
 10
5.4794336222
 20
3.19675948
 30
0.0
 10
5.4800539935
 20
3.1989255791
 30
0.0
 10
5.4805448928
 20
3.2004730673
 30
0.0
 10
5.4810659739
 20
3.2019597125
 30
0.0
 10
5.4816160824
 20
3.2033817683
 30
0.0
 10
5.4821941606
 20
3.2047356393
 30
0.0
 10
5.4827985846
 20
3.2060182292
 30
0.0
 10
5.4834277867
 20
3.2072266696
 30
0.0
 10
5.4840802373
 20
3.2083581297
 30
0.0
 10
5.4847543984
 20
3.2094098154
 30
0.0
 10
5.485448929
 20
3.2103789911
 30
0.0
 10
5.4861622066
 20
3.211263403
 30
0.0
 10
5.4868925197
 20
3.2120612121
 30
0.0
 10
5.4876383064
 20
3.2127706032
 30
0.0
 10
5.4883980052
 20
3.2133897676
 30
0.0
 10
5.4891701645
 20
3.2139167501
 30
0.0
 10
5.4899530312
 20
3.2143498507
 30
0.0
 10
5.4907442763
 20
3.2146883048
 30
0.0
 10
5.491541711
 20
3.2149312058
 30
0.0
 10
5.4923428096
 20
3.2150776552
 30
0.0
 10
5.4928795576
 20
3.2151104976
 30
0.0
 10
5.4931458653
 20
3.2151104976
 30
0.0
  0
SPLINE
  5
2BB
100
AcDbEntity
  8
0
100
AcDbSpline
 62
9
  6
CONTINUOUS
 70
0
 71
3
 72
21
 73
17
 74
0
 42
0.0000001
 43
0.0000001
 44
0.0000000001
 40
0.0
 40
0.0
 40
0.0
 40
0.0
 40
0.1240303099
 40
0.1863167141
 40
0.2486866764
 40
0.3110872468
 40
0.3734769724
 40
0.4358651128
 40
0.4982841718
 40
0.5607625905
 40
0.6233279396
 40
0.686010076
 40
0.7488125632
 40
0.8116847538
 40
0.8745630549
 40
1.0
 40
1.0
 40
1.0
 40
1.0
 10
4.6831458653
 20
5.2915946447
 30
0.0
 10
4.6831458653
 20
5.2929563644
 30
0.0
 10
4.6832932214
 20
5.2950055972
 30
0.0
 10
4.6837717754
 20
5.297695084
 30
0.0
 10
4.6842714319
 20
5.2996889242
 30
0.0
 10
4.6849091518
 20
5.301644016
 30
0.0
 10
4.6856836335
 20
5.3035493801
 30
0.0
 10
4.6865908125
 20
5.3053954349
 30
0.0
 10
4.6876254166
 20
5.3071743164
 30
0.0
 10
4.688782689
 20
5.3088782934
 30
0.0
 10
4.6900577123
 20
5.3104997353
 30
0.0
 10
4.691445661
 20
5.312030481
 30
0.0
 10
4.6929396219
 20
5.3134626918
 30
0.0
 10
4.694530202
 20
5.314790363
 30
0.0
 10
4.6967640507
 20
5.3164098904
 30
0.0
 10
4.6985605603
 20
5.3174505738
 30
0.0
 10
4.6997975644
 20
5.3180558826
 30
0.0
  0
SPLINE
  5
2BC
100
AcDbEntity
  8
0
100
AcDbSpline
 62
9
  6
CONTINUOUS
 70
0
 71
3
 72
19
 73
15
 74
0
 42
0.0000001
 43
0.0000001
 44
0.0000000001
 40
0.0
 40
0.0
 40
0.0
 40
0.0
 40
0.1250001784
 40
0.1875010315
 40
0.2500010925
 40
0.3750007348
 40
0.4375006079
 40
0.5000004352
 40
0.5625005053
 40
0.6250005414
 40
0.6875008991
 40
0.7500013197
 40
0.8750007344
 40
1.0
 40
1.0
 40
1.0
 40
1.0
 10
5.3991458653
 20
3.7927091079
 30
0.0
 10
5.4025702725
 20
3.7928209263
 30
0.0
 10
5.4077048316
 20
3.7930563114
 30
0.0
 10
5.414544956
 20
3.7934679797
 30
0.0
 10
5.42138189
 20
3.7939300731
 30
0.0
 10
5.4282150677
 20
3.7944441469
 30
0.0
 10
5.4350477279
 20
3.7949642892
 30
0.0
 10
5.4401727753
 20
3.7953473102
 30
0.0
 10
5.4452990313
 20
3.7957139845
 30
0.0
 10
5.4504271377
 20
3.7960542925
 30
0.0
 10
5.4555576098
 20
3.7963574844
 30
0.0
 10
5.4624014545
 20
3.7967024833
 30
0.0
 10
5.470962302
 20
3.7970059062
 30
0.0
 10
5.47781499
 20
3.7970892568
 30
0.0
 10
5.4812411973
 20
3.7970891653
 30
0.0
  0
SPLINE
  5
2BD
100
AcDbEntity
  8
0
100
AcDbSpline
 62
9
  6
CONTINUOUS
 70
0
 71
3
 72
21
 73
17
 74
0
 42
0.0000001
 43
0.0000001
 44
0.0000000001
 40
0.0
 40
0.0
 40
0.0
 40
0.0
 40
0.0624998883
 40
0.1250028492
 40
0.1875069127
 40
0.2187585575
 40
0.2500093663
 40
0.3125094091
 40
0.3750091712
 40
0.4375085187
 40
0.5000070211
 40
0.5625055556
 40
0.6250040512
 40
0.7500003285
 40
0.8750023128
 40
1.0
 40
1.0
 40
1.0
 40
1.0
 10
6.2750501085
 20
3.7970892243
 30
0.0
 10
6.2767632341
 20
3.7970892399
 30
0.0
 10
6.2801896048
 20
3.7970680139
 30
0.0
 10
6.2853284468
 20
3.7969750413
 30
0.0
 10
6.2896097425
 20
3.7968488025
 30
0.0
 10
6.2930337658
 20
3.7967198807
 30
0.0
 10
6.2964569449
 20
3.7965727292
 30
0.0
 10
6.3007344047
 20
3.7963568039
 30
0.0
 10
6.3058648962
 20
3.7960541265
 30
0.0
 10
6.3109930639
 20
3.7957152012
 30
0.0
 10
6.3161192494
 20
3.7953482436
 30
0.0
 10
6.3212441475
 20
3.7949641836
 30
0.0
 10
6.3280766472
 20
3.7944433077
 30
0.0
 10
6.3366182444
 20
3.7938024638
 30
0.0
 10
6.3468755431
 20
3.7931360697
 30
0.0
 10
6.3537214805
 20
3.7928193324
 30
0.0
 10
6.3571458653
 20
3.7927080022
 30
0.0
  0
SPLINE
  5
2BE
100
AcDbEntity
  8
0
100
AcDbSpline
 62
9
  6
CONTINUOUS
 70
0
 71
3
 72
21
 73
17
 74
0
 42
0.0000001
 43
0.0000001
 44
0.0000000001
 40
0.0
 40
0.0
 40
0.0
 40
0.0
 40
0.1240302964
 40
0.1863167117
 40
0.2486866927
 40
0.3110872854
 40
0.3734770312
 40
0.4358651835
 40
0.4982842478
 40
0.5607626669
 40
0.6233280122
 40
0.6860101409
 40
0.7488126197
 40
0.8116848011
 40
0.8745630905
 40
1.0
 40
1.0
 40
1.0
 40
1.0
 10
7.0731458653
 20
5.2915946055
 30
0.0
 10
7.0731458653
 20
5.2929563255
 30
0.0
 10
7.0729985091
 20
5.2950055591
 30
0.0
 10
7.0725199553
 20
5.2976950473
 30
0.0
 10
7.0720202992
 20
5.2996888889
 30
0.0
 10
7.0713825799
 20
5.3016439824
 30
0.0
 10
7.0706080991
 20
5.3035493484
 30
0.0
 10
7.0697009211
 20
5.305395405
 30
0.0
 10
7.068666318
 20
5.3071742883
 30
0.0
 10
7.0675090469
 20
5.3088782671
 30
0.0
 10
7.0662340251
 20
5.310499711
 30
0.0
 10
7.0648460783
 20
5.3120304592
 30
0.0
 10
7.0633521194
 20
5.3134626728
 30
0.0
 10
7.0617615414
 20
5.3147903472
 30
0.0
 10
7.0595276953
 20
5.3164098791
 30
0.0
 10
7.0577311876
 20
5.3174505661
 30
0.0
 10
7.0564941845
 20
5.3180558774
 30
0.0
  0
LINE
  5
2BF
100
AcDbEntity
  8
0
100
AcDbLine
 62
6
  6
CONTINUOUS
 10
6.1050545774
 20
3.4501104976
 11
6.0941522885
 21
3.4500979956
  0
LINE
  5
2C0
100
AcDbEntity
  8
0
100
AcDbLine
 62
6
  6
CONTINUOUS
 10
5.6621393582
 20
3.4500979956
 11
5.6512371532
 21
3.4501104976
  0
LINE
  5
2C1
100
AcDbEntity
  8
0
100
AcDbLine
 62
9
  6
CONTINUOUS
 10
6.2750569953
 20
3.9358142116
 11
6.2750497059
 21
3.8259468544
  0
LINE
  5
2C2
100
AcDbEntity
  8
0
100
AcDbLine
 62
9
  6
CONTINUOUS
 10
5.6621481409
 20
3.4101104976
 11
5.6621393582
 21
3.4500979956
  0
LINE
  5
2C3
100
AcDbEntity
  8
0
100
AcDbLine
 62
9
  6
CONTINUOUS
 10
4.7513274024
 20
5.2926831192
 11
4.7431458653
 21
5.2915946054
  0
LINE
  5
2C4
100
AcDbEntity
  8
0
100
AcDbLine
 62
9
  6
CONTINUOUS
 10
6.094143616
 20
3.4101104976
 11
6.0941522886
 21
3.4500979956
  0
SPLINE
  5
2C5
100
AcDbEntity
  8
0
100
AcDbSpline
 62
9
  6
CONTINUOUS
 70
0
 71
3
 72
40
 73
36
 74
0
 42
0.0000001
 43
0.0000001
 44
0.0000000001
 40
0.0
 40
0.0
 40
0.0
 40
0.0
 40
0.0027635309
 40
0.005434247
 40
0.00812415
 40
0.0109458855
 40
0.0140002694
 40
0.0173697891
 40
0.0211184481
 40
0.025294909
 40
0.0299362669
 40
0.0350711666
 40
0.0407203532
 40
0.0468982943
 40
0.0536160812
 40
0.0608824159
 40
0.0687042475
 40
0.0770872173
 40
0.0955534776
 40
0.116308102
 40
0.1393373101
 40
0.1646044007
 40
0.1920688971
 40
0.2216877242
 40
0.2533978921
 40
0.2871027039
 40
0.3227010018
 40
0.3600907976
 40
0.4397975729
 40
0.5251855137
 40
0.6151587682
 40
0.7086589971
 40
0.8046521399
 40
0.9021075545
 40
1.0
 40
1.0
 40
1.0
 40
1.0
 10
6.6024474266
 20
4.9413750689
 30
0.0
 10
6.6024614888
 20
4.9414276129
 30
0.0
 10
6.6024800848
 20
4.9415337386
 30
0.0
 10
6.6024749588
 20
4.941694713
 30
0.0
 10
6.6024355445
 20
4.9418521004
 30
0.0
 10
6.602362015
 20
4.9420049639
 30
0.0
 10
6.602254806
 20
4.94215301
 30
0.0
 10
6.6021141179
 20
4.9422963218
 30
0.0
 10
6.6019398501
 20
4.9424350644
 30
0.0
 10
6.6017317277
 20
4.9425693213
 30
0.0
 10
6.6014894159
 20
4.9426990862
 30
0.0
 10
6.6012126007
 20
4.9428242525
 30
0.0
 10
6.6009010971
 20
4.9429447501
 30
0.0
 10
6.6005548196
 20
4.943060529
 30
0.0
 10
6.6001737185
 20
4.9431714926
 30
0.0
 10
6.5997577591
 20
4.9432775423
 30
0.0
 10
6.5993069144
 20
4.943378584
 30
0.0
 10
6.5986373641
 20
4.9435107724
 30
0.0
 10
6.5977121439
 20
4.9436604521
 30
0.0
 10
6.5964962876
 20
4.9438132918
 30
0.0
 10
6.5951433362
 20
4.9439440285
 30
0.0
 10
6.5936559755
 20
4.9440520648
 30
0.0
 10
6.5920372295
 20
4.9441367272
 30
0.0
 10
6.5902905232
 20
4.9441973204
 30
0.0
 10
6.5884203031
 20
4.9442333933
 30
0.0
 10
6.5864320897
 20
4.9442450032
 30
0.0
 10
6.5843320994
 20
4.9442320905
 30
0.0
 10
6.5813270662
 20
4.9441809965
 30
0.0
 10
6.577343476
 20
4.9440529352
 30
0.0
 10
6.5723288189
 20
4.9438095835
 30
0.0
 10
6.5670472307
 20
4.9434772794
 30
0.0
 10
6.5615622077
 20
4.943061771
 30
0.0
 10
6.5559357331
 20
4.9425692092
 30
0.0
 10
6.5502289423
 20
4.942006966
 30
0.0
 10
6.5464063931
 20
4.9415920163
 30
0.0
 10
6.544491877
 20
4.9413750689
 30
0.0
  0
SPLINE
  5
2C6
100
AcDbEntity
  8
0
100
AcDbSpline
 62
9
  6
CONTINUOUS
 70
0
 71
3
 72
41
 73
37
 74
0
 42
0.0000001
 43
0.0000001
 44
0.0000000001
 40
0.0
 40
0.0
 40
0.0
 40
0.0
 40
0.0144044571
 40
0.0280532783
 40
0.0346630837
 40
0.0411704392
 40
0.0476138494
 40
0.0540361505
 40
0.0604837968
 40
0.0670051344
 40
0.0736493242
 40
0.0804658597
 40
0.0947984814
 40
0.1103851584
 40
0.1275510832
 40
0.1465417571
 40
0.1675444535
 40
0.1907119345
 40
0.2031465955
 40
0.2161533314
 40
0.243875951
 40
0.273862584
 40
0.306078794
 40
0.3404412075
 40
0.3768018507
 40
0.4150004229
 40
0.4548701304
 40
0.4962301068
 40
0.5388879904
 40
0.5826472878
 40
0.6273123747
 40
0.6727225302
 40
0.718735651
 40
0.8119926739
 40
0.9060325848
 40
1.0
 40
1.0
 40
1.0
 40
1.0
 10
6.333007208
 20
3.9358104836
 30
0.0
 10
6.3330868925
 20
3.9361080067
 30
0.0
 10
6.3332108655
 20
3.9366965744
 30
0.0
 10
6.333267389
 20
3.9374383129
 30
0.0
 10
6.3332452334
 20
3.9380107484
 30
0.0
 10
6.3331955756
 20
3.9384265368
 30
0.0
 10
6.33311193
 20
3.9388327735
 30
0.0
 10
6.332993559
 20
3.939228983
 30
0.0
 10
6.33283974
 20
3.9396146371
 30
0.0
 10
6.3326498446
 20
3.9399891921
 30
0.0
 10
6.3324232712
 20
3.9403521122
 30
0.0
 10
6.3320656872
 20
3.9408276072
 30
0.0
 10
6.331514799
 20
3.9413927629
 30
0.0
 10
6.3307092047
 20
3.9420019551
 30
0.0
 10
6.3297451029
 20
3.9425502324
 30
0.0
 10
6.3286208458
 20
3.9430349191
 30
0.0
 10
6.3273348528
 20
3.943452796
 30
0.0
 10
6.3261567034
 20
3.9437351558
 30
0.0
 10
6.3251350298
 20
3.9439269879
 30
0.0
 10
6.3240115907
 20
3.9441018788
 30
0.0
 10
6.3225079451
 20
3.9442689948
 30
0.0
 10
6.3205880875
 20
3.9443874642
 30
0.0
 10
6.3185230117
 20
3.9444253667
 30
0.0
 10
6.3163218409
 20
3.9443820665
 30
0.0
 10
6.3139956419
 20
3.9442593255
 30
0.0
 10
6.3115567594
 20
3.9440584021
 30
0.0
 10
6.3090179273
 20
3.9437804669
 30
0.0
 10
6.3063920867
 20
3.9434286327
 30
0.0
 10
6.3036923681
 20
3.9430070172
 30
0.0
 10
6.3009319918
 20
3.9425195311
 30
0.0
 10
6.2981233485
 20
3.9419698816
 30
0.0
 10
6.2952774105
 20
3.9413621616
 30
0.0
 10
6.2914289762
 20
3.9404760268
 30
0.0
 10
6.2865929943
 20
3.9392474808
 30
0.0
 10
6.2808050198
 20
3.937611108
 30
0.0
 10
6.2769638459
 20
3.9364234908
 30
0.0
 10
6.2750510598
 20
3.9358082496
 30
0.0
  0
SPLINE
  5
2C7
100
AcDbEntity
  8
0
100
AcDbSpline
 62
9
  6
CONTINUOUS
 70
0
 71
3
 72
40
 73
36
 74
0
 42
0.0000001
 43
0.0000001
 44
0.0000000001
 40
0.0
 40
0.0
 40
0.0
 40
0.0
 40
0.0978967123
 40
0.195357813
 40
0.2913480472
 40
0.3848374562
 40
0.4747995616
 40
0.5601790909
 40
0.6398791696
 40
0.6772686204
 40
0.7128691158
 40
0.7465768129
 40
0.7782887132
 40
0.8079087161
 40
0.8353772417
 40
0.8606496841
 40
0.8836838739
 40
0.9044415638
 40
0.9229096959
 40
0.9312934173
 40
0.9391159199
 40
0.9463828728
 40
0.9531012484
 40
0.9592797657
 40
0.9649295238
 40
0.9700649484
 40
0.9747064806
 40
0.9788827739
 40
0.9826310241
 40
0.9860000098
 40
0.9890538656
 40
0.991875217
 40
0.9945650015
 40
0.997235932
 40
1.0
 40
1.0
 40
1.0
 40
1.0
 10
5.2117998536
 20
4.9413750689
 30
0.0
 10
5.2098852461
 20
4.9415919743
 30
0.0
 10
5.2060624949
 20
4.9420069142
 30
0.0
 10
5.2003555681
 20
4.9425692542
 30
0.0
 10
5.1947292506
 20
4.9430618713
 30
0.0
 10
5.1892447049
 20
4.943477283
 30
0.0
 10
5.1839637054
 20
4.9438095062
 30
0.0
 10
5.1789495627
 20
4.9440529088
 30
0.0
 10
5.1749662717
 20
4.944180958
 30
0.0
 10
5.1719613307
 20
4.9442320548
 30
0.0
 10
5.1698612451
 20
4.9442450022
 30
0.0
 10
5.1678728951
 20
4.9442334278
 30
0.0
 10
5.1660025585
 20
4.9441973661
 30
0.0
 10
5.1642557146
 20
4.9441367459
 30
0.0
 10
5.1626367581
 20
4.944052099
 30
0.0
 10
5.1611491111
 20
4.943944082
 30
0.0
 10
5.1597958915
 20
4.9438133608
 30
0.0
 10
5.1585798392
 20
4.9436605001
 30
0.0
 10
5.1576545113
 20
4.9435107768
 30
0.0
 10
5.1569849012
 20
4.9433785526
 30
0.0
 10
5.1565340204
 20
4.9432774861
 30
0.0
 10
5.1561180278
 20
4.9431714151
 30
0.0
 10
5.1557368944
 20
4.9430604356
 30
0.0
 10
5.1553905831
 20
4.942944649
 30
0.0
 10
5.1550790436
 20
4.9428241531
 30
0.0
 10
5.1548021914
 20
4.9426990077
 30
0.0
 10
5.1545598548
 20
4.9425692659
 30
0.0
 10
5.1543517251
 20
4.9424350341
 30
0.0
 10
5.1541774646
 20
4.9422963166
 30
0.0
 10
5.1540367947
 20
4.9421530263
 30
0.0
 10
5.1539296118
 20
4.9420049955
 30
0.0
 10
5.1538561132
 20
4.9418521387
 30
0.0
 10
5.1538167313
 20
4.9416947487
 30
0.0
 10
5.1538116333
 20
4.9415337614
 30
0.0
 10
5.1538302393
 20
4.9414276233
 30
0.0
 10
5.153844304
 20
4.9413750689
 30
0.0
  0
SPLINE
  5
2C8
100
AcDbEntity
  8
0
100
AcDbSpline
 62
9
  6
CONTINUOUS
 70
0
 71
3
 72
41
 73
37
 74
0
 42
0.0000001
 43
0.0000001
 44
0.0000000001
 40
0.0
 40
0.0
 40
0.0
 40
0.0
 40
0.093954914
 40
0.1879695199
 40
0.2811901948
 40
0.3271834234
 40
0.3725824651
 40
0.4172471006
 40
0.4609987174
 40
0.5036445048
 40
0.5449948055
 40
0.5848639537
 40
0.6230700339
 40
0.6594357398
 40
0.6937911562
 40
0.7260088543
 40
0.7560167341
 40
0.7837564529
 40
0.809189794
 40
0.8323617491
 40
0.8533818496
 40
0.8631293469
 40
0.8723932042
 40
0.8895610069
 40
0.905151956
 40
0.9194924556
 40
0.926313292
 40
0.932961617
 40
0.9394867267
 40
0.9459379496
 40
0.9523641868
 40
0.9588118042
 40
0.9653234448
 40
0.9719373759
 40
0.9855928899
 40
1.0
 40
1.0
 40
1.0
 40
1.0
 10
5.4812400722
 20
3.9358104837
 30
0.0
 10
5.4793275143
 20
3.9364256406
 30
0.0
 10
5.4754869582
 20
3.9376126999
 30
0.0
 10
5.4697002047
 20
3.9392478217
 30
0.0
 10
5.4648658037
 20
3.940475733
 30
0.0
 10
5.4610187223
 20
3.941361537
 30
0.0
 10
5.4581734015
 20
3.9419690964
 30
0.0
 10
5.4553651179
 20
3.9425186167
 30
0.0
 10
5.4526051716
 20
3.943006238
 30
0.0
 10
5.4499060706
 20
3.9434279464
 30
0.0
 10
5.447280654
 20
3.9437796177
 30
0.0
 10
5.4447418178
 20
3.9440572296
 30
0.0
 10
5.4423027053
 20
3.9442587553
 30
0.0
 10
5.4399763932
 20
3.9443822331
 30
0.0
 10
5.4377751901
 20
3.9444253905
 30
0.0
 10
5.4357097772
 20
3.9443872287
 30
0.0
 10
5.4337889756
 20
3.9442694983
 30
0.0
 10
5.432020275
 20
3.9440737784
 30
0.0
 10
5.430409663
 20
3.9438008222
 30
0.0
 10
5.4289606919
 20
3.9434533819
 30
0.0
 10
5.4278621221
 20
3.9430968555
 30
0.0
 10
5.4270685423
 20
3.9427750522
 30
0.0
 10
5.4263671061
 20
3.9424481588
 30
0.0
 10
5.4255840214
 20
3.942002747
 30
0.0
 10
5.424778226
 20
3.9413933794
 30
0.0
 10
5.4242270163
 20
3.9408280232
 30
0.0
 10
5.4238691543
 20
3.940352292
 30
0.0
 10
5.4236424033
 20
3.9399891676
 30
0.0
 10
5.4234523939
 20
3.9396143869
 30
0.0
 10
5.4232985463
 20
3.9392284772
 30
0.0
 10
5.423180182
 20
3.9388319984
 30
0.0
 10
5.4230965681
 20
3.9384254784
 30
0.0
 10
5.423046956
 20
3.9380094079
 30
0.0
 10
5.4230248701
 20
3.93743664
 30
0.0
 10
5.4230814549
 20
3.9366946115
 30
0.0
 10
5.4232054396
 20
3.9361058362
 30
0.0
 10
5.4232851212
 20
3.9358082497
 30
0.0
  0
LINE
  5
2C9
100
AcDbEntity
  8
0
100
AcDbLine
 62
9
  6
CONTINUOUS
 10
6.3571458653
 20
3.7927080022
 11
6.3910750199
 21
3.7925212567
  0
SPLINE
  5
2CA
100
AcDbEntity
  8
0
100
AcDbSpline
 62
9
  6
CONTINUOUS
 70
0
 71
3
 72
31
 73
27
 74
0
 42
0.0000001
 43
0.0000001
 44
0.0000000001
 40
0.0
 40
0.0
 40
0.0
 40
0.0
 40
0.228434515
 40
0.33235178
 40
0.4291549704
 40
0.5187052989
 40
0.6008920912
 40
0.67560606
 40
0.7427477206
 40
0.8022244082
 40
0.8539463726
 40
0.8978465948
 40
0.9168478161
 40
0.9338753633
 40
0.9489242879
 40
0.9619915687
 40
0.9730791891
 40
0.9821935117
 40
0.9860149599
 40
0.9893495755
 40
0.9922022626
 40
0.9945811354
 40
0.9965006099
 40
0.9979888818
 40
0.9991077376
 40
1.0
 40
1.0
 40
1.0
 40
1.0
 10
6.4066293824
 20
3.7925205488
 30
0.0
 10
6.4074317969
 20
3.792520624
 30
0.0
 10
6.4085992385
 20
3.7925209428
 30
0.0
 10
6.4101067165
 20
3.7925226364
 30
0.0
 10
6.4111263396
 20
3.7925245835
 30
0.0
 10
6.4120696284
 20
3.7925274639
 30
0.0
 10
6.4129353202
 20
3.7925315364
 30
0.0
 10
6.4137222885
 20
3.7925370394
 30
0.0
 10
6.4144294668
 20
3.7925442532
 30
0.0
 10
6.4150558526
 20
3.7925534701
 30
0.0
 10
6.4156005458
 20
3.7925649773
 30
0.0
 10
6.4160030051
 20
3.7925772139
 30
0.0
 10
6.4162835271
 20
3.7925889427
 30
0.0
 10
6.4164627145
 20
3.7925981223
 30
0.0
 10
6.4166209768
 20
3.7926081487
 30
0.0
 10
6.4167582634
 20
3.7926190533
 30
0.0
 10
6.4168745373
 20
3.7926308748
 30
0.0
 10
6.4169582112
 20
3.7926420249
 30
0.0
 10
6.4170145309
 20
3.7926517913
 30
0.0
 10
6.4170489622
 20
3.7926589384
 30
0.0
 10
6.4170781426
 20
3.792666339
 30
0.0
 10
6.4171020855
 20
3.7926739953
 30
0.0
 10
6.4171208643
 20
3.7926819007
 30
0.0
 10
6.4171345447
 20
3.7926901243
 30
0.0
 10
6.4171434925
 20
3.7926988826
 30
0.0
 10
6.4171458651
 20
3.7927059737
 30
0.0
 10
6.4171458653
 20
3.7927091079
 30
0.0
  0
SPLINE
  5
2CB
100
AcDbEntity
  8
0
100
AcDbSpline
 62
9
  6
CONTINUOUS
 70
0
 71
3
 72
31
 73
27
 74
0
 42
0.0000001
 43
0.0000001
 44
0.0000000001
 40
0.0
 40
0.0
 40
0.0
 40
0.0
 40
0.0008896804
 40
0.0020064757
 40
0.0034931884
 40
0.0054114167
 40
0.007789212
 40
0.0106408907
 40
0.0139744943
 40
0.0177948694
 40
0.0269066798
 40
0.0379910293
 40
0.0510539993
 40
0.0660980484
 40
0.0831229013
 40
0.1021232866
 40
0.1460214799
 40
0.1977313178
 40
0.2571874892
 40
0.3243154743
 40
0.3990242142
 40
0.4812201216
 40
0.5708087456
 40
0.6676624552
 40
0.7716016795
 40
1.0
 40
1.0
 40
1.0
 40
1.0
 10
5.3391458653
 20
3.7927080022
 30
0.0
 10
5.3391458661
 20
3.7927048777
 30
0.0
 10
5.3391482433
 20
3.7926978057
 30
0.0
 10
5.3391571926
 20
3.7926890843
 30
0.0
 10
5.3391708704
 20
3.7926808968
 30
0.0
 10
5.3391896456
 20
3.7926730291
 30
0.0
 10
5.3392135831
 20
3.7926654117
 30
0.0
 10
5.3392427562
 20
3.7926580518
 30
0.0
 10
5.3392771776
 20
3.7926509469
 30
0.0
 10
5.3393334798
 20
3.7926412424
 30
0.0
 10
5.3394171223
 20
3.7926301713
 30
0.0
 10
5.3395333459
 20
3.792618444
 30
0.0
 10
5.339670568
 20
3.7926076362
 30
0.0
 10
5.3398287621
 20
3.7925977076
 30
0.0
 10
5.3400078883
 20
3.7925886266
 30
0.0
 10
5.3402883392
 20
3.7925770387
 30
0.0
 10
5.340690669
 20
3.7925649876
 30
0.0
 10
5.3412351344
 20
3.7925537349
 30
0.0
 10
5.3418612336
 20
3.7925448067
 30
0.0
 10
5.3425681315
 20
3.7925378611
 30
0.0
 10
5.3433549063
 20
3.7925325998
 30
0.0
 10
5.34422057
 20
3.7925287096
 30
0.0
 10
5.34516401
 20
3.7925258608
 30
0.0
 10
5.3461838135
 20
3.7925237973
 30
0.0
 10
5.3476911107
 20
3.792521902
 30
0.0
 10
5.3488582636
 20
3.7925214155
 30
0.0
 10
5.349660387
 20
3.7925212567
 30
0.0
  0
LINE
  5
2CC
100
AcDbEntity
  8
0
100
AcDbLine
 62
9
  6
CONTINUOUS
 10
5.365213854
 20
3.7925205488
 11
5.3991458653
 21
3.7927091079
  0
SPLINE
  5
2CD
100
AcDbEntity
  8
0
100
AcDbSpline
 62
9
  6
CONTINUOUS
 70
0
 71
3
 72
18
 73
14
 74
0
 42
0.0000001
 43
0.0000001
 44
0.0000000001
 40
0.0
 40
0.0
 40
0.0
 40
0.0
 40
0.1249996081
 40
0.1874995832
 40
0.2499995587
 40
0.3124995935
 40
0.3749996329
 40
0.4374996565
 40
0.4999997294
 40
0.6249996494
 40
0.7499995289
 40
0.8749998696
 40
1.0
 40
1.0
 40
1.0
 40
1.0
 10
4.7931459263
 20
5.2942651316
 30
0.0
 10
4.7914018049
 20
5.2942651128
 30
0.0
 10
4.7887855975
 20
5.2942539549
 30
0.0
 10
4.7852975635
 20
5.2942144798
 30
0.0
 10
4.7826817005
 20
5.2941724624
 30
0.0
 10
4.7800660574
 20
5.2941185056
 30
0.0
 10
4.7774506779
 20
5.2940529644
 30
0.0
 10
4.7748356314
 20
5.2939751878
 30
0.0
 10
4.7713494495
 20
5.293854657
 30
0.0
 10
4.7669928578
 20
5.2936726987
 30
0.0
 10
4.7617673748
 20
5.2934023177
 30
0.0
 10
4.7565450093
 20
5.2930771159
 30
0.0
 10
4.7530660324
 20
5.2928215052
 30
0.0
 10
4.7513274024
 20
5.2926831192
 30
0.0
  0
LINE
  5
2CE
100
AcDbEntity
  8
0
100
AcDbLine
 62
9
  6
CONTINUOUS
 10
5.3677861691
 20
3.8226613045
 11
5.3744066955
 21
3.8225220149
  0
SPLINE
  5
2CF
100
AcDbEntity
  8
0
100
AcDbSpline
 62
9
  6
CONTINUOUS
 70
0
 71
3
 72
43
 73
39
 74
0
 42
0.0000001
 43
0.0000001
 44
0.0000000001
 40
0.0
 40
0.0
 40
0.0
 40
0.0
 40
0.0000195543
 40
0.0000780513
 40
0.0001754623
 40
0.0003117568
 40
0.000486904
 40
0.0007008733
 40
0.0012451551
 40
0.0019443569
 40
0.0027982334
 40
0.0038065397
 40
0.0049690314
 40
0.0077555942
 40
0.0111559734
 40
0.0151682261
 40
0.0197904156
 40
0.0250206111
 40
0.0308568877
 40
0.037297327
 40
0.0443400162
 40
0.0602222661
 40
0.0784635858
 40
0.0990109797
 40
0.1218114442
 40
0.1468121334
 40
0.1739603595
 40
0.2031895422
 40
0.2343896003
 40
0.3022311991
 40
0.3765545323
 40
0.4564756516
 40
0.5411730334
 40
0.6297812567
 40
0.721068633
 40
0.8137605707
 40
0.9069058725
 40
1.0
 40
1.0
 40
1.0
 40
1.0
 10
5.360947011
 20
3.8259474145
 30
0.0
 10
5.3609470457
 20
3.8259474501
 30
0.0
 10
5.3609472283
 20
3.8259471883
 30
0.0
 10
5.3609475805
 20
3.8259470833
 30
0.0
 10
5.3609482046
 20
3.8259465819
 30
0.0
 10
5.3609490597
 20
3.8259460326
 30
0.0
 10
5.3609501656
 20
3.8259452653
 30
0.0
 10
5.3609521265
 20
3.8259439342
 30
0.0
 10
5.3609551908
 20
3.8259418416
 30
0.0
 10
5.3609596012
 20
3.8259388412
 30
0.0
 10
5.3609649903
 20
3.8259351775
 30
0.0
 10
5.3609713573
 20
3.825930857
 30
0.0
 10
5.3609817981
 20
3.8259237835
 30
0.0
 10
5.3609972904
 20
3.825913317
 30
0.0
 10
5.3610188141
 20
3.8258988278
 30
0.0
 10
5.3610442407
 20
3.8258817743
 30
0.0
 10
5.3610735674
 20
3.8258621788
 30
0.0
 10
5.3611067911
 20
3.8258400636
 30
0.0
 10
5.3611439089
 20
3.825815451
 30
0.0
 10
5.3611849178
 20
3.8257883632
 30
0.0
 10
5.361247325
 20
3.8257473021
 30
0.0
 10
5.3613349719
 20
3.8256899841
 30
0.0
 10
5.3614516576
 20
3.8256143022
 30
0.0
 10
5.3615834473
 20
3.8255295669
 30
0.0
 10
5.3617300886
 20
3.8254361377
 30
0.0
 10
5.36189133
 20
3.8253343764
 30
0.0
 10
5.3620668866
 20
3.8252246585
 30
0.0
 10
5.3622563616
 20
3.8251074574
 30
0.0
 10
5.3625348725
 20
3.8249374177
 30
0.0
 10
5.3629137176
 20
3.8247115841
 30
0.0
 10
5.3634039048
 20
3.8244306032
 30
0.0
 10
5.3639375708
 20
3.8241394733
 30
0.0
 10
5.3645110027
 20
3.8238457527
 30
0.0
 10
5.3651192974
 20
3.8235572652
 30
0.0
 10
5.3657565266
 20
3.8232832966
 30
0.0
 10
5.3664159878
 20
3.8230332537
 30
0.0
 10
5.3670926524
 20
3.8228182635
 30
0.0
 10
5.3675537669
 20
3.8227068669
 30
0.0
 10
5.3677861691
 20
3.8226613045
 30
0.0
  0
LINE
  5
2D0
100
AcDbEntity
  8
0
100
AcDbLine
 62
9
  6
CONTINUOUS
 10
5.4812360309
 20
3.9358142116
 11
5.4812413698
 21
3.8259468496
  0
SPLINE
  5
2D1
100
AcDbEntity
  8
0
100
AcDbSpline
 62
9
  6
CONTINUOUS
 70
0
 71
3
 72
20
 73
16
 74
0
 42
0.0000001
 43
0.0000001
 44
0.0000000001
 40
0.0
 40
0.0
 40
0.0
 40
0.0
 40
0.1244327072
 40
0.1866923792
 40
0.2489857042
 40
0.3113173185
 40
0.3736954565
 40
0.4361255003
 40
0.4986098112
 40
0.5611464949
 40
0.6237325164
 40
0.6863649495
 40
0.7490394664
 40
0.8744838715
 40
1.0
 40
1.0
 40
1.0
 40
1.0
 10
5.3981660168
 20
3.822662368
 30
0.0
 10
5.4016136991
 20
3.8227537405
 30
0.0
 10
5.4067849438
 20
3.8229489507
 30
0.0
 10
5.4136779266
 20
3.8232838673
 30
0.0
 10
5.4188504109
 20
3.8235607462
 30
0.0
 10
5.4240253565
 20
3.8238522864
 30
0.0
 10
5.4292038394
 20
3.824148387
 30
0.0
 10
5.4343867578
 20
3.8244410454
 30
0.0
 10
5.439574626
 20
3.8247238987
 30
0.0
 10
5.4447677267
 20
3.824989821
 30
0.0
 10
5.4499661082
 20
3.8252319823
 30
0.0
 10
5.4551696088
 20
3.8254448284
 30
0.0
 10
5.4621156135
 20
3.8256834016
 30
0.0
 10
5.4708064689
 20
3.825890694
 30
0.0
 10
5.4777624477
 20
3.8259473659
 30
0.0
 10
5.4812413698
 20
3.8259472964
 30
0.0
  0
SPLINE
  5
2D2
100
AcDbEntity
  8
0
100
AcDbSpline
 62
9
  6
CONTINUOUS
 70
0
 71
3
 72
18
 73
14
 74
0
 42
0.0000001
 43
0.0000001
 44
0.0000000001
 40
0.0
 40
0.0
 40
0.0
 40
0.0
 40
0.1255182915
 40
0.1882579839
 40
0.2509689656
 40
0.3762758137
 40
0.5013949949
 40
0.6263090777
 40
0.6886883078
 40
0.7510178025
 40
0.813305419
 40
0.875561564
 40
1.0
 40
1.0
 40
1.0
 40
1.0
 10
6.2750497059
 20
3.8259474145
 30
0.0
 10
6.278528519
 20
3.8259474376
 30
0.0
 10
6.2837463142
 20
3.8259043121
 30
0.0
 10
6.290700738
 20
3.8257661967
 30
0.0
 10
6.2976480921
 20
3.8255762052
 30
0.0
 10
6.3063209411
 20
3.8252481562
 30
0.0
 10
6.3167110948
 20
3.8247330328
 30
0.0
 10
6.3253561444
 20
3.8242468347
 30
0.0
 10
6.3322633391
 20
3.8238525088
 30
0.0
 10
6.3374378785
 20
3.823561547
 30
0.0
 10
6.3426098308
 20
3.8232853111
 30
0.0
 10
6.3495023546
 20
3.8229500323
 30
0.0
 10
6.354673328
 20
3.8227523727
 30
0.0
 10
6.3581210097
 20
3.8226613045
 30
0.0
  0
SPLINE
  5
2D3
100
AcDbEntity
  8
0
100
AcDbSpline
 62
9
  6
CONTINUOUS
 70
0
 71
3
 72
43
 73
39
 74
0
 42
0.0000001
 43
0.0000001
 44
0.0000000001
 40
0.0
 40
0.0
 40
0.0
 40
0.0
 40
0.0935403209
 40
0.1868014158
 40
0.279197828
 40
0.3701438543
 40
0.458729895
 40
0.543642745
 40
0.6237070909
 40
0.6979401609
 40
0.7656021899
 40
0.7967518954
 40
0.8259749186
 40
0.853160837
 40
0.8782013533
 40
0.9010227154
 40
0.9215765189
 40
0.9398148189
 40
0.95569329
 40
0.9627380877
 40
0.9691822286
 40
0.9750224287
 40
0.9802553938
 40
0.9848778209
 40
0.9888867036
 40
0.9922806973
 40
0.9950590218
 40
0.9962170642
 40
0.9972208962
 40
0.99807042
 40
0.9987655377
 40
0.9993061511
 40
0.9995184881
 40
0.9996921624
 40
0.9998271618
 40
0.9999234743
 40
0.9999810887
 40
1.0
 40
1.0
 40
1.0
 40
1.0
 10
6.3885031089
 20
3.822662368
 30
0.0
 10
6.3887367182
 20
3.8227080373
 30
0.0
 10
6.3891996286
 20
3.8228184986
 30
0.0
 10
6.3898778984
 20
3.8230314938
 30
0.0
 10
6.3905361334
 20
3.8232817506
 30
0.0
 10
6.391171196
 20
3.8235570064
 30
0.0
 10
6.3917790523
 20
3.8238459606
 30
0.0
 10
6.3923536701
 20
3.8241396368
 30
0.0
 10
6.3928887167
 20
3.8244300408
 30
0.0
 10
6.393378702
 20
3.8247110809
 30
0.0
 10
6.393756611
 20
3.8249371427
 30
0.0
 10
6.3940346754
 20
3.825106944
 30
0.0
 10
6.394224186
 20
3.8252241214
 30
0.0
 10
6.3943999226
 20
3.825334009
 30
0.0
 10
6.3945613994
 20
3.8254359717
 30
0.0
 10
6.3947082216
 20
3.82552953
 30
0.0
 10
6.3948400966
 20
3.8256143321
 30
0.0
 10
6.3949568023
 20
3.8256900568
 30
0.0
 10
6.3950444349
 20
3.8257474311
 30
0.0
 10
6.3951068352
 20
3.8257885522
 30
0.0
 10
6.3951478569
 20
3.8258156918
 30
0.0
 10
6.3951849919
 20
3.82584035
 30
0.0
 10
6.3952182317
 20
3.8258624941
 30
0.0
 10
6.3952475679
 20
3.8258820922
 30
0.0
 10
6.3952729973
 20
3.8258991142
 30
0.0
 10
6.395294515
 20
3.825913544
 30
0.0
 10
6.3953099992
 20
3.8259239454
 30
0.0
 10
6.3953204309
 20
3.8259309612
 30
0.0
 10
6.3953267882
 20
3.8259352394
 30
0.0
 10
6.395332168
 20
3.8259388623
 30
0.0
 10
6.3953365679
 20
3.8259418242
 30
0.0
 10
6.3953396273
 20
3.8259438878
 30
0.0
 10
6.3953415791
 20
3.825945196
 30
0.0
 10
6.395342689
 20
3.8259459526
 30
0.0
 10
6.3953435201
 20
3.825946483
 30
0.0
 10
6.395344187
 20
3.8259469906
 30
0.0
 10
6.3953444561
 20
3.8259470612
 30
0.0
 10
6.3953447192
 20
3.8259473445
 30
0.0
 10
6.3953447204
 20
3.8259472964
 30
0.0
  0
LINE
  5
2D4
100
AcDbEntity
  8
0
100
AcDbLine
 62
9
  6
CONTINUOUS
 10
6.3818857299
 20
3.8225205998
 11
6.3885031089
 21
3.822662368
  0
ENDSEC
  0
SECTION
  2
OBJECTS
  0
DICTIONARY
  5
C
100
AcDbDictionary
280
0
281
1
  3
ACAD_GROUP
350
D
  3
ACAD_MLINESTYLE
350
17
  3
ACAD_LAYOUT
350
1A
  3
ACAD_PLOTSETTINGS
350
19
  3
ACAD_PLOTSTYLENAME
350
E
  0
DICTIONARY
  5
D
102
{ACAD_REACTORS
330
C
102
}
100
AcDbDictionary
280
0
281
1
  0
ACDBDICTIONARYWDFLT
  5
E
102
{ACAD_REACTORS
330
C
102
}
100
AcDbDictionary
281
1
  3
Normal
350
F
100
AcDbDictionaryWithDefault
340
F
  0
DICTIONARY
  5
17
102
{ACAD_REACTORS
330
C
102
}
100
AcDbDictionary
280
0
281
1
  3
Standard
350
18
  0
DICTIONARY
  5
19
102
{ACAD_REACTORS
330
C
102
}
100
AcDbDictionary
281
1
  0
DICTIONARY
  5
1A
102
{ACAD_REACTORS
330
C
102
}
100
AcDbDictionary
281
1
  3
Model
350
2D5
  3
Layout1
350
2D6
  0
ACDBPLACEHOLDER
  5
F
102
{ACAD_REACTORS
330
E
102
}
  0
MLINESTYLE
  5
18
102
{ACAD_REACTORS
330
17
102
}
100
AcDbMlineStyle
  2
STANDARD
 70
0
  3

 62
256
 51
90.0
 52
90.0
 71
2
 49
0.5
 62
256
  6
BYLAYER
 49
-0.5
 62
256
  6
BYLAYER
  0
LAYOUT
  5
2D5
102
{ACAD_REACTORS
330
1A
102
}
100
AcDbPlotSettings
  1

  2
none_device
  4
ISO_A4_(297.00_x_210.00_MM)
  6

 40
0.0
 41
0.0
 42
0.0
 43
0.0
 44
297.0
 45
210.0
 46
0.0
 47
0.0
 48
0.0
 49
0.0
140
0.0
141
0.0
142
1.0
143
1.0
 70
1024
 72
0
 73
0
 74
0
  7

 75
0
147
1.0
148
0.0
149
0.0
100
AcDbLayout
  1
Model
 70
0
 71
0
 10
0.0
 20
0.0
 11
11.6929133858
 21
8.2677165354
 12
0.0
 22
0.0
 32
0.0
 14
0.0
 24
0.0
 34
0.0
 15
0.0
 25
0.0
 35
0.0
146
0.0
 13
0.0
 23
0.0
 33
0.0
 16
1.0
 26
0.0
 36
0.0
 17
0.0
 27
1.0
 37
0.0
 76
0
330
202
345
0
346
0
  0
LAYOUT
  5
2D6
102
{ACAD_REACTORS
330
1A
102
}
100
AcDbPlotSettings
  1

  2
none_device
  4
ISO_A4_(297.00_x_210.00_MM)
  6

 40
0.0
 41
0.0
 42
0.0
 43
0.0
 44
297.0
 45
210.0
 46
0.0
 47
0.0
 48
0.0
 49
0.0
140
0.0
141
0.0
142
1.0
143
1.0
 70
0
 72
0
 73
0
 74
0
  7

 75
0
147
1.0
148
0.0
149
0.0
100
AcDbLayout
  1
Layout1
 70
0
 71
1
 10
0.0
 20
0.0
 11
11.6929133858
 21
8.2677165354
 12
0.0
 22
0.0
 32
0.0
 14
0.0
 24
0.0
 34
0.0
 15
0.0
 25
0.0
 35
0.0
146
0.0
 13
0.0
 23
0.0
 33
0.0
 16
1.0
 26
0.0
 36
0.0
 17
0.0
 27
1.0
 37
0.0
 76
0
330
203
345
0
346
0
  0
ENDSEC
  0
EOF
