999
DXF file: 43-13_FRONT.dxf
999
Pro/ENGINEER 2014000 by Parametric Technology Corporation
  0
SECTION
  2
HEADER
  9
$ACADVER
  1
AC1015
  9
$DWGCODEPAGE
  3
ANSI_1252
  9
$EXTMAX
 10
11.6929133858
 20
8.2677165354
 30
0.0
  9
$EXTMIN
 10
0.0
 20
-0.0
 30
0.0
  9
$LIMMIN
 10
0.0
 20
-0.0
  9
$LIMMAX
 10
11.6929133858
 20
8.2677165354
  9
$VIEWCTR
 10
5.8464566929
 20
4.1338582677
  9
$VIEWSIZE
 40
8.2677165354
  9
$CLAYER
  8
0
  9
$LTSCALE
 40
0.6431102362
  9
$CELTYPE
  6
BYLAYER
  9
$DIMSCALE
 40
1.0
  9
$DIMASZ
 40
0.1875
  9
$DIMEXO
 40
0.0625
  9
$DIMDLI
 40
0.4443307087
  9
$DIMEXE
 40
0.125
  9
$DIMCEN
 40
0.1052362205
  9
$DIMLFAC
 40
1.0
  9
$DIMBLK
  1
_CLOSED
  9
$DIMTXT
 40
0.15625
  9
$DIMTOL
 70
0
  9
$DIMLIM
 70
0
  9
$DIMTFAC
 40
1.0
  9
$DIMGAP
 40
0.09
  9
$DIMDSEP
 70
46
  9
$PDMODE
 70
3
  9
$PDSIZE
 40
0.3125
  9
$HANDSEED
  5
29E
  9
$TILEMODE
 70
1
  9
$MEASUREMENT
 70
0
  9
$INSUNITS
 70
1
  0
ENDSEC
  0
SECTION
  2
CLASSES
  0
CLASS
  1
ACDBDICTIONARYWDFLT
  2
AcDbDictionaryWithDefault
  3
AutoCAD 2000
 90
0
280
0
281
0
  0
CLASS
  1
ACDBPLACEHOLDER
  2
AcDbPlaceHolder
  3
AutoCAD 2000
 90
0
280
0
281
0
  0
CLASS
  1
LAYOUT
  2
AcDbLayout
  3
AutoCAD 2000
 90
0
280
0
281
0
  0
ENDSEC
  0
SECTION
  2
TABLES
  0
TABLE
  2
VPORT
  5
8
100
AcDbSymbolTable
 70
2
  0
VPORT
  5
1F4
100
AcDbSymbolTableRecord
100
AcDbViewportTableRecord
  2
*ACTIVE
 70
0
 10
0.0
 20
0.0
 11
1.0
 21
1.0
 12
5.8464566929
 22
4.1338582677
 13
0.0
 23
0.0
 14
1.0
 24
1.0
 15
0.0
 25
0.0
 16
0.0
 26
0.0
 36
1.0
 17
0.0
 27
0.0
 37
0.0
 40
8.2677165354
 41
1.4142857143
 42
50.0
 43
0.0
 44
0.0
 50
0.0
 51
0.0
 71
0
 72
100
 73
1
 74
1
 75
0
 76
0
 77
0
 78
0
  0
ENDTAB
  0
TABLE
  2
LTYPE
  5
5
100
AcDbSymbolTable
 70
6
  0
LTYPE
  5
14
100
AcDbSymbolTableRecord
100
AcDbLinetypeTableRecord
  2
BYBLOCK
 70
0
  3

 72
65
 73
0
 40
0.0
  0
LTYPE
  5
15
100
AcDbSymbolTableRecord
100
AcDbLinetypeTableRecord
  2
BYLAYER
 70
0
  3

 72
65
 73
0
 40
0.0
  0
LTYPE
  5
16
100
AcDbSymbolTableRecord
100
AcDbLinetypeTableRecord
  2
CONTINUOUS
 70
64
  3
Solid line
 72
65
 73
0
 40
0.0
  0
LTYPE
  5
1F5
100
AcDbSymbolTableRecord
100
AcDbLinetypeTableRecord
  2
CENTER
 70
64
  3
____ _ ____ _ ____ _ ____ _ ____ _ ____ _ ____
 72
65
 73
4
 40
0.6
 49
0.375
 74
0
 49
-0.075
 74
0
 49
0.075
 74
0
 49
-0.075
 74
0
  0
LTYPE
  5
1F6
100
AcDbSymbolTableRecord
100
AcDbLinetypeTableRecord
  2
HIDDEN
 70
64
  3
- - - - - - - - - - - - - - - - - - - -
 72
65
 73
2
 40
0.2
 49
0.1
 74
0
 49
-0.1
 74
0
  0
LTYPE
  5
1F7
100
AcDbSymbolTableRecord
100
AcDbLinetypeTableRecord
  2
PHANTOM
 70
64
  3
_____ _ _ _____ _ _ _____ _ _ _____
 72
65
 73
6
 40
0.8
 49
0.45
 74
0
 49
-0.05
 74
0
 49
0.1
 74
0
 49
-0.05
 74
0
 49
0.1
 74
0
 49
-0.05
 74
0
  0
LTYPE
  5
1F8
100
AcDbSymbolTableRecord
100
AcDbLinetypeTableRecord
  2
DOT
 70
64
  3
. . . . . . . . . . . . . . . . . . . .
 72
65
 73
2
 40
0.2
 49
0.1
 74
0
 49
-0.1
 74
0
  0
LTYPE
  5
1F9
100
AcDbSymbolTableRecord
100
AcDbLinetypeTableRecord
  2
DASHED
 70
64
  3
- - - - - - - - - - - - - - - - - - - -
 72
65
 73
2
 40
0.2
 49
0.1
 74
0
 49
-0.1
 74
0
  0
ENDTAB
  0
TABLE
  2
LAYER
  5
2
100
AcDbSymbolTable
 70
36
  0
LAYER
  5
10
100
AcDbSymbolTableRecord
100
AcDbLayerTableRecord
  2
0
 70
0
 62
7
  6
CONTINUOUS
370
-3
390
F
  0
LAYER
  5
1FA
100
AcDbSymbolTableRecord
100
AcDbLayerTableRecord
  2
DEFAULT_1
 70
0
 62
7
  6
CENTER
370
-3
390
F
  0
LAYER
  5
1FB
100
AcDbSymbolTableRecord
100
AcDbLayerTableRecord
  2
DEFAULT_2
 70
0
 62
8
  6
HIDDEN
370
-3
390
F
  0
LAYER
  5
1FC
100
AcDbSymbolTableRecord
100
AcDbLayerTableRecord
  2
DEFAULT_3
 70
0
 62
7
  6
PHANTOM
370
-3
390
F
  0
LAYER
  5
1FD
100
AcDbSymbolTableRecord
100
AcDbLayerTableRecord
  2
DEFAULT_COORDINATE_SYSTEM
 70
0
 62
7
  6
CONTINUOUS
370
-3
390
F
  0
LAYER
  5
1FE
100
AcDbSymbolTableRecord
100
AcDbLayerTableRecord
  2
DEFAULT_DATUM_AXES
 70
0
 62
7
  6
CONTINUOUS
370
-3
390
F
  0
LAYER
  5
1FF
100
AcDbSymbolTableRecord
100
AcDbLayerTableRecord
  2
DEFAULT_DATUM_PLANES
 70
0
 62
7
  6
CONTINUOUS
370
-3
390
F
  0
ENDTAB
  0
TABLE
  2
STYLE
  5
3
100
AcDbSymbolTable
 70
1
  0
STYLE
  5
11
100
AcDbSymbolTableRecord
100
AcDbTextStyleTableRecord
  2
STANDARD
 70
0
 40
0.0
 41
0.8
 50
0.0
 71
0
 42
0.2
  3
txt
  4

  0
STYLE
  5
200
100
AcDbSymbolTableRecord
100
AcDbTextStyleTableRecord
  2
TEXTSTYLE_1
 70
0
 40
0.0
 41
0.8
 50
0.0
 71
0
 42
0.2
  3
gdt
  4

  0
ENDTAB
  0
TABLE
  2
VIEW
  5
6
100
AcDbSymbolTable
 70
0
  0
ENDTAB
  0
TABLE
  2
UCS
  5
7
100
AcDbSymbolTable
 70
0
  0
ENDTAB
  0
TABLE
  2
APPID
  5
9
100
AcDbSymbolTable
 70
1
  0
APPID
  5
201
100
AcDbSymbolTableRecord
100
AcDbRegAppTableRecord
  2
ACAD
 70
0
  0
ENDTAB
  0
TABLE
  2
BLOCK_RECORD
  5
1
100
AcDbSymbolTable
 70
0
  0
BLOCK_RECORD
  5
202
100
AcDbSymbolTableRecord
100
AcDbBlockTableRecord
  2
*Model_Space
  0
BLOCK_RECORD
  5
203
100
AcDbSymbolTableRecord
100
AcDbBlockTableRecord
  2
*Paper_Space
  0
ENDTAB
  0
TABLE
  2
DIMSTYLE
  5
A
100
AcDbSymbolTable
 70
1
100
AcDbDimStyleTable
 71
0
  0
DIMSTYLE
105
204
100
AcDbSymbolTableRecord
100
AcDbDimStyleTableRecord
  2
STANDARD
 70
0
  3

  4

 40
1.0
 41
0.1875
 42
0.0625
 43
0.38
 44
0.125
 45
0.0
 46
0.0
 47
0.001
 48
0.001
140
0.15625
141
0.09
142
0.0
143
25.4
144
1.0
145
0.0
146
1.0
147
0.09
 71
0.0
 72
0.0
 73
1
 74
1
 75
0
 76
0
 77
0
 78
4
170
0
171
2
172
0
173
0
174
0
175
0
176
0
177
0
178
0
270
2
271
3
272
3
273
2
274
2
275
0
280
0
281
0
282
0
283
1
284
4
285
0
286
0
287
3
288
0
340
11
278
46
  0
ENDTAB
  0
ENDSEC
  0
SECTION
  2
BLOCKS
  0
BLOCK
  5
20
100
AcDbEntity
  8
0
100
AcDbBlockBegin
  2
*Model_Space
 70
0
 10
0.0
 20
0.0
 30
0.0
  3
*Model_Space
  1

  0
ENDBLK
  5
21
100
AcDbEntity
  8
0
100
AcDbBlockEnd
  0
BLOCK
  5
1C
100
AcDbEntity
  8
0
100
AcDbBlockBegin
  2
*Paper_Space
 70
0
 10
0.0
 20
0.0
 30
0.0
  3
*Paper_Space
  1

  0
ENDBLK
  5
1D
100
AcDbEntity
  8
0
100
AcDbBlockEnd
  0
ENDSEC
  0
SECTION
  2
ENTITIES
  0
LINE
  5
205
100
AcDbEntity
  8
0
100
AcDbLine
 62
7
  6
CONTINUOUS
 10
0.0
 20
-0.0
 11
0.0
 21
8.2677165354
  0
LINE
  5
206
100
AcDbEntity
  8
0
100
AcDbLine
 62
7
  6
CONTINUOUS
 10
0.0
 20
-0.0
 11
11.6929133858
 21
-0.0
  0
LINE
  5
207
100
AcDbEntity
  8
0
100
AcDbLine
 62
7
  6
CONTINUOUS
 10
0.0
 20
8.2677165354
 11
11.6929133858
 21
8.2677165354
  0
LINE
  5
208
100
AcDbEntity
  8
0
100
AcDbLine
 62
7
  6
CONTINUOUS
 10
11.6929133858
 20
-0.0
 11
11.6929133858
 21
8.2677165354
  0
LINE
  5
209
100
AcDbEntity
  8
0
100
AcDbLine
 62
9
  6
CONTINUOUS
 10
4.6912719802
 20
4.1567410722
 11
4.6912719802
 21
4.4067410722
  0
LINE
  5
20A
100
AcDbEntity
  8
0
100
AcDbLine
 62
6
  6
CONTINUOUS
 10
4.7042719802
 20
5.4167410722
 11
4.7042719802
 21
4.4067410722
  0
LINE
  5
20B
100
AcDbEntity
  8
0
100
AcDbLine
 62
6
  6
CONTINUOUS
 10
4.7042719802
 20
4.1567410722
 11
4.7042719802
 21
3.1467410722
  0
LINE
  5
20C
100
AcDbEntity
  8
0
100
AcDbLine
 62
9
  6
CONTINUOUS
 10
4.7342719802
 20
5.4167410722
 11
4.7342719802
 21
4.4067410722
  0
LINE
  5
20D
100
AcDbEntity
  8
0
100
AcDbLine
 62
9
  6
CONTINUOUS
 10
4.7342719802
 20
4.1567410722
 11
4.7342719802
 21
3.1467410722
  0
LINE
  5
20E
100
AcDbEntity
  8
0
100
AcDbLine
 62
9
  6
CONTINUOUS
 10
4.7642719802
 20
3.1167410722
 11
4.7642719802
 21
3.0867410722
  0
LINE
  5
20F
100
AcDbEntity
  8
0
100
AcDbLine
 62
9
  6
CONTINUOUS
 10
4.7642719802
 20
5.4467410722
 11
4.7642719803
 21
5.4767410722
  0
LINE
  5
210
100
AcDbEntity
  8
0
100
AcDbLine
 62
6
  6
CONTINUOUS
 10
4.7642719802
 20
3.0867410722
 11
7.0342719802
 21
3.0867410722
  0
LINE
  5
211
100
AcDbEntity
  8
0
100
AcDbLine
 62
9
  6
CONTINUOUS
 10
4.7642719802
 20
3.1167410722
 11
7.0342719802
 21
3.1167410722
  0
LINE
  5
212
100
AcDbEntity
  8
0
100
AcDbLine
 62
9
  6
CONTINUOUS
 10
4.7342719802
 20
3.1467410722
 11
4.7042719802
 21
3.1467410722
  0
LINE
  5
213
100
AcDbEntity
  8
0
100
AcDbLine
 62
9
  6
CONTINUOUS
 10
7.0642719802
 20
3.1467410722
 11
7.0942719802
 21
3.1467410722
  0
LINE
  5
214
100
AcDbEntity
  8
0
100
AcDbLine
 62
6
  6
CONTINUOUS
 10
5.0267719802
 20
5.0942410722
 11
5.0267719802
 21
4.4067410722
  0
LINE
  5
215
100
AcDbEntity
  8
0
100
AcDbLine
 62
6
  6
CONTINUOUS
 10
5.0267719802
 20
4.1567410722
 11
5.0267719802
 21
3.4692410722
  0
LINE
  5
216
100
AcDbEntity
  8
0
100
AcDbLine
 62
9
  6
CONTINUOUS
 10
5.0567719802
 20
5.0942410722
 11
5.0567719802
 21
4.4067410722
  0
LINE
  5
217
100
AcDbEntity
  8
0
100
AcDbLine
 62
9
  6
CONTINUOUS
 10
5.0567719802
 20
4.1567410722
 11
5.0567719802
 21
3.4692410722
  0
LINE
  5
218
100
AcDbEntity
  8
0
100
AcDbLine
 62
9
  6
CONTINUOUS
 10
5.0867719802
 20
3.4392410722
 11
5.0867719802
 21
3.4092410722
  0
LINE
  5
219
100
AcDbEntity
  8
0
100
AcDbLine
 62
9
  6
CONTINUOUS
 10
5.0867719802
 20
5.1242410722
 11
5.0867719804
 21
5.1542410722
  0
LINE
  5
21A
100
AcDbEntity
  8
0
100
AcDbLine
 62
9
  6
CONTINUOUS
 10
5.1459926442
 20
4.9480870839
 11
5.1459926442
 21
4.4067410722
  0
LINE
  5
21B
100
AcDbEntity
  8
0
100
AcDbLine
 62
9
  6
CONTINUOUS
 10
5.1459926442
 20
4.1567410722
 11
5.1459926442
 21
3.6153950605
  0
LINE
  5
21C
100
AcDbEntity
  8
0
100
AcDbLine
 62
6
  6
CONTINUOUS
 10
5.0867719802
 20
3.4092410722
 11
6.7117719802
 21
3.4092410722
  0
LINE
  5
21D
100
AcDbEntity
  8
0
100
AcDbLine
 62
9
  6
CONTINUOUS
 10
5.0867719802
 20
3.4392410722
 11
6.7117719802
 21
3.4392410722
  0
LINE
  5
21E
100
AcDbEntity
  8
0
100
AcDbLine
 62
9
  6
CONTINUOUS
 10
5.0567719802
 20
3.4692410722
 11
5.0267719802
 21
3.4692410723
  0
LINE
  5
21F
100
AcDbEntity
  8
0
100
AcDbLine
 62
9
  6
CONTINUOUS
 10
6.7417719802
 20
3.4692410722
 11
6.7717719802
 21
3.4692410722
  0
LINE
  5
220
100
AcDbEntity
  8
0
100
AcDbLine
 62
9
  6
CONTINUOUS
 10
5.2329259685
 20
3.5284617361
 11
6.5656179919
 21
3.5284617361
  0
LINE
  5
221
100
AcDbEntity
  8
0
100
AcDbLine
 62
9
  6
CONTINUOUS
 10
5.174970419
 20
4.9480870839
 11
5.174970419
 21
4.4067410722
  0
LINE
  5
222
100
AcDbEntity
  8
0
100
AcDbLine
 62
9
  6
CONTINUOUS
 10
5.174970419
 20
4.1567410722
 11
5.174970419
 21
3.6153950605
  0
LINE
  5
223
100
AcDbEntity
  8
0
100
AcDbLine
 62
9
  6
CONTINUOUS
 10
5.2329259685
 20
5.0350204082
 11
5.2329259685
 21
5.0060426335
  0
LINE
  5
224
100
AcDbEntity
  8
0
100
AcDbLine
 62
9
  6
CONTINUOUS
 10
5.2329259685
 20
3.5284617361
 11
5.2329259685
 21
3.5574395109
  0
LINE
  5
225
100
AcDbEntity
  8
0
100
AcDbLine
 62
9
  6
CONTINUOUS
 10
5.2329259685
 20
3.5574395109
 11
6.5656179919
 21
3.5574395109
  0
LINE
  5
226
100
AcDbEntity
  8
0
100
AcDbLine
 62
9
  6
CONTINUOUS
 10
6.6525513163
 20
3.6153950605
 11
6.6235735415
 21
3.6153950605
  0
LINE
  5
227
100
AcDbEntity
  8
0
100
AcDbLine
 62
9
  6
CONTINUOUS
 10
5.1459926442
 20
3.6153950605
 11
5.174970419
 21
3.6153950605
  0
LINE
  5
228
100
AcDbEntity
  8
0
100
AcDbLine
 62
6
  6
CONTINUOUS
 10
5.3602719802
 20
4.7607410722
 11
5.3602719802
 21
4.4067410722
  0
LINE
  5
229
100
AcDbEntity
  8
0
100
AcDbLine
 62
6
  6
CONTINUOUS
 10
5.3602719802
 20
4.1567410722
 11
5.3602719802
 21
3.8027410722
  0
LINE
  5
22A
100
AcDbEntity
  8
0
100
AcDbLine
 62
9
  6
CONTINUOUS
 10
5.3902719802
 20
4.7607410722
 11
5.3902719802
 21
4.4067410722
  0
LINE
  5
22B
100
AcDbEntity
  8
0
100
AcDbLine
 62
9
  6
CONTINUOUS
 10
5.3902719802
 20
4.1567410722
 11
5.3902719802
 21
3.8027410722
  0
LINE
  5
22C
100
AcDbEntity
  8
0
100
AcDbLine
 62
9
  6
CONTINUOUS
 10
5.4202719802
 20
3.7727410722
 11
5.4202719802
 21
3.7427410722
  0
LINE
  5
22D
100
AcDbEntity
  8
0
100
AcDbLine
 62
9
  6
CONTINUOUS
 10
5.4202719802
 20
4.7907410722
 11
5.4202719804
 21
4.8207410722
  0
LINE
  5
22E
100
AcDbEntity
  8
0
100
AcDbLine
 62
6
  6
CONTINUOUS
 10
5.4202719802
 20
3.7427410722
 11
6.3782719802
 21
3.7427410722
  0
LINE
  5
22F
100
AcDbEntity
  8
0
100
AcDbLine
 62
9
  6
CONTINUOUS
 10
5.4202719802
 20
3.7727410722
 11
6.3782719802
 21
3.7727410722
  0
LINE
  5
230
100
AcDbEntity
  8
0
100
AcDbLine
 62
9
  6
CONTINUOUS
 10
5.3902719802
 20
3.8027410722
 11
5.3602719802
 21
3.8027410723
  0
LINE
  5
231
100
AcDbEntity
  8
0
100
AcDbLine
 62
9
  6
CONTINUOUS
 10
6.4082719802
 20
3.8027410722
 11
6.4382719802
 21
3.8027410722
  0
LINE
  5
232
100
AcDbEntity
  8
0
100
AcDbLine
 62
6
  6
CONTINUOUS
 10
5.5242719802
 20
3.9367410722
 11
5.5242719802
 21
4.6267410722
  0
LINE
  5
233
100
AcDbEntity
  8
0
100
AcDbLine
 62
9
  6
CONTINUOUS
 10
5.5542719802
 20
3.9067410722
 11
5.5542719802
 21
4.6567410722
  0
LINE
  5
234
100
AcDbEntity
  8
0
100
AcDbLine
 62
6
  6
CONTINUOUS
 10
6.2442719802
 20
3.9067410722
 11
5.5542719802
 21
3.9067410722
  0
LINE
  5
235
100
AcDbEntity
  8
0
100
AcDbLine
 62
9
  6
CONTINUOUS
 10
6.2742719802
 20
3.9367410722
 11
5.5242719802
 21
3.9367410722
  0
LINE
  5
236
100
AcDbEntity
  8
0
100
AcDbLine
 62
9
  6
CONTINUOUS
 10
6.5656179919
 20
5.0060426335
 11
6.3801722612
 21
4.8205969028
  0
LINE
  5
237
100
AcDbEntity
  8
0
100
AcDbLine
 62
9
  6
CONTINUOUS
 10
5.174970419
 20
3.6153950605
 11
5.3603984944
 21
3.8008231359
  0
LINE
  5
238
100
AcDbEntity
  8
0
100
AcDbLine
 62
6
  6
CONTINUOUS
 10
5.5242719802
 20
4.1567410722
 11
4.6912719802
 21
4.1567410722
  0
LINE
  5
239
100
AcDbEntity
  8
0
100
AcDbLine
 62
6
  6
CONTINUOUS
 10
6.2742719802
 20
4.1567410722
 11
7.1072719802
 21
4.1567410722
  0
LINE
  5
23A
100
AcDbEntity
  8
0
100
AcDbLine
 62
9
  6
CONTINUOUS
 10
6.5656179919
 20
3.5574395109
 11
6.3801899165
 21
3.7428675863
  0
LINE
  5
23B
100
AcDbEntity
  8
0
100
AcDbLine
 62
9
  6
CONTINUOUS
 10
5.174970419
 20
4.9480870839
 11
5.3604161496
 21
4.7626413532
  0
LINE
  5
23C
100
AcDbEntity
  8
0
100
AcDbLine
 62
9
  6
CONTINUOUS
 10
6.6235735415
 20
4.9480870839
 11
6.4381454661
 21
4.7626590085
  0
LINE
  5
23D
100
AcDbEntity
  8
0
100
AcDbLine
 62
9
  6
CONTINUOUS
 10
5.2329259685
 20
3.5574395109
 11
5.4183716992
 21
3.7428852416
  0
LINE
  5
23E
100
AcDbEntity
  8
0
100
AcDbLine
 62
6
  6
CONTINUOUS
 10
5.5242719802
 20
4.4067410722
 11
4.6912719802
 21
4.4067410722
  0
LINE
  5
23F
100
AcDbEntity
  8
0
100
AcDbLine
 62
6
  6
CONTINUOUS
 10
6.2742719802
 20
4.4067410722
 11
7.1072719802
 21
4.4067410722
  0
LINE
  5
240
100
AcDbEntity
  8
0
100
AcDbLine
 62
9
  6
CONTINUOUS
 10
6.6235735415
 20
3.6153950605
 11
6.4381278108
 21
3.8008407912
  0
LINE
  5
241
100
AcDbEntity
  8
0
100
AcDbLine
 62
9
  6
CONTINUOUS
 10
5.2329259685
 20
5.0060426335
 11
5.4183540439
 21
4.8206145581
  0
LINE
  5
242
100
AcDbEntity
  8
0
100
AcDbLine
 62
9
  6
CONTINUOUS
 10
6.2442719802
 20
4.6567410722
 11
6.2442719802
 21
3.9067410722
  0
LINE
  5
243
100
AcDbEntity
  8
0
100
AcDbLine
 62
6
  6
CONTINUOUS
 10
6.2742719802
 20
4.6267410722
 11
6.2742719802
 21
3.9367410722
  0
LINE
  5
244
100
AcDbEntity
  8
0
100
AcDbLine
 62
9
  6
CONTINUOUS
 10
6.3782719802
 20
3.7727410722
 11
6.3782719801
 21
3.7427410722
  0
LINE
  5
245
100
AcDbEntity
  8
0
100
AcDbLine
 62
9
  6
CONTINUOUS
 10
6.3782719802
 20
4.7907410722
 11
6.3782719802
 21
4.8207410722
  0
LINE
  5
246
100
AcDbEntity
  8
0
100
AcDbLine
 62
9
  6
CONTINUOUS
 10
5.5242719802
 20
4.6267410722
 11
6.2742719802
 21
4.6267410722
  0
LINE
  5
247
100
AcDbEntity
  8
0
100
AcDbLine
 62
6
  6
CONTINUOUS
 10
6.2442719802
 20
4.6567410722
 11
5.5542719802
 21
4.6567410722
  0
LINE
  5
248
100
AcDbEntity
  8
0
100
AcDbLine
 62
9
  6
CONTINUOUS
 10
5.3902719802
 20
4.7607410722
 11
5.3602719802
 21
4.7607410722
  0
LINE
  5
249
100
AcDbEntity
  8
0
100
AcDbLine
 62
9
  6
CONTINUOUS
 10
6.4082719802
 20
4.7607410722
 11
6.4382719802
 21
4.760741072
  0
LINE
  5
24A
100
AcDbEntity
  8
0
100
AcDbLine
 62
9
  6
CONTINUOUS
 10
6.4082719802
 20
3.8027410722
 11
6.4082719802
 21
4.1567410722
  0
LINE
  5
24B
100
AcDbEntity
  8
0
100
AcDbLine
 62
9
  6
CONTINUOUS
 10
6.4082719802
 20
4.4067410722
 11
6.4082719802
 21
4.7607410722
  0
LINE
  5
24C
100
AcDbEntity
  8
0
100
AcDbLine
 62
6
  6
CONTINUOUS
 10
6.4382719802
 20
3.8027410722
 11
6.4382719802
 21
4.1567410722
  0
LINE
  5
24D
100
AcDbEntity
  8
0
100
AcDbLine
 62
6
  6
CONTINUOUS
 10
6.4382719802
 20
4.4067410722
 11
6.4382719802
 21
4.7607410722
  0
LINE
  5
24E
100
AcDbEntity
  8
0
100
AcDbLine
 62
6
  6
CONTINUOUS
 10
4.3269185799
 20
4.7817410722
 11
4.0556253806
 21
4.7817410722
  0
LINE
  5
24F
100
AcDbEntity
  8
0
100
AcDbLine
 62
6
  6
CONTINUOUS
 10
7.4716253806
 20
4.7817410722
 11
7.7429185799
 21
4.7817410722
  0
LINE
  5
250
100
AcDbEntity
  8
0
100
AcDbLine
 62
9
  6
CONTINUOUS
 10
6.3782719802
 20
4.7907410722
 11
5.4202719802
 21
4.7907410722
  0
LINE
  5
251
100
AcDbEntity
  8
0
100
AcDbLine
 62
6
  6
CONTINUOUS
 10
6.3782719802
 20
4.8207410722
 11
5.4202719802
 21
4.8207410722
  0
LINE
  5
252
100
AcDbEntity
  8
0
100
AcDbLine
 62
9
  6
CONTINUOUS
 10
6.5656179919
 20
5.0350204082
 11
6.5656179919
 21
5.0060426335
  0
LINE
  5
253
100
AcDbEntity
  8
0
100
AcDbLine
 62
9
  6
CONTINUOUS
 10
6.5656179919
 20
3.5284617361
 11
6.5656179919
 21
3.5574395109
  0
LINE
  5
254
100
AcDbEntity
  8
0
100
AcDbLine
 62
9
  6
CONTINUOUS
 10
6.6235735415
 20
3.6153950605
 11
6.6235735415
 21
4.1567410722
  0
LINE
  5
255
100
AcDbEntity
  8
0
100
AcDbLine
 62
9
  6
CONTINUOUS
 10
6.6235735415
 20
4.4067410722
 11
6.6235735415
 21
4.9480870839
  0
LINE
  5
256
100
AcDbEntity
  8
0
100
AcDbLine
 62
9
  6
CONTINUOUS
 10
6.6525513163
 20
3.6153950605
 11
6.6525513163
 21
4.1567410722
  0
LINE
  5
257
100
AcDbEntity
  8
0
100
AcDbLine
 62
9
  6
CONTINUOUS
 10
6.6525513163
 20
4.4067410722
 11
6.6525513163
 21
4.9480870839
  0
LINE
  5
258
100
AcDbEntity
  8
0
100
AcDbLine
 62
9
  6
CONTINUOUS
 10
6.6525513163
 20
4.9480870839
 11
6.6235735415
 21
4.9480870839
  0
LINE
  5
259
100
AcDbEntity
  8
0
100
AcDbLine
 62
9
  6
CONTINUOUS
 10
5.1459926442
 20
4.9480870839
 11
5.174970419
 21
4.9480870839
  0
LINE
  5
25A
100
AcDbEntity
  8
0
100
AcDbLine
 62
9
  6
CONTINUOUS
 10
6.5656179919
 20
5.0060426335
 11
5.2329259685
 21
5.0060426335
  0
LINE
  5
25B
100
AcDbEntity
  8
0
100
AcDbLine
 62
9
  6
CONTINUOUS
 10
6.5656179919
 20
5.0350204082
 11
5.2329259685
 21
5.0350204082
  0
LINE
  5
25C
100
AcDbEntity
  8
0
100
AcDbLine
 62
9
  6
CONTINUOUS
 10
6.7117719802
 20
3.4392410722
 11
6.7117719801
 21
3.4092410722
  0
LINE
  5
25D
100
AcDbEntity
  8
0
100
AcDbLine
 62
9
  6
CONTINUOUS
 10
6.7117719802
 20
5.1242410722
 11
6.7117719802
 21
5.1542410722
  0
LINE
  5
25E
100
AcDbEntity
  8
0
100
AcDbLine
 62
9
  6
CONTINUOUS
 10
6.7417719802
 20
3.4692410722
 11
6.7417719802
 21
4.1567410722
  0
LINE
  5
25F
100
AcDbEntity
  8
0
100
AcDbLine
 62
9
  6
CONTINUOUS
 10
6.7417719802
 20
4.4067410722
 11
6.7417719802
 21
5.0942410722
  0
LINE
  5
260
100
AcDbEntity
  8
0
100
AcDbLine
 62
6
  6
CONTINUOUS
 10
6.7717719802
 20
3.4692410722
 11
6.7717719802
 21
4.1567410722
  0
LINE
  5
261
100
AcDbEntity
  8
0
100
AcDbLine
 62
6
  6
CONTINUOUS
 10
6.7717719802
 20
4.4067410722
 11
6.7717719802
 21
5.0942410722
  0
LINE
  5
262
100
AcDbEntity
  8
0
100
AcDbLine
 62
9
  6
CONTINUOUS
 10
5.0567719802
 20
5.0942410722
 11
5.0267719802
 21
5.0942410722
  0
LINE
  5
263
100
AcDbEntity
  8
0
100
AcDbLine
 62
9
  6
CONTINUOUS
 10
6.7417719802
 20
5.0942410722
 11
6.7717719802
 21
5.094241072
  0
LINE
  5
264
100
AcDbEntity
  8
0
100
AcDbLine
 62
9
  6
CONTINUOUS
 10
6.7117719802
 20
5.1242410722
 11
5.0867719802
 21
5.1242410722
  0
LINE
  5
265
100
AcDbEntity
  8
0
100
AcDbLine
 62
6
  6
CONTINUOUS
 10
6.7117719802
 20
5.1542410722
 11
5.0867719802
 21
5.1542410722
  0
LINE
  5
266
100
AcDbEntity
  8
0
100
AcDbLine
 62
9
  6
CONTINUOUS
 10
7.0342719802
 20
3.1167410722
 11
7.0342719802
 21
3.0867410722
  0
LINE
  5
267
100
AcDbEntity
  8
0
100
AcDbLine
 62
9
  6
CONTINUOUS
 10
7.0342719802
 20
5.4467410722
 11
7.0342719802
 21
5.4767410722
  0
LINE
  5
268
100
AcDbEntity
  8
0
100
AcDbLine
 62
9
  6
CONTINUOUS
 10
7.0642719802
 20
3.1467410722
 11
7.0642719802
 21
4.1567410722
  0
LINE
  5
269
100
AcDbEntity
  8
0
100
AcDbLine
 62
9
  6
CONTINUOUS
 10
7.0642719802
 20
4.4067410722
 11
7.0642719802
 21
5.4167410722
  0
LINE
  5
26A
100
AcDbEntity
  8
0
100
AcDbLine
 62
6
  6
CONTINUOUS
 10
7.0942719802
 20
3.1467410722
 11
7.0942719802
 21
4.1567410722
  0
LINE
  5
26B
100
AcDbEntity
  8
0
100
AcDbLine
 62
6
  6
CONTINUOUS
 10
7.0942719802
 20
4.4067410722
 11
7.0942719802
 21
5.4167410722
  0
LINE
  5
26C
100
AcDbEntity
  8
0
100
AcDbLine
 62
9
  6
CONTINUOUS
 10
7.1072719802
 20
4.4067410722
 11
7.1072719802
 21
4.1567410722
  0
LINE
  5
26D
100
AcDbEntity
  8
0
100
AcDbLine
 62
9
  6
CONTINUOUS
 10
4.7342719802
 20
5.4167410722
 11
4.7042719802
 21
5.4167410722
  0
LINE
  5
26E
100
AcDbEntity
  8
0
100
AcDbLine
 62
9
  6
CONTINUOUS
 10
7.0642719802
 20
5.4167410722
 11
7.0942719802
 21
5.4167410721
  0
LINE
  5
26F
100
AcDbEntity
  8
0
100
AcDbLine
 62
9
  6
CONTINUOUS
 10
7.0342719802
 20
5.4467410722
 11
4.7642719802
 21
5.4467410722
  0
LINE
  5
270
100
AcDbEntity
  8
0
100
AcDbLine
 62
6
  6
CONTINUOUS
 10
7.0342719802
 20
5.4767410722
 11
4.7642719802
 21
5.4767410722
  0
ARC
  5
271
100
AcDbEntity
  8
0
100
AcDbCircle
 62
6
  6
CONTINUOUS
 10
4.7642719802
 20
3.1467410722
 40
0.06
100
AcDbArc
 50
180.0
 51
270.0
  0
ARC
  5
272
100
AcDbEntity
  8
0
100
AcDbCircle
 62
6
  6
CONTINUOUS
 10
5.0867719802
 20
3.4692410722
 40
0.06
100
AcDbArc
 50
180.0
 51
270.0
  0
ARC
  5
273
100
AcDbEntity
  8
0
100
AcDbCircle
 62
6
  6
CONTINUOUS
 10
5.4202719802
 20
3.8027410722
 40
0.06
100
AcDbArc
 50
180.0
 51
270.0
  0
ARC
  5
274
100
AcDbEntity
  8
0
100
AcDbCircle
 62
6
  6
CONTINUOUS
 10
5.5542719802
 20
3.9367410722
 40
0.03
100
AcDbArc
 50
180.0
 51
270.0
  0
ARC
  5
275
100
AcDbEntity
  8
0
100
AcDbCircle
 62
9
  6
CONTINUOUS
 10
4.7642719802
 20
3.1467410722
 40
0.03
100
AcDbArc
 50
180.0
 51
270.0
  0
ARC
  5
276
100
AcDbEntity
  8
0
100
AcDbCircle
 62
9
  6
CONTINUOUS
 10
5.0867719802
 20
3.4692410722
 40
0.03
100
AcDbArc
 50
180.0
 51
270.0
  0
ARC
  5
277
100
AcDbEntity
  8
0
100
AcDbCircle
 62
9
  6
CONTINUOUS
 10
5.4202719802
 20
3.8027410722
 40
0.03
100
AcDbArc
 50
180.0
 51
270.0
  0
ARC
  5
278
100
AcDbEntity
  8
0
100
AcDbCircle
 62
6
  6
CONTINUOUS
 10
4.6912719802
 20
4.7817410722
 40
0.625
100
AcDbArc
 50
180.0
 51
270.0
  0
ARC
  5
279
100
AcDbEntity
  8
0
100
AcDbCircle
 62
6
  6
CONTINUOUS
 10
4.6912719802
 20
4.7817410722
 40
0.375
100
AcDbArc
 50
180.0
 51
270.0
  0
ARC
  5
27A
100
AcDbEntity
  8
0
100
AcDbCircle
 62
6
  6
CONTINUOUS
 10
4.1912719802
 20
4.9917410722
 40
0.25
100
AcDbArc
 50
302.8598803789
 51
237.1401196211
  0
ARC
  5
27B
100
AcDbEntity
  8
0
100
AcDbCircle
 62
6
  6
CONTINUOUS
 10
4.7642719802
 20
5.4167410722
 40
0.06
100
AcDbArc
 50
90.0
 51
180.0
  0
ARC
  5
27C
100
AcDbEntity
  8
0
100
AcDbCircle
 62
6
  6
CONTINUOUS
 10
5.0867719802
 20
5.0942410722
 40
0.06
100
AcDbArc
 50
90.0
 51
180.0
  0
ARC
  5
27D
100
AcDbEntity
  8
0
100
AcDbCircle
 62
6
  6
CONTINUOUS
 10
5.4202719802
 20
4.7607410722
 40
0.06
100
AcDbArc
 50
90.0
 51
180.0
  0
ARC
  5
27E
100
AcDbEntity
  8
0
100
AcDbCircle
 62
6
  6
CONTINUOUS
 10
5.5542719802
 20
4.6267410722
 40
0.03
100
AcDbArc
 50
90.0
 51
180.0
  0
ARC
  5
27F
100
AcDbEntity
  8
0
100
AcDbCircle
 62
9
  6
CONTINUOUS
 10
4.7642719802
 20
5.4167410722
 40
0.03
100
AcDbArc
 50
90.0
 51
180.0
  0
ARC
  5
280
100
AcDbEntity
  8
0
100
AcDbCircle
 62
9
  6
CONTINUOUS
 10
5.0867719802
 20
5.0942410722
 40
0.03
100
AcDbArc
 50
90.0
 51
180.0
  0
ARC
  5
281
100
AcDbEntity
  8
0
100
AcDbCircle
 62
9
  6
CONTINUOUS
 10
5.4202719802
 20
4.7607410722
 40
0.03
100
AcDbArc
 50
90.0
 51
180.0
  0
ARC
  5
282
100
AcDbEntity
  8
0
100
AcDbCircle
 62
6
  6
CONTINUOUS
 10
7.0342719802
 20
3.1467410722
 40
0.06
100
AcDbArc
 50
270.0
 51
360.0
  0
ARC
  5
283
100
AcDbEntity
  8
0
100
AcDbCircle
 62
6
  6
CONTINUOUS
 10
6.7117719802
 20
3.4692410722
 40
0.06
100
AcDbArc
 50
270.0
 51
360.0
  0
ARC
  5
284
100
AcDbEntity
  8
0
100
AcDbCircle
 62
6
  6
CONTINUOUS
 10
6.3782719802
 20
3.8027410722
 40
0.06
100
AcDbArc
 50
270.0
 51
360.0
  0
ARC
  5
285
100
AcDbEntity
  8
0
100
AcDbCircle
 62
6
  6
CONTINUOUS
 10
6.2442719802
 20
3.9367410722
 40
0.03
100
AcDbArc
 50
270.0
 51
360.0
  0
ARC
  5
286
100
AcDbEntity
  8
0
100
AcDbCircle
 62
9
  6
CONTINUOUS
 10
7.0342719802
 20
3.1467410722
 40
0.03
100
AcDbArc
 50
270.0
 51
360.0
  0
ARC
  5
287
100
AcDbEntity
  8
0
100
AcDbCircle
 62
9
  6
CONTINUOUS
 10
6.7117719802
 20
3.4692410722
 40
0.03
100
AcDbArc
 50
270.0
 51
360.0
  0
ARC
  5
288
100
AcDbEntity
  8
0
100
AcDbCircle
 62
9
  6
CONTINUOUS
 10
6.3782719802
 20
3.8027410722
 40
0.03
100
AcDbArc
 50
270.0
 51
360.0
  0
ARC
  5
289
100
AcDbEntity
  8
0
100
AcDbCircle
 62
6
  6
CONTINUOUS
 10
6.3782719802
 20
4.7607410722
 40
0.06
100
AcDbArc
 50
0.0
 51
90.0
  0
ARC
  5
28A
100
AcDbEntity
  8
0
100
AcDbCircle
 62
6
  6
CONTINUOUS
 10
6.2442719802
 20
4.6267410722
 40
0.03
100
AcDbArc
 50
0.0
 51
90.0
  0
ARC
  5
28B
100
AcDbEntity
  8
0
100
AcDbCircle
 62
9
  6
CONTINUOUS
 10
6.3782719802
 20
4.7607410722
 40
0.03
100
AcDbArc
 50
0.0
 51
90.0
  0
ARC
  5
28C
100
AcDbEntity
  8
0
100
AcDbCircle
 62
6
  6
CONTINUOUS
 10
6.7117719802
 20
5.0942410722
 40
0.06
100
AcDbArc
 50
0.0
 51
90.0
  0
ARC
  5
28D
100
AcDbEntity
  8
0
100
AcDbCircle
 62
9
  6
CONTINUOUS
 10
6.7117719802
 20
5.0942410722
 40
0.03
100
AcDbArc
 50
0.0
 51
90.0
  0
ARC
  5
28E
100
AcDbEntity
  8
0
100
AcDbCircle
 62
6
  6
CONTINUOUS
 10
7.1072719802
 20
4.7817410722
 40
0.625
100
AcDbArc
 50
270.0
 51
360.0
  0
ARC
  5
28F
100
AcDbEntity
  8
0
100
AcDbCircle
 62
6
  6
CONTINUOUS
 10
7.1072719802
 20
4.7817410722
 40
0.375
100
AcDbArc
 50
270.0
 51
360.0
  0
ARC
  5
290
100
AcDbEntity
  8
0
100
AcDbCircle
 62
6
  6
CONTINUOUS
 10
7.6072719802
 20
4.9917410722
 40
0.25
100
AcDbArc
 50
302.8598803789
 51
237.1401196211
  0
ARC
  5
291
100
AcDbEntity
  8
0
100
AcDbCircle
 62
6
  6
CONTINUOUS
 10
7.0342719802
 20
5.4167410722
 40
0.06
100
AcDbArc
 50
0.0
 51
90.0
  0
ARC
  5
292
100
AcDbEntity
  8
0
100
AcDbCircle
 62
9
  6
CONTINUOUS
 10
7.0342719802
 20
5.4167410722
 40
0.03
100
AcDbArc
 50
0.0
 51
90.0
  0
SPLINE
  5
293
100
AcDbEntity
  8
0
100
AcDbSpline
 62
9
  6
CONTINUOUS
 70
0
 71
3
 72
36
 73
32
 74
0
 42
0.0000001
 43
0.0000001
 44
0.0000000001
 40
0.0
 40
0.0
 40
0.0
 40
0.0
 40
0.0624350676
 40
0.0936977191
 40
0.1249672293
 40
0.1562334124
 40
0.1874915363
 40
0.2187423603
 40
0.2499881015
 40
0.281232595
 40
0.3124808897
 40
0.343733032
 40
0.3749865286
 40
0.4062396981
 40
0.437492308
 40
0.4687453704
 40
0.4999991123
 40
0.5624870416
 40
0.5937415635
 40
0.6249974712
 40
0.6562541912
 40
0.6875097966
 40
0.7187616617
 40
0.7500099478
 40
0.7812593458
 40
0.812513114
 40
0.8437728535
 40
0.8750388133
 40
0.9063067797
 40
0.9375673993
 40
1.0
 40
1.0
 40
1.0
 40
1.0
 10
6.5656179919
 20
3.5284617361
 30
0.0
 10
6.5684678329
 20
3.5284619391
 30
0.0
 10
6.5727482046
 20
3.5286607977
 30
0.0
 10
6.5784150248
 20
3.5293242916
 30
0.0
 10
6.5826408596
 20
3.5300227441
 30
0.0
 10
6.586828039
 20
3.53092286
 30
0.0
 10
6.5909658885
 20
3.5320247412
 30
0.0
 10
6.5950443868
 20
3.5333262025
 30
0.0
 10
6.5990537375
 20
3.5348255263
 30
0.0
 10
6.6029841564
 20
3.5365208152
 30
0.0
 10
6.6068253601
 20
3.5384102761
 30
0.0
 10
6.6105677021
 20
3.5404895321
 30
0.0
 10
6.6142014705
 20
3.5427536282
 30
0.0
 10
6.6177168256
 20
3.545197636
 30
0.0
 10
6.621103681
 20
3.547816768
 30
0.0
 10
6.6243527145
 20
3.5506053125
 30
0.0
 10
6.628489473
 20
3.5545371232
 30
0.0
 10
6.6323223979
 20
3.5587792433
 30
0.0
 10
6.6358137194
 20
3.5632942117
 30
0.0
 10
6.6382581246
 20
3.5668098637
 30
0.0
 10
6.6405225851
 20
3.5704438764
 30
0.0
 10
6.6426022285
 20
3.5741865497
 30
0.0
 10
6.6444919327
 20
3.578028185
 30
0.0
 10
6.646187369
 20
3.5819590895
 30
0.0
 10
6.647686811
 20
3.5859689022
 30
0.0
 10
6.6489883685
 20
3.5900477629
 30
0.0
 10
6.6500903429
 20
3.5941857909
 30
0.0
 10
6.6509905701
 20
3.5983729398
 30
0.0
 10
6.6516889873
 20
3.6025986064
 30
0.0
 10
6.6523523641
 20
3.6082651641
 30
0.0
 10
6.6525511076
 20
3.6125453321
 30
0.0
 10
6.6525513163
 20
3.6153950605
 30
0.0
  0
SPLINE
  5
294
100
AcDbEntity
  8
0
100
AcDbSpline
 62
9
  6
CONTINUOUS
 70
0
 71
3
 72
36
 73
32
 74
0
 42
0.0000001
 43
0.0000001
 44
0.0000000001
 40
0.0
 40
0.0
 40
0.0
 40
0.0
 40
0.0624350676
 40
0.0936977191
 40
0.1249672293
 40
0.1562334124
 40
0.1874915363
 40
0.2187423603
 40
0.2499881015
 40
0.281232595
 40
0.3124808897
 40
0.343733032
 40
0.3749865286
 40
0.4062396981
 40
0.437492308
 40
0.4687453704
 40
0.4999991123
 40
0.5624870416
 40
0.5937415635
 40
0.6249974712
 40
0.6562541912
 40
0.6875097966
 40
0.7187616617
 40
0.7500099478
 40
0.7812593458
 40
0.812513114
 40
0.8437728535
 40
0.8750388133
 40
0.9063067797
 40
0.9375673993
 40
1.0
 40
1.0
 40
1.0
 40
1.0
 10
6.6525513163
 20
4.9480870839
 30
0.0
 10
6.6525511133
 20
4.9509369249
 30
0.0
 10
6.6523522547
 20
4.9552172965
 30
0.0
 10
6.6516887608
 20
4.9608841168
 30
0.0
 10
6.6509903083
 20
4.9651099516
 30
0.0
 10
6.6500901924
 20
4.9692971309
 30
0.0
 10
6.6489883112
 20
4.9734349805
 30
0.0
 10
6.6476868499
 20
4.9775134787
 30
0.0
 10
6.6461875261
 20
4.9815228295
 30
0.0
 10
6.6444922372
 20
4.9854532484
 30
0.0
 10
6.6426027763
 20
4.9892944521
 30
0.0
 10
6.6405235203
 20
4.9930367941
 30
0.0
 10
6.6382594242
 20
4.9966705625
 30
0.0
 10
6.6358154164
 20
5.0001859176
 30
0.0
 10
6.6331962844
 20
5.0035727729
 30
0.0
 10
6.6304077399
 20
5.0068218065
 30
0.0
 10
6.6264759292
 20
5.010958565
 30
0.0
 10
6.6222338091
 20
5.0147914899
 30
0.0
 10
6.6177188407
 20
5.0182828114
 30
0.0
 10
6.6142031887
 20
5.0207272166
 30
0.0
 10
6.610569176
 20
5.022991677
 30
0.0
 10
6.6068265027
 20
5.0250713205
 30
0.0
 10
6.6029848674
 20
5.0269610246
 30
0.0
 10
6.5990539629
 20
5.028656461
 30
0.0
 10
6.5950441502
 20
5.0301559029
 30
0.0
 10
6.5909652895
 20
5.0314574604
 30
0.0
 10
6.5868272615
 20
5.0325594348
 30
0.0
 10
6.5826401126
 20
5.0334596621
 30
0.0
 10
6.5784144461
 20
5.0341580793
 30
0.0
 10
6.5727478883
 20
5.0348214561
 30
0.0
 10
6.5684677203
 20
5.0350201995
 30
0.0
 10
6.5656179919
 20
5.0350204082
 30
0.0
  0
SPLINE
  5
295
100
AcDbEntity
  8
0
100
AcDbSpline
 62
9
  6
CONTINUOUS
 70
0
 71
3
 72
36
 73
32
 74
0
 42
0.0000001
 43
0.0000001
 44
0.0000000001
 40
0.0
 40
0.0
 40
0.0
 40
0.0
 40
0.0624350676
 40
0.0936977191
 40
0.1249672293
 40
0.1562334124
 40
0.1874915363
 40
0.2187423603
 40
0.2499881015
 40
0.281232595
 40
0.3124808897
 40
0.343733032
 40
0.3749865286
 40
0.4062396981
 40
0.437492308
 40
0.4687453704
 40
0.4999991123
 40
0.5624870416
 40
0.5937415635
 40
0.6249974712
 40
0.6562541912
 40
0.6875097966
 40
0.7187616617
 40
0.7500099478
 40
0.7812593458
 40
0.812513114
 40
0.8437728535
 40
0.8750388133
 40
0.9063067797
 40
0.9375673993
 40
1.0
 40
1.0
 40
1.0
 40
1.0
 10
5.2329259685
 20
5.0350204082
 30
0.0
 10
5.2300761275
 20
5.0350202053
 30
0.0
 10
5.2257957559
 20
5.0348213466
 30
0.0
 10
5.2201289356
 20
5.0341578527
 30
0.0
 10
5.2159031008
 20
5.0334594003
 30
0.0
 10
5.2117159215
 20
5.0325592843
 30
0.0
 10
5.2075780719
 20
5.0314574032
 30
0.0
 10
5.2034995737
 20
5.0301559418
 30
0.0
 10
5.1994902229
 20
5.0286566181
 30
0.0
 10
5.195559804
 20
5.0269613292
 30
0.0
 10
5.1917186003
 20
5.0250718682
 30
0.0
 10
5.1879762583
 20
5.0229926122
 30
0.0
 10
5.1843424899
 20
5.0207285162
 30
0.0
 10
5.1808271348
 20
5.0182845084
 30
0.0
 10
5.1774402795
 20
5.0156653763
 30
0.0
 10
5.1741912459
 20
5.0128768319
 30
0.0
 10
5.1700544874
 20
5.0089450211
 30
0.0
 10
5.1662215625
 20
5.0047029011
 30
0.0
 10
5.162730241
 20
5.0001879326
 30
0.0
 10
5.1602858358
 20
4.9966722806
 30
0.0
 10
5.1580213754
 20
4.993038268
 30
0.0
 10
5.1559417319
 20
4.9892955947
 30
0.0
 10
5.1540520278
 20
4.9854539593
 30
0.0
 10
5.1523565914
 20
4.9815230549
 30
0.0
 10
5.1508571495
 20
4.9775132422
 30
0.0
 10
5.149555592
 20
4.9734343814
 30
0.0
 10
5.1484536176
 20
4.9692963534
 30
0.0
 10
5.1475533903
 20
4.9651092045
 30
0.0
 10
5.1468549731
 20
4.960883538
 30
0.0
 10
5.1461915963
 20
4.9552169803
 30
0.0
 10
5.1459928529
 20
4.9509368123
 30
0.0
 10
5.1459926442
 20
4.9480870839
 30
0.0
  0
SPLINE
  5
296
100
AcDbEntity
  8
0
100
AcDbSpline
 62
9
  6
CONTINUOUS
 70
0
 71
3
 72
36
 73
32
 74
0
 42
0.0000001
 43
0.0000001
 44
0.0000000001
 40
0.0
 40
0.0
 40
0.0
 40
0.0
 40
0.0624350676
 40
0.0936977191
 40
0.1249672293
 40
0.1562334124
 40
0.1874915363
 40
0.2187423603
 40
0.2499881015
 40
0.281232595
 40
0.3124808897
 40
0.343733032
 40
0.3749865286
 40
0.4062396981
 40
0.437492308
 40
0.4687453704
 40
0.4999991123
 40
0.5624870416
 40
0.5937415635
 40
0.6249974712
 40
0.6562541912
 40
0.6875097966
 40
0.7187616617
 40
0.7500099478
 40
0.7812593458
 40
0.812513114
 40
0.8437728535
 40
0.8750388133
 40
0.9063067797
 40
0.9375673993
 40
1.0
 40
1.0
 40
1.0
 40
1.0
 10
5.1459926442
 20
3.6153950605
 30
0.0
 10
5.1459928471
 20
3.6125452195
 30
0.0
 10
5.1461917058
 20
3.6082648479
 30
0.0
 10
5.1468551997
 20
3.6025980276
 30
0.0
 10
5.1475536521
 20
3.5983721928
 30
0.0
 10
5.1484537681
 20
3.5941850134
 30
0.0
 10
5.1495556492
 20
3.5900471639
 30
0.0
 10
5.1508571106
 20
3.5859686656
 30
0.0
 10
5.1523564343
 20
3.5819593149
 30
0.0
 10
5.1540517232
 20
3.578028896
 30
0.0
 10
5.1559411842
 20
3.5741876923
 30
0.0
 10
5.1580204402
 20
3.5704453503
 30
0.0
 10
5.1602845362
 20
3.5668115819
 30
0.0
 10
5.162728544
 20
3.5632962268
 30
0.0
 10
5.1653476761
 20
3.5599093715
 30
0.0
 10
5.1681362205
 20
3.5566603379
 30
0.0
 10
5.1720680313
 20
3.5525235794
 30
0.0
 10
5.1763101513
 20
3.5486906545
 30
0.0
 10
5.1808251198
 20
3.545199333
 30
0.0
 10
5.1843407718
 20
3.5427549278
 30
0.0
 10
5.1879747844
 20
3.5404904673
 30
0.0
 10
5.1917174577
 20
3.5384108239
 30
0.0
 10
5.1955590931
 20
3.5365211197
 30
0.0
 10
5.1994899975
 20
3.5348256834
 30
0.0
 10
5.2034998102
 20
3.5333262414
 30
0.0
 10
5.207578671
 20
3.532024684
 30
0.0
 10
5.211716699
 20
3.5309227096
 30
0.0
 10
5.2159038479
 20
3.5300224823
 30
0.0
 10
5.2201295144
 20
3.5293240651
 30
0.0
 10
5.2257960721
 20
3.5286606883
 30
0.0
 10
5.2300762401
 20
3.5284619448
 30
0.0
 10
5.2329259685
 20
3.5284617361
 30
0.0
  0
SPLINE
  5
297
100
AcDbEntity
  8
0
100
AcDbSpline
 62
9
  6
CONTINUOUS
 70
0
 71
3
 72
36
 73
32
 74
0
 42
0.0000001
 43
0.0000001
 44
0.0000000001
 40
0.0
 40
0.0
 40
0.0
 40
0.0
 40
0.0622171143
 40
0.0933948618
 40
0.1245963718
 40
0.1558143511
 40
0.1870449253
 40
0.2182850349
 40
0.2495344705
 40
0.280796805
 40
0.3120787638
 40
0.343378766
 40
0.3746903509
 40
0.4060092453
 40
0.4373342846
 40
0.4686658418
 40
0.5000013213
 40
0.5626460194
 40
0.5939731109
 40
0.625295314
 40
0.6566108174
 40
0.6879148358
 40
0.7192005936
 40
0.7504668386
 40
0.8129432624
 40
0.8441757816
 40
0.8753939012
 40
0.9065939335
 40
0.9377695039
 40
0.9689097578
 40
1.0
 40
1.0
 40
1.0
 40
1.0
 10
6.5656179919
 20
3.5574395109
 30
0.0
 10
6.5675329562
 20
3.5573814501
 30
0.0
 10
6.5704138434
 20
3.5574241782
 30
0.0
 10
6.5742378383
 20
3.5577476081
 30
0.0
 10
6.5770961909
 20
3.5581261954
 30
0.0
 10
6.5799344188
 20
3.5586429425
 30
0.0
 10
6.5827448755
 20
3.5592995438
 30
0.0
 10
6.5855200089
 20
3.5600958693
 30
0.0
 10
6.5882522052
 20
3.5610320765
 30
0.0
 10
6.5909338375
 20
3.5621081638
 30
0.0
 10
6.5935567178
 20
3.5633242389
 30
0.0
 10
6.5961129799
 20
3.5646780139
 30
0.0
 10
6.5985946371
 20
3.5661663842
 30
0.0
 10
6.6009934859
 20
3.5677862939
 30
0.0
 10
6.6033010715
 20
3.5695347923
 30
0.0
 10
6.6055095119
 20
3.5714079382
 30
0.0
 10
6.608312656
 20
3.5740617932
 30
0.0
 10
6.6108946552
 20
3.5769416398
 30
0.0
 10
6.6132254348
 20
3.5800180197
 30
0.0
 10
6.6148456564
 20
3.5824171044
 30
0.0
 10
6.6163343308
 20
3.5848989619
 30
0.0
 10
6.6176884187
 20
3.587455452
 30
0.0
 10
6.6189046887
 20
3.5900787287
 30
0.0
 10
6.6203389769
 20
3.5936530161
 30
0.0
 10
6.6214947345
 20
3.5973319978
 30
0.0
 10
6.6223701552
 20
3.6010791068
 30
0.0
 10
6.6228870232
 20
3.6039174447
 30
0.0
 10
6.6232655936
 20
3.6067755767
 30
0.0
 10
6.6235083198
 20
3.6096460277
 30
0.0
 10
6.6236174182
 20
3.612521167
 30
0.0
 10
6.6236025611
 20
3.6144381423
 30
0.0
 10
6.6235735415
 20
3.6153950605
 30
0.0
  0
SPLINE
  5
298
100
AcDbEntity
  8
0
100
AcDbSpline
 62
9
  6
CONTINUOUS
 70
0
 71
3
 72
36
 73
32
 74
0
 42
0.0000001
 43
0.0000001
 44
0.0000000001
 40
0.0
 40
0.0
 40
0.0
 40
0.0
 40
0.0622171143
 40
0.0933948618
 40
0.1245963718
 40
0.1558143511
 40
0.1870449253
 40
0.2182850349
 40
0.2495344705
 40
0.280796805
 40
0.3120787638
 40
0.343378766
 40
0.3746903509
 40
0.4060092453
 40
0.4373342846
 40
0.4686658418
 40
0.5000013213
 40
0.5626460194
 40
0.5939731109
 40
0.625295314
 40
0.6566108174
 40
0.6879148358
 40
0.7192005936
 40
0.7504668386
 40
0.8129432624
 40
0.8441757816
 40
0.8753939012
 40
0.9065939335
 40
0.9377695039
 40
0.9689097578
 40
1.0
 40
1.0
 40
1.0
 40
1.0
 10
6.6235735415
 20
4.9480870839
 30
0.0
 10
6.6236316023
 20
4.9500020481
 30
0.0
 10
6.6235888742
 20
4.9528829353
 30
0.0
 10
6.6232654443
 20
4.9567069303
 30
0.0
 10
6.622886857
 20
4.9595652829
 30
0.0
 10
6.62237011
 20
4.9624035107
 30
0.0
 10
6.6217135086
 20
4.9652139674
 30
0.0
 10
6.6209171831
 20
4.9679891009
 30
0.0
 10
6.6199809759
 20
4.9707212972
 30
0.0
 10
6.6189048886
 20
4.9734029294
 30
0.0
 10
6.6176888135
 20
4.9760258098
 30
0.0
 10
6.6163350385
 20
4.9785820719
 30
0.0
 10
6.6148466682
 20
4.981063729
 30
0.0
 10
6.6132267585
 20
4.9834625779
 30
0.0
 10
6.6114782601
 20
4.9857701634
 30
0.0
 10
6.6096051142
 20
4.9879786039
 30
0.0
 10
6.6069512592
 20
4.990781748
 30
0.0
 10
6.6040714126
 20
4.9933637471
 30
0.0
 10
6.6009950327
 20
4.9956945268
 30
0.0
 10
6.598595948
 20
4.9973147484
 30
0.0
 10
6.5961140905
 20
4.9988034227
 30
0.0
 10
6.5935576004
 20
5.0001575106
 30
0.0
 10
6.5909343237
 20
5.0013737807
 30
0.0
 10
6.5873600363
 20
5.0028080688
 30
0.0
 10
6.5836810546
 20
5.0039638265
 30
0.0
 10
6.5799339456
 20
5.0048392471
 30
0.0
 10
6.5770956077
 20
5.0053561152
 30
0.0
 10
6.5742374757
 20
5.0057346855
 30
0.0
 10
6.5713670247
 20
5.0059774117
 30
0.0
 10
6.5684918854
 20
5.0060865101
 30
0.0
 10
6.5665749101
 20
5.0060716531
 30
0.0
 10
6.5656179919
 20
5.0060426335
 30
0.0
  0
SPLINE
  5
299
100
AcDbEntity
  8
0
100
AcDbSpline
 62
9
  6
CONTINUOUS
 70
0
 71
3
 72
36
 73
32
 74
0
 42
0.0000001
 43
0.0000001
 44
0.0000000001
 40
0.0
 40
0.0
 40
0.0
 40
0.0
 40
0.0622171143
 40
0.0933948618
 40
0.1245963718
 40
0.1558143511
 40
0.1870449253
 40
0.2182850349
 40
0.2495344705
 40
0.280796805
 40
0.3120787638
 40
0.343378766
 40
0.3746903509
 40
0.4060092453
 40
0.4373342846
 40
0.4686658418
 40
0.5000013213
 40
0.5626460194
 40
0.5939731109
 40
0.625295314
 40
0.6566108174
 40
0.6879148358
 40
0.7192005936
 40
0.7504668386
 40
0.8129432624
 40
0.8441757816
 40
0.8753939012
 40
0.9065939335
 40
0.9377695039
 40
0.9689097578
 40
1.0
 40
1.0
 40
1.0
 40
1.0
 10
5.2329259685
 20
5.0060426335
 30
0.0
 10
5.2310110043
 20
5.0061006943
 30
0.0
 10
5.2281301171
 20
5.0060579662
 30
0.0
 10
5.2243061221
 20
5.0057345363
 30
0.0
 10
5.2214477695
 20
5.005355949
 30
0.0
 10
5.2186095417
 20
5.0048392019
 30
0.0
 10
5.215799085
 20
5.0041826006
 30
0.0
 10
5.2130239515
 20
5.0033862751
 30
0.0
 10
5.2102917552
 20
5.0024500679
 30
0.0
 10
5.207610123
 20
5.0013739806
 30
0.0
 10
5.2049872426
 20
5.0001579055
 30
0.0
 10
5.2024309805
 20
4.9988041305
 30
0.0
 10
5.1999493234
 20
4.9973157601
 30
0.0
 10
5.1975504745
 20
4.9956958504
 30
0.0
 10
5.195242889
 20
4.9939473521
 30
0.0
 10
5.1930344485
 20
4.9920742062
 30
0.0
 10
5.1902313044
 20
4.9894203511
 30
0.0
 10
5.1876493053
 20
4.9865405046
 30
0.0
 10
5.1853185256
 20
4.9834641246
 30
0.0
 10
5.183698304
 20
4.98106504
 30
0.0
 10
5.1822096297
 20
4.9785831824
 30
0.0
 10
5.1808555418
 20
4.9760266924
 30
0.0
 10
5.1796392717
 20
4.9734034157
 30
0.0
 10
5.1782049836
 20
4.9698291283
 30
0.0
 10
5.1770492259
 20
4.9661501465
 30
0.0
 10
5.1761738053
 20
4.9624030376
 30
0.0
 10
5.1756569372
 20
4.9595646997
 30
0.0
 10
5.1752783669
 20
4.9567065676
 30
0.0
 10
5.1750356407
 20
4.9538361167
 30
0.0
 10
5.1749265423
 20
4.9509609773
 30
0.0
 10
5.1749413993
 20
4.9490440021
 30
0.0
 10
5.174970419
 20
4.9480870839
 30
0.0
  0
SPLINE
  5
29A
100
AcDbEntity
  8
0
100
AcDbSpline
 62
9
  6
CONTINUOUS
 70
0
 71
3
 72
36
 73
32
 74
0
 42
0.0000001
 43
0.0000001
 44
0.0000000001
 40
0.0
 40
0.0
 40
0.0
 40
0.0
 40
0.0622171143
 40
0.0933948618
 40
0.1245963718
 40
0.1558143511
 40
0.1870449253
 40
0.2182850349
 40
0.2495344705
 40
0.280796805
 40
0.3120787638
 40
0.343378766
 40
0.3746903509
 40
0.4060092453
 40
0.4373342846
 40
0.4686658418
 40
0.5000013213
 40
0.5626460194
 40
0.5939731109
 40
0.625295314
 40
0.6566108174
 40
0.6879148358
 40
0.7192005936
 40
0.7504668386
 40
0.8129432624
 40
0.8441757816
 40
0.8753939012
 40
0.9065939335
 40
0.9377695039
 40
0.9689097578
 40
1.0
 40
1.0
 40
1.0
 40
1.0
 10
5.174970419
 20
3.6153950605
 30
0.0
 10
5.1749123581
 20
3.6134800962
 30
0.0
 10
5.1749550862
 20
3.610599209
 30
0.0
 10
5.1752785161
 20
3.6067752141
 30
0.0
 10
5.1756571034
 20
3.6039168615
 30
0.0
 10
5.1761738505
 20
3.6010786337
 30
0.0
 10
5.1768304518
 20
3.598268177
 30
0.0
 10
5.1776267773
 20
3.5954930435
 30
0.0
 10
5.1785629845
 20
3.5927608472
 30
0.0
 10
5.1796390718
 20
3.590079215
 30
0.0
 10
5.1808551469
 20
3.5874563346
 30
0.0
 10
5.1822089219
 20
3.5849000725
 30
0.0
 10
5.1836972923
 20
3.5824184153
 30
0.0
 10
5.185317202
 20
3.5800195665
 30
0.0
 10
5.1870657004
 20
3.5777119809
 30
0.0
 10
5.1889388462
 20
3.5755035405
 30
0.0
 10
5.1915927013
 20
3.5727003964
 30
0.0
 10
5.1944725478
 20
3.5701183972
 30
0.0
 10
5.1975489278
 20
3.5677876176
 30
0.0
 10
5.1999480124
 20
3.566167396
 30
0.0
 10
5.20242987
 20
3.5646787216
 30
0.0
 10
5.20498636
 20
3.5633246337
 30
0.0
 10
5.2076096367
 20
3.5621083637
 30
0.0
 10
5.2111839241
 20
3.5606740755
 30
0.0
 10
5.2148629059
 20
3.5595183179
 30
0.0
 10
5.2186100148
 20
3.5586428972
 30
0.0
 10
5.2214483527
 20
3.5581260292
 30
0.0
 10
5.2243064848
 20
3.5577474588
 30
0.0
 10
5.2271769357
 20
3.5575047326
 30
0.0
 10
5.2300520751
 20
3.5573956342
 30
0.0
 10
5.2319690503
 20
3.5574104913
 30
0.0
 10
5.2329259685
 20
3.5574395109
 30
0.0
  0
ELLIPSE
  5
29B
100
AcDbEntity
  8
0
100
AcDbEllipse
 62
6
  6
CONTINUOUS
 10
5.8992719802
 20
3.7169401721
 30
0.0
 11
0.13
 21
0.0
 31
0.0
 40
0.2679491924
 41
8.5849603636
 42
13.4061905026
  0
ENDSEC
  0
SECTION
  2
OBJECTS
  0
DICTIONARY
  5
C
100
AcDbDictionary
280
0
281
1
  3
ACAD_GROUP
350
D
  3
ACAD_MLINESTYLE
350
17
  3
ACAD_LAYOUT
350
1A
  3
ACAD_PLOTSETTINGS
350
19
  3
ACAD_PLOTSTYLENAME
350
E
  0
DICTIONARY
  5
D
102
{ACAD_REACTORS
330
C
102
}
100
AcDbDictionary
280
0
281
1
  0
ACDBDICTIONARYWDFLT
  5
E
102
{ACAD_REACTORS
330
C
102
}
100
AcDbDictionary
281
1
  3
Normal
350
F
100
AcDbDictionaryWithDefault
340
F
  0
DICTIONARY
  5
17
102
{ACAD_REACTORS
330
C
102
}
100
AcDbDictionary
280
0
281
1
  3
Standard
350
18
  0
DICTIONARY
  5
19
102
{ACAD_REACTORS
330
C
102
}
100
AcDbDictionary
281
1
  0
DICTIONARY
  5
1A
102
{ACAD_REACTORS
330
C
102
}
100
AcDbDictionary
281
1
  3
Model
350
29C
  3
Layout1
350
29D
  0
ACDBPLACEHOLDER
  5
F
102
{ACAD_REACTORS
330
E
102
}
  0
MLINESTYLE
  5
18
102
{ACAD_REACTORS
330
17
102
}
100
AcDbMlineStyle
  2
STANDARD
 70
0
  3

 62
256
 51
90.0
 52
90.0
 71
2
 49
0.5
 62
256
  6
BYLAYER
 49
-0.5
 62
256
  6
BYLAYER
  0
LAYOUT
  5
29C
102
{ACAD_REACTORS
330
1A
102
}
100
AcDbPlotSettings
  1

  2
none_device
  4
ISO_A4_(297.00_x_210.00_MM)
  6

 40
0.0
 41
0.0
 42
0.0
 43
0.0
 44
297.0
 45
210.0
 46
0.0
 47
0.0
 48
0.0
 49
0.0
140
0.0
141
0.0
142
1.0
143
1.0
 70
1024
 72
0
 73
0
 74
0
  7

 75
0
147
1.0
148
0.0
149
0.0
100
AcDbLayout
  1
Model
 70
0
 71
0
 10
0.0
 20
0.0
 11
11.6929133858
 21
8.2677165354
 12
0.0
 22
0.0
 32
0.0
 14
0.0
 24
0.0
 34
0.0
 15
0.0
 25
0.0
 35
0.0
146
0.0
 13
0.0
 23
0.0
 33
0.0
 16
1.0
 26
0.0
 36
0.0
 17
0.0
 27
1.0
 37
0.0
 76
0
330
202
345
0
346
0
  0
LAYOUT
  5
29D
102
{ACAD_REACTORS
330
1A
102
}
100
AcDbPlotSettings
  1

  2
none_device
  4
ISO_A4_(297.00_x_210.00_MM)
  6

 40
0.0
 41
0.0
 42
0.0
 43
0.0
 44
297.0
 45
210.0
 46
0.0
 47
0.0
 48
0.0
 49
0.0
140
0.0
141
0.0
142
1.0
143
1.0
 70
0
 72
0
 73
0
 74
0
  7

 75
0
147
1.0
148
0.0
149
0.0
100
AcDbLayout
  1
Layout1
 70
0
 71
1
 10
0.0
 20
0.0
 11
11.6929133858
 21
8.2677165354
 12
0.0
 22
0.0
 32
0.0
 14
0.0
 24
0.0
 34
0.0
 15
0.0
 25
0.0
 35
0.0
146
0.0
 13
0.0
 23
0.0
 33
0.0
 16
1.0
 26
0.0
 36
0.0
 17
0.0
 27
1.0
 37
0.0
 76
0
330
203
345
0
346
0
  0
ENDSEC
  0
EOF
