999
DXF file: 43-27_top.dxf
999
Pro/ENGINEER 2013150 by Parametric Technology Corporation
  0
SECTION
  2
HEADER
  9
$ACADVER
  1
AC1021
  9
$DWGCODEPAGE
  3
ANSI_1252
  9
$EXTMAX
 10
11.0
 20
8.5
 30
0.0
  9
$EXTMIN
 10
0.0
 20
0.0
 30
0.0
  9
$LIMMIN
 10
0.0
 20
0.0
  9
$LIMMAX
 10
11.0
 20
8.5
  9
$VIEWCTR
 10
5.5
 20
4.25
  9
$VIEWSIZE
 40
8.5
  9
$CLAYER
  8
0
  9
$LTSCALE
 40
0.605
  9
$CELTYPE
  6
BYLAYER
  9
$DIMSCALE
 40
1.0
  9
$DIMASZ
 40
0.1
  9
$DIMEXO
 40
0.0625
  9
$DIMDLI
 40
0.418
  9
$DIMEXE
 40
0.125
  9
$DIMCEN
 40
0.099
  9
$DIMLFAC
 40
1.0
  9
$DIMBLK
  1
_FILLED
  9
$DIMTXT
 40
0.08
  9
$DIMTOL
 70
1
  9
$DIMLIM
 70
0
  9
$DIMTFAC
 40
1.0
  9
$DIMTP
 40
0.001
  9
$DIMTM
 40
0.001
  9
$DIMGAP
 40
0.09
  9
$DIMDSEP
 70
46
  9
$PDMODE
 70
3
  9
$PDSIZE
 40
0.3125
  9
$HANDSEED
  5
2B6
  9
$TILEMODE
 70
1
  9
$MEASUREMENT
 70
0
  9
$INSUNITS
 70
1
  0
ENDSEC
  0
SECTION
  2
CLASSES
  0
CLASS
  1
ACDBDICTIONARYWDFLT
  2
AcDbDictionaryWithDefault
  3
AutoCAD 2000
 90
0
 91
1
280
0
281
0
  0
CLASS
  1
ACDBPLACEHOLDER
  2
AcDbPlaceHolder
  3
AutoCAD 2000
 90
0
 91
1
280
0
281
0
  0
CLASS
  1
LAYOUT
  2
AcDbLayout
  3
AutoCAD 2000
 90
0
 91
0
280
0
281
0
  0
ENDSEC
  0
SECTION
  2
TABLES
  0
TABLE
  2
VPORT
  5
8
100
AcDbSymbolTable
 70
2
  0
VPORT
  5
1F4
100
AcDbSymbolTableRecord
100
AcDbViewportTableRecord
  2
*ACTIVE
 70
0
 10
0.0
 20
0.0
 11
1.0
 21
1.0
 12
5.5
 22
4.25
 13
0.0
 23
0.0
 14
1.0
 24
1.0
 15
0.0
 25
0.0
 16
0.0
 26
0.0
 36
1.0
 17
0.0
 27
0.0
 37
0.0
 40
8.5
 41
1.2941176471
 42
50.0
 43
0.0
 44
0.0
 50
0.0
 51
0.0
 71
0
 72
100
 73
1
 74
1
 75
0
 76
0
 77
0
 78
0
  0
ENDTAB
  0
TABLE
  2
LTYPE
  5
5
100
AcDbSymbolTable
 70
6
  0
LTYPE
  5
14
100
AcDbSymbolTableRecord
100
AcDbLinetypeTableRecord
  2
BYBLOCK
 70
0
  3

 72
65
 73
0
 40
0.0
  0
LTYPE
  5
15
100
AcDbSymbolTableRecord
100
AcDbLinetypeTableRecord
  2
BYLAYER
 70
0
  3

 72
65
 73
0
 40
0.0
  0
LTYPE
  5
16
100
AcDbSymbolTableRecord
100
AcDbLinetypeTableRecord
  2
CONTINUOUS
 70
64
  3
Solid line
 72
65
 73
0
 40
0.0
  0
LTYPE
  5
1F5
100
AcDbSymbolTableRecord
100
AcDbLinetypeTableRecord
  2
CENTER
 70
64
  3
____ _ ____ _ ____ _ ____ _ ____ _ ____ _ ____
 72
65
 73
4
 40
0.6
 49
0.375
 74
0
 49
-0.075
 74
0
 49
0.075
 74
0
 49
-0.075
 74
0
  0
LTYPE
  5
1F6
100
AcDbSymbolTableRecord
100
AcDbLinetypeTableRecord
  2
HIDDEN
 70
64
  3
- - - - - - - - - - - - - - - - - - - -
 72
65
 73
2
 40
0.2
 49
0.1
 74
0
 49
-0.1
 74
0
  0
LTYPE
  5
1F7
100
AcDbSymbolTableRecord
100
AcDbLinetypeTableRecord
  2
PHANTOM
 70
64
  3
_____ _ _ _____ _ _ _____ _ _ _____
 72
65
 73
6
 40
0.8
 49
0.45
 74
0
 49
-0.05
 74
0
 49
0.1
 74
0
 49
-0.05
 74
0
 49
0.1
 74
0
 49
-0.05
 74
0
  0
LTYPE
  5
1F8
100
AcDbSymbolTableRecord
100
AcDbLinetypeTableRecord
  2
DOT
 70
64
  3
. . . . . . . . . . . . . . . . . . . .
 72
65
 73
2
 40
0.2
 49
0.1
 74
0
 49
-0.1
 74
0
  0
LTYPE
  5
1F9
100
AcDbSymbolTableRecord
100
AcDbLinetypeTableRecord
  2
DASHED
 70
64
  3
- - - - - - - - - - - - - - - - - - - -
 72
65
 73
2
 40
0.2
 49
0.1
 74
0
 49
-0.1
 74
0
  0
ENDTAB
  0
TABLE
  2
LAYER
  5
2
100
AcDbSymbolTable
 70
36
  0
LAYER
  5
10
100
AcDbSymbolTableRecord
100
AcDbLayerTableRecord
  2
0
 70
0
 62
7
  6
CONTINUOUS
370
-3
390
F
  0
LAYER
  5
1FA
100
AcDbSymbolTableRecord
100
AcDbLayerTableRecord
  2
DEFAULT_1
 70
0
 62
7
  6
CENTER
370
-3
390
F
  0
LAYER
  5
1FB
100
AcDbSymbolTableRecord
100
AcDbLayerTableRecord
  2
DEFAULT_2
 70
0
 62
8
  6
HIDDEN
370
-3
390
F
  0
LAYER
  5
1FC
100
AcDbSymbolTableRecord
100
AcDbLayerTableRecord
  2
DEFAULT_3
 70
0
 62
7
  6
PHANTOM
370
-3
390
F
  0
LAYER
  5
1FD
100
AcDbSymbolTableRecord
100
AcDbLayerTableRecord
  2
ALL_ASSEMBLY_MEMBERS
 70
0
 62
7
  6
CONTINUOUS
370
-3
390
F
  0
LAYER
  5
1FE
100
AcDbSymbolTableRecord
100
AcDbLayerTableRecord
  2
ALL_FEATURES
 70
0
 62
7
  6
CONTINUOUS
370
-3
390
F
  0
LAYER
  5
1FF
100
AcDbSymbolTableRecord
100
AcDbLayerTableRecord
  2
AXES_FEATURES
 70
0
 62
7
  6
CONTINUOUS
370
-3
390
F
  0
LAYER
  5
200
100
AcDbSymbolTableRecord
100
AcDbLayerTableRecord
  2
CHAMFER_FEATURES
 70
0
 62
7
  6
CONTINUOUS
370
-3
390
F
  0
LAYER
  5
201
100
AcDbSymbolTableRecord
100
AcDbLayerTableRecord
  2
CUT_FEATURES
 70
0
 62
7
  6
CONTINUOUS
370
-3
390
F
  0
LAYER
  5
202
100
AcDbSymbolTableRecord
100
AcDbLayerTableRecord
  2
DATUM_CURVES
 70
0
 62
7
  6
CONTINUOUS
370
-3
390
F
  0
LAYER
  5
203
100
AcDbSymbolTableRecord
100
AcDbLayerTableRecord
  2
DATUM_PLANES
 70
0
 62
7
  6
CONTINUOUS
370
-3
390
F
  0
LAYER
  5
204
100
AcDbSymbolTableRecord
100
AcDbLayerTableRecord
  2
DEFAULT_COORDINATE_SYSTEM
 70
0
 62
7
  6
CONTINUOUS
370
-3
390
F
  0
LAYER
  5
205
100
AcDbSymbolTableRecord
100
AcDbLayerTableRecord
  2
DEFAULT_DATUM_AXES
 70
0
 62
7
  6
CONTINUOUS
370
-3
390
F
  0
LAYER
  5
206
100
AcDbSymbolTableRecord
100
AcDbLayerTableRecord
  2
DEFAULT_DATUM_CURVES
 70
0
 62
7
  6
CONTINUOUS
370
-3
390
F
  0
LAYER
  5
207
100
AcDbSymbolTableRecord
100
AcDbLayerTableRecord
  2
DEFAULT_DATUM_PLANES
 70
0
 62
7
  6
CONTINUOUS
370
-3
390
F
  0
LAYER
  5
208
100
AcDbSymbolTableRecord
100
AcDbLayerTableRecord
  2
DEFAULT_SURFACES
 70
0
 62
7
  6
CONTINUOUS
370
-3
390
F
  0
LAYER
  5
209
100
AcDbSymbolTableRecord
100
AcDbLayerTableRecord
  2
DIMENSIONS
 70
0
 62
7
  6
CONTINUOUS
370
-3
390
F
  0
LAYER
  5
20A
100
AcDbSymbolTableRecord
100
AcDbLayerTableRecord
  2
HOLE_FEATURES
 70
0
 62
7
  6
CONTINUOUS
370
-3
390
F
  0
LAYER
  5
20B
100
AcDbSymbolTableRecord
100
AcDbLayerTableRecord
  2
MIXEDCOLOR
 70
0
 62
7
  6
CONTINUOUS
370
-3
390
F
  0
LAYER
  5
20C
100
AcDbSymbolTableRecord
100
AcDbLayerTableRecord
  2
PART_REFERENCE_DIMENSIONS
 70
0
 62
7
  6
CONTINUOUS
370
-3
390
F
  0
LAYER
  5
20D
100
AcDbSymbolTableRecord
100
AcDbLayerTableRecord
  2
PLATED_AREA
 70
0
 62
7
  6
CONTINUOUS
370
-3
390
F
  0
LAYER
  5
20E
100
AcDbSymbolTableRecord
100
AcDbLayerTableRecord
  2
PROTRUSION_FEATURES
 70
0
 62
7
  6
CONTINUOUS
370
-3
390
F
  0
LAYER
  5
20F
100
AcDbSymbolTableRecord
100
AcDbLayerTableRecord
  2
QUILTS
 70
0
 62
7
  6
CONTINUOUS
370
-3
390
F
  0
LAYER
  5
210
100
AcDbSymbolTableRecord
100
AcDbLayerTableRecord
  2
REFERENCE_DIMENSIONS
 70
0
 62
7
  6
CONTINUOUS
370
-3
390
F
  0
LAYER
  5
211
100
AcDbSymbolTableRecord
100
AcDbLayerTableRecord
  2
ROUND_FEATURES
 70
0
 62
7
  6
CONTINUOUS
370
-3
390
F
  0
LAYER
  5
212
100
AcDbSymbolTableRecord
100
AcDbLayerTableRecord
  2
XSEC_DATUMS
 70
0
 62
7
  6
CONTINUOUS
370
-3
390
F
  0
ENDTAB
  0
TABLE
  2
STYLE
  5
3
100
AcDbSymbolTable
 70
1
  0
STYLE
  5
11
100
AcDbSymbolTableRecord
100
AcDbTextStyleTableRecord
  2
STANDARD
 70
0
 40
0.0
 41
0.8
 50
0.0
 71
0
 42
0.2
  3
txt
  4

  0
STYLE
  5
213
100
AcDbSymbolTableRecord
100
AcDbTextStyleTableRecord
  2
TEXTSTYLE_1
 70
0
 40
0.0
 41
0.8
 50
0.0
 71
0
 42
0.2
  3
gdt
  4

  0
ENDTAB
  0
TABLE
  2
VIEW
  5
6
100
AcDbSymbolTable
 70
0
  0
ENDTAB
  0
TABLE
  2
UCS
  5
7
100
AcDbSymbolTable
 70
0
  0
ENDTAB
  0
TABLE
  2
APPID
  5
9
100
AcDbSymbolTable
 70
1
  0
APPID
  5
214
100
AcDbSymbolTableRecord
100
AcDbRegAppTableRecord
  2
ACAD
 70
0
  0
ENDTAB
  0
TABLE
  2
BLOCK_RECORD
  5
1
100
AcDbSymbolTable
 70
0
  0
BLOCK_RECORD
  5
215
100
AcDbSymbolTableRecord
100
AcDbBlockTableRecord
  2
*Model_Space
  0
BLOCK_RECORD
  5
216
100
AcDbSymbolTableRecord
100
AcDbBlockTableRecord
  2
*Paper_Space
  0
ENDTAB
  0
TABLE
  2
DIMSTYLE
  5
A
100
AcDbSymbolTable
 70
1
100
AcDbDimStyleTable
 71
0
  0
DIMSTYLE
105
217
100
AcDbSymbolTableRecord
100
AcDbDimStyleTableRecord
  2
STANDARD
 70
0
  3

  4

 40
1.0
 41
0.1
 42
0.0625
 43
0.38
 44
0.125
 45
0.0
 46
0.0
 47
0.001
 48
0.001
140
0.08
141
0.09
142
0.0
143
25.4
144
1.0
145
0.0
146
1.0
147
0.09
 71
1.0
 72
0.0
 73
1
 74
1
 75
0
 76
0
 77
0
 78
4
170
0
171
2
172
0
173
0
174
0
175
0
176
0
177
0
178
0
270
2
271
3
272
3
273
2
274
2
275
0
280
0
281
0
282
0
283
1
284
4
285
0
286
0
287
3
288
0
340
11
278
46
  0
ENDTAB
  0
ENDSEC
  0
SECTION
  2
BLOCKS
  0
BLOCK
  5
20
100
AcDbEntity
  8
0
100
AcDbBlockBegin
  2
*Model_Space
 70
0
 10
0.0
 20
0.0
 30
0.0
  3
*Model_Space
  1

  0
ENDBLK
  5
21
100
AcDbEntity
  8
0
100
AcDbBlockEnd
  0
BLOCK
  5
1C
100
AcDbEntity
  8
0
100
AcDbBlockBegin
  2
*Paper_Space
 70
0
 10
0.0
 20
0.0
 30
0.0
  3
*Paper_Space
  1

  0
ENDBLK
  5
1D
100
AcDbEntity
  8
0
100
AcDbBlockEnd
  0
ENDSEC
  0
SECTION
  2
ENTITIES
  0
LINE
  5
218
100
AcDbEntity
  8
0
100
AcDbLine
 62
7
  6
CONTINUOUS
 10
0.0
 20
0.0
 11
0.0
 21
8.5
  0
LINE
  5
219
100
AcDbEntity
  8
0
100
AcDbLine
 62
7
  6
CONTINUOUS
 10
0.0
 20
0.0
 11
11.0
 21
0.0
  0
LINE
  5
21A
100
AcDbEntity
  8
0
100
AcDbLine
 62
7
  6
CONTINUOUS
 10
0.0
 20
8.5
 11
11.0
 21
8.5
  0
LINE
  5
21B
100
AcDbEntity
  8
0
100
AcDbLine
 62
7
  6
CONTINUOUS
 10
11.0
 20
0.0
 11
11.0
 21
8.5
  0
LINE
  5
21C
100
AcDbEntity
  8
ALL_ASSEMBLY_MEMBERS
100
AcDbLine
 62
7
  6
CONTINUOUS
 10
2.7047971275
 20
2.7876154208
 11
2.65933232
 21
2.7955103018
  0
LINE
  5
21D
100
AcDbEntity
  8
ALL_ASSEMBLY_MEMBERS
100
AcDbLine
 62
7
  6
CONTINUOUS
 10
3.2923320754
 20
2.7450126538
 11
3.2923320754
 21
3.0262626538
  0
LINE
  5
21E
100
AcDbEntity
  8
ALL_ASSEMBLY_MEMBERS
100
AcDbLine
 62
7
  6
CONTINUOUS
 10
6.0110820754
 20
2.7450126538
 11
3.2923320754
 21
2.7450126538
  0
LINE
  5
21F
100
AcDbEntity
  8
ALL_ASSEMBLY_MEMBERS
100
AcDbLine
 62
7
  6
CONTINUOUS
 10
2.7529155909
 20
3.0647186073
 11
2.7074935512
 21
3.0726060617
  0
LINE
  5
220
100
AcDbEntity
  8
ALL_ASSEMBLY_MEMBERS
100
AcDbLine
 62
7
  6
CONTINUOUS
 10
6.0110820754
 20
3.0262626538
 11
3.2923320754
 21
3.0262626538
  0
LINE
  5
221
100
AcDbEntity
  8
0
100
AcDbLine
 62
7
  6
CONTINUOUS
 10
3.6037182282
 20
5.3718571364
 11
3.6021828945
 21
5.3911256831
  0
LINE
  5
222
100
AcDbEntity
  8
0
100
AcDbLine
 62
7
  6
CONTINUOUS
 10
3.5525820754
 20
5.2956776701
 11
3.5525820754
 21
5.3730436456
  0
LINE
  5
223
100
AcDbEntity
  8
0
100
AcDbLine
 62
7
  6
CONTINUOUS
 10
3.5900820754
 20
5.4461446032
 11
3.5900820754
 21
5.5806776701
  0
LINE
  5
224
100
AcDbEntity
  8
0
100
AcDbLine
 62
7
  6
CONTINUOUS
 10
3.5975820754
 20
5.2731776701
 11
3.5975820754
 21
5.371040751
  0
LINE
  5
225
100
AcDbEntity
  8
0
100
AcDbLine
 62
7
  6
CONTINUOUS
 10
3.6350821212
 20
5.3730436456
 11
3.6350820754
 21
5.5806776701
  0
LINE
  5
226
100
AcDbEntity
  8
0
100
AcDbLine
 62
7
  6
CONTINUOUS
 10
4.7075820754
 20
3.1090526701
 11
4.1900820754
 21
3.1090526701
  0
LINE
  5
227
100
AcDbEntity
  8
0
100
AcDbLine
 62
7
  6
CONTINUOUS
 10
4.7300820754
 20
3.1315526701
 11
4.1675820754
 21
3.1315526701
  0
LINE
  5
228
100
AcDbEntity
  8
ALL_ASSEMBLY_MEMBERS
100
AcDbLine
 62
7
  6
CONTINUOUS
 10
4.7300820754
 20
3.2496776701
 11
6.0110820754
 21
3.2496776701
  0
LINE
  5
229
100
AcDbEntity
  8
0
100
AcDbLine
 62
7
  6
CONTINUOUS
 10
3.7944570754
 20
5.1475526701
 11
3.7944570754
 21
5.2656776701
  0
LINE
  5
22A
100
AcDbEntity
  8
0
100
AcDbLine
 62
7
  6
CONTINUOUS
 10
3.8394570754
 20
5.1250526701
 11
3.8394570754
 21
5.2656776701
  0
LINE
  5
22B
100
AcDbEntity
  8
0
100
AcDbLine
 62
7
  6
CONTINUOUS
 10
3.8863320754
 20
5.2731776701
 11
3.8863320754
 21
5.2656776701
  0
LINE
  5
22C
100
AcDbEntity
  8
0
100
AcDbLine
 62
7
  6
CONTINUOUS
 10
3.5975820757
 20
5.371040751
 11
3.5940944981
 21
5.390886705
  0
LINE
  5
22D
100
AcDbEntity
  8
0
100
AcDbLine
 62
7
  6
CONTINUOUS
 10
4.0885244656
 20
3.8078274259
 11
4.0895820754
 21
3.7853994652
  0
LINE
  5
22E
100
AcDbEntity
  8
0
100
AcDbLine
 62
7
  6
CONTINUOUS
 10
3.9358478387
 20
5.1250526701
 11
3.9358478387
 21
5.1064597541
  0
LINE
  5
22F
100
AcDbEntity
  8
0
100
AcDbLine
 62
7
  6
CONTINUOUS
 10
4.0445820754
 20
3.6940526701
 11
4.0445820754
 21
3.7892469851
  0
LINE
  5
230
100
AcDbEntity
  8
0
100
AcDbLine
 62
7
  6
CONTINUOUS
 10
4.0588320754
 20
5.2731776701
 11
4.0588320754
 21
5.2656776701
  0
LINE
  5
231
100
AcDbEntity
  8
ALL_ASSEMBLY_MEMBERS
100
AcDbLine
 62
7
  6
CONTINUOUS
 10
4.7300820754
 20
3.5309276701
 11
6.0110820754
 21
3.5309276701
  0
LINE
  5
232
100
AcDbEntity
  8
0
100
AcDbLine
 62
7
  6
CONTINUOUS
 10
3.8915314898
 20
5.1064597541
 11
4.1065848712
 21
3.8868314221
  0
LINE
  5
233
100
AcDbEntity
  8
0
100
AcDbLine
 62
7
  6
CONTINUOUS
 10
4.0895820754
 20
3.6715526701
 11
4.0895820754
 21
3.7853994652
  0
LINE
  5
234
100
AcDbEntity
  8
0
100
AcDbLine
 62
7
  6
CONTINUOUS
 10
4.1509000696
 20
3.8868314221
 11
4.150902777
 21
3.7892470073
  0
LINE
  5
235
100
AcDbEntity
  8
0
100
AcDbLine
 62
7
  6
CONTINUOUS
 10
4.1675820754
 20
3.1315526701
 11
4.1675820754
 21
3.6490526701
  0
LINE
  5
236
100
AcDbEntity
  8
0
100
AcDbLine
 62
7
  6
CONTINUOUS
 10
4.1900820754
 20
3.1090526701
 11
4.1900820754
 21
3.6715526701
  0
LINE
  5
237
100
AcDbEntity
  8
0
100
AcDbLine
 62
7
  6
CONTINUOUS
 10
4.1675820754
 20
3.6490526701
 11
4.7300820754
 21
3.6490526701
  0
LINE
  5
238
100
AcDbEntity
  8
0
100
AcDbLine
 62
7
  6
CONTINUOUS
 10
4.8305820754
 20
3.6715526701
 11
4.0670820754
 21
3.6715526701
  0
LINE
  5
239
100
AcDbEntity
  8
0
100
AcDbLine
 62
7
  6
CONTINUOUS
 10
4.8530820754
 20
3.6940526701
 11
4.0445820754
 21
3.6940526701
  0
LINE
  5
23A
100
AcDbEntity
  8
0
100
AcDbLine
 62
7
  6
CONTINUOUS
 10
4.150902777
 20
3.7892470073
 11
4.7467661047
 21
3.7892468628
  0
LINE
  5
23B
100
AcDbEntity
  8
0
100
AcDbLine
 62
7
  6
CONTINUOUS
 10
4.1509027125
 20
3.8107126348
 11
4.7467671748
 21
3.8107126211
  0
LINE
  5
23C
100
AcDbEntity
  8
0
100
AcDbLine
 62
7
  6
CONTINUOUS
 10
3.9358478387
 20
5.1064597541
 11
4.1509012201
 21
3.8868314221
  0
LINE
  5
23D
100
AcDbEntity
  8
0
100
AcDbLine
 62
7
  6
CONTINUOUS
 10
4.7467629308
 20
3.8868314221
 11
4.1509012201
 21
3.8868314221
  0
LINE
  5
23E
100
AcDbEntity
  8
0
100
AcDbLine
 62
7
  6
CONTINUOUS
 10
4.7075820754
 20
3.1090526701
 11
4.7075820759
 21
3.6715526701
  0
LINE
  5
23F
100
AcDbEntity
  8
0
100
AcDbLine
 62
7
  6
CONTINUOUS
 10
4.7300820754
 20
3.1315526701
 11
4.7300820754
 21
3.6490526701
  0
LINE
  5
240
100
AcDbEntity
  8
0
100
AcDbLine
 62
7
  6
CONTINUOUS
 10
4.7467590583
 20
3.8868314221
 11
4.7467671748
 21
3.8107126211
  0
LINE
  5
241
100
AcDbEntity
  8
0
100
AcDbLine
 62
7
  6
CONTINUOUS
 10
4.7467666397
 20
3.8107126211
 11
4.7467661047
 21
3.7892468628
  0
LINE
  5
242
100
AcDbEntity
  8
0
100
AcDbLine
 62
7
  6
CONTINUOUS
 10
4.8080820754
 20
3.6715526701
 11
4.8080820754
 21
3.7853994252
  0
LINE
  5
243
100
AcDbEntity
  8
0
100
AcDbLine
 62
7
  6
CONTINUOUS
 10
4.9618163121
 20
5.1064597541
 11
4.7467629308
 21
3.8868314221
  0
LINE
  5
244
100
AcDbEntity
  8
0
100
AcDbLine
 62
7
  6
CONTINUOUS
 10
4.8388320754
 20
5.2731776701
 11
4.8388320754
 21
5.2656776701
  0
LINE
  5
245
100
AcDbEntity
  8
0
100
AcDbLine
 62
7
  6
CONTINUOUS
 10
4.8530820754
 20
3.6940526701
 11
4.8530820754
 21
3.78924676
  0
LINE
  5
246
100
AcDbEntity
  8
0
100
AcDbLine
 62
7
  6
CONTINUOUS
 10
4.9618163121
 20
5.1250526701
 11
4.9618163121
 21
5.1064597541
  0
LINE
  5
247
100
AcDbEntity
  8
0
100
AcDbLine
 62
7
  6
CONTINUOUS
 10
4.8091419826
 20
3.8078273806
 11
4.8080820753
 21
3.7853994252
  0
LINE
  5
248
100
AcDbEntity
  8
0
100
AcDbLine
 62
7
  6
CONTINUOUS
 10
5.006132661
 20
5.1064597541
 11
4.7910792797
 21
3.8868314221
  0
LINE
  5
249
100
AcDbEntity
  8
0
100
AcDbLine
 62
7
  6
CONTINUOUS
 10
5.0113320754
 20
5.2731776701
 11
5.0113320754
 21
5.2656776701
  0
LINE
  5
24A
100
AcDbEntity
  8
0
100
AcDbLine
 62
7
  6
CONTINUOUS
 10
5.0582070754
 20
5.1250526701
 11
5.0582070754
 21
5.2656776701
  0
LINE
  5
24B
100
AcDbEntity
  8
0
100
AcDbLine
 62
7
  6
CONTINUOUS
 10
5.1032070754
 20
5.1475526701
 11
5.1032070754
 21
5.2656776701
  0
LINE
  5
24C
100
AcDbEntity
  8
0
100
AcDbLine
 62
7
  6
CONTINUOUS
 10
5.3000820754
 20
5.3710407804
 11
5.3035698377
 21
5.3908867089
  0
LINE
  5
24D
100
AcDbEntity
  8
0
100
AcDbLine
 62
7
  6
CONTINUOUS
 10
5.2625820754
 20
5.5806776701
 11
5.2625820336
 21
5.3730436456
  0
LINE
  5
24E
100
AcDbEntity
  8
0
100
AcDbLine
 62
7
  6
CONTINUOUS
 10
5.3000820754
 20
5.2731776701
 11
5.3000820754
 21
5.3710407804
  0
LINE
  5
24F
100
AcDbEntity
  8
0
100
AcDbLine
 62
7
  6
CONTINUOUS
 10
5.3075820754
 20
5.4461446032
 11
5.3075820754
 21
5.5806776701
  0
LINE
  5
250
100
AcDbEntity
  8
0
100
AcDbLine
 62
7
  6
CONTINUOUS
 10
5.3450820754
 20
5.2956776701
 11
5.3450820754
 21
5.3730436456
  0
LINE
  5
251
100
AcDbEntity
  8
0
100
AcDbLine
 62
7
  6
CONTINUOUS
 10
5.2939458791
 20
5.3718571398
 11
5.2954805557
 21
5.3911254219
  0
LINE
  5
252
100
AcDbEntity
  8
0
100
AcDbLine
 62
7
  6
CONTINUOUS
 10
4.9618163121
 20
5.1064597541
 11
3.9358478387
 21
5.1064597541
  0
LINE
  5
253
100
AcDbEntity
  8
0
100
AcDbLine
 62
7
  6
CONTINUOUS
 10
5.0807070754
 20
5.1250526701
 11
3.8169570754
 21
5.1250526701
  0
LINE
  5
254
100
AcDbEntity
  8
0
100
AcDbLine
 62
7
  6
CONTINUOUS
 10
5.1032070754
 20
5.1475526701
 11
3.7944570754
 21
5.1475526701
  0
LINE
  5
255
100
AcDbEntity
  8
0
100
AcDbLine
 62
7
  6
CONTINUOUS
 10
3.7944570754
 20
5.2656776701
 11
5.1032070754
 21
5.2656776701
  0
LINE
  5
256
100
AcDbEntity
  8
0
100
AcDbLine
 62
7
  6
CONTINUOUS
 10
5.3225820754
 20
5.2731776701
 11
3.5750820754
 21
5.2731776701
  0
LINE
  5
257
100
AcDbEntity
  8
0
100
AcDbLine
 62
7
  6
CONTINUOUS
 10
5.3450820754
 20
5.2956776701
 11
3.5525820754
 21
5.2956776701
  0
LINE
  5
258
100
AcDbEntity
  8
0
100
AcDbLine
 62
7
  6
CONTINUOUS
 10
5.2625820336
 20
5.3730436456
 11
3.6350821212
 21
5.3730436456
  0
LINE
  5
259
100
AcDbEntity
  8
0
100
AcDbLine
 62
7
  6
CONTINUOUS
 10
5.2625820755
 20
5.391318885
 11
3.6350820066
 21
5.391318885
  0
LINE
  5
25A
100
AcDbEntity
  8
0
100
AcDbLine
 62
7
  6
CONTINUOUS
 10
5.2625820754
 20
5.4461446032
 11
3.6350820754
 21
5.4461446032
  0
LINE
  5
25B
100
AcDbEntity
  8
ALL_ASSEMBLY_MEMBERS
100
AcDbLine
 62
7
  6
CONTINUOUS
 10
6.0110820754
 20
3.5309276701
 11
6.0110820754
 21
3.2496776701
  0
LINE
  5
25C
100
AcDbEntity
  8
ALL_ASSEMBLY_MEMBERS
100
AcDbLine
 62
7
  6
CONTINUOUS
 10
6.0110820754
 20
2.7450126538
 11
6.0110820754
 21
3.0262626538
  0
LINE
  5
25D
100
AcDbEntity
  8
0
100
AcDbLine
 62
7
  6
CONTINUOUS
 10
3.5900820754
 20
5.5806776701
 11
5.3075820754
 21
5.5806776701
  0
LINE
  5
25E
100
AcDbEntity
  8
ALL_FEATURES
100
AcDbLine
 62
7
  6
CONTINUOUS
 10
5.1980483415
 20
5.5953026701
 11
3.6996158094
 21
5.5953026701
  0
LINE
  5
25F
100
AcDbEntity
  8
ALL_ASSEMBLY_MEMBERS
100
AcDbLine
 62
7
  6
CONTINUOUS
 10
6.6673320754
 20
3.1843636764
 11
6.6673320754
 21
3.0240135453
  0
LINE
  5
260
100
AcDbEntity
  8
ALL_ASSEMBLY_MEMBERS
100
AcDbLine
 62
7
  6
CONTINUOUS
 10
6.9485820754
 20
3.2519267785
 11
6.9485820754
 21
3.0240135453
  0
CIRCLE
  5
261
100
AcDbEntity
  8
ALL_ASSEMBLY_MEMBERS
100
AcDbCircle
 62
7
  6
CONTINUOUS
 10
2.4987201069
 20
2.9661298638
 40
0.2343749766
  0
ARC
  5
262
100
AcDbEntity
  8
0
100
AcDbCircle
 62
7
  6
CONTINUOUS
 10
4.0401108983
 20
3.8751101701
 40
0.0674996747
100
AcDbArc
 50
287.4388007452
 51
10.0000811384
  0
ARC
  5
263
100
AcDbEntity
  8
0
100
AcDbCircle
 62
7
  6
CONTINUOUS
 10
4.0670820754
 20
3.6940526701
 40
0.0225
100
AcDbArc
 50
180.0
 51
270.0
  0
ARC
  5
264
100
AcDbEntity
  8
0
100
AcDbCircle
 62
7
  6
CONTINUOUS
 10
4.0670820754
 20
3.7892469851
 40
0.0225
100
AcDbArc
 50
107.4387176713
 51
179.9999999614
  0
ARC
  5
265
100
AcDbEntity
  8
0
100
AcDbCircle
 62
7
  6
CONTINUOUS
 10
4.1450820754
 20
3.6490526701
 40
0.0225
100
AcDbArc
 50
0.0
 51
90.0
  0
ARC
  5
266
100
AcDbEntity
  8
0
100
AcDbCircle
 62
7
  6
CONTINUOUS
 10
4.1900820754
 20
3.1315526701
 40
0.0225
100
AcDbArc
 50
180.0
 51
270.0
  0
ARC
  5
267
100
AcDbEntity
  8
0
100
AcDbCircle
 62
7
  6
CONTINUOUS
 10
4.0670668946
 20
3.7853864187
 40
0.0224855774
100
AcDbArc
 50
93.6756063859
 51
179.9690491801
  0
ARC
  5
268
100
AcDbEntity
  8
0
100
AcDbCircle
 62
7
  6
CONTINUOUS
 10
3.5225820754
 20
5.4461446032
 40
0.0675
100
AcDbArc
 50
305.685334712
 51
360.0
  0
ARC
  5
269
100
AcDbEntity
  8
ALL_FEATURES
100
AcDbCircle
 62
7
  6
CONTINUOUS
 10
3.6996158094
 20
5.5431776701
 40
0.052125
100
AcDbArc
 50
90.0
 51
133.9920438743
  0
ARC
  5
26A
100
AcDbEntity
  8
0
100
AcDbCircle
 62
7
  6
CONTINUOUS
 10
3.5750820754
 20
5.3730436456
 40
0.0225
100
AcDbArc
 50
125.6853347126
 51
179.9999999999
  0
ARC
  5
26B
100
AcDbEntity
  8
0
100
AcDbCircle
 62
7
  6
CONTINUOUS
 10
3.5750820754
 20
5.2956776701
 40
0.0225
100
AcDbArc
 50
180.0
 51
270.0
  0
ARC
  5
26C
100
AcDbEntity
  8
0
100
AcDbCircle
 62
7
  6
CONTINUOUS
 10
3.8693733154
 20
5.1025526701
 40
0.0225
100
AcDbArc
 50
10.0
 51
90.0
  0
ARC
  5
26D
100
AcDbEntity
  8
0
100
AcDbCircle
 62
7
  6
CONTINUOUS
 10
3.8169570754
 20
5.1475526701
 40
0.0225
100
AcDbArc
 50
180.0
 51
270.0
  0
ARC
  5
26E
100
AcDbEntity
  8
0
100
AcDbCircle
 62
7
  6
CONTINUOUS
 10
3.5749954465
 20
5.3718435947
 40
0.0224138338
100
AcDbArc
 50
120.6584291342
 51
179.9653742965
  0
ARC
  5
26F
100
AcDbEntity
  8
ALL_ASSEMBLY_MEMBERS
100
AcDbCircle
 62
7
  6
CONTINUOUS
 10
6.8062951388
 20
3.2532917211
 40
0.1393471115
100
AcDbArc
 50
218.6185646985
 51
219.2126933878
  0
ARC
  5
270
100
AcDbEntity
  8
ALL_ASSEMBLY_MEMBERS
100
AcDbCircle
 62
7
  6
CONTINUOUS
 10
6.8057875194
 20
3.2528929428
 40
0.1387016087
100
AcDbArc
 50
213.5366897705
 51
218.6207330225
  0
ARC
  5
271
100
AcDbEntity
  8
ALL_ASSEMBLY_MEMBERS
100
AcDbCircle
 62
7
  6
CONTINUOUS
 10
6.8128243957
 20
3.0240250909
 40
0.1357576802
100
AcDbArc
 50
354.3964328141
 51
359.9951272726
  0
ARC
  5
272
100
AcDbEntity
  8
0
100
AcDbCircle
 62
7
  6
CONTINUOUS
 10
4.8575537666
 20
3.8751101701
 40
0.0674999785
100
AcDbArc
 50
169.9999946318
 51
252.5612911559
  0
ARC
  5
273
100
AcDbEntity
  8
0
100
AcDbCircle
 62
7
  6
CONTINUOUS
 10
4.8305820754
 20
3.6940526701
 40
0.0225
100
AcDbArc
 50
270.0
 51
360.0
  0
ARC
  5
274
100
AcDbEntity
  8
0
100
AcDbCircle
 62
7
  6
CONTINUOUS
 10
4.8305820754
 20
3.7892467558
 40
0.0225
100
AcDbArc
 50
0.0000107216
 51
72.5612700751
  0
ARC
  5
275
100
AcDbEntity
  8
0
100
AcDbCircle
 62
7
  6
CONTINUOUS
 10
4.7525820754
 20
3.6490526701
 40
0.0225
100
AcDbArc
 50
90.0
 51
180.0
  0
ARC
  5
276
100
AcDbEntity
  8
0
100
AcDbCircle
 62
7
  6
CONTINUOUS
 10
4.7075820754
 20
3.1315526701
 40
0.0225
100
AcDbArc
 50
270.0
 51
360.0
  0
ARC
  5
277
100
AcDbEntity
  8
0
100
AcDbCircle
 62
7
  6
CONTINUOUS
 10
4.8305974049
 20
3.7853862501
 40
0.0224854397
100
AcDbArc
 50
0.0310406526
 51
86.3313573947
  0
ARC
  5
278
100
AcDbEntity
  8
0
100
AcDbCircle
 62
7
  6
CONTINUOUS
 10
5.3750820754
 20
5.4461446032
 40
0.0675
100
AcDbArc
 50
179.9999999999
 51
234.314665288
  0
ARC
  5
279
100
AcDbEntity
  8
ALL_FEATURES
100
AcDbCircle
 62
7
  6
CONTINUOUS
 10
5.1980483415
 20
5.5431776701
 40
0.052125
100
AcDbArc
 50
46.0079561257
 51
90.0
  0
ARC
  5
27A
100
AcDbEntity
  8
0
100
AcDbCircle
 62
7
  6
CONTINUOUS
 10
5.3225820754
 20
5.2956776701
 40
0.0225
100
AcDbArc
 50
270.0
 51
360.0
  0
ARC
  5
27B
100
AcDbEntity
  8
0
100
AcDbCircle
 62
7
  6
CONTINUOUS
 10
5.3225820754
 20
5.3730436456
 40
0.0225
100
AcDbArc
 50
0.0000000002
 51
54.3146652875
  0
ARC
  5
27C
100
AcDbEntity
  8
0
100
AcDbCircle
 62
7
  6
CONTINUOUS
 10
5.0282908355
 20
5.1025526701
 40
0.0225
100
AcDbArc
 50
89.9999999992
 51
169.9999999999
  0
ARC
  5
27D
100
AcDbEntity
  8
0
100
AcDbCircle
 62
7
  6
CONTINUOUS
 10
5.0807070754
 20
5.1475526701
 40
0.0225
100
AcDbArc
 50
270.0
 51
360.0
  0
ARC
  5
27E
100
AcDbEntity
  8
0
100
AcDbCircle
 62
7
  6
CONTINUOUS
 10
5.3226687202
 20
5.3718435476
 40
0.0224138198
100
AcDbArc
 50
0.0347373655
 51
59.3431740819
  0
LINE
  5
27F
100
AcDbEntity
  8
0
100
AcDbLine
 62
7
  6
CONTINUOUS
 10
3.6037182282
 20
5.3718571364
 11
3.5975820754
 21
5.371040751
  0
SPLINE
  5
280
100
AcDbEntity
  8
0
100
AcDbSpline
 62
7
  6
CONTINUOUS
 70
0
 71
3
 72
10
 73
6
 74
0
 42
0.0000001
 43
0.0000001
 44
0.0000000001
 40
0.0
 40
0.0
 40
0.0
 40
0.0
 40
0.4999893998
 40
0.7499947714
 40
1.0
 40
1.0
 40
1.0
 40
1.0
 10
3.6350821212
 20
5.3730436456
 30
0.0
 10
3.6298500331
 20
5.3730435893
 30
0.0
 10
3.62200066
 20
5.3729033984
 30
0.0
 10
3.6115471362
 20
5.3724169262
 30
0.0
 10
3.6063261345
 20
5.3720647122
 30
0.0
 10
3.6037182282
 20
5.3718571364
 30
0.0
  0
SPLINE
  5
281
100
AcDbEntity
  8
0
100
AcDbSpline
 62
7
  6
CONTINUOUS
 70
0
 71
3
 72
11
 73
7
 74
0
 42
0.0000001
 43
0.0000001
 44
0.0000000001
 40
0.0
 40
0.0
 40
0.0
 40
0.0
 40
0.2499999242
 40
0.4999998341
 40
0.7499998942
 40
1.0
 40
1.0
 40
1.0
 40
1.0
 10
5.2939458791
 20
5.3718571398
 30
0.0
 10
5.2913379825
 20
5.3720647966
 30
0.0
 10
5.286116992
 20
5.3724165071
 30
0.0
 10
5.2782766007
 20
5.3727825427
 30
0.0
 10
5.2704306124
 20
5.3729965552
 30
0.0
 10
5.2651981864
 20
5.3730437821
 30
0.0
 10
5.2625820336
 20
5.3730436456
 30
0.0
  0
LINE
  5
282
100
AcDbEntity
  8
0
100
AcDbLine
 62
7
  6
CONTINUOUS
 10
5.3000820754
 20
5.3710407804
 11
5.2939458791
 21
5.3718571398
  0
LINE
  5
283
100
AcDbEntity
  8
0
100
AcDbLine
 62
7
  6
CONTINUOUS
 10
5.3075820754
 20
5.4461446032
 11
5.3050084823
 21
5.4489302814
  0
SPLINE
  5
284
100
AcDbEntity
  8
0
100
AcDbSpline
 62
7
  6
CONTINUOUS
 70
0
 71
3
 72
21
 73
17
 74
0
 42
0.0000001
 43
0.0000001
 44
0.0000000001
 40
0.0
 40
0.0
 40
0.0
 40
0.0
 40
0.0394203209
 40
0.0805705294
 40
0.1242684919
 40
0.1711293088
 40
0.2215437485
 40
0.2757077856
 40
0.3336460257
 40
0.3952888475
 40
0.5291138504
 40
0.6009474056
 40
0.675775706
 40
0.7533666525
 40
0.8335067277
 40
1.0
 40
1.0
 40
1.0
 40
1.0
 10
5.3050084823
 20
5.4489302814
 30
0.0
 10
5.3047359263
 20
5.449182773
 30
0.0
 10
5.3041345796
 20
5.4496527039
 30
0.0
 10
5.3031102375
 20
5.4502281563
 30
0.0
 10
5.3019544476
 20
5.4506894873
 30
0.0
 10
5.3006718159
 20
5.4510441109
 30
0.0
 10
5.2992672087
 20
5.4513050835
 30
0.0
 10
5.2977451422
 20
5.4514844241
 30
0.0
 10
5.2961102252
 20
5.4515883799
 30
0.0
 10
5.2937217174
 20
5.4516323186
 30
0.0
 10
5.2912017714
 20
5.4515317853
 30
0.0
 10
5.2885686816
 20
5.4512927781
 30
0.0
 10
5.2864713208
 20
5.4510274331
 30
0.0
 10
5.2843083822
 20
5.4506685046
 30
0.0
 10
5.2813167414
 20
5.4500427244
 30
0.0
 10
5.279073343
 20
5.4494186415
 30
0.0
 10
5.2775820754
 20
5.4489302814
 30
0.0
  0
SPLINE
  5
285
100
AcDbEntity
  8
0
100
AcDbSpline
 62
7
  6
CONTINUOUS
 70
0
 71
3
 72
11
 73
7
 74
0
 42
0.0000001
 43
0.0000001
 44
0.0000000001
 40
0.0
 40
0.0
 40
0.0
 40
0.0
 40
0.2442001749
 40
0.4932609604
 40
0.745726808
 40
1.0
 40
1.0
 40
1.0
 40
1.0
 10
5.2775820754
 20
5.4489302814
 30
0.0
 10
5.2763976901
 20
5.4485398092
 30
0.0
 10
5.273990869
 20
5.4477930184
 30
0.0
 10
5.2702885474
 20
5.4468865262
 30
0.0
 10
5.2664704512
 20
5.4462854537
 30
0.0
 10
5.2638806082
 20
5.4461446052
 30
0.0
 10
5.2625820754
 20
5.4461446032
 30
0.0
  0
SPLINE
  5
286
100
AcDbEntity
  8
0
100
AcDbSpline
 62
7
  6
CONTINUOUS
 70
0
 71
3
 72
11
 73
7
 74
0
 42
0.0000001
 43
0.0000001
 44
0.0000000001
 40
0.0
 40
0.0
 40
0.0
 40
0.0
 40
0.2543443786
 40
0.5068283465
 40
0.7558227935
 40
1.0
 40
1.0
 40
1.0
 40
1.0
 10
3.6350820754
 20
5.4461446032
 30
0.0
 10
3.6337831778
 20
5.4461446011
 30
0.0
 10
3.6311928961
 20
5.4462855733
 30
0.0
 10
3.6273745834
 20
5.4468861874
 30
0.0
 10
3.6236728476
 20
5.4477936025
 30
0.0
 10
3.6212664156
 20
5.4485400428
 30
0.0
 10
3.6200820754
 20
5.4489302814
 30
0.0
  0
SPLINE
  5
287
100
AcDbEntity
  8
0
100
AcDbSpline
 62
7
  6
CONTINUOUS
 70
0
 71
3
 72
20
 73
16
 74
0
 42
0.0000001
 43
0.0000001
 44
0.0000000001
 40
0.0
 40
0.0
 40
0.0
 40
0.0
 40
0.1665100824
 40
0.2466534352
 40
0.3242522663
 40
0.3990917179
 40
0.4709359159
 40
0.6047825976
 40
0.6664339851
 40
0.7243803354
 40
0.7785513538
 40
0.8289739888
 40
0.9194160211
 40
0.9605748554
 40
1.0
 40
1.0
 40
1.0
 40
1.0
 10
3.6200820754
 20
5.4489302814
 30
0.0
 10
3.6185908891
 20
5.4494187071
 30
0.0
 10
3.616347645
 20
5.4500428959
 30
0.0
 10
3.6133561077
 20
5.4506684208
 30
0.0
 10
3.6111932416
 20
5.451027224
 30
0.0
 10
3.609095903
 20
5.4512926335
 30
0.0
 10
3.6064627833
 20
5.4515318996
 30
0.0
 10
3.6039428101
 20
5.4516322948
 30
0.0
 10
3.6015542223
 20
5.4515883945
 30
0.0
 10
3.5999194348
 20
5.4514843801
 30
0.0
 10
3.5983969313
 20
5.4513051236
 30
0.0
 10
3.5965899443
 20
5.450969698
 30
0.0
 10
3.5949392071
 20
5.4504443372
 30
0.0
 10
3.5935296752
 20
5.4496526289
 30
0.0
 10
3.5929282443
 20
5.4491827435
 30
0.0
 10
3.5926556686
 20
5.4489302814
 30
0.0
  0
LINE
  5
288
100
AcDbEntity
  8
0
100
AcDbLine
 62
7
  6
CONTINUOUS
 10
3.5926556686
 20
5.4489302814
 11
3.5900820754
 21
5.4461446032
  0
SPLINE
  5
289
100
AcDbEntity
  8
0
100
AcDbSpline
 62
7
  6
CONTINUOUS
 70
0
 71
3
 72
14
 73
10
 74
0
 42
0.0000001
 43
0.0000001
 44
0.0000000001
 40
0.0
 40
0.0
 40
0.0
 40
0.0
 40
0.0673922175
 40
0.1417796439
 40
0.2308444567
 40
0.3391157762
 40
0.4690687572
 40
0.6220778214
 40
1.0
 40
1.0
 40
1.0
 40
1.0
 10
5.3450820754
 20
5.371040751
 30
0.0
 10
5.3450820638
 20
5.3709964616
 30
0.0
 10
5.3450624258
 20
5.3709023707
 30
0.0
 10
5.3449764936
 20
5.3707741949
 30
0.0
 10
5.3448404055
 20
5.3706565014
 30
0.0
 10
5.3446548329
 20
5.3705463177
 30
0.0
 10
5.3444191775
 20
5.3704424172
 30
0.0
 10
5.3440078613
 20
5.3703018398
 30
0.0
 10
5.3436674132
 20
5.3702217329
 30
0.0
 10
5.343424056
 20
5.3701721046
 30
0.0
  0
SPLINE
  5
28A
100
AcDbEntity
  8
0
100
AcDbSpline
 62
7
  6
CONTINUOUS
 70
0
 71
3
 72
18
 73
14
 74
0
 42
0.0000001
 43
0.0000001
 44
0.0000000001
 40
0.0
 40
0.0
 40
0.0
 40
0.0
 40
0.0262343228
 40
0.0587202924
 40
0.0973087604
 40
0.1418137972
 40
0.1919563272
 40
0.2473953152
 40
0.3727317643
 40
0.5145038634
 40
0.6690209462
 40
0.8324220066
 40
1.0
 40
1.0
 40
1.0
 40
1.0
 10
5.343424056
 20
5.3701721046
 30
0.0
 10
5.3430520569
 20
5.3700962421
 30
0.0
 10
5.3422113874
 20
5.3699664628
 30
0.0
 10
5.3408103246
 20
5.3698223057
 30
0.0
 10
5.3391412724
 20
5.3697086839
 30
0.0
 10
5.3372148116
 20
5.3696249984
 30
0.0
 10
5.3350433608
 20
5.3695712353
 30
0.0
 10
5.3317016459
 20
5.3695385988
 30
0.0
 10
5.3270336176
 20
5.3695816255
 30
0.0
 10
5.3209340254
 20
5.3697493315
 30
0.0
 10
5.3142875174
 20
5.3700388117
 30
0.0
 10
5.3072738593
 20
5.3704595726
 30
0.0
 10
5.3024979957
 20
5.3708294944
 30
0.0
 10
5.3000820754
 20
5.3710407804
 30
0.0
  0
SPLINE
  5
28B
100
AcDbEntity
  8
0
100
AcDbSpline
 62
7
  6
CONTINUOUS
 70
0
 71
3
 72
28
 73
24
 74
0
 42
0.0000001
 43
0.0000001
 44
0.0000000001
 40
0.0
 40
0.0
 40
0.0
 40
0.0
 40
0.1936250342
 40
0.3800289708
 40
0.4681152862
 40
0.551683318
 40
0.6299410525
 40
0.7021359008
 40
0.7675326843
 40
0.8255294514
 40
0.8756067398
 40
0.8975287724
 40
0.9173187973
 40
0.9349448066
 40
0.9503804367
 40
0.9636093102
 40
0.9746446384
 40
0.9835479871
 40
0.9904543633
 40
0.993252528
 40
0.995697788
 40
0.9978978579
 40
1.0
 40
1.0
 40
1.0
 40
1.0
 10
3.5975820754
 20
5.371040751
 30
0.0
 10
3.5946638304
 20
5.3707854632
 30
0.0
 10
3.5889300141
 20
5.3703531779
 30
0.0
 10
3.5818579578
 20
5.3699654613
 30
0.0
 10
3.5764450366
 20
5.3697499575
 30
0.0
 10
3.572665691
 20
5.3696370012
 30
0.0
 10
3.5691257391
 20
5.3695684303
 30
0.0
 10
3.5658601151
 20
5.3695442638
 30
0.0
 10
3.5629009588
 20
5.3695641107
 30
0.0
 10
3.5602771188
 20
5.3696279722
 30
0.0
 10
3.5583122764
 20
5.3697207735
 30
0.0
 10
3.5569271869
 20
5.3698218683
 30
0.0
 10
3.5560332983
 20
5.3699057816
 30
0.0
 10
3.5552393091
 20
5.3700012852
 30
0.0
 10
3.554547035
 20
5.3701085217
 30
0.0
 10
3.5539580958
 20
5.3702276188
 30
0.0
 10
3.5534730642
 20
5.3703586614
 30
0.0
 10
3.553092307
 20
5.3705014545
 30
0.0
 10
3.5528440204
 20
5.3706392546
 30
0.0
 10
3.5527050553
 20
5.3707607133
 30
0.0
 10
3.5526346963
 20
5.3708497055
 30
0.0
 10
3.5525915776
 20
5.3709434936
 30
0.0
 10
3.5525820809
 20
5.3710089767
 30
0.0
 10
3.5525820754
 20
5.3710407804
 30
0.0
  0
SPLINE
  5
28C
100
AcDbEntity
  8
0
100
AcDbSpline
 62
7
  6
CONTINUOUS
 70
0
 71
3
 72
15
 73
11
 74
0
 42
0.0000001
 43
0.0000001
 44
0.0000000001
 40
0.0
 40
0.0
 40
0.0
 40
0.0
 40
0.1240868846
 40
0.2487246456
 40
0.3734941022
 40
0.4982815501
 40
0.6233061095
 40
0.7487714967
 40
0.8745058387
 40
1.0
 40
1.0
 40
1.0
 40
1.0
 10
3.5525820754
 20
5.3710407804
 30
0.0
 10
3.5525820754
 20
5.3720620702
 30
0.0
 10
3.5527294896
 20
5.3741119139
 30
0.0
 10
3.5533746374
 20
5.3771270372
 30
0.0
 10
3.5544354881
 20
5.3800294204
 30
0.0
 10
3.5558970241
 20
5.3827554226
 30
0.0
 10
3.5577259979
 20
5.3852568477
 30
0.0
 10
3.5598930992
 20
5.3874828993
 30
0.0
 10
3.5623472069
 20
5.3893923792
 30
0.0
 10
3.5641430967
 20
5.3904327273
 30
0.0
 10
3.5650708498
 20
5.3908867089
 30
0.0
  0
LINE
  5
28D
100
AcDbEntity
  8
0
100
AcDbLine
 62
7
  6
CONTINUOUS
 10
5.3357070746
 20
5.3913188856
 11
5.3340985701
 21
5.3911253492
  0
LINE
  5
28E
100
AcDbEntity
  8
0
100
AcDbLine
 62
7
  6
CONTINUOUS
 10
5.334098054
 20
5.3911256756
 11
5.3325933681
 21
5.3908866811
  0
SPLINE
  5
28F
100
AcDbEntity
  8
0
100
AcDbSpline
 62
7
  6
CONTINUOUS
 70
0
 71
3
 72
18
 73
14
 74
0
 42
0.0000001
 43
0.0000001
 44
0.0000000001
 40
0.0
 40
0.0
 40
0.0
 40
0.0
 40
0.0224862894
 40
0.0510222589
 40
0.0857099513
 40
0.1265460292
 40
0.173401997
 40
0.2261162761
 40
0.3480941882
 40
0.489905654
 40
0.6482803093
 40
0.8196598208
 40
1.0
 40
1.0
 40
1.0
 40
1.0
 10
5.3325933681
 20
5.3908866811
 30
0.0
 10
5.3323888875
 20
5.3908105191
 30
0.0
 10
5.3319112977
 20
5.3906749747
 30
0.0
 10
5.3310947265
 20
5.3905150531
 30
0.0
 10
5.330093861
 20
5.3903776614
 30
0.0
 10
5.328911521
 20
5.3902643033
 30
0.0
 10
5.3275517694
 20
5.3901754053
 30
0.0
 10
5.3254035931
 20
5.3900862843
 30
0.0
 10
5.3223318935
 20
5.3900492448
 30
0.0
 10
5.3182353867
 20
5.3901076872
 30
0.0
 10
5.3136618678
 20
5.3902670962
 30
0.0
 10
5.3087185334
 20
5.3905257133
 30
0.0
 10
5.3053131684
 20
5.3907566091
 30
0.0
 10
5.3035680233
 20
5.3908868308
 30
0.0
  0
LINE
  5
290
100
AcDbEntity
  8
0
100
AcDbLine
 62
7
  6
CONTINUOUS
 10
5.3035680233
 20
5.3908868308
 11
5.2954809822
 21
5.3911256944
  0
SPLINE
  5
291
100
AcDbEntity
  8
0
100
AcDbSpline
 62
7
  6
CONTINUOUS
 70
0
 71
3
 72
16
 73
12
 74
0
 42
0.0000001
 43
0.0000001
 44
0.0000000001
 40
0.0
 40
0.0
 40
0.0
 40
0.0
 40
0.128322809
 40
0.2559008776
 40
0.3193250175
 40
0.3824802434
 40
0.5079308499
 40
0.632306344
 40
0.7556655757
 40
0.8782188647
 40
1.0
 40
1.0
 40
1.0
 40
1.0
 10
5.3050084823
 20
5.4489302814
 30
0.0
 10
5.3048886691
 20
5.4460357306
 30
0.0
 10
5.305006306
 20
5.4402426646
 30
0.0
 10
5.3060490559
 20
5.4330893631
 30
0.0
 10
5.3074152194
 20
5.4275128537
 30
0.0
 10
5.3091191215
 20
5.4220806768
 30
0.0
 10
5.3118829183
 20
5.4155542908
 30
0.0
 10
5.3161638938
 20
5.4082701875
 30
0.0
 10
5.3213369521
 20
5.4016705178
 30
0.0
 10
5.3273120362
 20
5.3958729022
 30
0.0
 10
5.3317744608
 20
5.3925953037
 30
0.0
 10
5.334098054
 20
5.3911256756
 30
0.0
  0
LINE
  5
292
100
AcDbEntity
  8
0
100
AcDbLine
 62
7
  6
CONTINUOUS
 10
5.2954811728
 20
5.3911254185
 11
5.2625820755
 21
5.391318886
  0
SPLINE
  5
293
100
AcDbEntity
  8
0
100
AcDbSpline
 62
7
  6
CONTINUOUS
 70
0
 71
3
 72
16
 73
12
 74
0
 42
0.0000001
 43
0.0000001
 44
0.0000000001
 40
0.0
 40
0.0
 40
0.0
 40
0.0
 40
0.1437984419
 40
0.2862772491
 40
0.4251036106
 40
0.5583109089
 40
0.6839894653
 40
0.8003973494
 40
0.9061314123
 40
0.9546195024
 40
1.0
 40
1.0
 40
1.0
 40
1.0
 10
5.2775820754
 20
5.4489302814
 30
0.0
 10
5.2779221487
 20
5.4460258415
 30
0.0
 10
5.2787238974
 20
5.4402574534
 30
0.0
 10
5.2802807634
 20
5.4317512538
 30
0.0
 10
5.2821677516
 20
5.4235325605
 30
0.0
 10
5.2843519221
 20
5.4157417952
 30
0.0
 10
5.2867950361
 20
5.4085071497
 30
0.0
 10
5.2894570723
 20
5.4019490373
 30
0.0
 10
5.2918858778
 20
5.3970030195
 30
0.0
 10
5.293918702
 20
5.3934881313
 30
0.0
 10
5.2949566833
 20
5.3918847439
 30
0.0
 10
5.2954811728
 20
5.3911254185
 30
0.0
  0
LINE
  5
294
100
AcDbEntity
  8
0
100
AcDbLine
 62
7
  6
CONTINUOUS
 10
3.6350820066
 20
5.3913188856
 11
3.6021831955
 21
5.3911253492
  0
LINE
  5
295
100
AcDbEntity
  8
0
100
AcDbLine
 62
7
  6
CONTINUOUS
 10
3.602183421
 20
5.3911256756
 11
3.594094515
 21
5.3908866811
  0
SPLINE
  5
296
100
AcDbEntity
  8
0
100
AcDbSpline
 62
7
  6
CONTINUOUS
 70
0
 71
3
 72
18
 73
14
 74
0
 42
0.0000001
 43
0.0000001
 44
0.0000000001
 40
0.0
 40
0.0
 40
0.0
 40
0.0
 40
0.1803503112
 40
0.351784526
 40
0.5102159678
 40
0.6520420055
 40
0.7739725877
 40
0.8266631894
 40
0.8734958379
 40
0.9143105483
 40
0.948984959
 40
0.9775136339
 40
1.0
 40
1.0
 40
1.0
 40
1.0
 10
3.594094515
 20
5.3908866811
 30
0.0
 10
3.5923493516
 20
5.3907564075
 30
0.0
 10
3.5889434973
 20
5.3905256154
 30
0.0
 10
3.5839991985
 20
5.3902669877
 30
0.0
 10
3.5794246535
 20
5.3901076033
 30
0.0
 10
3.5753280912
 20
5.3900492431
 30
0.0
 10
3.5722570728
 20
5.3900863394
 30
0.0
 10
3.5701099096
 20
5.3901755334
 30
0.0
 10
3.5687508808
 20
5.3902644022
 30
0.0
 10
3.567569155
 20
5.3903777343
 30
0.0
 10
3.5665687461
 20
5.3905151402
 30
0.0
 10
3.5657524297
 20
5.3906751549
 30
0.0
 10
3.5652749472
 20
5.3908107134
 30
0.0
 10
3.5650704594
 20
5.3908868308
 30
0.0
  0
LINE
  5
297
100
AcDbEntity
  8
0
100
AcDbLine
 62
7
  6
CONTINUOUS
 10
3.5650704594
 20
5.3908868308
 11
3.5635661619
 21
5.3911256944
  0
SPLINE
  5
298
100
AcDbEntity
  8
0
100
AcDbSpline
 62
7
  6
CONTINUOUS
 70
0
 71
3
 72
16
 73
12
 74
0
 42
0.0000001
 43
0.0000001
 44
0.0000000001
 40
0.0
 40
0.0
 40
0.0
 40
0.0
 40
0.1437980472
 40
0.2862764353
 40
0.4251023929
 40
0.5583093689
 40
0.6839877747
 40
0.8003957708
 40
0.9061303201
 40
0.9546188604
 40
1.0
 40
1.0
 40
1.0
 40
1.0
 10
3.6200820754
 20
5.4489302814
 30
0.0
 10
3.6197420372
 20
5.4460258617
 30
0.0
 10
3.6189403533
 20
5.4402575135
 30
0.0
 10
3.6173835869
 20
5.4317513692
 30
0.0
 10
3.6154967039
 20
5.4235327231
 30
0.0
 10
3.6133126247
 20
5.4157419966
 30
0.0
 10
3.6108695794
 20
5.4085073794
 30
0.0
 10
3.6082075809
 20
5.4019492833
 30
0.0
 10
3.6057787779
 20
5.3970032732
 30
0.0
 10
3.6037459292
 20
5.3934883875
 30
0.0
 10
3.6027079249
 20
5.3918850007
 30
0.0
 10
3.602183421
 20
5.3911256756
 30
0.0
  0
LINE
  5
299
100
AcDbEntity
  8
0
100
AcDbLine
 62
7
  6
CONTINUOUS
 10
3.5635657256
 20
5.3911254185
 11
3.5619570767
 21
5.391318886
  0
SPLINE
  5
29A
100
AcDbEntity
  8
0
100
AcDbSpline
 62
7
  6
CONTINUOUS
 70
0
 71
3
 72
16
 73
12
 74
0
 42
0.0000001
 43
0.0000001
 44
0.0000000001
 40
0.0
 40
0.0
 40
0.0
 40
0.0
 40
0.1283227098
 40
0.255900626
 40
0.3193246682
 40
0.3824797903
 40
0.5079302031
 40
0.632305569
 40
0.7556648078
 40
0.8782183275
 40
1.0
 40
1.0
 40
1.0
 40
1.0
 10
3.5926556686
 20
5.4489302814
 30
0.0
 10
3.592775494
 20
5.4460357116
 30
0.0
 10
3.5926578738
 20
5.4402426071
 30
0.0
 10
3.5916151291
 20
5.4330892577
 30
0.0
 10
3.5902489613
 20
5.4275127132
 30
0.0
 10
3.5885450485
 20
5.4220805042
 30
0.0
 10
3.585781224
 20
5.415554082
 30
0.0
 10
3.5815001922
 20
5.4082699457
 30
0.0
 10
3.5763270541
 20
5.4016702545
 30
0.0
 10
3.5703518658
 20
5.3958726307
 30
0.0
 10
3.5658893615
 20
5.3925950402
 30
0.0
 10
3.5635657256
 20
5.3911254185
 30
0.0
  0
SPLINE
  5
29B
100
AcDbEntity
  8
0
100
AcDbSpline
 62
7
  6
CONTINUOUS
 70
0
 71
3
 72
15
 73
11
 74
0
 42
0.0000001
 43
0.0000001
 44
0.0000000001
 40
0.0
 40
0.0
 40
0.0
 40
0.0
 40
0.1240868708
 40
0.2487246617
 40
0.373494161
 40
0.4982816261
 40
0.6233061823
 40
0.7487715535
 40
0.8745058745
 40
1.0
 40
1.0
 40
1.0
 40
1.0
 10
5.3450820754
 20
5.371040751
 30
0.0
 10
5.3450820754
 20
5.3720620411
 30
0.0
 10
5.3449346612
 20
5.3741118857
 30
0.0
 10
5.3442895137
 20
5.3771270108
 30
0.0
 10
5.3432286644
 20
5.3800293964
 30
0.0
 10
5.3417671298
 20
5.3827554013
 30
0.0
 10
5.339938158
 20
5.3852568293
 30
0.0
 10
5.3377710598
 20
5.387482885
 30
0.0
 10
5.3353169551
 20
5.3893923697
 30
0.0
 10
5.3335210671
 20
5.3904327215
 30
0.0
 10
5.3325933148
 20
5.390886705
 30
0.0
  0
SPLINE
  5
29C
100
AcDbEntity
  8
0
100
AcDbSpline
 62
7
  6
CONTINUOUS
 70
0
 71
3
 72
31
 73
27
 74
0
 42
0.0000001
 43
0.0000001
 44
0.0000000001
 40
0.0
 40
0.0
 40
0.0
 40
0.0
 40
0.0006304441
 40
0.0010899386
 40
0.0016752625
 40
0.0032559284
 40
0.0054080112
 40
0.0081422887
 40
0.011462781
 40
0.0198659127
 40
0.0306159028
 40
0.043701088
 40
0.0590895081
 40
0.0767381738
 40
0.0966033535
 40
0.1186409641
 40
0.1690380692
 40
0.2274285753
 40
0.2932556248
 40
0.3659012715
 40
0.4446372957
 40
0.5287198301
 40
0.6173622323
 40
0.7097523136
 40
0.8050376528
 40
1.0
 40
1.0
 40
1.0
 40
1.0
 10
4.0445820754
 20
3.7853985648
 30
0.0
 10
4.0445820818
 20
3.7853891012
 30
0.0
 10
4.0445931073
 20
3.7853738346
 30
0.0
 10
4.0446140369
 20
3.7853605614
 30
0.0
 10
4.0446500162
 20
3.7853438063
 30
0.0
 10
4.0447124486
 20
3.7853258806
 30
0.0
 10
4.0448076647
 20
3.7853066941
 30
0.0
 10
4.0449296192
 20
3.7852889633
 30
0.0
 10
4.0451453489
 20
3.7852650456
 30
0.0
 10
4.0454818876
 20
3.7852403622
 30
0.0
 10
4.0459652457
 20
3.7852166079
 30
0.0
 10
4.0465537232
 20
3.7851968726
 30
0.0
 10
4.0472458815
 20
3.7851806325
 30
0.0
 10
4.0480398969
 20
3.7851675366
 30
0.0
 10
4.0489337679
 20
3.7851571199
 30
0.0
 10
4.0503192406
 20
3.7851457224
 30
0.0
 10
4.0522830468
 20
3.7851364816
 30
0.0
 10
4.0549041903
 20
3.7851308779
 30
0.0
 10
4.0578593129
 20
3.7851291317
 30
0.0
 10
4.0611198429
 20
3.7851305364
 30
0.0
 10
4.0646544024
 20
3.7851364214
 30
0.0
 10
4.0684290794
 20
3.7851474552
 30
0.0
 10
4.0724086901
 20
3.7851664089
 30
0.0
 10
4.0765564061
 20
3.785196788
 30
0.0
 10
4.0822998788
 20
3.78525731
 30
0.0
 10
4.0866562921
 20
3.7853308244
 30
0.0
 10
4.0895820754
 20
3.7853994652
 30
0.0
  0
SPLINE
  5
29D
100
AcDbEntity
  8
0
100
AcDbSpline
 62
7
  6
CONTINUOUS
 70
0
 71
3
 72
31
 73
27
 74
0
 42
0.0000001
 43
0.0000001
 44
0.0000000001
 40
0.0
 40
0.0
 40
0.0
 40
0.0
 40
0.1948851682
 40
0.2900784485
 40
0.3823967564
 40
0.4710045738
 40
0.5550829999
 40
0.6338420245
 40
0.7065046627
 40
0.7723542285
 40
0.830783852
 40
0.8812092467
 40
0.9032695288
 40
0.9231616163
 40
0.9408360489
 40
0.9562437116
 40
0.9693393589
 40
0.9801001878
 40
0.9885147258
 40
0.9918406395
 40
0.9945798903
 40
0.9967363101
 40
0.9983205018
 40
0.9989072406
 40
0.9993679041
 40
1.0
 40
1.0
 40
1.0
 40
1.0
 10
4.8080820754
 20
3.7853994252
 30
0.0
 10
4.8110067013
 20
3.7853306072
 30
0.0
 10
4.815360579
 20
3.7852568753
 30
0.0
 10
4.8211004439
 20
3.7851962531
 30
0.0
 10
4.8252451919
 20
3.7851661873
 30
0.0
 10
4.8292231534
 20
3.7851476016
 30
0.0
 10
4.8329976018
 20
3.7851365167
 30
0.0
 10
4.8365327075
 20
3.7851310588
 30
0.0
 10
4.8397941818
 20
3.7851296437
 30
0.0
 10
4.8427504905
 20
3.7851311487
 30
0.0
 10
4.8453729885
 20
3.7851367419
 30
0.0
 10
4.8473381531
 20
3.7851454013
 30
0.0
 10
4.8487247995
 20
3.7851565787
 30
0.0
 10
4.8496198041
 20
3.7851669306
 30
0.0
 10
4.8504149009
 20
3.7851800154
 30
0.0
 10
4.8511078932
 20
3.7851962663
 30
0.0
 10
4.8516969807
 20
3.7852160048
 30
0.0
 10
4.8521808295
 20
3.7852398006
 30
0.0
 10
4.852517781
 20
3.7852645463
 30
0.0
 10
4.8527338332
 20
3.7852885298
 30
0.0
 10
4.8528560039
 20
3.7853063126
 30
0.0
 10
4.8529514058
 20
3.7853255547
 30
0.0
 10
4.8530139687
 20
3.7853435314
 30
0.0
 10
4.8530500293
 20
3.7853603309
 30
0.0
 10
4.8530710101
 20
3.7853736403
 30
0.0
 10
4.8530820663
 20
3.785388943
 30
0.0
 10
4.8530820754
 20
3.7853984314
 30
0.0
  0
SPLINE
  5
29E
100
AcDbEntity
  8
0
100
AcDbSpline
 62
7
  6
CONTINUOUS
 70
0
 71
3
 72
28
 73
24
 74
0
 42
0.0000001
 43
0.0000001
 44
0.0000000001
 40
0.0
 40
0.0
 40
0.0
 40
0.0
 40
0.1950323299
 40
0.3833518818
 40
0.4725488851
 40
0.5571892075
 40
0.6363315623
 40
0.7090887117
 40
0.774701805
 40
0.832473957
 40
0.8818997153
 40
0.9033479582
 40
0.9225643023
 40
0.9395379337
 40
0.9542660411
 40
0.9667558352
 40
0.9770347355
 40
0.985185001
 40
0.9913834957
 40
0.9938670158
 40
0.9960415915
 40
0.9980327649
 40
1.0
 40
1.0
 40
1.0
 40
1.0
 10
3.9358478387
 20
5.1064597541
 30
0.0
 10
3.932948288
 20
5.1066962391
 30
0.0
 10
3.9272456124
 20
5.1071209036
 30
0.0
 10
3.920208478
 20
5.1075315942
 30
0.0
 10
3.9148116041
 20
5.107770321
 30
0.0
 10
3.9110401592
 20
5.1078983877
 30
0.0
 10
3.9075126234
 20
5.1079771431
 30
0.0
 10
3.9042681258
 20
5.1080050441
 30
0.0
 10
3.9013423029
 20
5.1079824947
 30
0.0
 10
3.8987654288
 20
5.107909426
 30
0.0
 10
3.8968489897
 20
5.1078043228
 30
0.0
 10
3.8955098319
 20
5.1076913141
 30
0.0
 10
3.894654955
 20
5.1075989444
 30
0.0
 10
3.8939023994
 20
5.1074954332
 30
0.0
 10
3.8932529748
 20
5.1073811758
 30
0.0
 10
3.8927074173
 20
5.1072567385
 30
0.0
 10
3.8922654621
 20
5.1071223964
 30
0.0
 10
3.8919267359
 20
5.1069788504
 30
0.0
 10
3.8917126722
 20
5.1068421992
 30
0.0
 10
3.8916008736
 20
5.1067238082
 30
0.0
 10
3.891549108
 20
5.1066380519
 30
0.0
 10
3.8915242613
 20
5.1065486894
 30
0.0
 10
3.8915264073
 20
5.1064886546
 30
0.0
 10
3.8915314898
 20
5.1064597541
 30
0.0
  0
SPLINE
  5
29F
100
AcDbEntity
  8
0
100
AcDbSpline
 62
7
  6
CONTINUOUS
 70
0
 71
3
 72
28
 73
24
 74
0
 42
0.0000001
 43
0.0000001
 44
0.0000000001
 40
0.0
 40
0.0
 40
0.0
 40
0.0
 40
0.1904205319
 40
0.3754394253
 40
0.4634051824
 40
0.5468623965
 40
0.6246883151
 40
0.6958643795
 40
0.7286744446
 40
0.7595221013
 40
0.788339903
 40
0.8150675289
 40
0.8621725527
 40
0.8826062414
 40
0.9010133926
 40
0.9174920873
 40
0.9322006374
 40
0.9453496336
 40
0.9572184866
 40
0.968172581
 40
0.9786510434
 40
0.989116827
 40
1.0
 40
1.0
 40
1.0
 40
1.0
 10
4.1509012103
 20
3.8868314777
 30
0.0
 10
4.1480073317
 20
3.8875232674
 30
0.0
 10
4.1422731052
 20
3.8887702707
 30
0.0
 10
4.1351355647
 20
3.8900069831
 30
0.0
 10
4.1296135399
 20
3.8907383792
 30
0.0
 10
4.1257384557
 20
3.8911350129
 30
0.0
 10
4.1221136418
 20
3.8913797307
 30
0.0
 10
4.1192726317
 20
3.8914558115
 30
0.0
 10
4.1171656981
 20
3.8914298009
 30
0.0
 10
4.1157217324
 20
3.8913707298
 30
0.0
 10
4.1143750448
 20
3.8912722356
 30
0.0
 10
4.1127807652
 20
3.8910954602
 30
0.0
 10
4.111326238
 20
3.8908442892
 30
0.0
 10
4.1100284765
 20
3.8904954417
 30
0.0
 10
4.1092111324
 20
3.8902113702
 30
0.0
 10
4.1085030702
 20
3.889893524
 30
0.0
 10
4.1079036296
 20
3.8895430217
 30
0.0
 10
4.107411969
 20
3.8891604893
 30
0.0
 10
4.1070279255
 20
3.8887460131
 30
0.0
 10
4.1067523777
 20
3.8883002825
 30
0.0
 10
4.1065856658
 20
3.8878262536
 30
0.0
 10
4.1065267595
 20
3.887328701
 30
0.0
 10
4.1065562542
 20
3.8869940155
 30
0.0
 10
4.1065857329
 20
3.8868265349
 30
0.0
  0
SPLINE
  5
2A0
100
AcDbEntity
  8
0
100
AcDbSpline
 62
7
  6
CONTINUOUS
 70
0
 71
3
 72
28
 73
24
 74
0
 42
0.0000001
 43
0.0000001
 44
0.0000000001
 40
0.0
 40
0.0
 40
0.0
 40
0.0
 40
0.0019670127
 40
0.0039581417
 40
0.0061328348
 40
0.0086165624
 40
0.014815417
 40
0.022965495
 40
0.0332432102
 40
0.0457307601
 40
0.0604560447
 40
0.0774267884
 40
0.0966406808
 40
0.1180861032
 40
0.1675011906
 40
0.2252672435
 40
0.2908750668
 40
0.3636297548
 40
0.4427765437
 40
0.5274219791
 40
0.6166289962
 40
0.8049688832
 40
1.0
 40
1.0
 40
1.0
 40
1.0
 10
5.006132661
 20
5.1064597541
 30
0.0
 10
5.0061377438
 20
5.1064886512
 30
0.0
 10
5.0061398871
 20
5.1065486827
 30
0.0
 10
5.0061150317
 20
5.1066380405
 30
0.0
 10
5.006063257
 20
5.1067237958
 30
0.0
 10
5.0059514478
 20
5.1068421902
 30
0.0
 10
5.0057373851
 20
5.106978851
 30
0.0
 10
5.0053986804
 20
5.1071224095
 30
0.0
 10
5.004956782
 20
5.1072567532
 30
0.0
 10
5.0044113172
 20
5.1073811775
 30
0.0
 10
5.0037620093
 20
5.1074954128
 30
0.0
 10
5.0030095736
 20
5.1075989008
 30
0.0
 10
5.0021548171
 20
5.1076912491
 30
0.0
 10
5.000815898
 20
5.1078042486
 30
0.0
 10
4.9988997555
 20
5.1079094142
 30
0.0
 10
4.99632321
 20
5.1079824654
 30
0.0
 10
4.993397595
 20
5.1080050473
 30
0.0
 10
4.9901531471
 20
5.1079771675
 30
0.0
 10
4.9866255068
 20
5.1078984122
 30
0.0
 10
4.9828537693
 20
5.1077703963
 30
0.0
 10
4.9774563691
 20
5.1075316261
 30
0.0
 10
4.9704188051
 20
5.1071208876
 30
0.0
 10
4.9647158411
 20
5.106696273
 30
0.0
 10
4.9618163121
 20
5.1064597541
 30
0.0
  0
SPLINE
  5
2A1
100
AcDbEntity
  8
0
100
AcDbSpline
 62
7
  6
CONTINUOUS
 70
0
 71
3
 72
27
 73
23
 74
0
 42
0.0000001
 43
0.0000001
 44
0.0000000001
 40
0.0
 40
0.0
 40
0.0
 40
0.0
 40
0.0108537313
 40
0.0212993571
 40
0.0317652954
 40
0.0427116754
 40
0.0545738082
 40
0.0677147655
 40
0.0824159129
 40
0.0988911157
 40
0.1172961786
 40
0.1377207915
 40
0.1848154633
 40
0.2115450748
 40
0.2403556221
 40
0.3039999366
 40
0.3751781884
 40
0.4530075486
 40
0.5364795849
 40
0.6244571989
 40
0.8095356121
 40
1.0
 40
1.0
 40
1.0
 40
1.0
 10
4.7910795022
 20
3.886832684
 30
0.0
 10
4.7911089792
 20
3.8869996801
 30
0.0
 10
4.7911384027
 20
3.8873335749
 30
0.0
 10
4.791079288
 20
3.8878300809
 30
0.0
 10
4.7909123781
 20
3.8883033155
 30
0.0
 10
4.7906366869
 20
3.8887483897
 30
0.0
 10
4.7902526835
 20
3.8891623234
 30
0.0
 10
4.7897612842
 20
3.8895445096
 30
0.0
 10
4.7891620968
 20
3.889894724
 30
0.0
 10
4.7884541966
 20
3.8902122463
 30
0.0
 10
4.7876370799
 20
3.8904959891
 30
0.0
 10
4.7863397788
 20
3.8908447158
 30
0.0
 10
4.7848856033
 20
3.8910954989
 30
0.0
 10
4.7832916912
 20
3.8912718901
 30
0.0
 10
4.7814340843
 20
3.8914078356
 30
0.0
 10
4.7788766751
 20
3.8914682613
 30
0.0
 10
4.7755543547
 20
3.8913800508
 30
0.0
 10
4.771929477
 20
3.8911357411
 30
0.0
 10
4.768054295
 20
3.8907396067
 30
0.0
 10
4.7625314173
 20
3.8900086948
 30
0.0
 10
4.7553926762
 20
3.8887724765
 30
0.0
 10
4.749657782
 20
3.8875239347
 30
0.0
 10
4.746763251
 20
3.8868332385
 30
0.0
  0
SPLINE
  5
2A2
100
AcDbEntity
  8
0
100
AcDbSpline
 62
7
  6
CONTINUOUS
 70
0
 71
3
 72
14
 73
10
 74
0
 42
0.0000001
 43
0.0000001
 44
0.0000000001
 40
0.0
 40
0.0
 40
0.0
 40
0.0
 40
0.1249985155
 40
0.2499970564
 40
0.4999936669
 40
0.6249920643
 40
0.7499922921
 40
0.8749976234
 40
1.0
 40
1.0
 40
1.0
 40
1.0
 10
4.0895820754
 20
3.7853994652
 30
0.0
 10
4.0921399642
 20
3.7855201367
 30
0.0
 10
4.0972527657
 20
3.7858265158
 30
0.0
 10
4.1074648289
 20
3.7866244166
 30
0.0
 10
4.1176647578
 20
3.7875641416
 30
0.0
 10
4.1278756598
 20
3.7883767546
 30
0.0
 10
4.1355431274
 20
3.7888631931
 30
0.0
 10
4.1432200218
 20
3.7891746093
 30
0.0
 10
4.1483419643
 20
3.789246931
 30
0.0
 10
4.150902777
 20
3.7892470073
 30
0.0
  0
SPLINE
  5
2A3
100
AcDbEntity
  8
0
100
AcDbSpline
 62
7
  6
CONTINUOUS
 70
0
 71
3
 72
13
 73
9
 74
0
 42
0.0000001
 43
0.0000001
 44
0.0000000001
 40
0.0
 40
0.0
 40
0.0
 40
0.0
 40
0.1250018301
 40
0.2500033463
 40
0.5000001752
 40
0.6250027427
 40
0.7500053751
 40
1.0
 40
1.0
 40
1.0
 40
1.0
 10
4.7467661047
 20
3.7892468628
 30
0.0
 10
4.7493266649
 20
3.7892466071
 30
0.0
 10
4.7544480333
 20
3.789175312
 30
0.0
 10
4.7646827891
 20
3.7887598215
 30
0.0
 10
4.7748982548
 20
3.787991931
 30
0.0
 10
4.7851008327
 20
3.7870945306
 30
0.0
 10
4.7953035787
 20
3.7862005957
 30
0.0
 10
4.8029668475
 20
3.7856411347
 30
0.0
 10
4.8080820754
 20
3.7853994252
 30
0.0
  0
SPLINE
  5
2A4
100
AcDbEntity
  8
0
100
AcDbSpline
 62
7
  6
CONTINUOUS
 70
0
 71
3
 72
12
 73
8
 74
0
 42
0.0000001
 43
0.0000001
 44
0.0000000001
 40
0.0
 40
0.0
 40
0.0
 40
0.0
 40
0.2510016681
 40
0.5014375956
 40
0.626342519
 40
0.7510477973
 40
1.0
 40
1.0
 40
1.0
 40
1.0
 10
4.7467671748
 20
3.8107128393
 30
0.0
 10
4.7519922745
 20
3.8107123304
 30
0.0
 10
4.7624316449
 20
3.8105191309
 30
0.0
 10
4.7754541666
 20
3.8098469293
 30
0.0
 10
4.7858423059
 20
3.8091807875
 30
0.0
 10
4.7961975193
 20
3.8084881526
 30
0.0
 10
4.8039634279
 20
3.8080258089
 30
0.0
 10
4.8091420637
 20
3.8078273779
 30
0.0
  0
SPLINE
  5
2A5
100
AcDbEntity
  8
0
100
AcDbSpline
 62
7
  6
CONTINUOUS
 70
0
 71
3
 72
27
 73
23
 74
0
 42
0.0000001
 43
0.0000001
 44
0.0000000001
 40
0.0
 40
0.0
 40
0.0
 40
0.0
 40
0.1841902293
 40
0.3666350457
 40
0.5390974264
 40
0.6192316318
 40
0.693893673
 40
0.7620683597
 40
0.8229413666
 40
0.8757383857
 40
0.9198293267
 40
0.9384380064
 40
0.9546634043
 40
0.9684452975
 40
0.9797587056
 40
0.9885872565
 40
0.9920645934
 40
0.9949145748
 40
0.9971351535
 40
0.9987242817
 40
0.999679912
 40
1.0
 40
1.0
 40
1.0
 40
1.0
 10
4.832036319
 20
3.8078264001
 30
0.0
 10
4.8323941774
 20
3.8079264156
 30
0.0
 10
4.8330915681
 20
3.808179584
 30
0.0
 10
4.8340742872
 20
3.808647456
 30
0.0
 10
4.8348397763
 20
3.8090777672
 30
0.0
 10
4.8354038232
 20
3.8094208712
 30
0.0
 10
4.8357839491
 20
3.8096613885
 30
0.0
 10
4.8361283468
 20
3.8098856134
 30
0.0
 10
4.8364333643
 20
3.8100894326
 30
0.0
 10
4.8366960902
 20
3.8102690572
 30
0.0
 10
4.8368872288
 20
3.8104022998
 30
0.0
 10
4.8370173705
 20
3.8104940251
 30
0.0
 10
4.8370974036
 20
3.8105507094
 30
0.0
 10
4.8371653955
 20
3.8105989383
 30
0.0
 10
4.8372211669
 20
3.8106385855
 30
0.0
 10
4.837260022
 20
3.8106661957
 30
0.0
 10
4.8372848652
 20
3.8106839698
 30
0.0
 10
4.8372990165
 20
3.8106939253
 30
0.0
 10
4.8373096541
 20
3.8107018882
 30
0.0
 10
4.8373181417
 20
3.8107071312
 30
0.0
 10
4.8373216633
 20
3.8107111129
 30
0.0
 10
4.8373249732
 20
3.8107119776
 30
0.0
 10
4.8373249906
 20
3.8107126231
 30
0.0
  0
SPLINE
  5
2A6
100
AcDbEntity
  8
0
100
AcDbSpline
 62
7
  6
CONTINUOUS
 70
0
 71
3
 72
20
 73
16
 74
0
 42
0.0000001
 43
0.0000001
 44
0.0000000001
 40
0.0
 40
0.0
 40
0.0
 40
0.0
 40
0.1840803172
 40
0.3585897843
 40
0.5192395107
 40
0.6626486854
 40
0.7268674171
 40
0.7855798033
 40
0.8384044838
 40
0.8849402036
 40
0.9247743929
 40
0.9574964711
 40
0.9826853277
 40
0.9923409732
 40
1.0
 40
1.0
 40
1.0
 40
1.0
 10
4.8091420637
 20
3.8078273779
 30
0.0
 10
4.8105465527
 20
3.8077735899
 30
0.0
 10
4.8132837201
 20
3.8077001322
 30
0.0
 10
4.8172480005
 20
3.8076480281
 30
0.0
 10
4.8209020091
 20
3.8076282478
 30
0.0
 10
4.8237139402
 20
3.807624573
 30
0.0
 10
4.8257475438
 20
3.8076261659
 30
0.0
 10
4.8270894956
 20
3.8076302387
 30
0.0
 10
4.8282964225
 20
3.807637545
 30
0.0
 10
4.8293591467
 20
3.8076499729
 30
0.0
 10
4.8302682984
 20
3.8076701163
 30
0.0
 10
4.831013963
 20
3.8077004838
 30
0.0
 10
4.8315288372
 20
3.8077387908
 30
0.0
 10
4.8318503163
 20
3.8077837237
 30
0.0
 10
4.8319799892
 20
3.8078106905
 30
0.0
 10
4.832036319
 20
3.8078264001
 30
0.0
  0
SPLINE
  5
2A7
100
AcDbEntity
  8
0
100
AcDbSpline
 62
7
  6
CONTINUOUS
 70
0
 71
3
 72
20
 73
16
 74
0
 42
0.0000001
 43
0.0000001
 44
0.0000000001
 40
0.0
 40
0.0
 40
0.0
 40
0.0
 40
0.0076637444
 40
0.0173262999
 40
0.0425256912
 40
0.0752388608
 40
0.1150463539
 40
0.1615448281
 40
0.2143290917
 40
0.2730124232
 40
0.337214915
 40
0.4806064273
 40
0.6412721815
 40
0.8158845712
 40
1.0
 40
1.0
 40
1.0
 40
1.0
 10
4.0656253396
 20
3.8078265149
 30
0.0
 10
4.0656817374
 20
3.807810877
 30
0.0
 10
4.0658115528
 20
3.8077840548
 30
0.0
 10
4.0661332944
 20
3.807739379
 30
0.0
 10
4.0666483307
 20
3.80770126
 30
0.0
 10
4.0673939272
 20
3.8076707203
 30
0.0
 10
4.0683026811
 20
3.8076505308
 30
0.0
 10
4.0693647907
 20
3.8076378857
 30
0.0
 10
4.0705711104
 20
3.8076300019
 30
0.0
 10
4.0719126426
 20
3.8076258799
 30
0.0
 10
4.0739461208
 20
3.8076239555
 30
0.0
 10
4.0767584079
 20
3.8076281007
 30
0.0
 10
4.0804138254
 20
3.807648432
 30
0.0
 10
4.0843799738
 20
3.8077005687
 30
0.0
 10
4.0871186813
 20
3.8077737484
 30
0.0
 10
4.08852369
 20
3.8078273978
 30
0.0
  0
SPLINE
  5
2A8
100
AcDbEntity
  8
0
100
AcDbSpline
 62
7
  6
CONTINUOUS
 70
0
 71
3
 72
28
 73
24
 74
0
 42
0.0000001
 43
0.0000001
 44
0.0000000001
 40
0.0
 40
0.0
 40
0.0
 40
0.0
 40
0.000310734
 40
0.0012582386
 40
0.0028415614
 40
0.0050596636
 40
0.0079114973
 40
0.0113960119
 40
0.0202576185
 40
0.0316144279
 40
0.0454199229
 40
0.0616272211
 40
0.0801898782
 40
0.1241983289
 40
0.1770162602
 40
0.2379940242
 40
0.3062765447
 40
0.3808540477
 40
0.4608563356
 40
0.5454444554
 40
0.6336055588
 40
0.8161554145
 40
1.0
 40
1.0
 40
1.0
 40
1.0
 10
4.0603391827
 20
3.8107130802
 30
0.0
 10
4.0603391656
 20
3.8107137066
 30
0.0
 10
4.0603425977
 20
3.8107098983
 30
0.0
 10
4.060345954
 20
3.8107088797
 30
0.0
 10
4.0603545014
 20
3.8107019983
 30
0.0
 10
4.0603650757
 20
3.8106947678
 30
0.0
 10
4.0603792231
 20
3.8106844876
 30
0.0
 10
4.0604040607
 20
3.8106667242
 30
0.0
 10
4.0604429253
 20
3.8106387695
 30
0.0
 10
4.0604986833
 20
3.8105988383
 30
0.0
 10
4.0605666205
 20
3.8105503967
 30
0.0
 10
4.0606465471
 20
3.8104937665
 30
0.0
 10
4.0607764876
 20
3.8104023614
 30
0.0
 10
4.0609676532
 20
3.8102696778
 30
0.0
 10
4.0612307353
 20
3.8100906159
 30
0.0
 10
4.0615360762
 20
3.8098866655
 30
0.0
 10
4.061880231
 20
3.809661855
 30
0.0
 10
4.0622595617
 20
3.8094207895
 30
0.0
 10
4.0626714624
 20
3.8091697856
 30
0.0
 10
4.0631132815
 20
3.8089154972
 30
0.0
 10
4.063744118
 20
3.8085755578
 30
0.0
 10
4.0645717101
 20
3.8081797918
 30
0.0
 10
4.0652681547
 20
3.807925876
 30
0.0
 10
4.0656253396
 20
3.8078265149
 30
0.0
  0
SPLINE
  5
2A9
100
AcDbEntity
  8
0
100
AcDbSpline
 62
7
  6
CONTINUOUS
 70
0
 71
3
 72
13
 73
9
 74
0
 42
0.0000001
 43
0.0000001
 44
0.0000000001
 40
0.0
 40
0.0
 40
0.0
 40
0.0
 40
0.2489497955
 40
0.3736483076
 40
0.4985522775
 40
0.6236735043
 40
0.7489909889
 40
1.0
 40
1.0
 40
1.0
 40
1.0
 10
4.08852369
 20
3.8078273978
 30
0.0
 10
4.0937026637
 20
3.8080252903
 30
0.0
 10
4.1014688623
 20
3.808489191
 30
0.0
 10
4.1118246472
 20
3.8091807936
 30
0.0
 10
4.1196099538
 20
3.8096791307
 30
0.0
 10
4.127411914
 20
3.8101168687
 30
0.0
 10
4.1378418332
 20
3.810565446
 30
0.0
 10
4.1456770896
 20
3.8107130097
 30
0.0
 10
4.1509027125
 20
3.8107131308
 30
0.0
  0
SPLINE
  5
2AA
100
AcDbEntity
  8
ALL_ASSEMBLY_MEMBERS
100
AcDbSpline
 62
7
  6
CONTINUOUS
 70
0
 71
3
 72
15
 73
11
 74
0
 42
0.0000001
 43
0.0000001
 44
0.0000000001
 40
0.0
 40
0.0
 40
0.0
 40
0.0
 40
0.1369972567
 40
0.2728399451
 40
0.4062419097
 40
0.5361007562
 40
0.6613170875
 40
0.780909506
 40
0.8941095167
 40
1.0
 40
1.0
 40
1.0
 40
1.0
 10
3.2923320754
 20
2.7450126538
 30
0.0
 10
3.2654017056
 20
2.7450126538
 30
0.0
 10
3.2117667884
 20
2.7454705702
 30
0.0
 10
3.1319319472
 20
2.7475236608
 30
0.0
 10
3.05354739
 20
2.7509288696
 30
0.0
 10
2.9773240423
 20
2.7556580593
 30
0.0
 10
2.9039141274
 20
2.7616714897
 30
0.0
 10
2.8339075159
 20
2.7689329547
 30
0.0
 10
2.7678647168
 20
2.7774018506
 30
0.0
 10
2.7253057441
 20
2.7840541369
 30
0.0
 10
2.7047971275
 20
2.7876154208
 30
0.0
  0
SPLINE
  5
2AB
100
AcDbEntity
  8
ALL_ASSEMBLY_MEMBERS
100
AcDbSpline
 62
7
  6
CONTINUOUS
 70
0
 71
3
 72
16
 73
12
 74
0
 42
0.0000001
 43
0.0000001
 44
0.0000000001
 40
0.0
 40
0.0
 40
0.0
 40
0.0
 40
0.1393222553
 40
0.2773441496
 40
0.4125666002
 40
0.5436754423
 40
0.6693331259
 40
0.7881800391
 40
0.8988483188
 40
0.9506963028
 40
1.0
 40
1.0
 40
1.0
 40
1.0
 10
3.2923320754
 20
3.0262626538
 30
0.0
 10
3.2671902525
 20
3.0262626538
 30
0.0
 10
3.2171402215
 20
3.0266869673
 30
0.0
 10
3.1427099759
 20
3.0285867875
 30
0.0
 10
3.0698049872
 20
3.0317313214
 30
0.0
 10
2.9991970916
 20
3.0360814927
 30
0.0
 10
2.9316331948
 20
3.0415808017
 30
0.0
 10
2.8678725111
 20
3.0481578224
 30
0.0
 10
2.8174999568
 20
3.0545833569
 30
0.0
 10
2.7796932243
 20
3.0602277146
 30
0.0
 10
2.761681657
 20
3.0631963959
 30
0.0
 10
2.7529155909
 20
3.0647186073
 30
0.0
  0
SPLINE
  5
2AC
100
AcDbEntity
  8
ALL_ASSEMBLY_MEMBERS
100
AcDbSpline
 62
7
  6
CONTINUOUS
 70
0
 71
3
 72
43
 73
39
 74
0
 42
0.0000001
 43
0.0000001
 44
0.0000000001
 40
0.0
 40
0.0
 40
0.0
 40
0.0
 40
0.0159200577
 40
0.0314861191
 40
0.0467923412
 40
0.0618893838
 40
0.0767046555
 40
0.091114407
 40
0.1049978316
 40
0.1183652595
 40
0.1312571735
 40
0.1436863422
 40
0.1556778413
 40
0.167318399
 40
0.1786937455
 40
0.1898788504
 40
0.2009393172
 40
0.2119373484
 40
0.2229327909
 40
0.233982604
 40
0.2451406997
 40
0.2564492417
 40
0.2796217842
 40
0.3036981945
 40
0.3288408462
 40
0.3551255428
 40
0.3826049746
 40
0.4113160579
 40
0.4412479839
 40
0.4723775052
 40
0.5046786357
 40
0.5381053892
 40
0.6080876595
 40
0.6817908663
 40
0.758560406
 40
0.8376984233
 40
0.9184697526
 40
1.0
 40
1.0
 40
1.0
 40
1.0
 10
6.9485820754
 20
3.0240135453
 30
0.0
 10
6.9485820754
 20
3.0184432955
 30
0.0
 10
6.9480331362
 20
3.0074182198
 30
0.0
 10
6.9455764404
 20
2.9912051951
 30
0.0
 10
6.9415947558
 20
2.9755943647
 30
0.0
 10
6.9362130976
 20
2.9606918676
 30
0.0
 10
6.9296554418
 20
2.9466175217
 30
0.0
 10
6.9221420122
 20
2.9335182751
 30
0.0
 10
6.9138497136
 20
2.9215103635
 30
0.0
 10
6.9049738495
 20
2.9106076023
 30
0.0
 10
6.8956899529
 20
2.9007419445
 30
0.0
 10
6.8861508837
 20
2.8918174784
 30
0.0
 10
6.8764602972
 20
2.8837272504
 30
0.0
 10
6.8666437831
 20
2.876392312
 30
0.0
 10
6.8567141347
 20
2.8697063231
 30
0.0
 10
6.8466795795
 20
2.8635613638
 30
0.0
 10
6.8365439328
 20
2.8578502364
 30
0.0
 10
6.8262759229
 20
2.8525236935
 30
0.0
 10
6.815846363
 20
2.8475303384
 30
0.0
 10
6.8052251664
 20
2.8428197705
 30
0.0
 10
6.7943861603
 20
2.8383402885
 30
0.0
 10
6.7794927384
 20
2.8325766198
 30
0.0
 10
6.7601494912
 20
2.8258036887
 30
0.0
 10
6.7359478381
 20
2.8183160852
 30
0.0
 10
6.7104796616
 20
2.8112825601
 30
0.0
 10
6.6836750701
 20
2.8046558931
 30
0.0
 10
6.6555016886
 20
2.7984002231
 30
0.0
 10
6.6259525962
 20
2.7924854788
 30
0.0
 10
6.5950403006
 20
2.7869042141
 30
0.0
 10
6.5627970299
 20
2.7816536775
 30
0.0
 10
6.5292656326
 20
2.7767322841
 30
0.0
 10
6.482189313
 20
2.7705170269
 30
0.0
 10
6.4205928669
 20
2.7636601884
 30
0.0
 10
6.3437456288
 20
2.7569360185
 30
0.0
 10
6.263576207
 20
2.7516434043
 30
0.0
 10
6.1808476897
 20
2.7478277622
 30
0.0
 10
6.096397447
 20
2.7455265004
 30
0.0
 10
6.0396085958
 20
2.7450126538
 30
0.0
 10
6.0110820754
 20
2.7450126538
 30
0.0
  0
SPLINE
  5
2AD
100
AcDbEntity
  8
ALL_ASSEMBLY_MEMBERS
100
AcDbSpline
 62
7
  6
CONTINUOUS
 70
0
 71
3
 72
22
 73
18
 74
0
 42
0.0000001
 43
0.0000001
 44
0.0000000001
 40
0.0
 40
0.0
 40
0.0
 40
0.0
 40
0.0165160954
 40
0.034574566
 40
0.0749284592
 40
0.0970724481
 40
0.1204445704
 40
0.1706277763
 40
0.2250435297
 40
0.283308523
 40
0.3450491004
 40
0.4099175826
 40
0.4775689087
 40
0.5476565382
 40
0.6937498161
 40
0.8454918108
 40
1.0
 40
1.0
 40
1.0
 40
1.0
 10
6.6674712587
 20
3.0915845016
 30
0.0
 10
6.6639995871
 20
3.0904849166
 30
0.0
 10
6.6567039436
 20
3.0882711833
 30
0.0
 10
6.6407994184
 20
3.0837969157
 30
0.0
 10
6.62356438
 20
3.0794848973
 30
0.0
 10
6.6050972778
 20
3.075306647
 30
0.0
 10
6.5844513589
 20
3.0709453714
 30
0.0
 10
6.556727534
 20
3.0656785308
 30
0.0
 10
6.5213005689
 20
3.0597922317
 30
0.0
 10
6.4832399029
 20
3.0542594145
 30
0.0
 10
6.4427976804
 20
3.049138935
 30
0.0
 10
6.4002190161
 20
3.0444650441
 30
0.0
 10
6.3557412238
 20
3.040274529
 30
0.0
 10
6.2933553232
 20
3.0352972804
 30
0.0
 10
6.2123638637
 20
3.0304963032
 30
0.0
 10
6.1126777818
 20
3.0270358307
 30
0.0
 10
6.0451497063
 20
3.0262626538
 30
0.0
 10
6.0110820754
 20
3.0262626538
 30
0.0
  0
SPLINE
  5
2AE
100
AcDbEntity
  8
ALL_ASSEMBLY_MEMBERS
100
AcDbSpline
 62
7
  6
CONTINUOUS
 70
0
 71
3
 72
45
 73
41
 74
0
 42
0.0000001
 43
0.0000001
 44
0.0000000001
 40
0.0
 40
0.0
 40
0.0
 40
0.0
 40
0.0815364897
 40
0.1623041727
 40
0.2414418223
 40
0.3182149053
 40
0.3919182023
 40
0.4619023951
 40
0.4953278602
 40
0.5276273603
 40
0.5587612753
 40
0.5886939051
 40
0.6173977814
 40
0.6448821691
 40
0.6711701325
 40
0.6963045987
 40
0.7203920438
 40
0.7320829987
 40
0.7435635175
 40
0.7548664518
 40
0.7660292191
 40
0.7770907228
 40
0.7880916376
 40
0.7990834836
 40
0.8101325521
 40
0.8213108678
 40
0.8326952496
 40
0.8443542812
 40
0.8563477422
 40
0.8687488251
 40
0.8816363333
 40
0.8950210013
 40
0.9088947859
 40
0.9160224364
 40
0.9232770099
 40
0.9380983891
 40
0.9532307326
 40
0.9685745164
 40
0.9841406793
 40
1.0
 40
1.0
 40
1.0
 40
1.0
 10
6.0110820754
 20
3.5309276701
 30
0.0
 10
6.0396108847
 20
3.5309276701
 30
0.0
 10
6.0964008576
 20
3.5304140916
 30
0.0
 10
6.1808521758
 20
3.5281122542
 30
0.0
 10
6.2635808353
 20
3.5242967055
 30
0.0
 10
6.3437516826
 20
3.5190038587
 30
0.0
 10
6.4206011452
 20
3.5122794981
 30
0.0
 10
6.4821980004
 20
3.5054220317
 30
0.0
 10
6.5292742022
 20
3.4992072168
 30
0.0
 10
6.5628061869
 20
3.4942853864
 30
0.0
 10
6.5950506208
 20
3.4890336797
 30
0.0
 10
6.6259622996
 20
3.4834526275
 30
0.0
 10
6.6555114376
 20
3.4775401874
 30
0.0
 10
6.6836843669
 20
3.4712802407
 30
0.0
 10
6.7104887409
 20
3.4646524253
 30
0.0
 10
6.735961205
 20
3.457626597
 30
0.0
 10
6.7563231637
 20
3.4513162101
 30
0.0
 10
6.7719782365
 20
3.4459901387
 30
0.0
 10
6.7833214036
 20
3.4418851332
 30
0.0
 10
6.7944009574
 20
3.4376024537
 30
0.0
 10
6.8052400521
 20
3.4331129972
 30
0.0
 10
6.8158623766
 20
3.4283861804
 30
0.0
 10
6.8262966404
 20
3.4233941557
 30
0.0
 10
6.8365696321
 20
3.4180865251
 30
0.0
 10
6.8467021061
 20
3.4123862531
 30
0.0
 10
6.8567191257
 20
3.406218307
 30
0.0
 10
6.866645291
 20
3.3995150081
 30
0.0
 10
6.8764814429
 20
3.3921898123
 30
0.0
 10
6.8861834805
 20
3.3841165547
 30
0.0
 10
6.8957009139
 20
3.3751837799
 30
0.0
 10
6.9049657676
 20
3.3653079666
 30
0.0
 10
6.913845801
 20
3.3544084605
 30
0.0
 10
6.9207097961
 20
3.3445096939
 30
0.0
 10
6.9258260326
 20
3.3360468168
 30
0.0
 10
6.9307295356
 20
3.3270790567
 30
0.0
 10
6.9362218895
 20
3.3152555625
 30
0.0
 10
6.9415954013
 20
3.3003215674
 30
0.0
 10
6.9455786294
 20
3.2846847983
 30
0.0
 10
6.9480317123
 20
3.2684794988
 30
0.0
 10
6.9485820754
 20
3.2574757976
 30
0.0
 10
6.9485820754
 20
3.2519267785
 30
0.0
  0
SPLINE
  5
2AF
100
AcDbEntity
  8
ALL_ASSEMBLY_MEMBERS
100
AcDbSpline
 62
7
  6
CONTINUOUS
 70
0
 71
3
 72
30
 73
26
 74
0
 42
0.0000001
 43
0.0000001
 44
0.0000000001
 40
0.0
 40
0.0
 40
0.0
 40
0.0
 40
0.0869799262
 40
0.1734634312
 40
0.2588049208
 40
0.3424516605
 40
0.4238735613
 40
0.5025209397
 40
0.5778400776
 40
0.649282699
 40
0.7162980247
 40
0.7783055164
 40
0.8072459925
 40
0.8346987805
 40
0.8605752476
 40
0.8847858597
 40
0.9072181596
 40
0.9277424286
 40
0.9462256667
 40
0.962483691
 40
0.9762941971
 40
0.9874053448
 40
0.9918351422
 40
0.995446674
 40
1.0
 40
1.0
 40
1.0
 40
1.0
 10
6.0110820754
 20
3.2496776701
 30
0.0
 10
6.0313956649
 20
3.2496776701
 30
0.0
 10
6.0719074521
 20
3.2493995139
 30
0.0
 10
6.1323386792
 20
3.2481554502
 30
0.0
 10
6.1919686673
 20
3.2460890551
 30
0.0
 10
6.2503819836
 20
3.2432194642
 30
0.0
 10
6.3071851885
 20
3.2395663677
 30
0.0
 10
6.3619845117
 20
3.2351632434
 30
0.0
 10
6.4143805615
 20
3.2300433036
 30
0.0
 10
6.463974021
 20
3.2242600067
 30
0.0
 10
6.5103566027
 20
3.2178681487
 30
0.0
 10
6.5467795576
 20
3.2119806384
 30
0.0
 10
6.5739794761
 20
3.2069977733
 30
0.0
 10
6.5928261858
 20
3.2032572515
 30
0.0
 10
6.6105308288
 20
3.1994480839
 30
0.0
 10
6.6270231453
 20
3.1955906586
 30
0.0
 10
6.6422255285
 20
3.1917194622
 30
0.0
 10
6.6560526869
 20
3.187880686
 30
0.0
 10
6.6684005838
 20
3.1841181152
 30
0.0
 10
6.6791528454
 20
3.180513153
 30
0.0
 10
6.6881743868
 20
3.1771755206
 30
0.0
 10
6.6945087948
 20
3.1745502259
 30
0.0
 10
6.6985828865
 20
3.1727028074
 30
0.0
 10
6.701233757
 20
3.1714283192
 30
0.0
 10
6.7029237555
 20
3.1705416009
 30
0.0
 10
6.7038424083
 20
3.170005975
 30
0.0
  0
SPLINE
  5
2B0
100
AcDbEntity
  8
ALL_ASSEMBLY_MEMBERS
100
AcDbSpline
 62
7
  6
CONTINUOUS
 70
0
 71
3
 72
21
 73
17
 74
0
 42
0.0000001
 43
0.0000001
 44
0.0000000001
 40
0.0
 40
0.0
 40
0.0
 40
0.0
 40
0.1464571408
 40
0.2882868654
 40
0.3568656044
 40
0.4236895363
 40
0.4886772518
 40
0.5517858553
 40
0.613017255
 40
0.6724115496
 40
0.7300608113
 40
0.7861371249
 40
0.8408696965
 40
0.8945326725
 40
0.9474545708
 40
1.0
 40
1.0
 40
1.0
 40
1.0
 10
2.8282932503
 20
2.943434049
 30
0.0
 10
2.8282932503
 20
2.950981333
 30
0.0
 10
2.8274151082
 20
2.9658524837
 30
0.0
 10
2.8240590984
 20
2.9839903069
 30
0.0
 10
2.8200176927
 20
2.997704159
 30
0.0
 10
2.8163975203
 20
3.0073854283
 30
0.0
 10
2.8121770613
 20
3.0165115688
 30
0.0
 10
2.8073800537
 20
3.0250200241
 30
0.0
 10
2.8020439069
 20
3.03285577
 30
0.0
 10
2.7962047142
 20
3.039965417
 30
0.0
 10
2.7898955132
 20
3.0462935076
 30
0.0
 10
2.7831609755
 20
3.0517962214
 30
0.0
 10
2.7760500293
 20
3.0564390325
 30
0.0
 10
2.7686082078
 20
3.0601852296
 30
0.0
 10
2.7608874678
 20
3.0630015389
 30
0.0
 10
2.7555829934
 20
3.0642526677
 30
0.0
 10
2.752915218
 20
3.0647164613
 30
0.0
  0
SPLINE
  5
2B1
100
AcDbEntity
  8
ALL_ASSEMBLY_MEMBERS
100
AcDbSpline
 62
7
  6
CONTINUOUS
 70
0
 71
3
 72
31
 73
27
 74
0
 42
0.0000001
 43
0.0000001
 44
0.0000000001
 40
0.0
 40
0.0
 40
0.0
 40
0.0
 40
0.0618514223
 40
0.0928770963
 40
0.1239152963
 40
0.185960952
 40
0.2170377675
 40
0.2481491586
 40
0.2793010274
 40
0.3104918794
 40
0.3417188634
 40
0.3729812254
 40
0.4042792065
 40
0.4356099963
 40
0.4669701592
 40
0.4983579918
 40
0.5297697877
 40
0.5611992774
 40
0.5926409339
 40
0.6240912633
 40
0.6869482098
 40
0.7497684541
 40
0.8125122819
 40
0.8751448311
 40
0.9376438861
 40
1.0
 40
1.0
 40
1.0
 40
1.0
 10
6.9485820754
 20
3.2519267785
 30
0.0
 10
6.9485820754
 20
3.2448284087
 30
0.0
 10
6.9477370594
 20
3.2341458453
 30
0.0
 10
6.9449782236
 20
3.2201844005
 30
0.0
 10
6.941133668
 20
3.2064568657
 30
0.0
 10
6.9356779176
 20
3.1932189736
 30
0.0
 10
6.9287483225
 20
3.1807463076
 30
0.0
 10
6.9228273463
 20
3.1718054049
 30
0.0
 10
6.9162244772
 20
3.1633403398
 30
0.0
 10
6.9089822132
 20
3.1553972539
 30
0.0
 10
6.9011423078
 20
3.148024762
 30
0.0
 10
6.8927463707
 20
3.1412726386
 30
0.0
 10
6.8838481959
 20
3.1351769407
 30
0.0
 10
6.8745020182
 20
3.1297708668
 30
0.0
 10
6.8647612586
 20
3.1250889919
 30
0.0
 10
6.8546819502
 20
3.1211635404
 30
0.0
 10
6.8443265818
 20
3.1180112371
 30
0.0
 10
6.8337565547
 20
3.1156496775
 30
0.0
 10
6.8230323418
 20
3.1140984367
 30
0.0
 10
6.8086224731
 20
3.1131241977
 30
0.0
 10
6.7905329531
 20
3.1139498138
 30
0.0
 10
6.7692520217
 20
3.1182218549
 30
0.0
 10
6.7488800514
 20
3.1256446592
 30
0.0
 10
6.7299101642
 20
3.1360712516
 30
0.0
 10
6.7127823874
 20
3.1492278958
 30
0.0
 10
6.7028525868
 20
3.159651613
 30
0.0
 10
6.6983283768
 20
3.1651963422
 30
0.0
  0
SPLINE
  5
2B2
100
AcDbEntity
  8
ALL_ASSEMBLY_MEMBERS
100
AcDbSpline
 62
7
  6
CONTINUOUS
 70
0
 71
3
 72
21
 73
17
 74
0
 42
0.0000001
 43
0.0000001
 44
0.0000000001
 40
0.0
 40
0.0
 40
0.0
 40
0.0
 40
0.0499006765
 40
0.1004716905
 40
0.1523181652
 40
0.2059452054
 40
0.261724599
 40
0.3198716509
 40
0.3804823675
 40
0.4435036767
 40
0.5087850871
 40
0.5760756352
 40
0.7151403704
 40
0.8577083763
 40
0.9292064641
 40
1.0
 40
1.0
 40
1.0
 40
1.0
 10
2.7047975003
 20
2.7876175668
 30
0.0
 10
2.7084501303
 20
2.7869825558
 30
0.0
 10
2.715923401
 20
2.786304542
 30
0.0
 10
2.7272557828
 20
2.7871230632
 30
0.0
 10
2.7385966454
 20
2.7897352171
 30
0.0
 10
2.7497908898
 20
2.7941139712
 30
0.0
 10
2.7606964467
 20
2.8001885922
 30
0.0
 10
2.771182015
 20
2.8078702474
 30
0.0
 10
2.7811078679
 20
2.8170686573
 30
0.0
 10
2.7903625226
 20
2.8276523771
 30
0.0
 10
2.7988222157
 20
2.8394955007
 30
0.0
 10
2.8090119325
 20
2.8569428364
 30
0.0
 10
2.8191088538
 20
2.8809592605
 30
0.0
 10
2.8253176708
 20
2.9065693584
 30
0.0
 10
2.8278558292
 20
2.927597673
 30
0.0
 10
2.8282932503
 20
2.938174377
 30
0.0
 10
2.8282932503
 20
2.943434049
 30
0.0
  0
SPLINE
  5
2B3
100
AcDbEntity
  8
ALL_ASSEMBLY_MEMBERS
100
AcDbSpline
 62
7
  6
CONTINUOUS
 70
0
 71
3
 72
31
 73
27
 74
0
 42
0.0000001
 43
0.0000001
 44
0.0000000001
 40
0.0
 40
0.0
 40
0.0
 40
0.0
 40
0.0620542502
 40
0.0931374859
 40
0.1242360455
 40
0.1553666892
 40
0.1865441872
 40
0.2489721673
 40
0.3115767801
 40
0.3429735767
 40
0.3744048683
 40
0.4372760122
 40
0.5001976008
 40
0.5316901418
 40
0.5631699325
 40
0.6259918375
 40
0.6886771287
 40
0.7199925745
 40
0.7512640525
 40
0.7824903962
 40
0.8136674857
 40
0.8447978036
 40
0.8758961687
 40
0.9069793598
 40
0.9380589827
 40
1.0
 40
1.0
 40
1.0
 40
1.0
 10
6.9479333338
 20
3.010769051
 30
0.0
 10
6.9470772319
 20
3.0020246365
 30
0.0
 10
6.9445215992
 20
2.9889772783
 30
0.0
 10
6.9386672905
 20
2.9723696778
 30
0.0
 10
6.9330907501
 20
2.9603682249
 30
0.0
 10
6.9263841267
 20
2.9489452455
 30
0.0
 10
6.9160077498
 20
2.9346256876
 30
0.0
 10
6.9005187238
 20
2.9186370576
 30
0.0
 10
6.8822529772
 20
2.9058624641
 30
0.0
 10
6.8663939775
 20
2.8978174224
 30
0.0
 10
6.8498101451
 20
2.8912939835
 30
0.0
 10
6.8280222163
 20
2.8860904942
 30
0.0
 10
6.8056370589
 20
2.8850601649
 30
0.0
 10
6.7878675193
 20
2.8867329747
 30
0.0
 10
6.7703482581
 20
2.8900684988
 30
0.0
 10
6.749174832
 20
2.8972771999
 30
0.0
 10
6.729754561
 20
2.9083311824
 30
0.0
 10
6.7157126612
 20
2.9192042488
 30
0.0
 10
6.7060185857
 20
2.9283158802
 30
0.0
 10
6.6972456614
 20
2.9382895294
 30
0.0
 10
6.6894708094
 20
2.9490355497
 30
0.0
 10
6.6827737033
 20
2.9604635551
 30
0.0
 10
6.6772067186
 20
2.9724671608
 30
0.0
 10
6.6728203921
 20
2.9849460134
 30
0.0
 10
6.6686233436
 20
3.0020279003
 30
0.0
 10
6.6673320754
 20
3.0152433561
 30
0.0
 10
6.6673320754
 20
3.0240135453
 30
0.0
  0
ENDSEC
  0
SECTION
  2
OBJECTS
  0
DICTIONARY
  5
C
100
AcDbDictionary
280
0
281
1
  3
ACAD_GROUP
350
D
  3
ACAD_MLINESTYLE
350
17
  3
ACAD_LAYOUT
350
1A
  3
ACAD_PLOTSETTINGS
350
19
  3
ACAD_PLOTSTYLENAME
350
E
  0
DICTIONARY
  5
D
102
{ACAD_REACTORS
330
C
102
}
100
AcDbDictionary
280
0
281
1
  0
ACDBDICTIONARYWDFLT
  5
E
102
{ACAD_REACTORS
330
C
102
}
100
AcDbDictionary
281
1
  3
Normal
350
F
100
AcDbDictionaryWithDefault
340
F
  0
DICTIONARY
  5
17
102
{ACAD_REACTORS
330
C
102
}
100
AcDbDictionary
280
0
281
1
  3
Standard
350
18
  0
DICTIONARY
  5
19
102
{ACAD_REACTORS
330
C
102
}
100
AcDbDictionary
281
1
  0
DICTIONARY
  5
1A
102
{ACAD_REACTORS
330
C
102
}
100
AcDbDictionary
281
1
  3
Model
350
2B4
  3
Layout1
350
2B5
  0
ACDBPLACEHOLDER
  5
F
102
{ACAD_REACTORS
330
E
102
}
  0
MLINESTYLE
  5
18
102
{ACAD_REACTORS
330
17
102
}
100
AcDbMlineStyle
  2
STANDARD
 70
0
  3

 62
256
 51
90.0
 52
90.0
 71
2
 49
0.5
 62
256
  6
BYLAYER
 49
-0.5
 62
256
  6
BYLAYER
  0
LAYOUT
  5
2B4
102
{ACAD_REACTORS
330
1A
102
}
100
AcDbPlotSettings
  1

  2
none_device
  4
ANSI_A_(11.00_x_8.50_Inches)
  6

 40
0.0
 41
0.0
 42
0.0
 43
0.0
 44
279.4
 45
215.9
 46
0.0
 47
0.0
 48
0.0
 49
0.0
140
0.0
141
0.0
142
1.0
143
1.0
 70
1024
 72
0
 73
0
 74
0
  7

 75
0
147
1.0
148
0.0
149
0.0
100
AcDbLayout
  1
Model
 70
0
 71
0
 10
0.0
 20
0.0
 11
11.0
 21
8.5
 12
0.0
 22
0.0
 32
0.0
 14
0.0
 24
0.0
 34
0.0
 15
0.0
 25
0.0
 35
0.0
146
0.0
 13
0.0
 23
0.0
 33
0.0
 16
1.0
 26
0.0
 36
0.0
 17
0.0
 27
1.0
 37
0.0
 76
0
330
215
345
0
346
0
  0
LAYOUT
  5
2B5
102
{ACAD_REACTORS
330
1A
102
}
100
AcDbPlotSettings
  1

  2
none_device
  4
ANSI_A_(11.00_x_8.50_Inches)
  6

 40
0.0
 41
0.0
 42
0.0
 43
0.0
 44
279.4
 45
215.9
 46
0.0
 47
0.0
 48
0.0
 49
0.0
140
0.0
141
0.0
142
1.0
143
1.0
 70
0
 72
0
 73
0
 74
0
  7

 75
0
147
1.0
148
0.0
149
0.0
100
AcDbLayout
  1
Layout1
 70
0
 71
1
 10
0.0
 20
0.0
 11
11.0
 21
8.5
 12
0.0
 22
0.0
 32
0.0
 14
0.0
 24
0.0
 34
0.0
 15
0.0
 25
0.0
 35
0.0
146
0.0
 13
0.0
 23
0.0
 33
0.0
 16
1.0
 26
0.0
 36
0.0
 17
0.0
 27
1.0
 37
0.0
 76
0
330
216
345
0
346
0
  0
ENDSEC
  0
EOF
