999
DXF file: 43-28_TOP.dxf
999
Pro/ENGINEER 2014000 by Parametric Technology Corporation
  0
SECTION
  2
HEADER
  9
$ACADVER
  1
AC1015
  9
$DWGCODEPAGE
  3
ANSI_1252
  9
$EXTMAX
 10
11.6929133858
 20
8.2677165354
 30
0.0
  9
$EXTMIN
 10
0.0
 20
0.0
 30
0.0
  9
$LIMMIN
 10
0.0
 20
0.0
  9
$LIMMAX
 10
11.6929133858
 20
8.2677165354
  9
$VIEWCTR
 10
5.8464566929
 20
4.1338582677
  9
$VIEWSIZE
 40
8.2677165354
  9
$CLAYER
  8
0
  9
$LTSCALE
 40
0.6431102362
  9
$CELTYPE
  6
BYLAYER
  9
$DIMSCALE
 40
1.0
  9
$DIMASZ
 40
0.1875
  9
$DIMEXO
 40
0.0625
  9
$DIMDLI
 40
0.4443307087
  9
$DIMEXE
 40
0.125
  9
$DIMCEN
 40
0.1052362205
  9
$DIMLFAC
 40
1.0
  9
$DIMBLK
  1
_CLOSED
  9
$DIMTXT
 40
0.15625
  9
$DIMTOL
 70
0
  9
$DIMLIM
 70
0
  9
$DIMTFAC
 40
1.0
  9
$DIMGAP
 40
0.09
  9
$DIMDSEP
 70
46
  9
$PDMODE
 70
3
  9
$PDSIZE
 40
0.3125
  9
$HANDSEED
  5
367
  9
$TILEMODE
 70
1
  9
$MEASUREMENT
 70
0
  9
$INSUNITS
 70
1
  0
ENDSEC
  0
SECTION
  2
CLASSES
  0
CLASS
  1
ACDBDICTIONARYWDFLT
  2
AcDbDictionaryWithDefault
  3
AutoCAD 2000
 90
0
280
0
281
0
  0
CLASS
  1
ACDBPLACEHOLDER
  2
AcDbPlaceHolder
  3
AutoCAD 2000
 90
0
280
0
281
0
  0
CLASS
  1
LAYOUT
  2
AcDbLayout
  3
AutoCAD 2000
 90
0
280
0
281
0
  0
ENDSEC
  0
SECTION
  2
TABLES
  0
TABLE
  2
VPORT
  5
8
100
AcDbSymbolTable
 70
2
  0
VPORT
  5
1F4
100
AcDbSymbolTableRecord
100
AcDbViewportTableRecord
  2
*ACTIVE
 70
0
 10
0.0
 20
0.0
 11
1.0
 21
1.0
 12
5.8464566929
 22
4.1338582677
 13
0.0
 23
0.0
 14
1.0
 24
1.0
 15
0.0
 25
0.0
 16
0.0
 26
0.0
 36
1.0
 17
0.0
 27
0.0
 37
0.0
 40
8.2677165354
 41
1.4142857143
 42
50.0
 43
0.0
 44
0.0
 50
0.0
 51
0.0
 71
0
 72
100
 73
1
 74
1
 75
0
 76
0
 77
0
 78
0
  0
ENDTAB
  0
TABLE
  2
LTYPE
  5
5
100
AcDbSymbolTable
 70
6
  0
LTYPE
  5
14
100
AcDbSymbolTableRecord
100
AcDbLinetypeTableRecord
  2
BYBLOCK
 70
0
  3

 72
65
 73
0
 40
0.0
  0
LTYPE
  5
15
100
AcDbSymbolTableRecord
100
AcDbLinetypeTableRecord
  2
BYLAYER
 70
0
  3

 72
65
 73
0
 40
0.0
  0
LTYPE
  5
16
100
AcDbSymbolTableRecord
100
AcDbLinetypeTableRecord
  2
CONTINUOUS
 70
64
  3
Solid line
 72
65
 73
0
 40
0.0
  0
LTYPE
  5
1F5
100
AcDbSymbolTableRecord
100
AcDbLinetypeTableRecord
  2
CENTER
 70
64
  3
____ _ ____ _ ____ _ ____ _ ____ _ ____ _ ____
 72
65
 73
4
 40
0.6
 49
0.375
 74
0
 49
-0.075
 74
0
 49
0.075
 74
0
 49
-0.075
 74
0
  0
LTYPE
  5
1F6
100
AcDbSymbolTableRecord
100
AcDbLinetypeTableRecord
  2
HIDDEN
 70
64
  3
- - - - - - - - - - - - - - - - - - - -
 72
65
 73
2
 40
0.2
 49
0.1
 74
0
 49
-0.1
 74
0
  0
LTYPE
  5
1F7
100
AcDbSymbolTableRecord
100
AcDbLinetypeTableRecord
  2
PHANTOM
 70
64
  3
_____ _ _ _____ _ _ _____ _ _ _____
 72
65
 73
6
 40
0.8
 49
0.45
 74
0
 49
-0.05
 74
0
 49
0.1
 74
0
 49
-0.05
 74
0
 49
0.1
 74
0
 49
-0.05
 74
0
  0
LTYPE
  5
1F8
100
AcDbSymbolTableRecord
100
AcDbLinetypeTableRecord
  2
DOT
 70
64
  3
. . . . . . . . . . . . . . . . . . . .
 72
65
 73
2
 40
0.2
 49
0.1
 74
0
 49
-0.1
 74
0
  0
LTYPE
  5
1F9
100
AcDbSymbolTableRecord
100
AcDbLinetypeTableRecord
  2
DASHED
 70
64
  3
- - - - - - - - - - - - - - - - - - - -
 72
65
 73
2
 40
0.2
 49
0.1
 74
0
 49
-0.1
 74
0
  0
ENDTAB
  0
TABLE
  2
LAYER
  5
2
100
AcDbSymbolTable
 70
36
  0
LAYER
  5
10
100
AcDbSymbolTableRecord
100
AcDbLayerTableRecord
  2
0
 70
0
 62
7
  6
CONTINUOUS
370
-3
390
F
  0
LAYER
  5
1FA
100
AcDbSymbolTableRecord
100
AcDbLayerTableRecord
  2
DEFAULT_1
 70
0
 62
7
  6
CENTER
370
-3
390
F
  0
LAYER
  5
1FB
100
AcDbSymbolTableRecord
100
AcDbLayerTableRecord
  2
DEFAULT_2
 70
0
 62
8
  6
HIDDEN
370
-3
390
F
  0
LAYER
  5
1FC
100
AcDbSymbolTableRecord
100
AcDbLayerTableRecord
  2
DEFAULT_3
 70
0
 62
7
  6
PHANTOM
370
-3
390
F
  0
LAYER
  5
1FD
100
AcDbSymbolTableRecord
100
AcDbLayerTableRecord
  2
DEFAULT_COORDINATE_SYSTEM
 70
0
 62
7
  6
CONTINUOUS
370
-3
390
F
  0
LAYER
  5
1FE
100
AcDbSymbolTableRecord
100
AcDbLayerTableRecord
  2
DEFAULT_DATUM_AXES
 70
0
 62
7
  6
CONTINUOUS
370
-3
390
F
  0
LAYER
  5
1FF
100
AcDbSymbolTableRecord
100
AcDbLayerTableRecord
  2
DEFAULT_DATUM_PLANES
 70
0
 62
7
  6
CONTINUOUS
370
-3
390
F
  0
ENDTAB
  0
TABLE
  2
STYLE
  5
3
100
AcDbSymbolTable
 70
1
  0
STYLE
  5
11
100
AcDbSymbolTableRecord
100
AcDbTextStyleTableRecord
  2
STANDARD
 70
0
 40
0.0
 41
0.8
 50
0.0
 71
0
 42
0.2
  3
txt
  4

  0
STYLE
  5
200
100
AcDbSymbolTableRecord
100
AcDbTextStyleTableRecord
  2
TEXTSTYLE_1
 70
0
 40
0.0
 41
0.8
 50
0.0
 71
0
 42
0.2
  3
gdt
  4

  0
ENDTAB
  0
TABLE
  2
VIEW
  5
6
100
AcDbSymbolTable
 70
0
  0
ENDTAB
  0
TABLE
  2
UCS
  5
7
100
AcDbSymbolTable
 70
0
  0
ENDTAB
  0
TABLE
  2
APPID
  5
9
100
AcDbSymbolTable
 70
1
  0
APPID
  5
201
100
AcDbSymbolTableRecord
100
AcDbRegAppTableRecord
  2
ACAD
 70
0
  0
ENDTAB
  0
TABLE
  2
BLOCK_RECORD
  5
1
100
AcDbSymbolTable
 70
0
  0
BLOCK_RECORD
  5
202
100
AcDbSymbolTableRecord
100
AcDbBlockTableRecord
  2
*Model_Space
  0
BLOCK_RECORD
  5
203
100
AcDbSymbolTableRecord
100
AcDbBlockTableRecord
  2
*Paper_Space
  0
ENDTAB
  0
TABLE
  2
DIMSTYLE
  5
A
100
AcDbSymbolTable
 70
1
100
AcDbDimStyleTable
 71
0
  0
DIMSTYLE
105
204
100
AcDbSymbolTableRecord
100
AcDbDimStyleTableRecord
  2
STANDARD
 70
0
  3

  4

 40
1.0
 41
0.1875
 42
0.0625
 43
0.38
 44
0.125
 45
0.0
 46
0.0
 47
0.001
 48
0.001
140
0.15625
141
0.09
142
0.0
143
25.4
144
1.0
145
0.0
146
1.0
147
0.09
 71
0.0
 72
0.0
 73
1
 74
1
 75
0
 76
0
 77
0
 78
4
170
0
171
2
172
0
173
0
174
0
175
0
176
0
177
0
178
0
270
2
271
3
272
3
273
2
274
2
275
0
280
0
281
0
282
0
283
1
284
4
285
0
286
0
287
3
288
0
340
11
278
46
  0
ENDTAB
  0
ENDSEC
  0
SECTION
  2
BLOCKS
  0
BLOCK
  5
20
100
AcDbEntity
  8
0
100
AcDbBlockBegin
  2
*Model_Space
 70
0
 10
0.0
 20
0.0
 30
0.0
  3
*Model_Space
  1

  0
ENDBLK
  5
21
100
AcDbEntity
  8
0
100
AcDbBlockEnd
  0
BLOCK
  5
1C
100
AcDbEntity
  8
0
100
AcDbBlockBegin
  2
*Paper_Space
 70
0
 10
0.0
 20
0.0
 30
0.0
  3
*Paper_Space
  1

  0
ENDBLK
  5
1D
100
AcDbEntity
  8
0
100
AcDbBlockEnd
  0
ENDSEC
  0
SECTION
  2
ENTITIES
  0
LINE
  5
205
100
AcDbEntity
  8
0
100
AcDbLine
 62
7
  6
CONTINUOUS
 10
0.0
 20
0.0
 11
0.0
 21
8.2677165354
  0
LINE
  5
206
100
AcDbEntity
  8
0
100
AcDbLine
 62
7
  6
CONTINUOUS
 10
0.0
 20
0.0
 11
11.6929133858
 21
0.0
  0
LINE
  5
207
100
AcDbEntity
  8
0
100
AcDbLine
 62
7
  6
CONTINUOUS
 10
0.0
 20
8.2677165354
 11
11.6929133858
 21
8.2677165354
  0
LINE
  5
208
100
AcDbEntity
  8
0
100
AcDbLine
 62
7
  6
CONTINUOUS
 10
11.6929133858
 20
0.0
 11
11.6929133858
 21
8.2677165354
  0
LINE
  5
209
100
AcDbEntity
  8
0
100
AcDbLine
 62
6
  6
CONTINUOUS
 10
1.4360517254
 20
5.8036330386
 11
1.4360517254
 21
5.9067876726
  0
LWPOLYLINE
  5
20A
100
AcDbEntity
  8
0
100
AcDbPolyline
 62
6
  6
CONTINUOUS
 90
5
 70
0
 10
1.4378784141
 20
5.9170961421
 10
1.4370820133
 20
5.9145822728
 10
1.4365096364
 20
5.9120092608
 10
1.4361654577
 20
5.9093974628
 10
1.4360517254
 20
5.9067876731
  0
LWPOLYLINE
  5
20B
100
AcDbEntity
  8
0
100
AcDbPolyline
 62
6
  6
CONTINUOUS
 90
5
 70
0
 10
1.4431559269
 20
5.9261727815
 10
1.4415418481
 20
5.9240869773
 10
1.4401171113
 20
5.9218673217
 10
1.4388927567
 20
5.9195309233
 10
1.4378784141
 20
5.9170961421
  0
LINE
  5
20C
100
AcDbEntity
  8
0
100
AcDbLine
 62
9
  6
CONTINUOUS
 10
1.5042332625
 20
5.9052056603
 11
1.5021861509
 21
5.9308970559
  0
LINE
  5
20D
100
AcDbEntity
  8
0
100
AcDbLine
 62
6
  6
CONTINUOUS
 10
1.4860517254
 20
6.0042556161
 11
1.4860517254
 21
6.1836330386
  0
LINE
  5
20E
100
AcDbEntity
  8
0
100
AcDbLine
 62
9
  6
CONTINUOUS
 10
1.4960517254
 20
5.7736330386
 11
1.4960517254
 21
5.9041171464
  0
LINE
  5
20F
100
AcDbEntity
  8
0
100
AcDbLine
 62
9
  6
CONTINUOUS
 10
1.5460517865
 20
5.9067876726
 11
1.5460517254
 21
6.1836330386
  0
LINE
  5
210
100
AcDbEntity
  8
0
100
AcDbLine
 62
6
  6
CONTINUOUS
 10
1.7585517254
 20
5.6061330386
 11
1.7585517254
 21
5.7636330386
  0
LINE
  5
211
100
AcDbEntity
  8
0
100
AcDbLine
 62
9
  6
CONTINUOUS
 10
1.8185517254
 20
5.5761330386
 11
1.8185517254
 21
5.7636330386
  0
LINE
  5
212
100
AcDbEntity
  8
0
100
AcDbLine
 62
9
  6
CONTINUOUS
 10
1.9470727432
 20
5.5761330386
 11
1.9470727432
 21
5.5513424839
  0
LINE
  5
213
100
AcDbEntity
  8
0
100
AcDbLine
 62
6
  6
CONTINUOUS
 10
2.0460517254
 20
3.1417224155
 11
2.0460517254
 21
3.0733836748
  0
LWPOLYLINE
  5
214
100
AcDbEntity
  8
0
100
AcDbPolyline
 62
6
  6
CONTINUOUS
 90
4
 70
0
 10
1.4485517265
 20
5.9311546601
 10
1.4469009811
 20
5.9298798582
 10
1.4449469007
 20
5.9281087047
 10
1.4431559269
 20
5.9261727815
  0
LINE
  5
215
100
AcDbEntity
  8
0
100
AcDbLine
 62
9
  6
CONTINUOUS
 10
1.4960517258
 20
5.9041171465
 11
1.4914016223
 21
5.9305784185
  0
LINE
  5
216
100
AcDbEntity
  8
0
100
AcDbLine
 62
9
  6
CONTINUOUS
 10
2.150641579
 20
3.8198327129
 11
2.1520517254
 21
3.7899287653
  0
LINE
  5
217
100
AcDbEntity
  8
0
100
AcDbLine
 62
6
  6
CONTINUOUS
 10
2.0920517254
 20
3.6681330386
 11
2.0920517254
 21
3.7950587919
  0
LINE
  5
218
100
AcDbEntity
  8
0
100
AcDbLine
 62
9
  6
CONTINUOUS
 10
2.1466104019
 20
3.315436621
 11
2.1466097764
 21
2.9022165368
  0
LINE
  5
219
100
AcDbEntity
  8
0
100
AcDbLine
 62
9
  6
CONTINUOUS
 10
2.1520517254
 20
3.6381330386
 11
2.1520517254
 21
3.7899287653
  0
LINE
  5
21A
100
AcDbEntity
  8
0
100
AcDbLine
 62
9
  6
CONTINUOUS
 10
2.2338126179
 20
3.8236796582
 11
2.2338126609
 21
3.7950588215
  0
LINE
  5
21B
100
AcDbEntity
  8
0
100
AcDbLine
 62
6
  6
CONTINUOUS
 10
1.887984278
 20
5.5513424839
 11
2.1747221198
 21
3.9251713746
  0
LINE
  5
21C
100
AcDbEntity
  8
0
100
AcDbLine
 62
9
  6
CONTINUOUS
 10
1.9470727432
 20
5.5513424839
 11
2.233810585
 21
3.9251713746
  0
LINE
  5
21D
100
AcDbEntity
  8
0
100
AcDbLine
 62
6
  6
CONTINUOUS
 10
2.4435517254
 20
3.6381330386
 11
2.4435517254
 21
3.6081330386
  0
LINE
  5
21E
100
AcDbEntity
  8
0
100
AcDbLine
 62
6
  6
CONTINUOUS
 10
2.4735517254
 20
5.7736330386
 11
2.4735517254
 21
5.7636330386
  0
LINE
  5
21F
100
AcDbEntity
  8
0
100
AcDbLine
 62
9
  6
CONTINUOUS
 10
2.4377137301
 20
3.6081330386
 11
2.4377118725
 21
3.5781330034
  0
LINE
  5
220
100
AcDbEntity
  8
0
100
AcDbLine
 62
6
  6
CONTINUOUS
 10
2.7885517254
 20
5.7736330386
 11
2.7885517254
 21
5.7636330386
  0
LINE
  5
221
100
AcDbEntity
  8
0
100
AcDbLine
 62
6
  6
CONTINUOUS
 10
2.8185517254
 20
3.6381330386
 11
2.8185517254
 21
3.6081330386
  0
LINE
  5
222
100
AcDbEntity
  8
0
100
AcDbLine
 62
9
  6
CONTINUOUS
 10
3.0282978112
 20
3.8236796399
 11
3.0282970977
 21
3.7950586288
  0
LINE
  5
223
100
AcDbEntity
  8
0
100
AcDbLine
 62
9
  6
CONTINUOUS
 10
3.1100517254
 20
3.6381330386
 11
3.1100517254
 21
3.789928712
  0
LINE
  5
224
100
AcDbEntity
  8
0
100
AcDbLine
 62
9
  6
CONTINUOUS
 10
3.1700517254
 20
3.789927387
 11
3.1700517254
 21
3.7950584918
  0
LINE
  5
225
100
AcDbEntity
  8
0
100
AcDbLine
 62
6
  6
CONTINUOUS
 10
3.1700517254
 20
3.6681330386
 11
3.1700517254
 21
3.789927387
  0
LINE
  5
226
100
AcDbEntity
  8
0
100
AcDbLine
 62
9
  6
CONTINUOUS
 10
3.3150307077
 20
5.5761330386
 11
3.3150307077
 21
5.5513424839
  0
LINE
  5
227
100
AcDbEntity
  8
0
100
AcDbLine
 62
9
  6
CONTINUOUS
 10
3.111464935
 20
3.8198326526
 11
3.1100517253
 21
3.789928712
  0
LINE
  5
228
100
AcDbEntity
  8
0
100
AcDbLine
 62
9
  6
CONTINUOUS
 10
3.3150307077
 20
5.5513424839
 11
3.0282928659
 21
3.9251713746
  0
LINE
  5
229
100
AcDbEntity
  8
0
100
AcDbLine
 62
6
  6
CONTINUOUS
 10
3.3741191729
 20
5.5513424839
 11
3.0873813311
 21
3.9251713746
  0
LINE
  5
22A
100
AcDbEntity
  8
0
100
AcDbLine
 62
9
  6
CONTINUOUS
 10
3.4435517254
 20
5.5761330386
 11
3.4435517254
 21
5.7636330386
  0
LINE
  5
22B
100
AcDbEntity
  8
0
100
AcDbLine
 62
6
  6
CONTINUOUS
 10
3.5035517254
 20
5.6061330386
 11
3.5035517254
 21
5.7636330386
  0
LINE
  5
22C
100
AcDbEntity
  8
0
100
AcDbLine
 62
9
  6
CONTINUOUS
 10
3.7578701303
 20
5.9052056649
 11
3.7599163658
 21
5.9308967076
  0
LINE
  5
22D
100
AcDbEntity
  8
0
100
AcDbLine
 62
9
  6
CONTINUOUS
 10
3.7660517254
 20
5.9041171857
 11
3.7707020752
 21
5.9305784236
  0
LWPOLYLINE
  5
22E
100
AcDbEntity
  8
0
100
AcDbPolyline
 62
6
  6
CONTINUOUS
 90
4
 70
0
 10
3.8260517254
 20
5.9067876731
 10
3.8259379932
 20
5.9093974628
 10
3.8255938145
 20
5.9120092608
 10
3.8250214376
 20
5.9145822728
  0
LINE
  5
22F
100
AcDbEntity
  8
0
100
AcDbLine
 62
9
  6
CONTINUOUS
 10
3.7160516697
 20
5.9067876726
 11
3.7160517254
 21
6.1836330386
  0
LINE
  5
230
100
AcDbEntity
  8
0
100
AcDbLine
 62
9
  6
CONTINUOUS
 10
3.7660517254
 20
5.7736330386
 11
3.7660517254
 21
5.9041171857
  0
LINE
  5
231
100
AcDbEntity
  8
0
100
AcDbLine
 62
6
  6
CONTINUOUS
 10
3.7760517254
 20
6.0042556161
 11
3.7760517254
 21
6.1836330386
  0
LINE
  5
232
100
AcDbEntity
  8
0
100
AcDbLine
 62
6
  6
CONTINUOUS
 10
3.8260517254
 20
5.8036330386
 11
3.8260517254
 21
5.9067876726
  0
LINE
  5
233
100
AcDbEntity
  8
0
100
AcDbLine
 62
9
  6
CONTINUOUS
 10
2.4377118725
 20
3.5781330034
 11
2.4094966378
 21
3.5883210683
  0
LWPOLYLINE
  5
234
100
AcDbEntity
  8
0
100
AcDbPolyline
 62
6
  6
CONTINUOUS
 90
5
 70
0
 10
3.8250214376
 20
5.9145822728
 10
3.8242250368
 20
5.9170961421
 10
3.8232106942
 20
5.9195309233
 10
3.8219863396
 20
5.9218673217
 10
3.8205616028
 20
5.9240869773
  0
LINE
  5
235
100
AcDbEntity
  8
0
100
AcDbLine
 62
9
  6
CONTINUOUS
 10
2.8163397428
 20
3.5781330477
 11
2.4377121928
 21
3.578133021
  0
LINE
  5
236
100
AcDbEntity
  8
0
100
AcDbLine
 62
9
  6
CONTINUOUS
 10
9.0457637245
 20
3.5781330372
 11
9.4243908037
 21
3.5781329876
  0
LINE
  5
237
100
AcDbEntity
  8
0
100
AcDbLine
 62
7
  6
CONTINUOUS
 10
2.8185517254
 20
3.6081330386
 11
2.8166432458
 21
3.6081330386
  0
LINE
  5
238
100
AcDbEntity
  8
0
100
AcDbLine
 62
7
  6
CONTINUOUS
 10
2.6310517254
 20
3.6081330386
 11
2.4810517254
 21
3.6081330386
  0
LINE
  5
239
100
AcDbEntity
  8
0
100
AcDbLine
 62
6
  6
CONTINUOUS
 10
2.8166432458
 20
3.6081330386
 11
2.6310517254
 21
3.6081330386
  0
LINE
  5
23A
100
AcDbEntity
  8
0
100
AcDbLine
 62
6
  6
CONTINUOUS
 10
2.4810517254
 20
3.6081330386
 11
2.4377143268
 21
3.6081330386
  0
LINE
  5
23B
100
AcDbEntity
  8
0
100
AcDbLine
 62
6
  6
CONTINUOUS
 10
9.0450594516
 20
3.6081330386
 11
9.424388951
 21
3.6081330386
  0
LINE
  5
23C
100
AcDbEntity
  8
0
100
AcDbLine
 62
6
  6
CONTINUOUS
 10
9.7400517254
 20
3.6381330386
 11
8.7220517254
 21
3.6381330386
  0
LINE
  5
23D
100
AcDbEntity
  8
0
100
AcDbLine
 62
6
  6
CONTINUOUS
 10
3.1400517254
 20
3.6381330386
 11
2.1220517254
 21
3.6381330386
  0
LINE
  5
23E
100
AcDbEntity
  8
0
100
AcDbLine
 62
9
  6
CONTINUOUS
 10
9.7700517254
 20
3.6681330386
 11
8.6920517254
 21
3.6681330386
  0
LINE
  5
23F
100
AcDbEntity
  8
0
100
AcDbLine
 62
9
  6
CONTINUOUS
 10
3.1700517254
 20
3.6681330386
 11
2.0920517254
 21
3.6681330386
  0
LWPOLYLINE
  5
240
100
AcDbEntity
  8
0
100
AcDbPolyline
 62
6
  6
CONTINUOUS
 90
5
 70
0
 10
3.8205616028
 20
5.9240869773
 10
3.818947524
 20
5.9261727815
 10
3.8171565502
 20
5.9281087047
 10
3.8152024698
 20
5.9298798582
 10
3.8135517244
 20
5.9311546601
  0
LINE
  5
241
100
AcDbEntity
  8
0
100
AcDbLine
 62
9
  6
CONTINUOUS
 10
2.2338126609
 20
3.7950588215
 11
3.0282970978
 21
3.7950586288
  0
LINE
  5
242
100
AcDbEntity
  8
0
100
AcDbLine
 62
9
  6
CONTINUOUS
 10
8.8338126609
 20
3.7950588215
 11
9.6282970978
 21
3.7950586288
  0
LINE
  5
243
100
AcDbEntity
  8
0
100
AcDbLine
 62
9
  6
CONTINUOUS
 10
2.2338125749
 20
3.8236796582
 11
3.0282985246
 21
3.8236796399
  0
LINE
  5
244
100
AcDbEntity
  8
0
100
AcDbLine
 62
9
  6
CONTINUOUS
 10
8.8338125749
 20
3.8236796582
 11
9.6282985246
 21
3.8236796399
  0
LINE
  5
245
100
AcDbEntity
  8
0
100
AcDbLine
 62
9
  6
CONTINUOUS
 10
9.6282928659
 20
3.9251713746
 11
8.833810585
 21
3.9251713746
  0
LINE
  5
246
100
AcDbEntity
  8
0
100
AcDbLine
 62
9
  6
CONTINUOUS
 10
3.0282928659
 20
3.9251713746
 11
2.233810585
 21
3.9251713746
  0
LINE
  5
247
100
AcDbEntity
  8
0
100
AcDbLine
 62
9
  6
CONTINUOUS
 10
9.7501771843
 20
3.3387895256
 11
9.7501576087
 21
3.3387929325
  0
LINE
  5
248
100
AcDbEntity
  8
0
100
AcDbLine
 62
9
  6
CONTINUOUS
 10
5.9310517254
 20
2.4981330392
 11
5.9310517254
 21
3.0381330403
  0
LWPOLYLINE
  5
249
100
AcDbEntity
  8
0
100
AcDbPolyline
 62
6
  6
CONTINUOUS
 90
4
 70
0
 10
8.0485517265
 20
5.9311546601
 10
8.0469009811
 20
5.9298798582
 10
8.0449469007
 20
5.9281087047
 10
8.0431559269
 20
5.9261727815
  0
LINE
  5
24A
100
AcDbEntity
  8
0
100
AcDbLine
 62
6
  6
CONTINUOUS
 10
9.7535078737
 20
3.3380830355
 11
9.7501608021
 21
3.3387911053
  0
LINE
  5
24B
100
AcDbEntity
  8
0
100
AcDbLine
 62
6
  6
CONTINUOUS
 10
9.7573266361
 20
3.3369644276
 11
9.7533837653
 21
3.3381195702
  0
LINE
  5
24C
100
AcDbEntity
  8
0
100
AcDbLine
 62
6
  6
CONTINUOUS
 10
9.7609445872
 20
3.3355671327
 11
9.7572298374
 21
3.3370035218
  0
LWPOLYLINE
  5
24D
100
AcDbEntity
  8
0
100
AcDbPolyline
 62
6
  6
CONTINUOUS
 90
5
 70
0
 10
8.0431559269
 20
5.9261727815
 10
8.0415418481
 20
5.9240869773
 10
8.0401171113
 20
5.9218673217
 10
8.0388927567
 20
5.9195309233
 10
8.0378784141
 20
5.9170961421
  0
LINE
  5
24E
100
AcDbEntity
  8
0
100
AcDbLine
 62
6
  6
CONTINUOUS
 10
9.7645141047
 20
3.333824349
 11
9.7609419799
 21
3.3355681396
  0
LINE
  5
24F
100
AcDbEntity
  8
0
100
AcDbLine
 62
9
  6
CONTINUOUS
 10
9.9150307077
 20
5.5513424839
 11
8.5470727432
 21
5.5513424839
  0
LINE
  5
250
100
AcDbEntity
  8
0
100
AcDbLine
 62
9
  6
CONTINUOUS
 10
3.3150307077
 20
5.5513424839
 11
1.9470727432
 21
5.5513424839
  0
LINE
  5
251
100
AcDbEntity
  8
0
100
AcDbLine
 62
6
  6
CONTINUOUS
 10
10.0735517254
 20
5.5761330386
 11
8.3885517254
 21
5.5761330386
  0
LINE
  5
252
100
AcDbEntity
  8
0
100
AcDbLine
 62
6
  6
CONTINUOUS
 10
3.4735517254
 20
5.5761330386
 11
1.7885517254
 21
5.5761330386
  0
LINE
  5
253
100
AcDbEntity
  8
0
100
AcDbLine
 62
9
  6
CONTINUOUS
 10
10.1035517254
 20
5.6061330386
 11
8.3585517254
 21
5.6061330386
  0
LINE
  5
254
100
AcDbEntity
  8
0
100
AcDbLine
 62
9
  6
CONTINUOUS
 10
3.5035517254
 20
5.6061330386
 11
1.7585517254
 21
5.6061330386
  0
LINE
  5
255
100
AcDbEntity
  8
0
100
AcDbLine
 62
6
  6
CONTINUOUS
 10
9.7679537741
 20
3.3317744758
 11
9.76441903
 21
3.3338789586
  0
LWPOLYLINE
  5
256
100
AcDbEntity
  8
0
100
AcDbPolyline
 62
6
  6
CONTINUOUS
 90
5
 70
0
 10
8.0378784141
 20
5.9170961421
 10
8.0370820133
 20
5.9145822728
 10
8.0365096364
 20
5.9120092608
 10
8.0361654577
 20
5.9093974628
 10
8.0360517254
 20
5.9067876731
  0
LINE
  5
257
100
AcDbEntity
  8
0
100
AcDbLine
 62
7
  6
CONTINUOUS
 10
1.7585517254
 20
5.7636330386
 11
3.5035517254
 21
5.7636330386
  0
LINE
  5
258
100
AcDbEntity
  8
0
100
AcDbLine
 62
7
  6
CONTINUOUS
 10
8.3585517254
 20
5.7636330386
 11
10.1035517254
 21
5.7636330386
  0
LINE
  5
259
100
AcDbEntity
  8
0
100
AcDbLine
 62
6
  6
CONTINUOUS
 10
10.3960517254
 20
5.7736330386
 11
8.0660517254
 21
5.7736330386
  0
LINE
  5
25A
100
AcDbEntity
  8
0
100
AcDbLine
 62
6
  6
CONTINUOUS
 10
3.7960517254
 20
5.7736330386
 11
1.4660517254
 21
5.7736330386
  0
LINE
  5
25B
100
AcDbEntity
  8
0
100
AcDbLine
 62
9
  6
CONTINUOUS
 10
10.4260517254
 20
5.8036330386
 11
8.0360517254
 21
5.8036330386
  0
LINE
  5
25C
100
AcDbEntity
  8
0
100
AcDbLine
 62
9
  6
CONTINUOUS
 10
3.8260517254
 20
5.8036330386
 11
1.4360517254
 21
5.8036330386
  0
LINE
  5
25D
100
AcDbEntity
  8
0
100
AcDbLine
 62
9
  6
CONTINUOUS
 10
10.3160516697
 20
5.9067876726
 11
8.1460517865
 21
5.9067876726
  0
LINE
  5
25E
100
AcDbEntity
  8
0
100
AcDbLine
 62
9
  6
CONTINUOUS
 10
3.7160516697
 20
5.9067876726
 11
1.5460517865
 21
5.9067876726
  0
LINE
  5
25F
100
AcDbEntity
  8
0
100
AcDbLine
 62
9
  6
CONTINUOUS
 10
10.3160517255
 20
5.9311546585
 11
8.1460516337
 21
5.9311546585
  0
LINE
  5
260
100
AcDbEntity
  8
0
100
AcDbLine
 62
9
  6
CONTINUOUS
 10
3.7160517255
 20
5.9311546585
 11
1.5460516337
 21
5.9311546585
  0
LINE
  5
261
100
AcDbEntity
  8
0
100
AcDbLine
 62
9
  6
CONTINUOUS
 10
10.3160517254
 20
6.0042556161
 11
8.1460517254
 21
6.0042556161
  0
LINE
  5
262
100
AcDbEntity
  8
0
100
AcDbLine
 62
9
  6
CONTINUOUS
 10
3.7160517254
 20
6.0042556161
 11
1.5460517254
 21
6.0042556161
  0
LINE
  5
263
100
AcDbEntity
  8
0
100
AcDbLine
 62
6
  6
CONTINUOUS
 10
9.7712557458
 20
3.3294244262
 11
9.7677896183
 21
3.3318824662
  0
LINE
  5
264
100
AcDbEntity
  8
0
100
AcDbLine
 62
6
  6
CONTINUOUS
 10
1.4860517254
 20
6.1836330386
 11
3.7760517254
 21
6.1836330386
  0
LINE
  5
265
100
AcDbEntity
  8
0
100
AcDbLine
 62
6
  6
CONTINUOUS
 10
8.0860517254
 20
6.1836330386
 11
10.3760517254
 21
6.1836330386
  0
LINE
  5
266
100
AcDbEntity
  8
0
100
AcDbLine
 62
6
  6
CONTINUOUS
 10
10.2300067469
 20
6.2031330386
 11
8.232096704
 21
6.2031330386
  0
LINE
  5
267
100
AcDbEntity
  8
0
100
AcDbLine
 62
6
  6
CONTINUOUS
 10
3.6300067469
 20
6.2031330386
 11
1.632096704
 21
6.2031330386
  0
LINE
  5
268
100
AcDbEntity
  8
0
100
AcDbLine
 62
6
  6
CONTINUOUS
 10
9.7744191799
 20
3.3267813363
 11
9.7710917608
 21
3.329549937
  0
LINE
  5
269
100
AcDbEntity
  8
0
100
AcDbLine
 62
6
  6
CONTINUOUS
 10
9.7774771237
 20
3.3238224883
 11
9.7743338673
 21
3.3268579488
  0
LINE
  5
26A
100
AcDbEntity
  8
0
100
AcDbLine
 62
9
  6
CONTINUOUS
 10
8.1042332625
 20
5.9052056603
 11
8.1021861509
 21
5.9308970559
  0
LINE
  5
26B
100
AcDbEntity
  8
0
100
AcDbLine
 62
6
  6
CONTINUOUS
 10
8.0360517254
 20
5.8036330386
 11
8.0360517254
 21
5.9067876726
  0
LINE
  5
26C
100
AcDbEntity
  8
0
100
AcDbLine
 62
6
  6
CONTINUOUS
 10
8.0860517254
 20
6.0042556161
 11
8.0860517254
 21
6.1836330386
  0
LINE
  5
26D
100
AcDbEntity
  8
0
100
AcDbLine
 62
9
  6
CONTINUOUS
 10
8.0960517254
 20
5.7736330386
 11
8.0960517254
 21
5.9041171464
  0
LINE
  5
26E
100
AcDbEntity
  8
0
100
AcDbLine
 62
9
  6
CONTINUOUS
 10
8.1460517865
 20
5.9067876726
 11
8.1460517254
 21
6.1836330386
  0
LINE
  5
26F
100
AcDbEntity
  8
0
100
AcDbLine
 62
6
  6
CONTINUOUS
 10
8.3585517254
 20
5.6061330386
 11
8.3585517254
 21
5.7636330386
  0
LINE
  5
270
100
AcDbEntity
  8
0
100
AcDbLine
 62
9
  6
CONTINUOUS
 10
8.4185517254
 20
5.5761330386
 11
8.4185517254
 21
5.7636330386
  0
LINE
  5
271
100
AcDbEntity
  8
0
100
AcDbLine
 62
9
  6
CONTINUOUS
 10
8.5470727432
 20
5.5761330386
 11
8.5470727432
 21
5.5513424839
  0
LINE
  5
272
100
AcDbEntity
  8
0
100
AcDbLine
 62
9
  6
CONTINUOUS
 10
8.0960517258
 20
5.9041171465
 11
8.0914016223
 21
5.9305784185
  0
LINE
  5
273
100
AcDbEntity
  8
0
100
AcDbLine
 62
9
  6
CONTINUOUS
 10
8.750641579
 20
3.8198327129
 11
8.7520517254
 21
3.7899287653
  0
LINE
  5
274
100
AcDbEntity
  8
0
100
AcDbLine
 62
6
  6
CONTINUOUS
 10
8.6920517254
 20
3.6681330386
 11
8.6920517254
 21
3.7950587919
  0
LINE
  5
275
100
AcDbEntity
  8
0
100
AcDbLine
 62
9
  6
CONTINUOUS
 10
8.7520517254
 20
3.6381330386
 11
8.7520517254
 21
3.7899287653
  0
LINE
  5
276
100
AcDbEntity
  8
0
100
AcDbLine
 62
9
  6
CONTINUOUS
 10
8.8338126179
 20
3.8236796582
 11
8.8338126609
 21
3.7950588215
  0
LINE
  5
277
100
AcDbEntity
  8
0
100
AcDbLine
 62
6
  6
CONTINUOUS
 10
8.487984278
 20
5.5513424839
 11
8.7747221198
 21
3.9251713746
  0
LINE
  5
278
100
AcDbEntity
  8
0
100
AcDbLine
 62
9
  6
CONTINUOUS
 10
8.5470727432
 20
5.5513424839
 11
8.833810585
 21
3.9251713746
  0
LINE
  5
279
100
AcDbEntity
  8
0
100
AcDbLine
 62
6
  6
CONTINUOUS
 10
9.0735517254
 20
5.7736330386
 11
9.0735517254
 21
5.7636330386
  0
LINE
  5
27A
100
AcDbEntity
  8
0
100
AcDbLine
 62
9
  6
CONTINUOUS
 10
9.1235517254
 20
3.6081330386
 11
9.1235517254
 21
3.6381330386
  0
LINE
  5
27B
100
AcDbEntity
  8
0
100
AcDbLine
 62
9
  6
CONTINUOUS
 10
9.3385517259
 20
3.6381330386
 11
9.3385517257
 21
3.6081330386
  0
LINE
  5
27C
100
AcDbEntity
  8
0
100
AcDbLine
 62
6
  6
CONTINUOUS
 10
9.3885517254
 20
5.7736330386
 11
9.3885517254
 21
5.7636330386
  0
LINE
  5
27D
100
AcDbEntity
  8
0
100
AcDbLine
 62
9
  6
CONTINUOUS
 10
9.4243893487
 20
3.6081330386
 11
9.4243912298
 21
3.5781329367
  0
LWPOLYLINE
  5
27E
100
AcDbEntity
  8
0
100
AcDbPolyline
 62
6
  6
CONTINUOUS
 90
16
 70
0
 10
9.8082076876
 20
3.2490964301
 10
9.8069831547
 20
3.2554956928
 10
9.8056601951
 20
3.2617031765
 10
9.8042382622
 20
3.2677085628
 10
9.8027160752
 20
3.2735056328
 10
9.8010889899
 20
3.2791002958
 10
9.7993503833
 20
3.2845003818
 10
9.7974911506
 20
3.2897146292
 10
9.795499109
 20
3.2947526434
 10
9.7933644014
 20
3.2996116518
 10
9.7910838775
 20
3.304269052
 10
9.788655542
 20
3.3087048624
 10
9.7860828456
 20
3.3128914296
 10
9.7833607203
 20
3.3168189502
 10
9.7804919486
 20
3.3204662607
 10
9.7774480423
 20
3.3238517345
  0
LWPOLYLINE
  5
27F
100
AcDbEntity
  8
0
100
AcDbPolyline
 62
6
  6
CONTINUOUS
 90
16
 70
0
 10
9.8084306369
 20
3.2478521578
 10
9.8072845721
 20
3.2539841316
 10
9.806037784
 20
3.2599978511
 10
9.8046877424
 20
3.2658771259
 10
9.8032318589
 20
3.2716072863
 10
9.8016679009
 20
3.2771744415
 10
9.7999944584
 20
3.2825635168
 10
9.798210528
 20
3.2877601354
 10
9.7963259425
 20
3.29272494
 10
9.7943749025
 20
3.2973761221
 10
9.7923561928
 20
3.3017338291
 10
9.7902461587
 20
3.3058569162
 10
9.7880141504
 20
3.3097951018
 10
9.7856216031
 20
3.3135911435
 10
9.7830626075
 20
3.3172199079
 10
9.7803349141
 20
3.320653781
  0
LINE
  5
280
100
AcDbEntity
  8
0
100
AcDbLine
 62
6
  6
CONTINUOUS
 10
9.8129138394
 20
3.214456778
 11
9.8120864406
 21
3.2223275517
  0
LWPOLYLINE
  5
281
100
AcDbEntity
  8
0
100
AcDbPolyline
 62
6
  6
CONTINUOUS
 90
6
 70
0
 10
9.8154544556
 20
3.1754958754
 10
9.8151095391
 20
3.1836340797
 10
9.8146842727
 20
3.1915990359
 10
9.814177554
 20
3.1993910984
 10
9.8135878795
 20
3.2070103411
 10
9.8127933221
 20
3.215679339
  0
LWPOLYLINE
  5
282
100
AcDbEntity
  8
0
100
AcDbPolyline
 62
6
  6
CONTINUOUS
 90
6
 70
0
 10
9.8155446539
 20
3.1729560198
 10
9.8152547874
 20
3.1804522447
 10
9.8148990059
 20
3.187787919
 10
9.8144764797
 20
3.1949703939
 10
9.8139858828
 20
3.2020083346
 10
9.8134255783
 20
3.2089085763
  0
LINE
  5
283
100
AcDbEntity
  8
0
100
AcDbLine
 62
6
  6
CONTINUOUS
 10
9.8157692026
 20
3.1652908458
 11
9.8154544556
 21
3.1754958754
  0
LINE
  5
284
100
AcDbEntity
  8
0
100
AcDbLine
 62
6
  6
CONTINUOUS
 10
9.815907762
 20
3.1586984607
 11
9.8157202482
 21
3.1671839837
  0
LINE
  5
285
100
AcDbEntity
  8
0
100
AcDbLine
 62
6
  6
CONTINUOUS
 10
9.8160179945
 20
3.1500389936
 11
9.815907762
 21
3.1586984607
  0
LINE
  5
286
100
AcDbEntity
  8
0
100
AcDbLine
 62
9
  6
CONTINUOUS
 10
9.6282978112
 20
3.8236796399
 11
9.6282970977
 21
3.7950586288
  0
LINE
  5
287
100
AcDbEntity
  8
0
100
AcDbLine
 62
9
  6
CONTINUOUS
 10
9.7100517254
 20
3.6381330386
 11
9.7100517254
 21
3.789928712
  0
LINE
  5
288
100
AcDbEntity
  8
0
100
AcDbLine
 62
9
  6
CONTINUOUS
 10
9.7154930738
 20
3.3154366033
 11
9.7154936745
 21
2.9022165368
  0
LINE
  5
289
100
AcDbEntity
  8
0
100
AcDbLine
 62
9
  6
CONTINUOUS
 10
9.7700517254
 20
3.789927387
 11
9.7700517254
 21
3.7950584918
  0
LINE
  5
28A
100
AcDbEntity
  8
0
100
AcDbLine
 62
6
  6
CONTINUOUS
 10
9.7700517254
 20
3.6681330386
 11
9.7700517254
 21
3.789927387
  0
LINE
  5
28B
100
AcDbEntity
  8
0
100
AcDbLine
 62
6
  6
CONTINUOUS
 10
9.8160517254
 20
3.1417224155
 11
9.8160179945
 21
3.1500389936
  0
LINE
  5
28C
100
AcDbEntity
  8
0
100
AcDbLine
 62
6
  6
CONTINUOUS
 10
9.8160517254
 20
3.1417224155
 11
9.8160517254
 21
3.0733836748
  0
LINE
  5
28D
100
AcDbEntity
  8
0
100
AcDbLine
 62
9
  6
CONTINUOUS
 10
9.711464935
 20
3.8198326526
 11
9.7100517253
 21
3.789928712
  0
LINE
  5
28E
100
AcDbEntity
  8
0
100
AcDbLine
 62
9
  6
CONTINUOUS
 10
9.9150307077
 20
5.5513424839
 11
9.6282928659
 21
3.9251713746
  0
LINE
  5
28F
100
AcDbEntity
  8
0
100
AcDbLine
 62
6
  6
CONTINUOUS
 10
9.9741191729
 20
5.5513424839
 11
9.6873813311
 21
3.9251713746
  0
LINE
  5
290
100
AcDbEntity
  8
0
100
AcDbLine
 62
6
  6
CONTINUOUS
 10
9.8094790692
 20
3.2416169356
 11
9.8082076876
 21
3.2490964301
  0
LINE
  5
291
100
AcDbEntity
  8
0
100
AcDbLine
 62
6
  6
CONTINUOUS
 10
9.8104340351
 20
3.2352886694
 11
9.8093349805
 21
3.2425144068
  0
LINE
  5
292
100
AcDbEntity
  8
0
100
AcDbLine
 62
6
  6
CONTINUOUS
 10
9.8113053223
 20
3.2288307069
 11
9.8103666923
 21
3.2357585004
  0
LINE
  5
293
100
AcDbEntity
  8
0
100
AcDbLine
 62
6
  6
CONTINUOUS
 10
9.8121536446
 20
3.2217299615
 11
9.8113013763
 21
3.2288616001
  0
LINE
  5
294
100
AcDbEntity
  8
0
100
AcDbLine
 62
9
  6
CONTINUOUS
 10
9.9150307077
 20
5.5761330386
 11
9.9150307077
 21
5.5513424839
  0
LINE
  5
295
100
AcDbEntity
  8
0
100
AcDbLine
 62
9
  6
CONTINUOUS
 10
10.0435517254
 20
5.5761330386
 11
10.0435517254
 21
5.7636330386
  0
LINE
  5
296
100
AcDbEntity
  8
0
100
AcDbLine
 62
6
  6
CONTINUOUS
 10
10.1035517254
 20
5.6061330386
 11
10.1035517254
 21
5.7636330386
  0
LINE
  5
297
100
AcDbEntity
  8
0
100
AcDbLine
 62
9
  6
CONTINUOUS
 10
10.3660517254
 20
5.9041171857
 11
10.3707020752
 21
5.9305784236
  0
LWPOLYLINE
  5
298
100
AcDbEntity
  8
0
100
AcDbPolyline
 62
6
  6
CONTINUOUS
 90
4
 70
0
 10
10.4260517254
 20
5.9067876731
 10
10.4259379932
 20
5.9093974628
 10
10.4255938145
 20
5.9120092608
 10
10.4250214376
 20
5.9145822728
  0
LINE
  5
299
100
AcDbEntity
  8
0
100
AcDbLine
 62
9
  6
CONTINUOUS
 10
10.3160516697
 20
5.9067876726
 11
10.3160517254
 21
6.1836330386
  0
LINE
  5
29A
100
AcDbEntity
  8
0
100
AcDbLine
 62
9
  6
CONTINUOUS
 10
10.3660517254
 20
5.7736330386
 11
10.3660517254
 21
5.9041171857
  0
LINE
  5
29B
100
AcDbEntity
  8
0
100
AcDbLine
 62
6
  6
CONTINUOUS
 10
10.3760517254
 20
6.0042556161
 11
10.3760517254
 21
6.1836330386
  0
LINE
  5
29C
100
AcDbEntity
  8
0
100
AcDbLine
 62
6
  6
CONTINUOUS
 10
10.4260517254
 20
5.8036330386
 11
10.4260517254
 21
5.9067876726
  0
LINE
  5
29D
100
AcDbEntity
  8
0
100
AcDbLine
 62
9
  6
CONTINUOUS
 10
10.3578701303
 20
5.9052056649
 11
10.3599163658
 21
5.9308967076
  0
LWPOLYLINE
  5
29E
100
AcDbEntity
  8
0
100
AcDbPolyline
 62
6
  6
CONTINUOUS
 90
5
 70
0
 10
10.4205616028
 20
5.9240869773
 10
10.418947524
 20
5.9261727815
 10
10.4171565502
 20
5.9281087047
 10
10.4152024698
 20
5.9298798582
 10
10.4135517244
 20
5.9311546601
  0
LWPOLYLINE
  5
29F
100
AcDbEntity
  8
0
100
AcDbPolyline
 62
6
  6
CONTINUOUS
 90
5
 70
0
 10
10.4250214376
 20
5.9145822728
 10
10.4242250368
 20
5.9170961421
 10
10.4232106942
 20
5.9195309233
 10
10.4219863396
 20
5.9218673217
 10
10.4205616028
 20
5.9240869773
  0
ARC
  5
2A0
100
AcDbEntity
  8
0
100
AcDbCircle
 62
6
  6
CONTINUOUS
 10
1.0102582234
 20
-6.9251131047
 40
9.8628010412
100
AcDbArc
 50
83.404561525
 51
83.5191818217
  0
ARC
  5
2A1
100
AcDbEntity
  8
0
100
AcDbCircle
 62
6
  6
CONTINUOUS
 10
1.3960517254
 20
6.0042556161
 40
0.09
100
AcDbArc
 50
305.6853347127
 51
360.0
  0
ARC
  5
2A2
100
AcDbEntity
  8
0
100
AcDbCircle
 62
6
  6
CONTINUOUS
 10
1.632096704
 20
6.1336330386
 40
0.0695
100
AcDbArc
 50
90.0
 51
133.9612817173
  0
ARC
  5
2A3
100
AcDbEntity
  8
0
100
AcDbCircle
 62
6
  6
CONTINUOUS
 10
1.8584400454
 20
5.5461330386
 40
0.03
100
AcDbArc
 50
10.0
 51
85.4269337598
  0
ARC
  5
2A4
100
AcDbEntity
  8
0
100
AcDbCircle
 62
6
  6
CONTINUOUS
 10
1.4660517254
 20
5.8036330386
 40
0.03
100
AcDbArc
 50
180.0
 51
270.0
  0
ARC
  5
2A5
100
AcDbEntity
  8
0
100
AcDbCircle
 62
9
  6
CONTINUOUS
 10
1.4660517254
 20
5.9067876726
 40
0.03
100
AcDbArc
 50
125.6853347125
 51
179.9999999998
  0
ARC
  5
2A6
100
AcDbEntity
  8
0
100
AcDbCircle
 62
6
  6
CONTINUOUS
 10
1.7885517254
 20
5.6061330386
 40
0.03
100
AcDbArc
 50
180.0
 51
270.0
  0
ARC
  5
2A7
100
AcDbEntity
  8
0
100
AcDbCircle
 62
9
  6
CONTINUOUS
 10
1.4659265152
 20
5.9051911007
 40
0.0298748572
100
AcDbArc
 50
120.6458385433
 51
179.9720678529
  0
ARC
  5
2A8
100
AcDbEntity
  8
0
100
AcDbCircle
 62
9
  6
CONTINUOUS
 10
1.9821183309
 20
0.8626474341
 40
2.046192315
100
AcDbArc
 50
85.3890697253
 51
86.2543102412
  0
ARC
  5
2A9
100
AcDbEntity
  8
0
100
AcDbCircle
 62
6
  6
CONTINUOUS
 10
2.1201772681
 20
3.2917773493
 40
0.0477311127
100
AcDbArc
 50
99.9301157318
 51
118.1942041698
  0
ARC
  5
2AA
100
AcDbEntity
  8
0
100
AcDbCircle
 62
9
  6
CONTINUOUS
 10
2.0463145674
 20
3.7192101187
 40
0.4160427287
100
AcDbArc
 50
283.9497295351
 51
340.1785838959
  0
ARC
  5
2AB
100
AcDbEntity
  8
0
100
AcDbCircle
 62
6
  6
CONTINUOUS
 10
2.0460517254
 20
3.7195421295
 40
0.3864090909
100
AcDbArc
 50
279.8185986224
 51
340.1479842093
  0
ARC
  5
2AC
100
AcDbEntity
  8
0
100
AcDbCircle
 62
6
  6
CONTINUOUS
 10
2.086090156
 20
3.9095430386
 40
0.0899995663
100
AcDbArc
 50
287.4388007452
 51
10.0000811384
  0
ARC
  5
2AD
100
AcDbEntity
  8
0
100
AcDbCircle
 62
6
  6
CONTINUOUS
 10
2.1220517254
 20
3.6681330386
 40
0.03
100
AcDbArc
 50
180.0
 51
270.0
  0
ARC
  5
2AE
100
AcDbEntity
  8
0
100
AcDbCircle
 62
6
  6
CONTINUOUS
 10
2.1220517254
 20
3.7950584862
 40
0.03
100
AcDbArc
 50
107.438542702
 51
179.999416187
  0
ARC
  5
2AF
100
AcDbEntity
  8
0
100
AcDbCircle
 62
6
  6
CONTINUOUS
 10
2.437714846
 20
3.5781330386
 40
0.03
100
AcDbArc
 50
90.0009915189
 51
160.1481605154
  0
ARC
  5
2B0
100
AcDbEntity
  8
0
100
AcDbCircle
 62
9
  6
CONTINUOUS
 10
2.1220314844
 20
3.78991137
 40
0.0299807699
100
AcDbArc
 50
93.6756063856
 51
179.9690491804
  0
ARC
  5
2B1
100
AcDbEntity
  8
0
100
AcDbCircle
 62
6
  6
CONTINUOUS
 10
3.2700517254
 20
3.6081330386
 40
0.424
100
AcDbArc
 50
183.7888305171
 51
260.6344412178
  0
ARC
  5
2B2
100
AcDbEntity
  8
0
100
AcDbCircle
 62
6
  6
CONTINUOUS
 10
3.8660517254
 20
6.0042556161
 40
0.09
100
AcDbArc
 50
180.0
 51
234.3146652873
  0
ARC
  5
2B3
100
AcDbEntity
  8
0
100
AcDbCircle
 62
6
  6
CONTINUOUS
 10
3.1760140289
 20
3.9095430386
 40
0.09
100
AcDbArc
 50
170.0
 51
252.5612616624
  0
ARC
  5
2B4
100
AcDbEntity
  8
0
100
AcDbCircle
 62
6
  6
CONTINUOUS
 10
3.6300067469
 20
6.1336330386
 40
0.0695
100
AcDbArc
 50
46.0387182827
 51
90.0
  0
ARC
  5
2B5
100
AcDbEntity
  8
0
100
AcDbCircle
 62
9
  6
CONTINUOUS
 10
3.1398041253
 20
3.7898636086
 40
0.0302505671
100
AcDbArc
 50
9.1018767341
 51
9.4649967342
  0
ARC
  5
2B6
100
AcDbEntity
  8
0
100
AcDbCircle
 62
6
  6
CONTINUOUS
 10
3.4036634055
 20
5.5461330386
 40
0.03
100
AcDbArc
 50
94.5730298645
 51
169.9999999999
  0
ARC
  5
2B7
100
AcDbEntity
  8
0
100
AcDbCircle
 62
6
  6
CONTINUOUS
 10
3.7960517254
 20
5.8036330386
 40
0.03
100
AcDbArc
 50
270.0
 51
360.0
  0
ARC
  5
2B8
100
AcDbEntity
  8
0
100
AcDbCircle
 62
6
  6
CONTINUOUS
 10
3.7960517254
 20
5.9067876726
 40
0.03
100
AcDbArc
 50
0.0000000001
 51
54.3146652874
  0
ARC
  5
2B9
100
AcDbEntity
  8
0
100
AcDbCircle
 62
6
  6
CONTINUOUS
 10
3.1400517254
 20
3.7950584862
 40
0.03
100
AcDbArc
 50
0.0000107216
 51
72.5612700751
  0
ARC
  5
2BA
100
AcDbEntity
  8
0
100
AcDbCircle
 62
6
  6
CONTINUOUS
 10
3.1400517254
 20
3.6681330386
 40
0.03
100
AcDbArc
 50
270.0
 51
360.0
  0
ARC
  5
2BB
100
AcDbEntity
  8
0
100
AcDbCircle
 62
6
  6
CONTINUOUS
 10
3.4735517254
 20
5.6061330386
 40
0.03
100
AcDbArc
 50
270.0
 51
360.0
  0
ARC
  5
2BC
100
AcDbEntity
  8
0
100
AcDbCircle
 62
6
  6
CONTINUOUS
 10
2.8170439992
 20
3.5781330386
 40
0.03
100
AcDbArc
 50
3.788672593
 51
89.9999862586
  0
ARC
  5
2BD
100
AcDbEntity
  8
0
100
AcDbCircle
 62
9
  6
CONTINUOUS
 10
3.1400746435
 20
3.7899100772
 40
0.02997882
100
AcDbArc
 50
9.4624152082
 51
86.3362150892
  0
ARC
  5
2BE
100
AcDbEntity
  8
0
100
AcDbCircle
 62
9
  6
CONTINUOUS
 10
3.1401759664
 20
3.7899119488
 40
0.029875763
100
AcDbArc
 50
0.0296073404
 51
9.1231454517
  0
ARC
  5
2BF
100
AcDbEntity
  8
0
100
AcDbCircle
 62
9
  6
CONTINUOUS
 10
3.7961769633
 20
5.9051910313
 40
0.0298748357
100
AcDbArc
 50
0.0280563662
 51
59.3557823029
  0
ARC
  5
2C0
100
AcDbEntity
  8
0
100
AcDbCircle
 62
6
  6
CONTINUOUS
 10
5.9302221632
 20
17.5002921007
 40
15.002159085
100
AcDbArc
 50
270.0031682384
 51
270.9945709491
  0
ARC
  5
2C1
100
AcDbEntity
  8
0
100
AcDbCircle
 62
6
  6
CONTINUOUS
 10
8.5920517254
 20
3.6081330386
 40
0.424
100
AcDbArc
 50
279.3655807337
 51
356.2111720784
  0
ARC
  5
2C2
100
AcDbEntity
  8
0
100
AcDbCircle
 62
6
  6
CONTINUOUS
 10
8.686090156
 20
3.9095430386
 40
0.0899995663
100
AcDbArc
 50
287.4388007452
 51
10.0000811384
  0
ARC
  5
2C3
100
AcDbEntity
  8
0
100
AcDbCircle
 62
6
  6
CONTINUOUS
 10
7.9960517254
 20
6.0042556161
 40
0.09
100
AcDbArc
 50
305.6853347127
 51
360.0
  0
ARC
  5
2C4
100
AcDbEntity
  8
0
100
AcDbCircle
 62
6
  6
CONTINUOUS
 10
8.232096704
 20
6.1336330386
 40
0.0695
100
AcDbArc
 50
90.0
 51
133.9612817173
  0
ARC
  5
2C5
100
AcDbEntity
  8
0
100
AcDbCircle
 62
6
  6
CONTINUOUS
 10
8.4584400454
 20
5.5461330386
 40
0.03
100
AcDbArc
 50
10.0
 51
85.4269882514
  0
ARC
  5
2C6
100
AcDbEntity
  8
0
100
AcDbCircle
 62
6
  6
CONTINUOUS
 10
8.0660517254
 20
5.8036330386
 40
0.03
100
AcDbArc
 50
180.0
 51
270.0
  0
ARC
  5
2C7
100
AcDbEntity
  8
0
100
AcDbCircle
 62
9
  6
CONTINUOUS
 10
8.0660517254
 20
5.9067876726
 40
0.03
100
AcDbArc
 50
125.6853347125
 51
179.9999999998
  0
ARC
  5
2C8
100
AcDbEntity
  8
0
100
AcDbCircle
 62
6
  6
CONTINUOUS
 10
8.3885517254
 20
5.6061330386
 40
0.03
100
AcDbArc
 50
180.0
 51
270.0
  0
ARC
  5
2C9
100
AcDbEntity
  8
0
100
AcDbCircle
 62
9
  6
CONTINUOUS
 10
8.0659265152
 20
5.9051911007
 40
0.0298748572
100
AcDbArc
 50
120.6458385505
 51
179.9720678532
  0
ARC
  5
2CA
100
AcDbEntity
  8
0
100
AcDbCircle
 62
9
  6
CONTINUOUS
 10
8.8300802113
 20
3.1418550925
 40
0.9859714352
100
AcDbArc
 50
0.0386170228
 51
0.9771330864
  0
ARC
  5
2CB
100
AcDbEntity
  8
0
100
AcDbCircle
 62
9
  6
CONTINUOUS
 10
8.8324582118
 20
3.1418667534
 40
0.9835934214
100
AcDbArc
 50
0.0417761966
 51
1.0151909937
  0
ARC
  5
2CC
100
AcDbEntity
  8
0
100
AcDbCircle
 62
6
  6
CONTINUOUS
 10
8.9608136175
 20
3.0730429333
 40
0.8552381758
100
AcDbArc
 50
358.768896801
 51
0.022827616
  0
ARC
  5
2CD
100
AcDbEntity
  8
0
100
AcDbCircle
 62
6
  6
CONTINUOUS
 10
9.0450594517
 20
3.5781330386
 40
0.03
100
AcDbArc
 50
90.0000001282
 51
176.2111500165
  0
ARC
  5
2CE
100
AcDbEntity
  8
0
100
AcDbCircle
 62
6
  6
CONTINUOUS
 10
8.7220517254
 20
3.6681330386
 40
0.03
100
AcDbArc
 50
180.0
 51
270.0
  0
ARC
  5
2CF
100
AcDbEntity
  8
0
100
AcDbCircle
 62
6
  6
CONTINUOUS
 10
8.7220517254
 20
3.7950584862
 40
0.03
100
AcDbArc
 50
107.438542702
 51
179.999416187
  0
ARC
  5
2D0
100
AcDbEntity
  8
0
100
AcDbCircle
 62
6
  6
CONTINUOUS
 10
9.3985517254
 20
3.6081330386
 40
0.03
100
AcDbArc
 50
90.0
 51
180.0
  0
ARC
  5
2D1
100
AcDbEntity
  8
0
100
AcDbCircle
 62
6
  6
CONTINUOUS
 10
9.0635517254
 20
3.6081330386
 40
0.03
100
AcDbArc
 50
0.0
 51
90.0
  0
ARC
  5
2D2
100
AcDbEntity
  8
0
100
AcDbCircle
 62
9
  6
CONTINUOUS
 10
8.7220314844
 20
3.78991137
 40
0.0299807699
100
AcDbArc
 50
93.6756063847
 51
179.9690491813
  0
ARC
  5
2D3
100
AcDbEntity
  8
0
100
AcDbCircle
 62
6
  6
CONTINUOUS
 10
10.851847605
 20
-6.9251339013
 40
9.8628219733
100
AcDbArc
 50
96.4808184534
 51
96.5954383189
  0
ARC
  5
2D4
100
AcDbEntity
  8
0
100
AcDbCircle
 62
9
  6
CONTINUOUS
 10
9.8799859091
 20
0.8626372055
 40
2.046202574
100
AcDbArc
 50
93.7456930951
 51
94.6109292733
  0
ARC
  5
2D5
100
AcDbEntity
  8
0
100
AcDbCircle
 62
6
  6
CONTINUOUS
 10
9.8160517254
 20
3.7195421295
 40
0.3864090909
100
AcDbArc
 50
199.8519749486
 51
260.1814014381
  0
ARC
  5
2D6
100
AcDbEntity
  8
0
100
AcDbCircle
 62
6
  6
CONTINUOUS
 10
10.4660517254
 20
6.0042556161
 40
0.09
100
AcDbArc
 50
180.0
 51
234.3146652873
  0
ARC
  5
2D7
100
AcDbEntity
  8
0
100
AcDbCircle
 62
6
  6
CONTINUOUS
 10
9.7760140289
 20
3.9095430386
 40
0.09
100
AcDbArc
 50
170.0
 51
252.5612616624
  0
ARC
  5
2D8
100
AcDbEntity
  8
0
100
AcDbCircle
 62
6
  6
CONTINUOUS
 10
10.2300067469
 20
6.1336330386
 40
0.0695
100
AcDbArc
 50
46.0387182827
 51
90.0
  0
ARC
  5
2D9
100
AcDbEntity
  8
0
100
AcDbCircle
 62
6
  6
CONTINUOUS
 10
9.7315538856
 20
2.9370103038
 40
0.0627483592
100
AcDbArc
 50
276.4705789231
 51
280.6706719451
  0
ARC
  5
2DA
100
AcDbEntity
  8
0
100
AcDbCircle
 62
9
  6
CONTINUOUS
 10
9.739804125
 20
3.7898636086
 40
0.0302505673
100
AcDbArc
 50
9.101876938
 51
9.4649967508
  0
ARC
  5
2DB
100
AcDbEntity
  8
0
100
AcDbCircle
 62
6
  6
CONTINUOUS
 10
10.0036634055
 20
5.5461330386
 40
0.03
100
AcDbArc
 50
94.5730308
 51
169.9999999999
  0
ARC
  5
2DC
100
AcDbEntity
  8
0
100
AcDbCircle
 62
6
  6
CONTINUOUS
 10
10.3960517254
 20
5.8036330386
 40
0.03
100
AcDbArc
 50
270.0
 51
360.0
  0
ARC
  5
2DD
100
AcDbEntity
  8
0
100
AcDbCircle
 62
6
  6
CONTINUOUS
 10
10.3960517254
 20
5.9067876726
 40
0.03
100
AcDbArc
 50
0.0000000001
 51
54.3146652874
  0
ARC
  5
2DE
100
AcDbEntity
  8
0
100
AcDbCircle
 62
6
  6
CONTINUOUS
 10
9.4243886049
 20
3.5781330386
 40
0.03
100
AcDbArc
 50
19.8523655429
 51
89.9993389927
  0
ARC
  5
2DF
100
AcDbEntity
  8
0
100
AcDbCircle
 62
6
  6
CONTINUOUS
 10
9.7400517254
 20
3.7950584862
 40
0.03
100
AcDbArc
 50
0.0000107216
 51
72.5612700751
  0
ARC
  5
2E0
100
AcDbEntity
  8
0
100
AcDbCircle
 62
6
  6
CONTINUOUS
 10
9.7400517254
 20
3.6681330386
 40
0.03
100
AcDbArc
 50
270.0
 51
360.0
  0
ARC
  5
2E1
100
AcDbEntity
  8
0
100
AcDbCircle
 62
6
  6
CONTINUOUS
 10
10.0735517254
 20
5.6061330386
 40
0.03
100
AcDbArc
 50
270.0
 51
360.0
  0
ARC
  5
2E2
100
AcDbEntity
  8
0
100
AcDbCircle
 62
9
  6
CONTINUOUS
 10
9.7400746435
 20
3.7899100772
 40
0.02997882
100
AcDbArc
 50
9.4624152253
 51
86.3362150899
  0
ARC
  5
2E3
100
AcDbEntity
  8
0
100
AcDbCircle
 62
9
  6
CONTINUOUS
 10
9.7401759664
 20
3.7899119488
 40
0.029875763
100
AcDbArc
 50
0.0296073415
 51
9.1231456551
  0
ARC
  5
2E4
100
AcDbEntity
  8
0
100
AcDbCircle
 62
9
  6
CONTINUOUS
 10
10.3961769633
 20
5.9051910313
 40
0.0298748357
100
AcDbArc
 50
0.0280563556
 51
59.3557823133
  0
ARC
  5
2E5
100
AcDbEntity
  8
0
100
AcDbCircle
 62
6
  6
CONTINUOUS
 10
5.9319902315
 20
22.893567991
 40
19.8554349746
100
AcDbArc
 50
269.3758915562
 51
269.9972918027
  0
ARC
  5
2E6
100
AcDbEntity
  8
0
100
AcDbCircle
 62
6
  6
CONTINUOUS
 10
5.9318764889
 20
17.499466666
 40
15.0013336501
100
AcDbArc
 50
269.0082312446
 51
269.9968499159
  0
LINE
  5
2E7
100
AcDbEntity
  8
0
100
AcDbLine
 62
6
  6
CONTINUOUS
 10
9.8160517248
 20
3.1417584655
 11
9.8160513454
 21
3.1425855786
  0
SPLINE
  5
2E8
100
AcDbEntity
  8
0
100
AcDbSpline
 62
6
  6
CONTINUOUS
 70
0
 71
3
 72
46
 73
42
 74
0
 42
0.0000001
 43
0.0000001
 44
0.0000000001
 40
0.0
 40
0.0
 40
0.0
 40
0.0
 40
0.0650711298
 40
0.1299052193
 40
0.1944758064
 40
0.2587522018
 40
0.3226975415
 40
0.3862675223
 40
0.4494086177
 40
0.4807998203
 40
0.5120585552
 40
0.5431750635
 40
0.574138135
 40
0.6049360734
 40
0.6355568664
 40
0.6507973374
 40
0.6659892157
 40
0.6962197032
 40
0.7262413488
 40
0.7560525774
 40
0.7708835081
 40
0.7856674951
 40
0.8004096611
 40
0.8151185565
 40
0.8298030383
 40
0.8444785594
 40
0.8591659351
 40
0.8738931035
 40
0.888699291
 40
0.9036269191
 40
0.9187379894
 40
0.9263866556
 40
0.9341083447
 40
0.9419144017
 40
0.9498183241
 40
0.953812085
 40
0.9578361426
 40
0.9659804551
 40
0.9742620249
 40
0.9826890191
 40
1.0
 40
1.0
 40
1.0
 40
1.0
 10
9.8160513454
 20
3.1425855786
 30
0.0
 10
9.8160477683
 20
3.1466376656
 30
0.0
 10
9.8159900338
 20
3.1547271487
 30
0.0
 10
9.8157352286
 20
3.1668352211
 30
0.0
 10
9.8152937991
 20
3.1788885377
 30
0.0
 10
9.8146436911
 20
3.1908771182
 30
0.0
 10
9.8137581771
 20
3.2027883714
 30
0.0
 10
9.8126043539
 20
3.2146058316
 30
0.0
 10
9.8113826862
 20
3.224376659
 30
0.0
 10
9.810222773
 20
3.2321238632
 30
0.0
 10
9.8092553812
 20
3.2378825142
 30
0.0
 10
9.8081800243
 20
3.2435949214
 30
0.0
 10
9.8069857499
 20
3.2492544482
 30
0.0
 10
9.8056600863
 20
3.2548530289
 30
0.0
 10
9.8044319226
 20
3.25946683
 30
0.0
 10
9.8033669112
 20
3.2631166642
 30
0.0
 10
9.8022476388
 20
3.2667247649
 30
0.0
 10
9.80073372
 20
3.2711735428
 30
0.0
 10
9.7987044089
 20
3.2764038566
 30
0.0
 10
9.7968093809
 20
3.280652368
 30
0.0
 10
9.7951537699
 20
3.2839625034
 30
0.0
 10
9.7938388662
 20
3.2863922591
 30
0.0
 10
9.7924422274
 20
3.2887672568
 30
0.0
 10
9.7909579114
 20
3.2910812755
 30
0.0
 10
9.7893772321
 20
3.293325715
 30
0.0
 10
9.7876922075
 20
3.2954914577
 30
0.0
 10
9.7858937911
 20
3.2975678909
 30
0.0
 10
9.7839711677
 20
3.2995416516
 30
0.0
 10
9.7819151407
 20
3.3013990567
 30
0.0
 10
9.779712633
 20
3.3031199744
 30
0.0
 10
9.7777532076
 20
3.304416891
 30
0.0
 10
9.7761064922
 20
3.3053619593
 30
0.0
 10
9.7748236455
 20
3.3060243133
 30
0.0
 10
9.7734972546
 20
3.306633609
 30
0.0
 10
9.772358775
 20
3.3070925479
 30
0.0
 10
9.7714262507
 20
3.3074295743
 30
0.0
 10
9.7704715676
 20
3.3077484566
 30
0.0
 10
9.7692496053
 20
3.3081086473
 30
0.0
 10
9.7677464785
 20
3.3084792309
 30
0.0
 10
9.7656695
 20
3.3088987162
 30
0.0
 10
9.764080131
 20
3.3091206366
 30
0.0
 10
9.7630079518
 20
3.3092323551
 30
0.0
  0
SPLINE
  5
2E9
100
AcDbEntity
  8
0
100
AcDbSpline
 62
6
  6
CONTINUOUS
 70
0
 71
3
 72
9
 73
5
 74
0
 42
0.0000001
 43
0.0000001
 44
0.0000000001
 40
0.0
 40
0.0
 40
0.0
 40
0.0
 40
0.9924863303
 40
1.0
 40
1.0
 40
1.0
 40
1.0
 10
5.9310517254
 20
3.0381330386
 30
0.0
 10
6.8356414175
 20
3.0381330386
 30
0.0
 10
7.7460656575
 20
3.102046884
 30
0.0
 10
8.6542921638
 20
3.1886702673
 30
0.0
 10
8.6610505552
 20
3.1897849043
 30
0.0
  0
SPLINE
  5
2EA
100
AcDbEntity
  8
0
100
AcDbSpline
 62
6
  6
CONTINUOUS
 70
0
 71
3
 72
9
 73
5
 74
0
 42
0.0000001
 43
0.0000001
 44
0.0000000001
 40
0.0
 40
0.0
 40
0.0
 40
0.0
 40
0.2894599286
 40
1.0
 40
1.0
 40
1.0
 40
1.0
 10
9.7190229928
 20
2.8724150641
 30
0.0
 10
9.3540561205
 20
2.8302180037
 30
0.0
 10
8.1004143542
 20
2.6147623669
 30
0.0
 10
6.8328500912
 20
2.4981330386
 30
0.0
 10
5.9310517254
 20
2.4981330386
 30
0.0
  0
LINE
  5
2EB
100
AcDbEntity
  8
0
100
AcDbLine
 62
9
  6
CONTINUOUS
 10
9.8160517254
 20
3.1417224155
 11
9.8160513717
 21
3.142583923
  0
SPLINE
  5
2EC
100
AcDbEntity
  8
0
100
AcDbSpline
 62
9
  6
CONTINUOUS
 70
0
 71
3
 72
46
 73
42
 74
0
 42
0.0000001
 43
0.0000001
 44
0.0000000001
 40
0.0
 40
0.0
 40
0.0
 40
0.0
 40
0.0591767717
 40
0.1183428349
 40
0.1775116912
 40
0.2367021899
 40
0.2959411208
 40
0.3552668597
 40
0.4147352337
 40
0.444548421
 40
0.4744313578
 40
0.5044012234
 40
0.5344794353
 40
0.5646929688
 40
0.5950758537
 40
0.6256715384
 40
0.6565360187
 40
0.6720916421
 40
0.6877431115
 40
0.703502461
 40
0.7193838826
 40
0.7354026469
 40
0.7515749701
 40
0.7597252016
 40
0.7679216087
 40
0.7844599404
 40
0.8012093664
 40
0.8096718259
 40
0.8181957818
 40
0.835428552
 40
0.8529217308
 40
0.8706983594
 40
0.8887279285
 40
0.9069594015
 40
0.9161433219
 40
0.9253703105
 40
0.9346391231
 40
0.9439426627
 40
0.9626161768
 40
0.9813248873
 40
1.0
 40
1.0
 40
1.0
 40
1.0
 10
9.8158972413
 20
3.1592935682
 30
0.0
 10
9.8158248837
 20
3.1633128158
 30
0.0
 10
9.8156270483
 20
3.1713497535
 30
0.0
 10
9.8151536196
 20
3.1833993494
 30
0.0
 10
9.814483162
 20
3.1954406687
 30
0.0
 10
9.8135910529
 20
3.2074727151
 30
0.0
 10
9.8124470403
 20
3.2194943903
 30
0.0
 10
9.8110132595
 20
3.2315042166
 30
0.0
 10
9.8095380356
 20
3.2414925328
 30
0.0
 10
9.8081584784
 20
3.2494693575
 30
0.0
 10
9.8070125118
 20
3.2554520038
 30
0.0
 10
9.805744602
 20
3.261428471
 30
0.0
 10
9.8043412387
 20
3.2673977718
 30
0.0
 10
9.8027858356
 20
3.2733584092
 30
0.0
 10
9.8010585918
 20
3.2793083615
 30
0.0
 10
9.7991351775
 20
3.2852445217
 30
0.0
 10
9.7973485583
 20
3.290163189
 30
0.0
 10
9.7957892896
 20
3.2940811225
 30
0.0
 10
9.7945454148
 20
3.297019407
 30
0.0
 10
9.7932231036
 20
3.2999475847
 30
0.0
 10
9.7918155396
 20
3.3028635459
 30
0.0
 10
9.7903149897
 20
3.3057644561
 30
0.0
 10
9.7889818086
 20
3.3081592912
 30
0.0
 10
9.7878596431
 20
3.3100621718
 30
0.0
 10
9.7866918528
 20
3.3119666264
 30
0.0
 10
9.7851529995
 20
3.3143282583
 30
0.0
 10
9.7835093469
 20
3.3166406359
 30
0.0
 10
9.7821208103
 20
3.318463989
 30
0.0
 10
9.7806701301
 20
3.3202805052
 30
0.0
 10
9.7787523112
 20
3.3225080544
 30
0.0
 10
9.776280055
 20
3.3250813056
 30
0.0
 10
9.7736184483
 20
3.3275393571
 30
0.0
 10
9.7707646628
 20
3.3298524167
 30
0.0
 10
9.7682336094
 20
3.3316251929
 30
0.0
 10
9.7661162355
 20
3.3329348425
 30
0.0
 10
9.7644785165
 20
3.3338597134
 30
0.0
 10
9.7627968507
 20
3.3347200613
 30
0.0
 10
9.7604991843
 20
3.3357807524
 30
0.0
 10
9.7575417843
 20
3.3369361558
 30
0.0
 10
9.7538927803
 20
3.338037833
 30
0.0
 10
9.7514075201
 20
3.3385758119
 30
0.0
 10
9.7501576306
 20
3.3387929288
 30
0.0
  0
SPLINE
  5
2ED
100
AcDbEntity
  8
0
100
AcDbSpline
 62
6
  6
CONTINUOUS
 70
0
 71
3
 72
47
 73
43
 74
0
 42
0.0000001
 43
0.0000001
 44
0.0000000001
 40
0.0
 40
0.0
 40
0.0
 40
0.0
 40
0.0581634899
 40
0.1163661296
 40
0.1746284446
 40
0.2329789279
 40
0.291456376
 40
0.35011509
 40
0.40903235
 40
0.4683205657
 40
0.4981552391
 40
0.5131316392
 40
0.5281526064
 40
0.5583466548
 40
0.5887821733
 40
0.6041079654
 40
0.6195160917
 40
0.6350156908
 40
0.6506172563
 40
0.6821705873
 40
0.6981519531
 40
0.7142885107
 40
0.7305974781
 40
0.7470947737
 40
0.7637988717
 40
0.7807241309
 40
0.7978860873
 40
0.8152913827
 40
0.8329452707
 40
0.8508387773
 40
0.8598735465
 40
0.8689617454
 40
0.8781001945
 40
0.887286267
 40
0.9057809858
 40
0.9244183398
 40
0.93378384
 40
0.9431756482
 40
0.9525919959
 40
0.962031149
 40
0.9809721884
 40
1.0
 40
1.0
 40
1.0
 40
1.0
 10
9.8160517254
 20
3.0733836748
 30
0.0
 10
9.8160517339
 20
3.0689163126
 30
0.0
 10
9.8159875653
 20
3.0599784154
 30
0.0
 10
9.8156774322
 20
3.0465687082
 30
0.0
 10
9.8151276352
 20
3.0331521196
 30
0.0
 10
9.8143069017
 20
3.0197280077
 30
0.0
 10
9.8131765126
 20
3.0062955525
 30
0.0
 10
9.8116875511
 20
2.9928537939
 30
0.0
 10
9.8097768523
 20
2.9794020281
 30
0.0
 10
9.8077676038
 20
2.9682069924
 30
0.0
 10
9.8060957666
 20
2.9603874507
 30
0.0
 10
9.8050521572
 20
2.9559118752
 30
0.0
 10
9.8039442107
 20
2.9514233648
 30
0.0
 10
9.8024351296
 20
2.9458113968
 30
0.0
 10
9.8007471158
 20
2.9402258363
 30
0.0
 10
9.7992701584
 20
2.935765545
 30
0.0
 10
9.7980911307
 20
2.9324156991
 30
0.0
 10
9.7968372813
 20
2.9290704346
 30
0.0
 10
9.7950517587
 20
2.9246013691
 30
0.0
 10
9.7930950527
 20
2.9201616809
 30
0.0
 10
9.7909432784
 20
2.9157695061
 30
0.0
 10
9.7892082963
 20
2.9124787304
 30
0.0
 10
9.7873493883
 20
2.9092105633
 30
0.0
 10
9.7853536734
 20
2.9059725939
 30
0.0
 10
9.7832092217
 20
2.9027737908
 30
0.0
 10
9.7809017424
 20
2.8996267056
 30
0.0
 10
9.7784181657
 20
2.8965468077
 30
0.0
 10
9.7757449278
 20
2.8935540578
 30
0.0
 10
9.7728712628
 20
2.8906728773
 30
0.0
 10
9.770310724
 20
2.8883956725
 30
0.0
 10
9.7681569301
 20
2.8866590027
 30
0.0
 10
9.7664837967
 20
2.8853993952
 30
0.0
 10
9.7647588072
 20
2.8841913468
 30
0.0
 10
9.7623858456
 20
2.8826520975
 30
0.0
 10
9.7592976586
 20
2.8808790514
 30
0.0
 10
9.7560722892
 20
2.8793370918
 30
0.0
 10
9.7534142163
 20
2.8782474313
 30
0.0
 10
9.7513815338
 20
2.8775036804
 30
0.0
 10
9.7493167428
 20
2.8768358048
 30
0.0
 10
9.7465223098
 20
2.8760470027
 30
0.0
 10
9.7429647526
 20
2.8752547367
 30
0.0
 10
9.7400773162
 20
2.8748266076
 30
0.0
 10
9.7386251855
 20
2.8746616606
 30
0.0
  0
SPLINE
  5
2EE
100
AcDbEntity
  8
0
100
AcDbSpline
 62
6
  6
CONTINUOUS
 70
0
 71
3
 72
9
 73
5
 74
0
 42
0.0000001
 43
0.0000001
 44
0.0000000001
 40
0.0
 40
0.0
 40
0.0
 40
0.0
 40
0.9924863611
 40
1.0
 40
1.0
 40
1.0
 40
1.0
 10
5.9310517254
 20
3.0381330386
 30
0.0
 10
5.0264620333
 20
3.0381330386
 30
0.0
 10
4.1160378216
 20
3.102046882
 30
0.0
 10
3.2078113433
 20
3.1886702619
 30
0.0
 10
3.2010529793
 20
3.1897848905
 30
0.0
  0
SPLINE
  5
2EF
100
AcDbEntity
  8
0
100
AcDbSpline
 62
6
  6
CONTINUOUS
 70
0
 71
3
 72
9
 73
5
 74
0
 42
0.0000001
 43
0.0000001
 44
0.0000000001
 40
0.0
 40
0.0
 40
0.0
 40
0.0
 40
0.2894599286
 40
1.0
 40
1.0
 40
1.0
 40
1.0
 10
2.1430804581
 20
2.8724150641
 30
0.0
 10
2.5080473304
 20
2.8302180037
 30
0.0
 10
3.7616890967
 20
2.6147623669
 30
0.0
 10
5.0292533597
 20
2.4981330386
 30
0.0
 10
5.9310517254
 20
2.4981330386
 30
0.0
  0
SPLINE
  5
2F0
100
AcDbEntity
  8
0
100
AcDbSpline
 62
6
  6
CONTINUOUS
 70
0
 71
3
 72
58
 73
54
 74
0
 42
0.0000001
 43
0.0000001
 44
0.0000000001
 40
0.0
 40
0.0
 40
0.0
 40
0.0
 40
0.059463201
 40
0.1189017671
 40
0.1486148537
 40
0.1783258103
 40
0.2080367105
 40
0.2377500237
 40
0.2674686872
 40
0.2971962571
 40
0.3269369845
 40
0.3566960966
 40
0.3864800509
 40
0.4162965849
 40
0.4461554174
 40
0.476068646
 40
0.506051031
 40
0.5361217277
 40
0.5511977084
 40
0.5663051402
 40
0.5814481373
 40
0.5966314046
 40
0.6118602228
 40
0.6271404831
 40
0.6424789558
 40
0.6578836741
 40
0.6733639276
 40
0.6889303227
 40
0.704594441
 40
0.7203691144
 40
0.7362699831
 40
0.7442737096
 40
0.7523162778
 40
0.7685266805
 40
0.7849222308
 40
0.7931982074
 40
0.801531535
 40
0.8099269677
 40
0.8183879983
 40
0.8269139627
 40
0.835504475
 40
0.8528819387
 40
0.8705444879
 40
0.8885128752
 40
0.9067307423
 40
0.9159169298
 40
0.9251478687
 40
0.9344221772
 40
0.9437390978
 40
0.9530910631
 40
0.9624678626
 40
0.9812487654
 40
1.0
 40
1.0
 40
1.0
 40
1.0
 10
2.0460517254
 20
3.1417224155
 30
0.0
 10
2.0460517005
 20
3.1461101215
 30
0.0
 10
2.0461066121
 20
3.1548838304
 30
0.0
 10
2.0463284585
 20
3.1658480919
 30
0.0
 10
2.0466076095
 20
3.1746144358
 30
0.0
 10
2.046871271
 20
3.181186373
 30
0.0
 10
2.0471925701
 20
3.1877557676
 30
0.0
 10
2.0475747226
 20
3.1943224852
 30
0.0
 10
2.0480221829
 20
3.2008863252
 30
0.0
 10
2.0485398351
 20
3.2074470482
 30
0.0
 10
2.0491321911
 20
3.2140044641
 30
0.0
 10
2.0498052902
 20
3.2205582956
 30
0.0
 10
2.0505663362
 20
3.2271081577
 30
0.0
 10
2.0514218523
 20
3.2336538083
 30
0.0
 10
2.0523811868
 20
3.2401947452
 30
0.0
 10
2.0534549151
 20
3.2467303416
 30
0.0
 10
2.0546533277
 20
3.2532601825
 30
0.0
 10
2.0557682428
 20
3.2586910923
 30
0.0
 10
2.0567379253
 20
3.2630302181
 30
0.0
 10
2.0575069696
 20
3.2662852666
 30
0.0
 10
2.0583203461
 20
3.2695376925
 30
0.0
 10
2.0591812296
 20
3.2727871502
 30
0.0
 10
2.060092867
 20
3.2760332711
 30
0.0
 10
2.0610582611
 20
3.2792757801
 30
0.0
 10
2.0620815569
 20
3.2825141262
 30
0.0
 10
2.063168287
 20
3.2857473454
 30
0.0
 10
2.0643237654
 20
3.2889745399
 30
0.0
 10
2.0655531419
 20
3.2921948414
 30
0.0
 10
2.0668624365
 20
3.2954070233
 30
0.0
 10
2.0682611222
 20
3.2986083177
 30
0.0
 10
2.0695059076
 20
3.3012588802
 30
0.0
 10
2.0705546232
 20
3.3033701836
 30
0.0
 10
2.0716456081
 20
3.3054856882
 30
0.0
 10
2.0730842488
 20
3.3081182265
 30
0.0
 10
2.0746258433
 20
3.3107121194
 30
0.0
 10
2.0759320097
 20
3.3127677765
 30
0.0
 10
2.0769538186
 20
3.314304233
 30
0.0
 10
2.0780164951
 20
3.3158293931
 30
0.0
 10
2.0791217084
 20
3.3173416789
 30
0.0
 10
2.0802721198
 20
3.3188381295
 30
0.0
 10
2.0818753095
 20
3.3208153252
 30
0.0
 10
2.0840062554
 20
3.3232311881
 30
0.0
 10
2.0867710325
 20
3.3260017974
 30
0.0
 10
2.0897627838
 20
3.3286214345
 30
0.0
 10
2.0924380256
 20
3.3306402972
 30
0.0
 10
2.0946890926
 20
3.3321381846
 30
0.0
 10
2.0964362235
 20
3.3331989557
 30
0.0
 10
2.0982361694
 20
3.3341876987
 30
0.0
 10
2.1000870625
 20
3.3350978921
 30
0.0
 10
2.101983534
 20
3.3359278953
 30
0.0
 10
2.1045660856
 20
3.3369255128
 30
0.0
 10
2.1078736893
 20
3.3379608509
 30
0.0
 10
2.1105825729
 20
3.3385563286
 30
0.0
 10
2.1119458207
 20
3.3387929289
 30
0.0
  0
SPLINE
  5
2F1
100
AcDbEntity
  8
0
100
AcDbSpline
 62
6
  6
CONTINUOUS
 70
0
 71
3
 72
47
 73
43
 74
0
 42
0.0000001
 43
0.0000001
 44
0.0000000001
 40
0.0
 40
0.0
 40
0.0
 40
0.0
 40
0.0581634829
 40
0.1163661146
 40
0.1746284219
 40
0.2329788971
 40
0.2914563367
 40
0.3501150416
 40
0.4090322915
 40
0.4683204958
 40
0.4981551634
 40
0.5131315599
 40
0.528152523
 40
0.5583465649
 40
0.588782074
 40
0.604107863
 40
0.6195159822
 40
0.6350155765
 40
0.6506171389
 40
0.6821704616
 40
0.698151812
 40
0.7142883671
 40
0.7305973262
 40
0.7470946083
 40
0.7637987093
 40
0.7807239456
 40
0.7978859114
 40
0.8152911898
 40
0.8329450795
 40
0.8508386021
 40
0.8598733777
 40
0.8689615532
 40
0.878100011
 40
0.887286111
 40
0.9057808363
 40
0.9244182316
 40
0.9337837447
 40
0.9431755711
 40
0.9525919389
 40
0.9620311026
 40
0.9809721753
 40
1.0
 40
1.0
 40
1.0
 40
1.0
 10
2.0460517254
 20
3.0733836748
 30
0.0
 10
2.0460517171
 20
3.0689163138
 30
0.0
 10
2.0461158857
 20
3.059978419
 30
0.0
 10
2.0464260187
 20
3.0465687154
 30
0.0
 10
2.046975815
 20
3.0331521305
 30
0.0
 10
2.0477965478
 20
3.0197280223
 30
0.0
 10
2.0489269367
 20
3.006295571
 30
0.0
 10
2.050415897
 20
2.9928538163
 30
0.0
 10
2.0523265959
 20
2.979402055
 30
0.0
 10
2.0543358369
 20
2.9682070215
 30
0.0
 10
2.0560076805
 20
2.960387484
 30
0.0
 10
2.0570512842
 20
2.9559119089
 30
0.0
 10
2.0581592308
 20
2.9514234003
 30
0.0
 10
2.0596683079
 20
2.9458114336
 30
0.0
 10
2.0613563286
 20
2.9402258777
 30
0.0
 10
2.062833275
 20
2.9357655851
 30
0.0
 10
2.0640123044
 20
2.9324157415
 30
0.0
 10
2.0652661574
 20
2.9290704801
 30
0.0
 10
2.0670516663
 20
2.9246014113
 30
0.0
 10
2.0690083738
 20
2.9201617265
 30
0.0
 10
2.0711601484
 20
2.9157695548
 30
0.0
 10
2.0728951302
 20
2.9124787819
 30
0.0
 10
2.0747540281
 20
2.9092106117
 30
0.0
 10
2.0767497511
 20
2.9059726497
 30
0.0
 10
2.0788941861
 20
2.902773839
 30
0.0
 10
2.0812016752
 20
2.8996267628
 30
0.0
 10
2.0836852353
 20
2.8965468552
 30
0.0
 10
2.0863584808
 20
2.8935541135
 30
0.0
 10
2.0892321319
 20
2.89067292
 30
0.0
 10
2.0917926787
 20
2.8883957218
 30
0.0
 10
2.0939464669
 20
2.8866590461
 30
0.0
 10
2.0956195937
 20
2.8853994311
 30
0.0
 10
2.0973445876
 20
2.8841913875
 30
0.0
 10
2.0997175513
 20
2.8826521366
 30
0.0
 10
2.1028057363
 20
2.8808790765
 30
0.0
 10
2.1060311094
 20
2.8793371144
 30
0.0
 10
2.108689186
 20
2.8782474491
 30
0.0
 10
2.1107218725
 20
2.8775036991
 30
0.0
 10
2.1127866647
 20
2.8768358157
 30
0.0
 10
2.1155811026
 20
2.8760470144
 30
0.0
 10
2.1191386624
 20
2.8752547428
 30
0.0
 10
2.1220261017
 20
2.874826611
 30
0.0
 10
2.1234782332
 20
2.8746616643
 30
0.0
  0
LINE
  5
2F2
100
AcDbEntity
  8
0
100
AcDbLine
 62
9
  6
CONTINUOUS
 10
10.3599171886
 20
5.930896703
 11
10.3160517255
 21
5.9311546597
  0
SPLINE
  5
2F3
100
AcDbEntity
  8
0
100
AcDbSpline
 62
9
  6
CONTINUOUS
 70
0
 71
3
 72
23
 73
19
 74
0
 42
0.0000001
 43
0.0000001
 44
0.0000000001
 40
0.0
 40
0.0
 40
0.0
 40
0.0
 40
0.0718995375
 40
0.1437943752
 40
0.2153575095
 40
0.2862695483
 40
0.3562627826
 40
0.4250932285
 40
0.4925188458
 40
0.5582995614
 40
0.6221976358
 40
0.6839798051
 40
0.743437504
 40
0.8003933979
 40
0.8546800261
 40
0.9061394941
 40
0.9546234095
 40
1.0
 40
1.0
 40
1.0
 40
1.0
 10
10.3360517254
 20
6.0079698536
 30
0.0
 10
10.3362784615
 20
6.0060333851
 30
0.0
 10
10.3367739093
 20
6.0021653625
 30
0.0
 10
10.3376399519
 20
5.9963896643
 30
0.0
 10
10.3386256974
 20
5.9906603164
 30
0.0
 10
10.3397274132
 20
5.9850046521
 30
0.0
 10
10.3409399499
 20
5.9794475136
 30
0.0
 10
10.3422579149
 20
5.9740116377
 30
0.0
 10
10.3436763602
 20
5.9687192512
 30
0.0
 10
10.3451891303
 20
5.9635923165
 30
0.0
 10
10.3467892535
 20
5.9586525355
 30
0.0
 10
10.3484702882
 20
5.9539212058
 30
0.0
 10
10.3502254519
 20
5.9494182582
 30
0.0
 10
10.3520470299
 20
5.94516189
 30
0.0
 10
10.353927864
 20
5.9411697415
 30
0.0
 10
10.3558602288
 20
5.9374592562
 30
0.0
 10
10.3578339396
 20
5.9340469936
 30
0.0
 10
10.3592178693
 20
5.931909137
 30
0.0
 10
10.3599171886
 20
5.930896703
 30
0.0
  0
SPLINE
  5
2F4
100
AcDbEntity
  8
0
100
AcDbSpline
 62
9
  6
CONTINUOUS
 70
0
 71
3
 72
10
 73
6
 74
0
 42
0.0000001
 43
0.0000001
 44
0.0000000001
 40
0.0
 40
0.0
 40
0.0
 40
0.0
 40
0.4692227262
 40
0.7270042722
 40
1.0
 40
1.0
 40
1.0
 40
1.0
 10
10.4114063636
 20
5.9308970459
 30
0.0
 10
10.4110884948
 20
5.9309348044
 30
0.0
 10
10.4105847902
 20
5.9309070672
 30
0.0
 10
10.4099193268
 20
5.9307567309
 30
0.0
 10
10.4095745943
 20
5.9306435143
 30
0.0
 10
10.4094001157
 20
5.9305783866
 30
0.0
  0
SPLINE
  5
2F5
100
AcDbEntity
  8
0
100
AcDbSpline
 62
9
  6
CONTINUOUS
 70
0
 71
3
 72
28
 73
24
 74
0
 42
0.0000001
 43
0.0000001
 44
0.0000000001
 40
0.0
 40
0.0
 40
0.0
 40
0.0
 40
0.0105027249
 40
0.0224948279
 40
0.0360003626
 40
0.0510345977
 40
0.0676072075
 40
0.0857239638
 40
0.1053804793
 40
0.1265605083
 40
0.1492456067
 40
0.1734162029
 40
0.2261289484
 40
0.2844649934
 40
0.3481072648
 40
0.3818165859
 40
0.4167240958
 40
0.4899174804
 40
0.5672526113
 40
0.6482893359
 40
0.8196638618
 40
0.9090011503
 40
1.0
 40
1.0
 40
1.0
 40
1.0
 10
10.4094001157
 20
5.9305783866
 30
0.0
 10
10.409272769
 20
5.9305309543
 30
0.0
 10
10.4089959812
 20
5.930440132
 30
0.0
 10
10.4085458201
 20
5.9303198085
 30
0.0
 10
10.4080335649
 20
5.9302067703
 30
0.0
 10
10.407459374
 20
5.9301012849
 30
0.0
 10
10.4068233874
 20
5.930003604
 30
0.0
 10
10.4061258839
 20
5.9299140122
 30
0.0
 10
10.405367396
 20
5.9298326812
 30
0.0
 10
10.404548712
 20
5.9297596469
 30
0.0
 10
10.4036707535
 20
5.9296949901
 30
0.0
 10
10.4023847315
 20
5.9296178243
 30
0.0
 10
10.4006365004
 20
5.9295451965
 30
0.0
 10
10.3983766639
 20
5.9294944679
 30
0.0
 10
10.3963622071
 20
5.9294812458
 30
0.0
 10
10.3946509263
 20
5.9294872044
 30
0.0
 10
10.3928161413
 20
5.9295053382
 30
0.0
 10
10.3904171838
 20
5.9295506974
 30
0.0
 10
10.3874222358
 20
5.9296386777
 30
0.0
 10
10.3831588631
 20
5.929804449
 30
0.0
 10
10.3787428216
 20
5.9300355378
 30
0.0
 10
10.3742013036
 20
5.9303254124
 30
0.0
 10
10.3718738134
 20
5.9304909712
 30
0.0
 10
10.370699656
 20
5.9305785861
 30
0.0
  0
SPLINE
  5
2F6
100
AcDbEntity
  8
0
100
AcDbSpline
 62
9
  6
CONTINUOUS
 70
0
 71
3
 72
10
 73
6
 74
0
 42
0.0000001
 43
0.0000001
 44
0.0000000001
 40
0.0
 40
0.0
 40
0.0
 40
0.0
 40
0.4992380277
 40
0.7493963796
 40
1.0
 40
1.0
 40
1.0
 40
1.0
 10
10.370699656
 20
5.9305785861
 30
0.0
 10
10.3689089104
 20
5.9307123864
 30
0.0
 10
10.3662161815
 20
5.9308588258
 30
0.0
 10
10.3626196049
 20
5.9309265569
 30
0.0
 10
10.3608181685
 20
5.9309148887
 30
0.0
 10
10.3599169344
 20
5.930897071
 30
0.0
  0
SPLINE
  5
2F7
100
AcDbEntity
  8
0
100
AcDbSpline
 62
9
  6
CONTINUOUS
 70
0
 71
3
 72
25
 73
21
 74
0
 42
0.0000001
 43
0.0000001
 44
0.0000000001
 40
0.0
 40
0.0
 40
0.0
 40
0.0
 40
0.064217821
 40
0.1283215408
 40
0.19223708
 40
0.2559004194
 40
0.3192934976
 40
0.3824177934
 40
0.4452775958
 40
0.5078731351
 40
0.5701995782
 40
0.6322556209
 40
0.6940545946
 40
0.7556239805
 40
0.7863366123
 40
0.8170040016
 40
0.8476279661
 40
0.8782064683
 40
0.9392084013
 40
1.0
 40
1.0
 40
1.0
 40
1.0
 10
10.3726202679
 20
6.0079698536
 30
0.0
 10
10.3725402831
 20
6.00603751
 30
0.0
 10
10.3725001146
 20
6.002170235
 30
0.0
 10
10.3727983201
 20
5.9963849404
 30
0.0
 10
10.3734536038
 20
5.9906456462
 30
0.0
 10
10.3744656498
 20
5.984980139
 30
0.0
 10
10.3758291549
 20
5.9794133079
 30
0.0
 10
10.3775374728
 20
5.973967739
 30
0.0
 10
10.379584868
 20
5.9686660485
 30
0.0
 10
10.3819621146
 20
5.9635302823
 30
0.0
 10
10.3846578843
 20
5.9585818165
 30
0.0
 10
10.3876618974
 20
5.9538424062
 30
0.0
 10
10.3909620254
 20
5.9493325472
 30
0.0
 10
10.393949764
 20
5.9457770174
 30
0.0
 10
10.396473255
 20
5.943066505
 30
0.0
 10
10.3984296899
 20
5.9411036348
 30
0.0
 10
10.4004491269
 20
5.9392115533
 30
0.0
 10
10.4032195997
 20
5.9367879548
 30
0.0
 10
10.4068264447
 20
5.9339449719
 30
0.0
 10
10.4098590615
 20
5.9318756848
 30
0.0
 10
10.4114063636
 20
5.9308970459
 30
0.0
  0
LINE
  5
2F8
100
AcDbEntity
  8
0
100
AcDbLine
 62
9
  6
CONTINUOUS
 10
10.4135517244
 20
5.9311546592
 11
10.4114070517
 21
5.9308966106
  0
SPLINE
  5
2F9
100
AcDbEntity
  8
0
100
AcDbSpline
 62
9
  6
CONTINUOUS
 70
0
 71
3
 72
21
 73
17
 74
0
 42
0.0000001
 43
0.0000001
 44
0.0000000001
 40
0.0
 40
0.0
 40
0.0
 40
0.0
 40
0.1240303099
 40
0.1863167141
 40
0.2486866764
 40
0.3110872468
 40
0.3734769724
 40
0.4358651128
 40
0.4982841718
 40
0.5607625905
 40
0.6233279396
 40
0.686010076
 40
0.7488125632
 40
0.8116847538
 40
0.8745630549
 40
1.0
 40
1.0
 40
1.0
 40
1.0
 10
8.0360517254
 20
5.9041171857
 30
0.0
 10
8.0360517254
 20
5.9054789054
 30
0.0
 10
8.0361990816
 20
5.9075281382
 30
0.0
 10
8.0366776356
 20
5.9102176251
 30
0.0
 10
8.0371772921
 20
5.9122114652
 30
0.0
 10
8.037815012
 20
5.914166557
 30
0.0
 10
8.0385894937
 20
5.9160719211
 30
0.0
 10
8.0394966726
 20
5.9179179759
 30
0.0
 10
8.0405312768
 20
5.9196968575
 30
0.0
 10
8.0416885491
 20
5.9214008344
 30
0.0
 10
8.0429635724
 20
5.9230222763
 30
0.0
 10
8.0443515212
 20
5.924553022
 30
0.0
 10
8.0458454821
 20
5.9259852328
 30
0.0
 10
8.0474360621
 20
5.927312904
 30
0.0
 10
8.0496699109
 20
5.9289324314
 30
0.0
 10
8.0514664204
 20
5.9299731148
 30
0.0
 10
8.0527034246
 20
5.9305784236
 30
0.0
  0
SPLINE
  5
2FA
100
AcDbEntity
  8
0
100
AcDbSpline
 62
9
  6
CONTINUOUS
 70
0
 71
3
 72
21
 73
17
 74
0
 42
0.0000001
 43
0.0000001
 44
0.0000000001
 40
0.0
 40
0.0
 40
0.0
 40
0.0
 40
0.1240302964
 40
0.1863167117
 40
0.2486866927
 40
0.3110872854
 40
0.3734770312
 40
0.4358651835
 40
0.4982842478
 40
0.5607626669
 40
0.6233280122
 40
0.6860101409
 40
0.7488126197
 40
0.8116848011
 40
0.8745630905
 40
1.0
 40
1.0
 40
1.0
 40
1.0
 10
10.4260517254
 20
5.9041171465
 30
0.0
 10
10.4260517254
 20
5.9054788666
 30
0.0
 10
10.4259043692
 20
5.9075281001
 30
0.0
 10
10.4254258155
 20
5.9102175883
 30
0.0
 10
10.4249261593
 20
5.9122114299
 30
0.0
 10
10.42428844
 20
5.9141665234
 30
0.0
 10
10.4235139593
 20
5.9160718895
 30
0.0
 10
10.4226067812
 20
5.917917946
 30
0.0
 10
10.4215721781
 20
5.9196968293
 30
0.0
 10
10.4204149071
 20
5.9214008081
 30
0.0
 10
10.4191398853
 20
5.923022252
 30
0.0
 10
10.4177519385
 20
5.9245530002
 30
0.0
 10
10.4162579796
 20
5.9259852139
 30
0.0
 10
10.4146674015
 20
5.9273128882
 30
0.0
 10
10.4124335554
 20
5.9289324201
 30
0.0
 10
10.4106370477
 20
5.9299731071
 30
0.0
 10
10.4094000446
 20
5.9305784185
 30
0.0
  0
SPLINE
  5
2FB
100
AcDbEntity
  8
0
100
AcDbSpline
 62
9
  6
CONTINUOUS
 70
0
 71
3
 72
60
 73
56
 74
0
 42
0.0000001
 43
0.0000001
 44
0.0000000001
 40
0.0
 40
0.0
 40
0.0
 40
0.0
 40
0.062530454
 40
0.1250600807
 40
0.1875879659
 40
0.2501133521
 40
0.3126354127
 40
0.3751533475
 40
0.4376663588
 40
0.5001736552
 40
0.5314249481
 40
0.562674516
 40
0.5939222618
 40
0.6251680887
 40
0.6564119004
 40
0.6876536006
 40
0.7188930938
 40
0.7501302846
 40
0.76574799
 40
0.7813651307
 40
0.7969817928
 40
0.8125980713
 40
0.8282140643
 40
0.8438298726
 40
0.8594455986
 40
0.8750613452
 40
0.8906772153
 40
0.8984852287
 40
0.9062933109
 40
0.9141014744
 40
0.9219097312
 40
0.9297180933
 40
0.9375265725
 40
0.9453351801
 40
0.9531439273
 40
0.9609528249
 40
0.9648573334
 40
0.9687618833
 40
0.9726664759
 40
0.9765711125
 40
0.9804757941
 40
0.9824281522
 40
0.984380522
 40
0.9863329037
 40
0.9882852973
 40
0.9892614987
 40
0.9902377031
 40
0.9912139105
 40
0.9921901212
 40
0.993166335
 40
0.9941425563
 40
0.9951187824
 40
0.9960950128
 40
0.9980474945
 40
1.0
 40
1.0
 40
1.0
 40
1.0
 10
5.9310517254
 20
3.0081330386
 30
0.0
 10
5.9881921949
 20
3.0081330352
 30
0.0
 10
6.1024729616
 20
3.0086378394
 30
0.0
 10
6.2738788737
 20
3.0108481046
 30
0.0
 10
6.4452565361
 20
3.0144496844
 30
0.0
 10
6.6165939933
 20
3.0193804762
 30
0.0
 10
6.7878810595
 20
3.0255781483
 30
0.0
 10
6.9591088473
 20
3.0329802085
 30
0.0
 10
7.130269785
 20
3.0415240787
 30
0.0
 10
7.272846736
 20
3.0495435263
 30
0.0
 10
7.3868695672
 20
3.05646747
 30
0.0
 10
7.4723645314
 20
3.0619066501
 30
0.0
 10
7.5578389636
 20
3.0675843711
 30
0.0
 10
7.6432924785
 20
3.0734928317
 30
0.0
 10
7.72872474
 20
3.079624238
 30
0.0
 10
7.8141354778
 20
3.0859708033
 30
0.0
 10
7.8995244756
 20
3.0925247583
 30
0.0
 10
7.9706650965
 20
3.0981528198
 30
0.0
 10
8.0275666888
 20
3.1027512393
 30
0.0
 10
8.070236732
 20
3.1062472829
 30
0.0
 10
8.1129016326
 20
3.109789801
 30
0.0
 10
8.1555616803
 20
3.1133777952
 30
0.0
 10
8.1982171718
 20
3.1170103668
 30
0.0
 10
8.2408684171
 20
3.1206865815
 30
0.0
 10
8.283515732
 20
3.1244055193
 30
0.0
 10
8.3261594374
 20
3.1281662575
 30
0.0
 10
8.3616930024
 20
3.131334262
 30
0.0
 10
8.3901183027
 20
3.1338886391
 30
0.0
 10
8.4114366492
 20
3.1358143033
 30
0.0
 10
8.432754335
 20
3.1377497276
 30
0.0
 10
8.4540713998
 20
3.1396947971
 30
0.0
 10
8.4753878826
 20
3.1416493967
 30
0.0
 10
8.4967038219
 20
3.1436134116
 30
0.0
 10
8.5180192556
 20
3.1455867268
 30
0.0
 10
8.5393342209
 20
3.1475692272
 30
0.0
 10
8.5570962417
 20
3.1492288609
 30
0.0
 10
8.5713056532
 20
3.1505610446
 30
0.0
 10
8.5819626714
 20
3.1515624119
 30
0.0
 10
8.5926195994
 20
3.1525659888
 30
0.0
 10
8.6032764411
 20
3.1535717633
 30
0.0
 10
8.6121570486
 20
3.1544117181
 30
0.0
 10
8.6192614938
 20
3.155084777
 30
0.0
 10
8.6245898274
 20
3.1555900826
 30
0.0
 10
8.6299181327
 20
3.156096029
 30
0.0
 10
8.6343583936
 20
3.1565177999
 30
0.0
 10
8.6379105328
 20
3.1568561219
 30
0.0
 10
8.6405746826
 20
3.1571095176
 30
0.0
 10
8.6432388712
 20
3.1573625953
 30
0.0
 10
8.6459030302
 20
3.1576160739
 30
0.0
 10
8.6485669295
 20
3.15787242
 30
0.0
 10
8.6512300325
 20
3.1581371002
 30
0.0
 10
8.653891798
 20
3.1584151706
 30
0.0
 10
8.657438117
 20
3.158811246
 30
0.0
 10
8.6618642889
 20
3.1593657422
 30
0.0
 10
8.6653938319
 20
3.1598943795
 30
0.0
 10
8.6671542066
 20
3.1601850071
 30
0.0
  0
SPLINE
  5
2FC
100
AcDbEntity
  8
0
100
AcDbSpline
 62
9
  6
CONTINUOUS
 70
0
 71
3
 72
37
 73
33
 74
0
 42
0.0000001
 43
0.0000001
 44
0.0000000001
 40
0.0
 40
0.0
 40
0.0
 40
0.0
 40
0.0312318907
 40
0.0624701098
 40
0.0937069766
 40
0.1249439073
 40
0.1874105284
 40
0.2498831786
 40
0.2811286231
 40
0.3123754502
 40
0.3436235355
 40
0.3748727866
 40
0.4061231366
 40
0.4373745197
 40
0.468626876
 40
0.4998801533
 40
0.5311342928
 40
0.5623892415
 40
0.5936449282
 40
0.6249012894
 40
0.6561582356
 40
0.6874157032
 40
0.7186735938
 40
0.7499318056
 40
0.7811902044
 40
0.8124488357
 40
0.8437077166
 40
0.8749663757
 40
0.9062243167
 40
0.937483126
 40
0.9687439596
 40
1.0
 40
1.0
 40
1.0
 40
1.0
 10
8.6671542066
 20
3.1601850071
 30
0.0
 10
8.6734042675
 20
3.1612168843
 30
0.0
 10
8.6858639421
 20
3.1635434256
 30
0.0
 10
8.7043898481
 20
3.1678130035
 30
0.0
 10
8.7227218509
 20
3.1728568522
 30
0.0
 10
8.7468576358
 20
3.1806000844
 30
0.0
 10
8.7763888423
 20
3.1921688954
 30
0.0
 10
8.8048473806
 20
3.2061742876
 30
0.0
 10
8.8268452158
 20
3.2187775541
 30
0.0
 10
8.8429366072
 20
3.2289158797
 30
0.0
 10
8.8585886989
 20
3.2397208759
 30
0.0
 10
8.8737746623
 20
3.2511730713
 30
0.0
 10
8.8884672005
 20
3.2632528118
 30
0.0
 10
8.9026409686
 20
3.2759382069
 30
0.0
 10
8.9162705236
 20
3.2892074441
 30
0.0
 10
8.9293324661
 20
3.3030365548
 30
0.0
 10
8.9418033092
 20
3.3174016742
 30
0.0
 10
8.9536617699
 20
3.3322769559
 30
0.0
 10
8.9648864794
 20
3.3476366458
 30
0.0
 10
8.9754584027
 20
3.3634532173
 30
0.0
 10
8.9853584528
 20
3.3796992072
 30
0.0
 10
8.9945699438
 20
3.3963456276
 30
0.0
 10
9.0030762197
 20
3.4133634967
 30
0.0
 10
9.0108630281
 20
3.4307225658
 30
0.0
 10
9.0179162974
 20
3.448392561
 30
0.0
 10
9.0242242786
 20
3.4663422631
 30
0.0
 10
9.0297755183
 20
3.4845402865
 30
0.0
 10
9.0345608715
 20
3.5029543989
 30
0.0
 10
9.0385716329
 20
3.5215525559
 30
0.0
 10
9.0418013596
 20
3.5403026681
 30
0.0
 10
9.0442440848
 20
3.5591707097
 30
0.0
 10
9.0453455595
 20
3.5718072762
 30
0.0
 10
9.0457637245
 20
3.5781330372
 30
0.0
  0
SPLINE
  5
2FD
100
AcDbEntity
  8
0
100
AcDbSpline
 62
9
  6
CONTINUOUS
 70
0
 71
3
 72
34
 73
30
 74
0
 42
0.0000001
 43
0.0000001
 44
0.0000000001
 40
0.0
 40
0.0
 40
0.0
 40
0.0
 40
0.062476535
 40
0.0937346884
 40
0.124996223
 40
0.1562557146
 40
0.1875103945
 40
0.2187614826
 40
0.2500104954
 40
0.2812589548
 40
0.3125083288
 40
0.3437589362
 40
0.375010356
 40
0.4375063799
 40
0.5000014341
 40
0.5624962342
 40
0.5937475999
 40
0.6249991854
 40
0.6562506075
 40
0.6875013957
 40
0.7187510839
 40
0.7499996452
 40
0.7812482892
 40
0.8124984214
 40
0.8437514465
 40
0.8750086794
 40
0.9062681732
 40
0.9375247385
 40
1.0
 40
1.0
 40
1.0
 40
1.0
 10
9.7154930738
 20
3.3154366033
 30
0.0
 10
9.7072418312
 20
3.3174875988
 30
0.0
 10
9.6949524113
 20
3.3209458975
 30
0.0
 10
9.6788045528
 20
3.3262998235
 30
0.0
 10
9.6668172017
 20
3.3306854813
 30
0.0
 10
9.6549705483
 20
3.3354362499
 30
0.0
 10
9.6432766143
 20
3.3405480145
 30
0.0
 10
9.6317462066
 20
3.3460152807
 30
0.0
 10
9.6203895722
 20
3.3518330647
 30
0.0
 10
9.6092168878
 20
3.3579962843
 30
0.0
 10
9.5982386521
 20
3.3644999157
 30
0.0
 10
9.5874647118
 20
3.3713376379
 30
0.0
 10
9.573386491
 20
3.3808897946
 30
0.0
 10
9.5563468742
 20
3.3936326823
 30
0.0
 10
9.5368786515
 20
3.410148195
 30
0.0
 10
9.521526665
 20
3.4248804042
 30
0.0
 10
9.5098069858
 20
3.4372128202
 30
0.0
 10
9.5013044329
 20
3.4467285522
 30
0.0
 10
9.4930976021
 20
3.4565002019
 30
0.0
 10
9.4851940918
 20
3.466518486
 30
0.0
 10
9.4776015904
 20
3.4767739919
 30
0.0
 10
9.4703276164
 20
3.4872574734
 30
0.0
 10
9.4633783733
 20
3.49795904
 30
0.0
 10
9.4567599785
 20
3.5088690237
 30
0.0
 10
9.4504784571
 20
3.519977748
 30
0.0
 10
9.4445403444
 20
3.5312751436
 30
0.0
 10
9.4389512016
 20
3.5427499707
 30
0.0
 10
9.4319730937
 20
3.558264519
 30
0.0
 10
9.4272754551
 20
3.5701351487
 30
0.0
 10
9.4243908037
 20
3.5781329876
 30
0.0
  0
SPLINE
  5
2FE
100
AcDbEntity
  8
0
100
AcDbSpline
 62
9
  6
CONTINUOUS
 70
0
 71
3
 72
46
 73
42
 74
0
 42
0.0000001
 43
0.0000001
 44
0.0000000001
 40
0.0
 40
0.0
 40
0.0
 40
0.0
 40
0.031262676
 40
0.0625254024
 40
0.0781568637
 40
0.0937883117
 40
0.1094196273
 40
0.1250506027
 40
0.1406809321
 40
0.1563103505
 40
0.1719386733
 40
0.1875657668
 40
0.2031915419
 40
0.2188159512
 40
0.250060664
 40
0.26568105
 40
0.2734907832
 40
0.2813002257
 40
0.2891093912
 40
0.2969182961
 40
0.3047269577
 40
0.3125353936
 40
0.3281516631
 40
0.3437672754
 40
0.3593824081
 40
0.3749972495
 40
0.3906119942
 40
0.4062268337
 40
0.4374575522
 40
0.4686908703
 40
0.4999273889
 40
0.5311669651
 40
0.5624094049
 40
0.5936545356
 40
0.624902172
 40
0.6874039052
 40
0.7499134507
 40
0.8124293366
 40
0.8749500638
 40
0.9374741863
 40
1.0
 40
1.0
 40
1.0
 40
1.0
 10
9.7154936745
 20
2.9022165368
 30
0.0
 10
9.6760832302
 20
2.8976624201
 30
0.0
 10
9.5973161741
 20
2.8880832237
 30
0.0
 10
9.4989850335
 20
2.8751093685
 30
0.0
 10
9.4203875399
 20
2.8642369834
 30
0.0
 10
9.361470273
 20
2.8558626125
 30
0.0
 10
9.302581431
 20
2.8472952086
 30
0.0
 10
9.2437185866
 20
2.8385607883
 30
0.0
 10
9.1848788973
 20
2.8296880192
 30
0.0
 10
9.1260590519
 20
2.820707029
 30
0.0
 10
9.0672558855
 20
2.8116444736
 30
0.0
 10
9.0084658818
 20
2.8025270974
 30
0.0
 10
8.9496852439
 20
2.7933818003
 30
0.0
 10
8.8713217423
 20
2.7811866551
 30
0.0
 10
8.7929572365
 20
2.7690421854
 30
0.0
 10
8.724371887
 20
2.7585514844
 30
0.0
 10
8.6851761807
 20
2.7526106408
 30
0.0
 10
8.6557765956
 20
2.7481848716
 30
0.0
 10
8.6263731706
 20
2.7437917854
 30
0.0
 10
8.5969654339
 20
2.7394344078
 30
0.0
 10
8.5675532526
 20
2.7351134935
 30
0.0
 10
8.5283314389
 20
2.7294018068
 30
0.0
 10
8.4792922625
 20
2.7223565291
 30
0.0
 10
8.4204256222
 20
2.7140524272
 30
0.0
 10
8.3615395506
 20
2.7059004274
 30
0.0
 10
8.3026333385
 20
2.6979034389
 30
0.0
 10
8.243706471
 20
2.6900628741
 30
0.0
 10
8.1651081811
 20
2.6798197955
 30
0.0
 10
8.0668039968
 20
2.6674166928
 30
0.0
 10
7.9487503514
 20
2.6531906583
 30
0.0
 10
7.8306065927
 20
2.6396341427
 30
0.0
 10
7.7123743402
 20
2.6267647001
 30
0.0
 10
7.5940565417
 20
2.6145995505
 30
0.0
 10
7.4756564073
 20
2.6031559887
 30
0.0
 10
7.3176795767
 20
2.5888827755
 30
0.0
 10
7.1200216159
 20
2.5729324568
 30
0.0
 10
6.8825769874
 20
2.5569579138
 30
0.0
 10
6.6449082008
 20
2.5442879587
 30
0.0
 10
6.4070615447
 20
2.5350616834
 30
0.0
 10
6.169090295
 20
2.5294171981
 30
0.0
 10
6.0103977106
 20
2.5281330301
 30
0.0
 10
5.9310517254
 20
2.5281330386
 30
0.0
  0
SPLINE
  5
2FF
100
AcDbEntity
  8
0
100
AcDbSpline
 62
9
  6
CONTINUOUS
 70
0
 71
3
 72
15
 73
11
 74
0
 42
0.0000001
 43
0.0000001
 44
0.0000000001
 40
0.0
 40
0.0
 40
0.0
 40
0.0
 40
0.1102004981
 40
0.2265057204
 40
0.3480680435
 40
0.4739140717
 40
0.602985529
 40
0.7342646379
 40
0.8668514062
 40
1.0
 40
1.0
 40
1.0
 40
1.0
 10
9.7630079518
 20
3.3092323551
 30
0.0
 10
9.7612568294
 20
3.3094145924
 30
0.0
 10
9.7576579185
 20
3.3097924425
 30
0.0
 10
9.7521291331
 20
3.310388268
 30
0.0
 10
9.7463548154
 20
3.3110381523
 30
0.0
 10
9.7403825943
 20
3.3117522426
 30
0.0
 10
9.734263084
 20
3.3125402545
 30
0.0
 10
9.728045978
 20
3.3134109301
 30
0.0
 10
9.7217759853
 20
3.3143701317
 30
0.0
 10
9.7175885208
 20
3.3150703195
 30
0.0
 10
9.7154930738
 20
3.3154365012
 30
0.0
  0
SPLINE
  5
300
100
AcDbEntity
  8
0
100
AcDbSpline
 62
9
  6
CONTINUOUS
 70
0
 71
3
 72
48
 73
44
 74
0
 42
0.0000001
 43
0.0000001
 44
0.0000000001
 40
0.0
 40
0.0
 40
0.0
 40
0.0
 40
0.0628555493
 40
0.0942103625
 40
0.1255129381
 40
0.156760141
 40
0.1879491192
 40
0.2190764775
 40
0.2501383215
 40
0.3120483896
 40
0.3736436236
 40
0.404311212
 40
0.4348836129
 40
0.4653548282
 40
0.4957181103
 40
0.5259674958
 40
0.5560966293
 40
0.5861013893
 40
0.6010568531
 40
0.6159810979
 40
0.6457358753
 40
0.6605716527
 40
0.6753821032
 40
0.7049424627
 40
0.7197091739
 40
0.7344792592
 40
0.7492663495
 40
0.764089569
 40
0.793936397
 40
0.8090398208
 40
0.8243206573
 40
0.8398350173
 40
0.8556485278
 40
0.8636904431
 40
0.8718342022
 40
0.8884595759
 40
0.9055947712
 40
0.9143722243
 40
0.9232961559
 40
0.9415927113
 40
0.9604935469
 40
0.9799778385
 40
1.0
 40
1.0
 40
1.0
 40
1.0
 10
9.8160517254
 20
3.0733836748
 30
0.0
 10
9.8160517337
 20
3.0691684614
 30
0.0
 10
9.8160058546
 20
3.0628503675
 30
0.0
 10
9.8158418026
 20
3.0544347554
 30
0.0
 10
9.8156648983
 20
3.0481397315
 30
0.0
 10
9.8154305825
 20
3.0418577064
 30
0.0
 10
9.8151355993
 20
3.0355899906
 30
0.0
 10
9.8147761137
 20
3.0293380681
 30
0.0
 10
9.8142055002
 20
3.0210351751
 30
0.0
 10
9.8133097162
 20
3.0107072298
 30
0.0
 10
9.8121296931
 20
3.0004338904
 30
0.0
 10
9.810987044
 20
2.992275586
 30
0.0
 10
9.810023376
 20
2.9862008402
 30
0.0
 10
9.8089422114
 20
2.98016656
 30
0.0
 10
9.8077315713
 20
2.9741789114
 30
0.0
 10
9.8063785224
 20
2.9682451997
 30
0.0
 10
9.8048665654
 20
2.962374656
 30
0.0
 10
9.8034575873
 20
2.9575390561
 30
0.0
 10
9.8022298911
 20
2.9537151053
 30
0.0
 10
9.8009341249
 20
2.9499314557
 30
0.0
 10
9.7995230701
 20
2.9461963363
 30
0.0
 10
9.7979810212
 20
2.9425229239
 30
0.0
 10
9.796347951
 20
2.9389034701
 30
0.0
 10
9.794563181
 20
2.9353584626
 30
0.0
 10
9.7926032141
 20
2.9319130523
 30
0.0
 10
9.7910390317
 20
2.9293845915
 30
0.0
 10
9.7893715375
 20
2.9269181577
 30
0.0
 10
9.7869949477
 20
2.9237154707
 30
0.0
 10
9.7843737883
 20
2.920671064
 30
0.0
 10
9.7814873549
 20
2.9178427155
 30
0.0
 10
9.7791601172
 20
2.915824938
 30
0.0
 10
9.7766688423
 20
2.9139335418
 30
0.0
 10
9.7744600003
 20
2.9124830273
 30
0.0
 10
9.7726066112
 20
2.9114006194
 30
0.0
 10
9.7706679178
 20
2.9103590265
 30
0.0
 10
9.7681222465
 20
2.9091627977
 30
0.0
 10
9.7654590106
 20
2.9081339064
 30
0.0
 10
9.763240033
 20
2.907402021
 30
0.0
 10
9.7609235322
 20
2.9067212007
 30
0.0
 10
9.7579161525
 20
2.9059899089
 30
0.0
 10
9.7541759052
 20
2.9053022154
 30
0.0
 10
9.7502913837
 20
2.904788582
 30
0.0
 10
9.7476510171
 20
2.9045592134
 30
0.0
 10
9.7463112638
 20
2.9044699375
 30
0.0
  0
LINE
  5
301
100
AcDbEntity
  8
0
100
AcDbLine
 62
9
  6
CONTINUOUS
 10
9.7190229928
 20
2.872415064
 11
9.715493672
 21
2.9022165365
  0
SPLINE
  5
302
100
AcDbEntity
  8
0
100
AcDbSpline
 62
9
  6
CONTINUOUS
 70
0
 71
3
 72
32
 73
28
 74
0
 42
0.0000001
 43
0.0000001
 44
0.0000000001
 40
0.0
 40
0.0
 40
0.0
 40
0.0
 40
0.0160395331
 40
0.0323511957
 40
0.0491479409
 40
0.0666186443
 40
0.0849256329
 40
0.1042050486
 40
0.1245690573
 40
0.1461089543
 40
0.1688952215
 40
0.1929684013
 40
0.2183489566
 40
0.2450438552
 40
0.2730495119
 40
0.3023540826
 40
0.3329392487
 40
0.3647816093
 40
0.3978508381
 40
0.4321012477
 40
0.5039281666
 40
0.5798217736
 40
0.6593057808
 40
0.7418394318
 40
0.8266748462
 40
0.9130011181
 40
1.0
 40
1.0
 40
1.0
 40
1.0
 10
9.738624924
 20
2.874661631
 30
0.0
 10
9.7387986665
 20
2.8746813663
 30
0.0
 10
9.7391468531
 20
2.8747446553
 30
0.0
 10
9.7396584896
 20
2.8749082583
 30
0.0
 10
9.7401603427
 20
2.8751398629
 30
0.0
 10
9.7406509463
 20
2.8754383955
 30
0.0
 10
9.7411290945
 20
2.8758028619
 30
0.0
 10
9.7415935851
 20
2.8762323449
 30
0.0
 10
9.7420432367
 20
2.8767259991
 30
0.0
 10
9.7424768217
 20
2.8772830113
 30
0.0
 10
9.7428930026
 20
2.8779023873
 30
0.0
 10
9.7432912483
 20
2.8785823344
 30
0.0
 10
9.7436708944
 20
2.8793210178
 30
0.0
 10
9.7440312391
 20
2.8801165607
 30
0.0
 10
9.7443715628
 20
2.8809670833
 30
0.0
 10
9.7446911346
 20
2.8818706975
 30
0.0
 10
9.7449892177
 20
2.8828255087
 30
0.0
 10
9.7452650569
 20
2.883829586
 30
0.0
 10
9.745517882
 20
2.884880831
 30
0.0
 10
9.7458287107
 20
2.8863657804
 30
0.0
 10
9.7461535429
 20
2.8883238242
 30
0.0
 10
9.7464395756
 20
2.890785041
 30
0.0
 10
9.7466241907
 20
2.8933729372
 30
0.0
 10
9.7467040561
 20
2.8960636013
 30
0.0
 10
9.7466806327
 20
2.8988298748
 30
0.0
 10
9.746554979
 20
2.9016420499
 30
0.0
 10
9.7464039131
 20
2.9035260275
 30
0.0
 10
9.7463112814
 20
2.9044699375
 30
0.0
  0
LINE
  5
303
100
AcDbEntity
  8
0
100
AcDbLine
 62
9
  6
CONTINUOUS
 10
9.0151250211
 20
3.5801154303
 11
9.0457633033
 21
3.5781330372
  0
SPLINE
  5
304
100
AcDbEntity
  8
0
100
AcDbSpline
 62
9
  6
CONTINUOUS
 70
0
 71
3
 72
35
 73
31
 74
0
 42
0.0000001
 43
0.0000001
 44
0.0000000001
 40
0.0
 40
0.0
 40
0.0
 40
0.0
 40
0.0004926989
 40
0.00103045
 40
0.0016480181
 40
0.0023684831
 40
0.0041685371
 40
0.0064959451
 40
0.0093765127
 40
0.0128221585
 40
0.0168385067
 40
0.0214279799
 40
0.0265912172
 40
0.0323277915
 40
0.0455157948
 40
0.0609790121
 40
0.078700266
 40
0.0986529289
 40
0.1207792215
 40
0.1450130453
 40
0.1712877627
 40
0.2296914275
 40
0.2954519872
 40
0.367994542
 40
0.4466060478
 40
0.5305383856
 40
0.6190429359
 40
0.7113114011
 40
0.8062976499
 40
1.0
 40
1.0
 40
1.0
 40
1.0
 10
8.661051714
 20
3.1897851666
 30
0.0
 10
8.6610566234
 20
3.1897859764
 30
0.0
 10
8.6610672252
 20
3.1897859846
 30
0.0
 10
8.6610833348
 20
3.189781161
 30
0.0
 10
8.6610999416
 20
3.189771811
 30
0.0
 10
8.6611247328
 20
3.189751911
 30
0.0
 10
8.6611568574
 20
3.1897145434
 30
0.0
 10
8.6611958841
 20
3.1896554272
 30
0.0
 10
8.6612379048
 20
3.1895787046
 30
0.0
 10
8.6612828757
 20
3.1894843978
 30
0.0
 10
8.6613307496
 20
3.1893724719
 30
0.0
 10
8.6613814724
 20
3.1892429825
 30
0.0
 10
8.6614350004
 20
3.189095987
 30
0.0
 10
8.6615137708
 20
3.1888658185
 30
0.0
 10
8.6616181014
 20
3.188534528
 30
0.0
 10
8.6617488549
 20
3.188084812
 30
0.0
 10
8.6618899336
 20
3.1875670361
 30
0.0
 10
8.6620409356
 20
3.186982284
 30
0.0
 10
8.6622015016
 20
3.186332116
 30
0.0
 10
8.662371182
 20
3.1856184656
 30
0.0
 10
8.6626177684
 20
3.1845465533
 30
0.0
 10
8.6629441471
 20
3.1830627098
 30
0.0
 10
8.663352479
 20
3.1811185701
 30
0.0
 10
8.6637860336
 20
3.1789712674
 30
0.0
 10
8.6642408531
 20
3.1766410945
 30
0.0
 10
8.664712585
 20
3.1741500236
 30
0.0
 10
8.6651967345
 20
3.1715209679
 30
0.0
 10
8.6656883257
 20
3.1687798035
 30
0.0
 10
8.6663513021
 20
3.164990074
 30
0.0
 10
8.6668363764
 20
3.16211521
 30
0.0
 10
8.6671542064
 20
3.1601850071
 30
0.0
  0
SPLINE
  5
305
100
AcDbEntity
  8
0
100
AcDbSpline
 62
9
  6
CONTINUOUS
 70
0
 71
3
 72
25
 73
21
 74
0
 42
0.0000001
 43
0.0000001
 44
0.0000000001
 40
0.0
 40
0.0
 40
0.0
 40
0.0
 40
0.0776285353
 40
0.1546259266
 40
0.230471338
 40
0.3046578371
 40
0.3767409807
 40
0.4464436417
 40
0.5135467686
 40
0.5778680145
 40
0.6392927835
 40
0.6978191088
 40
0.7535268007
 40
0.806590677
 40
0.8573115415
 40
0.9061033602
 40
0.9299414663
 40
0.9534871718
 40
0.9768138672
 40
1.0
 40
1.0
 40
1.0
 40
1.0
 10
9.7630079286
 20
3.3092323551
 30
0.0
 10
9.7631079953
 20
3.3101339298
 30
0.0
 10
9.7632575634
 20
3.3119356719
 30
0.0
 10
9.7633315347
 20
3.3146291076
 30
0.0
 10
9.763254298
 20
3.3172823665
 30
0.0
 10
9.7630253944
 20
3.3198693593
 30
0.0
 10
9.7626437486
 20
3.3223658355
 30
0.0
 10
9.7621147402
 20
3.3247507034
 30
0.0
 10
9.7614437978
 20
3.3270053355
 30
0.0
 10
9.7606361148
 20
3.3291117421
 30
0.0
 10
9.7596963485
 20
3.3310522453
 30
0.0
 10
9.7586331726
 20
3.332811826
 30
0.0
 10
9.757454901
 20
3.3343764252
 30
0.0
 10
9.7561693302
 20
3.3357320413
 30
0.0
 10
9.7547848717
 20
3.336863347
 30
0.0
 10
9.753550984
 20
3.3376184329
 30
0.0
 10
9.7525334454
 20
3.3380975587
 30
0.0
 10
9.7517611436
 20
3.3383935633
 30
0.0
 10
9.7509759749
 20
3.3386279561
 30
0.0
 10
9.7504440627
 20
3.3387428088
 30
0.0
 10
9.7501771843
 20
3.3387895252
 30
0.0
  0
LINE
  5
306
100
AcDbEntity
  8
0
100
AcDbLine
 62
9
  6
CONTINUOUS
 10
9.4243912298
 20
3.5781329367
 11
9.4526063892
 21
3.5883212081
  0
LINE
  5
307
100
AcDbEntity
  8
0
100
AcDbLine
 62
9
  6
CONTINUOUS
 10
9.715493672
 20
3.3154364046
 11
9.7228160503
 21
3.3445501858
  0
SPLINE
  5
308
100
AcDbEntity
  8
0
100
AcDbSpline
 62
9
  6
CONTINUOUS
 70
0
 71
3
 72
21
 73
17
 74
0
 42
0.0000001
 43
0.0000001
 44
0.0000000001
 40
0.0
 40
0.0
 40
0.0
 40
0.0
 40
0.1240303099
 40
0.1863167141
 40
0.2486866764
 40
0.3110872468
 40
0.3734769724
 40
0.4358651128
 40
0.4982841718
 40
0.5607625905
 40
0.6233279396
 40
0.686010076
 40
0.7488125632
 40
0.8116847538
 40
0.8745630549
 40
1.0
 40
1.0
 40
1.0
 40
1.0
 10
1.4360517254
 20
5.9041171857
 30
0.0
 10
1.4360517254
 20
5.9054789054
 30
0.0
 10
1.4361990816
 20
5.9075281382
 30
0.0
 10
1.4366776356
 20
5.9102176251
 30
0.0
 10
1.4371772921
 20
5.9122114652
 30
0.0
 10
1.437815012
 20
5.914166557
 30
0.0
 10
1.4385894937
 20
5.9160719211
 30
0.0
 10
1.4394966726
 20
5.9179179759
 30
0.0
 10
1.4405312768
 20
5.9196968575
 30
0.0
 10
1.4416885491
 20
5.9214008344
 30
0.0
 10
1.4429635724
 20
5.9230222763
 30
0.0
 10
1.4443515212
 20
5.924553022
 30
0.0
 10
1.4458454821
 20
5.9259852328
 30
0.0
 10
1.4474360621
 20
5.927312904
 30
0.0
 10
1.4496699109
 20
5.9289324314
 30
0.0
 10
1.4514664204
 20
5.9299731148
 30
0.0
 10
1.4527034246
 20
5.9305784236
 30
0.0
  0
SPLINE
  5
309
100
AcDbEntity
  8
0
100
AcDbSpline
 62
9
  6
CONTINUOUS
 70
0
 71
3
 72
37
 73
33
 74
0
 42
0.0000001
 43
0.0000001
 44
0.0000000001
 40
0.0
 40
0.0
 40
0.0
 40
0.0
 40
0.0007839853
 40
0.0015454347
 40
0.0023196012
 40
0.0031395026
 40
0.0050154885
 40
0.0073258199
 40
0.0101445223
 40
0.0135084058
 40
0.0174359179
 40
0.0219360992
 40
0.027012908
 40
0.0326674323
 40
0.0457062506
 40
0.0610389269
 40
0.0786463493
 40
0.0985012246
 40
0.1205439387
 40
0.1447061674
 40
0.1709192787
 40
0.199114506
 40
0.2292230598
 40
0.2949052722
 40
0.3673849672
 40
0.4459537588
 40
0.5298745978
 40
0.6184153521
 40
0.7107831406
 40
0.8059144067
 40
0.9026822375
 40
1.0
 40
1.0
 40
1.0
 40
1.0
 10
9.0450594515
 20
3.6081330386
 30
0.0
 10
9.0450673149
 20
3.6081330386
 30
0.0
 10
9.045082872
 20
3.6081316051
 30
0.0
 10
9.0451052412
 20
3.6081246096
 30
0.0
 10
9.0451259408
 20
3.6081128773
 30
0.0
 10
9.0451524764
 20
3.6080900674
 30
0.0
 10
9.0451814904
 20
3.6080482388
 30
0.0
 10
9.0452089468
 20
3.6079833154
 30
0.0
 10
9.0452318436
 20
3.6079010943
 30
0.0
 10
9.0452507142
 20
3.6078013897
 30
0.0
 10
9.0452661026
 20
3.6076840817
 30
0.0
 10
9.045278479
 20
3.6075491762
 30
0.0
 10
9.0452883401
 20
3.6073967105
 30
0.0
 10
9.0452992911
 20
3.6071585391
 30
0.0
 10
9.0453085453
 20
3.6068173659
 30
0.0
 10
9.045317495
 20
3.6063562902
 30
0.0
 10
9.0453286421
 20
3.6058268712
 30
0.0
 10
9.0453458608
 20
3.6052302812
 30
0.0
 10
9.0453680838
 20
3.6045680748
 30
0.0
 10
9.0453945046
 20
3.6038422037
 30
0.0
 10
9.0454242176
 20
3.6030547033
 30
0.0
 10
9.0454563367
 20
3.6022076098
 30
0.0
 10
9.0455025456
 20
3.6009648923
 30
0.0
 10
9.0455612599
 20
3.5992781604
 30
0.0
 10
9.0456249227
 20
3.5971052747
 30
0.0
 10
9.0456766069
 20
3.5947490782
 30
0.0
 10
9.0457091129
 20
3.5922314226
 30
0.0
 10
9.0457150759
 20
3.5895751261
 30
0.0
 10
9.0456878301
 20
3.5868065678
 30
0.0
 10
9.0456615607
 20
3.5839554881
 30
0.0
 10
9.0456696869
 20
3.5810545517
 30
0.0
 10
9.0457205657
 20
3.5791081957
 30
0.0
 10
9.0457633033
 20
3.5781330372
 30
0.0
  0
SPLINE
  5
30A
100
AcDbEntity
  8
0
100
AcDbSpline
 62
9
  6
CONTINUOUS
 70
0
 71
3
 72
21
 73
17
 74
0
 42
0.0000001
 43
0.0000001
 44
0.0000000001
 40
0.0
 40
0.0
 40
0.0
 40
0.0
 40
0.1240302964
 40
0.1863167117
 40
0.2486866927
 40
0.3110872854
 40
0.3734770312
 40
0.4358651835
 40
0.4982842478
 40
0.5607626669
 40
0.6233280122
 40
0.6860101409
 40
0.7488126197
 40
0.8116848011
 40
0.8745630905
 40
1.0
 40
1.0
 40
1.0
 40
1.0
 10
3.8260517254
 20
5.9041171465
 30
0.0
 10
3.8260517254
 20
5.9054788666
 30
0.0
 10
3.8259043692
 20
5.9075281001
 30
0.0
 10
3.8254258155
 20
5.9102175883
 30
0.0
 10
3.8249261593
 20
5.9122114299
 30
0.0
 10
3.82428844
 20
5.9141665234
 30
0.0
 10
3.8235139593
 20
5.9160718895
 30
0.0
 10
3.8226067812
 20
5.917917946
 30
0.0
 10
3.8215721781
 20
5.9196968293
 30
0.0
 10
3.8204149071
 20
5.9214008081
 30
0.0
 10
3.8191398853
 20
5.923022252
 30
0.0
 10
3.8177519385
 20
5.9245530002
 30
0.0
 10
3.8162579796
 20
5.9259852139
 30
0.0
 10
3.8146674015
 20
5.9273128882
 30
0.0
 10
3.8124335554
 20
5.9289324201
 30
0.0
 10
3.8106370477
 20
5.9299731071
 30
0.0
 10
3.8094000446
 20
5.9305784185
 30
0.0
  0
LINE
  5
30B
100
AcDbEntity
  8
0
100
AcDbLine
 62
9
  6
CONTINUOUS
 10
1.5042332625
 20
5.9052056603
 11
1.4960517254
 21
5.9041171464
  0
SPLINE
  5
30C
100
AcDbEntity
  8
0
100
AcDbSpline
 62
9
  6
CONTINUOUS
 70
0
 71
3
 72
18
 73
14
 74
0
 42
0.0000001
 43
0.0000001
 44
0.0000000001
 40
0.0
 40
0.0
 40
0.0
 40
0.0
 40
0.1249996081
 40
0.1874995832
 40
0.2499995587
 40
0.3124995935
 40
0.3749996329
 40
0.4374996565
 40
0.4999997294
 40
0.6249996494
 40
0.7499995289
 40
0.8749998696
 40
1.0
 40
1.0
 40
1.0
 40
1.0
 10
1.5460517865
 20
5.9067876726
 30
0.0
 10
1.544307665
 20
5.9067876538
 30
0.0
 10
1.5416914577
 20
5.9067764959
 30
0.0
 10
1.5382034236
 20
5.9067370208
 30
0.0
 10
1.5355875606
 20
5.9066950034
 30
0.0
 10
1.5329719175
 20
5.9066410466
 30
0.0
 10
1.530356538
 20
5.9065755055
 30
0.0
 10
1.5277414916
 20
5.9064977288
 30
0.0
 10
1.5242553096
 20
5.906377198
 30
0.0
 10
1.519898718
 20
5.9061952397
 30
0.0
 10
1.514673235
 20
5.9059248588
 30
0.0
 10
1.5094508695
 20
5.9055996569
 30
0.0
 10
1.5059718926
 20
5.9053440462
 30
0.0
 10
1.5042332625
 20
5.9052056603
 30
0.0
  0
SPLINE
  5
30D
100
AcDbEntity
  8
0
100
AcDbSpline
 62
9
  6
CONTINUOUS
 70
0
 71
3
 72
11
 73
7
 74
0
 42
0.0000001
 43
0.0000001
 44
0.0000000001
 40
0.0
 40
0.0
 40
0.0
 40
0.0
 40
0.2499999242
 40
0.4999998341
 40
0.7499998942
 40
1.0
 40
1.0
 40
1.0
 40
1.0
 10
3.7578701303
 20
5.9052056649
 30
0.0
 10
3.7543929349
 20
5.9054825405
 30
0.0
 10
3.7474316142
 20
5.905951488
 30
0.0
 10
3.7369777592
 20
5.9064395353
 30
0.0
 10
3.7265164415
 20
5.9067248853
 30
0.0
 10
3.7195398735
 20
5.9067878546
 30
0.0
 10
3.7160516697
 20
5.9067876726
 30
0.0
  0
LINE
  5
30E
100
AcDbEntity
  8
0
100
AcDbLine
 62
9
  6
CONTINUOUS
 10
3.7660517254
 20
5.9041171857
 11
3.7578701303
 21
5.9052056649
  0
SPLINE
  5
30F
100
AcDbEntity
  8
0
100
AcDbSpline
 62
9
  6
CONTINUOUS
 70
0
 71
3
 72
46
 73
42
 74
0
 42
0.0000001
 43
0.0000001
 44
0.0000000001
 40
0.0
 40
0.0
 40
0.0
 40
0.0
 40
0.0312626765
 40
0.0625254034
 40
0.078156865
 40
0.0937883132
 40
0.109419629
 40
0.1250506046
 40
0.1406809343
 40
0.1563103529
 40
0.1719386759
 40
0.1875657696
 40
0.203191545
 40
0.2188159544
 40
0.2500606677
 40
0.2656810539
 40
0.2734907872
 40
0.2813002298
 40
0.2891093955
 40
0.2969183005
 40
0.3047269621
 40
0.3125353981
 40
0.3281516679
 40
0.3437672804
 40
0.3593824134
 40
0.3749972549
 40
0.3906119998
 40
0.4062268397
 40
0.437457558
 40
0.4686908775
 40
0.4999273957
 40
0.5311669724
 40
0.5624094125
 40
0.5936545434
 40
0.6249021803
 40
0.6874039144
 40
0.7499134607
 40
0.8124293466
 40
0.8749500731
 40
0.93747419
 40
1.0
 40
1.0
 40
1.0
 40
1.0
 10
2.1466097764
 20
2.9022165368
 30
0.0
 10
2.1860202213
 20
2.89766242
 30
0.0
 10
2.2647872786
 20
2.8880832235
 30
0.0
 10
2.3631184208
 20
2.8751093678
 30
0.0
 10
2.4417159157
 20
2.8642369831
 30
0.0
 10
2.5006331832
 20
2.8558626108
 30
0.0
 10
2.5595220266
 20
2.84729521
 30
0.0
 10
2.6183848708
 20
2.8385607824
 30
0.0
 10
2.677224562
 20
2.8296880202
 30
0.0
 10
2.7360444078
 20
2.8207070268
 30
0.0
 10
2.7948475752
 20
2.8116444724
 30
0.0
 10
2.8536375797
 20
2.8025270958
 30
0.0
 10
2.9124182183
 20
2.7933817983
 30
0.0
 10
2.9907817211
 20
2.7811866537
 30
0.0
 10
3.0691462287
 20
2.7690421884
 30
0.0
 10
3.1377315794
 20
2.7585514881
 30
0.0
 10
3.1769272842
 20
2.7526106312
 30
0.0
 10
3.2063268696
 20
2.7481848608
 30
0.0
 10
3.2357302927
 20
2.7437917596
 30
0.0
 10
3.2651380294
 20
2.7394343787
 30
0.0
 10
3.2945502157
 20
2.7351134965
 30
0.0
 10
3.3337720332
 20
2.7294018315
 30
0.0
 10
3.3828112048
 20
2.7223565156
 30
0.0
 10
3.4416778469
 20
2.7140524209
 30
0.0
 10
3.5005639206
 20
2.7059004301
 30
0.0
 10
3.5594701326
 20
2.6979034343
 30
0.0
 10
3.618397001
 20
2.6900628702
 30
0.0
 10
3.6969952918
 20
2.6798197946
 30
0.0
 10
3.7952994776
 20
2.6674166871
 30
0.0
 10
3.9133531242
 20
2.6531906527
 30
0.0
 10
4.0314968855
 20
2.6396341426
 30
0.0
 10
4.149729138
 20
2.6267646956
 30
0.0
 10
4.2680469381
 20
2.6145995481
 30
0.0
 10
4.3864470735
 20
2.6031559858
 30
0.0
 10
4.5444239062
 20
2.5888827728
 30
0.0
 10
4.7420818698
 20
2.5729324542
 30
0.0
 10
4.9795265004
 20
2.5569579116
 30
0.0
 10
5.2171952871
 20
2.5442879572
 30
0.0
 10
5.4550419353
 20
2.535061683
 30
0.0
 10
5.6930131724
 20
2.5294172003
 30
0.0
 10
5.851705745
 20
2.5281330257
 30
0.0
 10
5.9310517254
 20
2.5281330386
 30
0.0
  0
SPLINE
  5
310
100
AcDbEntity
  8
0
100
AcDbSpline
 62
9
  6
CONTINUOUS
 70
0
 71
3
 72
37
 73
33
 74
0
 42
0.0000001
 43
0.0000001
 44
0.0000000001
 40
0.0
 40
0.0
 40
0.0
 40
0.0
 40
0.0312318875
 40
0.0624700975
 40
0.0937069556
 40
0.1249438829
 40
0.1874104973
 40
0.2498831403
 40
0.2811285826
 40
0.3123754079
 40
0.3436234921
 40
0.374872742
 40
0.4061230899
 40
0.4373744699
 40
0.4686268233
 40
0.4998800975
 40
0.5311342339
 40
0.5623891791
 40
0.5936448617
 40
0.6249012186
 40
0.6561581606
 40
0.6874156254
 40
0.7186735159
 40
0.7499317297
 40
0.7811901321
 40
0.81244877
 40
0.8437076617
 40
0.8749663379
 40
0.9062243074
 40
0.9374831405
 40
0.9687439704
 40
1.0
 40
1.0
 40
1.0
 40
1.0
 10
3.1949492443
 20
3.1601850071
 30
0.0
 10
3.1886991835
 20
3.1612168815
 30
0.0
 10
3.1762395107
 20
3.1635434205
 30
0.0
 10
3.1577136097
 20
3.167813002
 30
0.0
 10
3.139381612
 20
3.1728568543
 30
0.0
 10
3.1152458308
 20
3.1806000861
 30
0.0
 10
3.0857146212
 20
3.192168881
 30
0.0
 10
3.0572560866
 20
3.2061742746
 30
0.0
 10
3.0352582479
 20
3.2187775309
 30
0.0
 10
3.0191668541
 20
3.2289158513
 30
0.0
 10
3.0035147609
 20
3.2397208442
 30
0.0
 10
2.9883287974
 20
3.2511730384
 30
0.0
 10
2.9736362584
 20
3.2632527763
 30
0.0
 10
2.9594624904
 20
3.2759381696
 30
0.0
 10
2.9458329361
 20
3.2892074052
 30
0.0
 10
2.9327709951
 20
3.3030365151
 30
0.0
 10
2.9203001541
 20
3.317401634
 30
0.0
 10
2.9084416958
 20
3.3322769153
 30
0.0
 10
2.89721699
 20
3.3476366052
 30
0.0
 10
2.8866450702
 20
3.3634531763
 30
0.0
 10
2.8767450251
 20
3.3796991669
 30
0.0
 10
2.8675335372
 20
3.3963455877
 30
0.0
 10
2.8590272669
 20
3.4133634596
 30
0.0
 10
2.8512404603
 20
3.4307225311
 30
0.0
 10
2.8441871942
 20
3.4483925304
 30
0.0
 10
2.8378792111
 20
3.4663422366
 30
0.0
 10
2.8323279703
 20
3.4845402672
 30
0.0
 10
2.8275426127
 20
3.5029543907
 30
0.0
 10
2.823531857
 20
3.5215525637
 30
0.0
 10
2.8203021238
 20
3.5403026844
 30
0.0
 10
2.8178593477
 20
3.5591707214
 30
0.0
 10
2.8167578771
 20
3.5718072869
 30
0.0
 10
2.8163397428
 20
3.5781330477
 30
0.0
  0
SPLINE
  5
311
100
AcDbEntity
  8
0
100
AcDbSpline
 62
9
  6
CONTINUOUS
 70
0
 71
3
 72
61
 73
57
 74
0
 42
0.0000001
 43
0.0000001
 44
0.0000000001
 40
0.0
 40
0.0
 40
0.0
 40
0.0
 40
0.0625304535
 40
0.1250600807
 40
0.1875879655
 40
0.2501133515
 40
0.3126354117
 40
0.3751533461
 40
0.4376663567
 40
0.5001736524
 40
0.5314249448
 40
0.5626745122
 40
0.5939222575
 40
0.6251680839
 40
0.656411895
 40
0.6876535947
 40
0.7188930872
 40
0.7501302771
 40
0.7657479829
 40
0.7813651229
 40
0.7969817848
 40
0.8125980629
 40
0.8282140556
 40
0.8438298636
 40
0.8594455892
 40
0.8750613355
 40
0.8906772053
 40
0.8984852185
 40
0.9062933006
 40
0.9141014638
 40
0.9219097205
 40
0.9297180825
 40
0.9375265615
 40
0.9453351689
 40
0.953143916
 40
0.9609528134
 40
0.9648573218
 40
0.9687618716
 40
0.9726664642
 40
0.9765711006
 40
0.9804757822
 40
0.9824281403
 40
0.98438051
 40
0.9863328916
 40
0.9873090869
 40
0.9882852852
 40
0.9892614866
 40
0.990237691
 40
0.9912138985
 40
0.9921901086
 40
0.9931663227
 40
0.9941425457
 40
0.9951187704
 40
0.9960950017
 40
0.9980474911
 40
1.0
 40
1.0
 40
1.0
 40
1.0
 10
5.9310517254
 20
3.0081330386
 30
0.0
 10
5.8739112565
 20
3.0081330352
 30
0.0
 10
5.7596304897
 20
3.0086378397
 30
0.0
 10
5.5882245781
 20
3.0108481048
 30
0.0
 10
5.4168469157
 20
3.0144496845
 30
0.0
 10
5.2455094594
 20
3.0193804761
 30
0.0
 10
5.0742223941
 20
3.0255781482
 30
0.0
 10
4.9029946078
 20
3.0329802083
 30
0.0
 10
4.7318336719
 20
3.0415240784
 30
0.0
 10
4.5892567227
 20
3.0495435258
 30
0.0
 10
4.475233893
 20
3.0564674694
 30
0.0
 10
4.3897389301
 20
3.0619066494
 30
0.0
 10
4.3042644993
 20
3.0675843703
 30
0.0
 10
4.2188109858
 20
3.0734928308
 30
0.0
 10
4.1333787258
 20
3.0796242369
 30
0.0
 10
4.0479679896
 20
3.0859708022
 30
0.0
 10
3.9625789937
 20
3.0925247569
 30
0.0
 10
3.8914383737
 20
3.0981528157
 30
0.0
 10
3.8345367824
 20
3.1027512335
 30
0.0
 10
3.7918667402
 20
3.1062472838
 30
0.0
 10
3.7492018405
 20
3.109789798
 30
0.0
 10
3.7065417938
 20
3.1133777936
 30
0.0
 10
3.6638863031
 20
3.1170103646
 30
0.0
 10
3.6212350588
 20
3.1206865794
 30
0.0
 10
3.5785877447
 20
3.1244055171
 30
0.0
 10
3.5359440402
 20
3.1281662551
 30
0.0
 10
3.5004104761
 20
3.1313342596
 30
0.0
 10
3.4719851763
 20
3.1338886366
 30
0.0
 10
3.4506668303
 20
3.1358143008
 30
0.0
 10
3.4293491449
 20
3.137749725
 30
0.0
 10
3.4080320806
 20
3.1396947944
 30
0.0
 10
3.3867155982
 20
3.141649394
 30
0.0
 10
3.3653996594
 20
3.1436134088
 30
0.0
 10
3.3440842261
 20
3.1455867239
 30
0.0
 10
3.3227692613
 20
3.1475692243
 30
0.0
 10
3.3050072409
 20
3.1492288578
 30
0.0
 10
3.2907978297
 20
3.1505610417
 30
0.0
 10
3.2801408117
 20
3.1515624085
 30
0.0
 10
3.2694838841
 20
3.1525659872
 30
0.0
 10
3.2588270419
 20
3.1535717541
 30
0.0
 10
3.2499464369
 20
3.1544117333
 30
0.0
 10
3.2428419877
 20
3.155084749
 30
0.0
 10
3.2375136617
 20
3.1555901321
 30
0.0
 10
3.2330734032
 20
3.1560116383
 30
0.0
 10
3.2295212017
 20
3.1563490713
 30
0.0
 10
3.2268570726
 20
3.156602509
 30
0.0
 10
3.2241929474
 20
3.1568560764
 30
0.0
 10
3.2215287871
 20
3.1571093616
 30
0.0
 10
3.2188646195
 20
3.1573626555
 30
0.0
 10
3.2162004359
 20
3.1576158735
 30
0.0
 10
3.213536568
 20
3.1578725609
 30
0.0
 10
3.2108734624
 20
3.1581372146
 30
0.0
 10
3.2082116778
 20
3.158415115
 30
0.0
 10
3.2046653548
 20
3.1588112175
 30
0.0
 10
3.2002391802
 20
3.1593657755
 30
0.0
 10
3.1967096221
 20
3.1598943794
 30
0.0
 10
3.1949492443
 20
3.1601850071
 30
0.0
  0
SPLINE
  5
312
100
AcDbEntity
  8
0
100
AcDbSpline
 62
9
  6
CONTINUOUS
 70
0
 71
3
 72
48
 73
44
 74
0
 42
0.0000001
 43
0.0000001
 44
0.0000000001
 40
0.0
 40
0.0
 40
0.0
 40
0.0
 40
0.0628555442
 40
0.0942103548
 40
0.1255129272
 40
0.1567601269
 40
0.1879491034
 40
0.2190764577
 40
0.2501382996
 40
0.3120483605
 40
0.3736435872
 40
0.4043111748
 40
0.4348835687
 40
0.4653547834
 40
0.4957180586
 40
0.5259674408
 40
0.5560965731
 40
0.5861013215
 40
0.601056789
 40
0.6159810295
 40
0.6457358041
 40
0.6605715738
 40
0.6753820174
 40
0.7049423685
 40
0.7197090836
 40
0.7344791603
 40
0.7492662463
 40
0.7640894641
 40
0.7939362859
 40
0.8090397024
 40
0.8243205392
 40
0.8398348993
 40
0.8556484027
 40
0.8636903192
 40
0.8718340895
 40
0.8884594579
 40
0.905594667
 40
0.9143721284
 40
0.9232960711
 40
0.9415926463
 40
0.9604934991
 40
0.9799778197
 40
1.0
 40
1.0
 40
1.0
 40
1.0
 10
2.0460517254
 20
3.0733836748
 30
0.0
 10
2.0460517173
 20
3.0691684618
 30
0.0
 10
2.0460975967
 20
3.0628503684
 30
0.0
 10
2.0462616481
 20
3.054434757
 30
0.0
 10
2.0464385526
 20
3.0481397337
 30
0.0
 10
2.0466728688
 20
3.0418577092
 30
0.0
 10
2.0469678509
 20
3.0355899939
 30
0.0
 10
2.0473273376
 20
3.029338072
 30
0.0
 10
2.0478979499
 20
3.0210351799
 30
0.0
 10
2.0487937343
 20
3.0107072357
 30
0.0
 10
2.0499737591
 20
3.0004338976
 30
0.0
 10
2.051116404
 20
2.9922755936
 30
0.0
 10
2.0520800758
 20
2.986200849
 30
0.0
 10
2.053161236
 20
2.980166569
 30
0.0
 10
2.054371879
 20
2.9741789217
 30
0.0
 10
2.0557249268
 20
2.9682452107
 30
0.0
 10
2.0572368786
 20
2.9623746666
 30
0.0
 10
2.0586458649
 20
2.9575390698
 30
0.0
 10
2.0598735532
 20
2.9537151173
 30
0.0
 10
2.0611693222
 20
2.9499314689
 30
0.0
 10
2.062580372
 20
2.9461963487
 30
0.0
 10
2.0641224237
 20
2.9425229387
 30
0.0
 10
2.0657554955
 20
2.9389034873
 30
0.0
 10
2.0675402663
 20
2.9353584814
 30
0.0
 10
2.0695002245
 20
2.9319130671
 30
0.0
 10
2.0710644093
 20
2.9293846083
 30
0.0
 10
2.072731904
 20
2.9269181762
 30
0.0
 10
2.0751084876
 20
2.9237154858
 30
0.0
 10
2.077729645
 20
2.920671078
 30
0.0
 10
2.0806160813
 20
2.9178427341
 30
0.0
 10
2.082943313
 20
2.9158249502
 30
0.0
 10
2.0854345908
 20
2.9139335586
 30
0.0
 10
2.087643428
 20
2.9124830377
 30
0.0
 10
2.0894968183
 20
2.911400631
 30
0.0
 10
2.0914355137
 20
2.910359041
 30
0.0
 10
2.0939811832
 20
2.9091628053
 30
0.0
 10
2.0966444197
 20
2.9081339121
 30
0.0
 10
2.0988633994
 20
2.9074020262
 30
0.0
 10
2.1011799031
 20
2.9067212064
 30
0.0
 10
2.1041872852
 20
2.9059899109
 30
0.0
 10
2.1079275371
 20
2.9053022174
 30
0.0
 10
2.1118120628
 20
2.9047885827
 30
0.0
 10
2.1144524326
 20
2.9045592144
 30
0.0
 10
2.1157921871
 20
2.9044699375
 30
0.0
  0
SPLINE
  5
313
100
AcDbEntity
  8
0
100
AcDbSpline
 62
9
  6
CONTINUOUS
 70
0
 71
3
 72
52
 73
48
 74
0
 42
0.0000001
 43
0.0000001
 44
0.0000000001
 40
0.0
 40
0.0
 40
0.0
 40
0.0
 40
0.0650688028
 40
0.1299012218
 40
0.1944714787
 40
0.2266485888
 40
0.2587484317
 40
0.290766203
 40
0.3226959162
 40
0.3545322643
 40
0.3862695427
 40
0.4494136259
 40
0.480807456
 40
0.5120685416
 40
0.5431877293
 40
0.5741546348
 40
0.6049556305
 40
0.6202914368
 40
0.6355820581
 40
0.6508250495
 40
0.6660186607
 40
0.681162013
 40
0.6962549655
 40
0.7112960221
 40
0.7262836458
 40
0.7412181764
 40
0.7561020103
 40
0.7857198127
 40
0.8004625369
 40
0.8151707523
 40
0.8298558575
 40
0.8445308344
 40
0.8592184763
 40
0.866578096
 40
0.8739535859
 40
0.8887629398
 40
0.9036874619
 40
0.9187913826
 40
0.9264362581
 40
0.9341540233
 40
0.9419556599
 40
0.9498541306
 40
0.9578643517
 40
0.9660013918
 40
0.9742762945
 40
0.982697538
 40
1.0
 40
1.0
 40
1.0
 40
1.0
 10
2.0460517254
 20
3.1417224155
 30
0.0
 10
2.0460517016
 20
3.1457931156
 30
0.0
 10
2.0461021431
 20
3.1539198495
 30
0.0
 10
2.0463470453
 20
3.1660839058
 30
0.0
 10
2.0467066503
 20
3.1761864432
 30
0.0
 10
2.047099877
 20
3.184237616
 30
0.0
 10
2.0474499016
 20
3.1902517259
 30
0.0
 10
2.0478588661
 20
3.1962466153
 30
0.0
 10
2.0483311645
 20
3.2022203242
 30
0.0
 10
2.0488709401
 20
3.2081707354
 30
0.0
 10
2.0496850533
 20
3.2160564044
 30
0.0
 10
2.0506560385
 20
3.2238976641
 30
0.0
 10
2.0518106619
 20
3.2316828023
 30
0.0
 10
2.0527747195
 20
3.237469906
 30
0.0
 10
2.0538471239
 20
3.2432108067
 30
0.0
 10
2.0550379472
 20
3.2488990003
 30
0.0
 10
2.0561424782
 20
3.2535950658
 30
0.0
 10
2.0570994281
 20
3.2573170206
 30
0.0
 10
2.0578546142
 20
3.2600855731
 30
0.0
 10
2.0586510431
 20
3.2628332973
 30
0.0
 10
2.059491293
 20
3.2655583207
 30
0.0
 10
2.0603780392
 20
3.2682587123
 30
0.0
 10
2.0613136552
 20
3.2709324787
 30
0.0
 10
2.0623017794
 20
3.2735769338
 30
0.0
 10
2.0633466295
 20
3.2761888511
 30
0.0
 10
2.0644523354
 20
3.2787650016
 30
0.0
 10
2.0660100094
 20
3.2821416143
 30
0.0
 10
2.0677091509
 20
3.2854390234
 30
0.0
 10
2.0695759274
 20
3.288629033
 30
0.0
 10
2.0710625517
 20
3.2909567286
 30
0.0
 10
2.0726446955
 20
3.2932156105
 30
0.0
 10
2.0743324483
 20
3.2953953306
 30
0.0
 10
2.0758338205
 20
3.2971358961
 30
0.0
 10
2.0770953493
 20
3.2984766317
 30
0.0
 10
2.0784020384
 20
3.299784159
 30
0.0
 10
2.0801219597
 20
3.3013463804
 30
0.0
 10
2.0823307897
 20
3.3030795007
 30
0.0
 10
2.0842968461
 20
3.304384597
 30
0.0
 10
2.085949363
 20
3.3053353421
 30
0.0
 10
2.0872367338
 20
3.3060018325
 30
0.0
 10
2.0885677088
 20
3.3066152825
 30
0.0
 10
2.0899430741
 20
3.3071723018
 30
0.0
 10
2.091363589
 20
3.3076691556
 30
0.0
 10
2.0928290942
 20
3.308103133
 30
0.0
 10
2.0943377481
 20
3.3084761824
 30
0.0
 10
2.096422975
 20
3.3088977952
 30
0.0
 10
2.0980188723
 20
3.3091203147
 30
0.0
 10
2.0990954991
 20
3.3092323551
 30
0.0
  0
SPLINE
  5
314
100
AcDbEntity
  8
0
100
AcDbSpline
 62
9
  6
CONTINUOUS
 70
0
 71
3
 72
15
 73
11
 74
0
 42
0.0000001
 43
0.0000001
 44
0.0000000001
 40
0.0
 40
0.0
 40
0.0
 40
0.0
 40
0.1102004469
 40
0.2265056308
 40
0.3480679875
 40
0.4739140359
 40
0.602985499
 40
0.7342646078
 40
0.8668513892
 40
1.0
 40
1.0
 40
1.0
 40
1.0
 10
2.0990954991
 20
3.3092323551
 30
0.0
 10
2.1008466218
 20
3.3094145901
 30
0.0
 10
2.104445533
 20
3.3097924424
 30
0.0
 10
2.1099743202
 20
3.3103882693
 30
0.0
 10
2.1157486412
 20
3.3110381542
 30
0.0
 10
2.1217208664
 20
3.3117522447
 30
0.0
 10
2.1278403804
 20
3.3125402568
 30
0.0
 10
2.13405749
 20
3.3134109325
 30
0.0
 10
2.1403274864
 20
3.3143701349
 30
0.0
 10
2.1445149536
 20
3.3150703234
 30
0.0
 10
2.1466104019
 20
3.3154365052
 30
0.0
  0
LINE
  5
315
100
AcDbEntity
  8
0
100
AcDbLine
 62
9
  6
CONTINUOUS
 10
2.1430804581
 20
2.872415064
 11
2.1466097789
 21
2.9022165365
  0
SPLINE
  5
316
100
AcDbEntity
  8
0
100
AcDbSpline
 62
9
  6
CONTINUOUS
 70
0
 71
3
 72
32
 73
28
 74
0
 42
0.0000001
 43
0.0000001
 44
0.0000000001
 40
0.0
 40
0.0
 40
0.0
 40
0.0
 40
0.0160395381
 40
0.0323512054
 40
0.0491479551
 40
0.0666186626
 40
0.0849256551
 40
0.1042050744
 40
0.1245690863
 40
0.1461089862
 40
0.1688952561
 40
0.1929684382
 40
0.2183489956
 40
0.2450438959
 40
0.273049554
 40
0.3023541257
 40
0.3329392925
 40
0.3647816534
 40
0.3978508821
 40
0.4321012912
 40
0.5039282078
 40
0.579821811
 40
0.6593058127
 40
0.7418394569
 40
0.8266748633
 40
0.9130011267
 40
1.0
 40
1.0
 40
1.0
 40
1.0
 10
2.1234785269
 20
2.874661631
 30
0.0
 10
2.1233047843
 20
2.8746813663
 30
0.0
 10
2.1229565976
 20
2.8747446554
 30
0.0
 10
2.1224449609
 20
2.8749082584
 30
0.0
 10
2.1219431077
 20
2.875139863
 30
0.0
 10
2.121452504
 20
2.8754383957
 30
0.0
 10
2.1209743557
 20
2.8758028621
 30
0.0
 10
2.1205098649
 20
2.8762323453
 30
0.0
 10
2.1200602133
 20
2.8767259996
 30
0.0
 10
2.1196266283
 20
2.8772830118
 30
0.0
 10
2.1192104473
 20
2.8779023879
 30
0.0
 10
2.1188122015
 20
2.8785823351
 30
0.0
 10
2.1184325555
 20
2.8793210185
 30
0.0
 10
2.1180722107
 20
2.8801165615
 30
0.0
 10
2.1177318871
 20
2.8809670842
 30
0.0
 10
2.1174123153
 20
2.8818706985
 30
0.0
 10
2.1171142323
 20
2.8828255098
 30
0.0
 10
2.1168383931
 20
2.8838295871
 30
0.0
 10
2.1165855681
 20
2.8848808321
 30
0.0
 10
2.1162747396
 20
2.8863657816
 30
0.0
 10
2.1159499076
 20
2.8883238253
 30
0.0
 10
2.1156638752
 20
2.890785042
 30
0.0
 10
2.1154792604
 20
2.8933729382
 30
0.0
 10
2.1153993954
 20
2.896063602
 30
0.0
 10
2.1154228192
 20
2.8988298753
 30
0.0
 10
2.1155484733
 20
2.9016420502
 30
0.0
 10
2.1156995395
 20
2.9035260276
 30
0.0
 10
2.1157921713
 20
2.9044699375
 30
0.0
  0
LINE
  5
317
100
AcDbEntity
  8
0
100
AcDbLine
 62
9
  6
CONTINUOUS
 10
2.8469784502
 20
3.5801153385
 11
2.816340162
 21
3.5781330477
  0
SPLINE
  5
318
100
AcDbEntity
  8
0
100
AcDbSpline
 62
9
  6
CONTINUOUS
 70
0
 71
3
 72
35
 73
31
 74
0
 42
0.0000001
 43
0.0000001
 44
0.0000000001
 40
0.0
 40
0.0
 40
0.0
 40
0.0
 40
0.0004926989
 40
0.00103045
 40
0.0016480182
 40
0.0023684832
 40
0.0041685372
 40
0.0064959453
 40
0.0093765129
 40
0.0128221587
 40
0.0168385069
 40
0.02142798
 40
0.0265912172
 40
0.0323277914
 40
0.0455157945
 40
0.0609790116
 40
0.0787002651
 40
0.0986529277
 40
0.1207792199
 40
0.1450130433
 40
0.1712877602
 40
0.2296914241
 40
0.2954519828
 40
0.3679945368
 40
0.4466060421
 40
0.5305383796
 40
0.61904293
 40
0.7113113958
 40
0.8062976457
 40
1.0
 40
1.0
 40
1.0
 40
1.0
 10
3.2010517365
 20
3.1897851644
 30
0.0
 10
3.2010468271
 20
3.1897859741
 30
0.0
 10
3.2010362253
 20
3.1897859823
 30
0.0
 10
3.2010201157
 20
3.1897811587
 30
0.0
 10
3.201003509
 20
3.1897718087
 30
0.0
 10
3.2009787177
 20
3.1897519087
 30
0.0
 10
3.2009465931
 20
3.1897145411
 30
0.0
 10
3.2009075664
 20
3.189655425
 30
0.0
 10
3.2008655458
 20
3.1895787024
 30
0.0
 10
3.2008205748
 20
3.1894843955
 30
0.0
 10
3.2007727009
 20
3.1893724696
 30
0.0
 10
3.2007219781
 20
3.1892429803
 30
0.0
 10
3.2006684501
 20
3.1890959848
 30
0.0
 10
3.2005896797
 20
3.1888658163
 30
0.0
 10
3.2004853492
 20
3.1885345258
 30
0.0
 10
3.2003545957
 20
3.1880848099
 30
0.0
 10
3.200213517
 20
3.187567034
 30
0.0
 10
3.200062515
 20
3.186982282
 30
0.0
 10
3.199901949
 20
3.1863321141
 30
0.0
 10
3.1997322686
 20
3.1856184637
 30
0.0
 10
3.1994856822
 20
3.1845465515
 30
0.0
 10
3.1991593035
 20
3.1830627082
 30
0.0
 10
3.1987509717
 20
3.1811185686
 30
0.0
 10
3.1983174172
 20
3.1789712661
 30
0.0
 10
3.1978625977
 20
3.1766410935
 30
0.0
 10
3.1973908657
 20
3.1741500227
 30
0.0
 10
3.1969067163
 20
3.1715209672
 30
0.0
 10
3.1964151252
 20
3.168779803
 30
0.0
 10
3.1957521488
 20
3.1649900738
 30
0.0
 10
3.1952670745
 20
3.1621152099
 30
0.0
 10
3.1949492445
 20
3.1601850071
 30
0.0
  0
SPLINE
  5
319
100
AcDbEntity
  8
0
100
AcDbSpline
 62
9
  6
CONTINUOUS
 70
0
 71
3
 72
25
 73
21
 74
0
 42
0.0000001
 43
0.0000001
 44
0.0000000001
 40
0.0
 40
0.0
 40
0.0
 40
0.0
 40
0.0776438078
 40
0.1546554615
 40
0.2305132344
 40
0.3047093588
 40
0.3767990305
 40
0.4465050367
 40
0.5136080687
 40
0.5779256944
 40
0.6393437129
 40
0.6978607859
 40
0.7535574535
 40
0.8066097298
 40
0.8573201302
 40
0.9061041316
 40
0.9299398602
 40
0.9534844814
 40
0.9768116281
 40
1.0
 40
1.0
 40
1.0
 40
1.0
 10
2.0990955213
 20
3.3092323551
 30
0.0
 10
2.0989953782
 20
3.3101346174
 30
0.0
 10
2.0988457346
 20
3.3119377283
 30
0.0
 10
2.098771879
 20
3.3146331849
 30
0.0
 10
2.0988494613
 20
3.3172883633
 30
0.0
 10
2.0990789454
 20
3.3198771181
 30
0.0
 10
2.0994613986
 20
3.3223751507
 30
0.0
 10
2.0999914157
 20
3.3247613318
 30
0.0
 10
2.1006635587
 20
3.3270169962
 30
0.0
 10
2.1014726281
 20
3.3291241138
 30
0.0
 10
2.1024139426
 20
3.3310649757
 30
0.0
 10
2.103478795
 20
3.332824543
 30
0.0
 10
2.1046588578
 20
3.3343887281
 30
0.0
 10
2.1059463302
 20
3.3357434835
 30
0.0
 10
2.107332735
 20
3.3368734736
 30
0.0
 10
2.1085682163
 20
3.3376270836
 30
0.0
 10
2.1095869769
 20
3.3381048007
 30
0.0
 10
2.1103601852
 20
3.3383996519
 30
0.0
 10
2.1111462367
 20
3.3386327764
 30
0.0
 10
2.1116786975
 20
3.338746699
 30
0.0
 10
2.1119458422
 20
3.3387929325
 30
0.0
  0
LINE
  5
31A
100
AcDbEntity
  8
0
100
AcDbLine
 62
9
  6
CONTINUOUS
 10
2.1466097789
 20
3.3154364046
 11
2.1392873967
 21
3.3445502015
  0
SPLINE
  5
31B
100
AcDbEntity
  8
0
100
AcDbSpline
 62
9
  6
CONTINUOUS
 70
0
 71
3
 72
37
 73
33
 74
0
 42
0.0000001
 43
0.0000001
 44
0.0000000001
 40
0.0
 40
0.0
 40
0.0
 40
0.0
 40
0.0007839862
 40
0.0015454363
 40
0.0023196033
 40
0.0031395051
 40
0.0050154913
 40
0.0073258225
 40
0.0101445244
 40
0.0135084073
 40
0.0174359187
 40
0.0219360994
 40
0.0270129073
 40
0.0326674308
 40
0.0457062473
 40
0.0610389217
 40
0.0786463421
 40
0.0985012153
 40
0.1205439273
 40
0.1447061539
 40
0.170919263
 40
0.1991144882
 40
0.2292230399
 40
0.2949052486
 40
0.3673849406
 40
0.4459537303
 40
0.5298745686
 40
0.6184153239
 40
0.7107831151
 40
0.8059143865
 40
0.9026822258
 40
1.0
 40
1.0
 40
1.0
 40
1.0
 10
2.8170440146
 20
3.6081330386
 30
0.0
 10
2.8170361512
 20
3.6081330386
 30
0.0
 10
2.8170205941
 20
3.6081316051
 30
0.0
 10
2.8169982249
 20
3.6081246097
 30
0.0
 10
2.8169775252
 20
3.6081128773
 30
0.0
 10
2.8169509896
 20
3.6080900675
 30
0.0
 10
2.8169219756
 20
3.6080482389
 30
0.0
 10
2.8168945192
 20
3.6079833155
 30
0.0
 10
2.8168716224
 20
3.6079010945
 30
0.0
 10
2.8168527517
 20
3.60780139
 30
0.0
 10
2.8168373634
 20
3.607684082
 30
0.0
 10
2.816824987
 20
3.6075491765
 30
0.0
 10
2.8168151259
 20
3.6073967109
 30
0.0
 10
2.8168041749
 20
3.6071585396
 30
0.0
 10
2.8167949207
 20
3.6068173667
 30
0.0
 10
2.816785971
 20
3.6063562911
 30
0.0
 10
2.8167748239
 20
3.6058268724
 30
0.0
 10
2.8167576052
 20
3.6052302826
 30
0.0
 10
2.8167353822
 20
3.6045680765
 30
0.0
 10
2.8167089613
 20
3.6038422057
 30
0.0
 10
2.8166792483
 20
3.6030547057
 30
0.0
 10
2.8166471292
 20
3.6022076125
 30
0.0
 10
2.8166009203
 20
3.6009648956
 30
0.0
 10
2.816542206
 20
3.5992781644
 30
0.0
 10
2.8164785431
 20
3.5971052795
 30
0.0
 10
2.816426859
 20
3.5947490839
 30
0.0
 10
2.8163943529
 20
3.5922314291
 30
0.0
 10
2.8163883898
 20
3.5895751336
 30
0.0
 10
2.8164156353
 20
3.5868065761
 30
0.0
 10
2.8164419044
 20
3.5839554972
 30
0.0
 10
2.8164337782
 20
3.5810545615
 30
0.0
 10
2.8163828995
 20
3.579108206
 30
0.0
 10
2.816340162
 20
3.5781330477
 30
0.0
  0
LINE
  5
31C
100
AcDbEntity
  8
0
100
AcDbLine
 62
9
  6
CONTINUOUS
 10
3.7760517254
 20
6.0042556161
 11
3.7726202679
 21
6.0079698536
  0
SPLINE
  5
31D
100
AcDbEntity
  8
0
100
AcDbSpline
 62
9
  6
CONTINUOUS
 70
0
 71
3
 72
30
 73
26
 74
0
 42
0.0000001
 43
0.0000001
 44
0.0000000001
 40
0.0
 40
0.0
 40
0.0
 40
0.0
 40
0.019565376
 40
0.0394444113
 40
0.0597575429
 40
0.0806132288
 40
0.1021074494
 40
0.1243238436
 40
0.1473330694
 40
0.1711906621
 40
0.1959382757
 40
0.2216056864
 40
0.2482125422
 40
0.2757664927
 40
0.3336947624
 40
0.3953269763
 40
0.4605393917
 40
0.5291510588
 40
0.5646737803
 40
0.6009749594
 40
0.6757903829
 40
0.7533679771
 40
0.8334942614
 40
0.9158355771
 40
1.0
 40
1.0
 40
1.0
 40
1.0
 10
3.7726202679
 20
6.0079698536
 30
0.0
 10
3.7724398676
 20
6.0081369736
 30
0.0
 10
3.772062041
 20
6.0084589557
 30
0.0
 10
3.7714529816
 20
6.0088996762
 30
0.0
 10
3.7707986773
 20
6.0093017937
 30
0.0
 10
3.7700996525
 20
6.0096659845
 30
0.0
 10
3.7693563558
 20
6.0099930325
 30
0.0
 10
3.7685691952
 20
6.0102835483
 30
0.0
 10
3.7677389359
 20
6.0105390439
 30
0.0
 10
3.7668664262
 20
6.0107615083
 30
0.0
 10
3.7659524558
 20
6.0109528056
 30
0.0
 10
3.7649978227
 20
6.0111147867
 30
0.0
 10
3.7640033786
 20
6.0112493958
 30
0.0
 10
3.762602103
 20
6.0113967122
 30
0.0
 10
3.7607559102
 20
6.0115139336
 30
0.0
 10
3.7584333265
 20
6.0115567672
 30
0.0
 10
3.7559765968
 20
6.0115087568
 30
0.0
 10
3.7538509368
 20
6.0113900612
 30
0.0
 10
3.7520916487
 20
6.0112459643
 30
0.0
 10
3.750257504
 20
6.011063895
 30
0.0
 10
3.7479040382
 20
6.0107660216
 30
0.0
 10
3.7450202066
 20
6.0102874979
 30
0.0
 10
3.7420661205
 20
6.009669617
 30
0.0
 10
3.7390611272
 20
6.0089048037
 30
0.0
 10
3.7370570376
 20
6.0082990731
 30
0.0
 10
3.7360517254
 20
6.0079698536
 30
0.0
  0
SPLINE
  5
31E
100
AcDbEntity
  8
0
100
AcDbSpline
 62
9
  6
CONTINUOUS
 70
0
 71
3
 72
16
 73
12
 74
0
 42
0.0000001
 43
0.0000001
 44
0.0000000001
 40
0.0
 40
0.0
 40
0.0
 40
0.0
 40
0.2441476796
 40
0.3681505664
 40
0.4931959572
 40
0.5560495074
 40
0.6190929648
 40
0.6823118855
 40
0.7456938817
 40
0.8727784376
 40
1.0
 40
1.0
 40
1.0
 40
1.0
 10
3.7360517254
 20
6.0079698536
 30
0.0
 10
3.734472545
 20
6.007449224
 30
0.0
 10
3.7320765391
 20
6.0067059999
 30
0.0
 10
3.7288262317
 20
6.0058564398
 30
0.0
 10
3.7267522059
 20
6.0053944909
 30
0.0
 10
3.7250731559
 20
6.0050749916
 30
0.0
 10
3.7238027479
 20
6.0048622179
 30
0.0
 10
3.7225241316
 20
6.0046786956
 30
0.0
 10
3.7208081969
 20
6.0044756987
 30
0.0
 10
3.7186504659
 20
6.0043031493
 30
0.0
 10
3.7169181788
 20
6.0042556174
 30
0.0
 10
3.7160517254
 20
6.0042556161
 30
0.0
  0
SPLINE
  5
31F
100
AcDbEntity
  8
0
100
AcDbSpline
 62
9
  6
CONTINUOUS
 70
0
 71
3
 72
16
 73
12
 74
0
 42
0.0000001
 43
0.0000001
 44
0.0000000001
 40
0.0
 40
0.0
 40
0.0
 40
0.0
 40
0.1272614526
 40
0.2543750228
 40
0.3177648503
 40
0.3809907166
 40
0.5068808447
 40
0.6318898729
 40
0.7558603549
 40
0.8786246478
 40
1.0
 40
1.0
 40
1.0
 40
1.0
 10
1.5460517254
 20
6.0042556161
 30
0.0
 10
1.5451849916
 20
6.0042556146
 30
0.0
 10
1.543452217
 20
6.0043031421
 30
0.0
 10
1.5412939412
 20
6.0044757155
 30
0.0
 10
1.5395777005
 20
6.0046788599
 30
0.0
 10
1.5378752567
 20
6.0049231389
 30
0.0
 10
1.5357686866
 20
6.0053009042
 30
0.0
 10
1.5332761805
 20
6.0058567843
 30
0.0
 10
1.5308262731
 20
6.0064974486
 30
0.0
 10
1.5284206572
 20
6.0072044737
 30
0.0
 10
1.5268368489
 20
6.0077111564
 30
0.0
 10
1.5260517254
 20
6.0079698536
 30
0.0
  0
SPLINE
  5
320
100
AcDbEntity
  8
0
100
AcDbSpline
 62
9
  6
CONTINUOUS
 70
0
 71
3
 72
32
 73
28
 74
0
 42
0.0000001
 43
0.0000001
 44
0.0000000001
 40
0.0
 40
0.0
 40
0.0
 40
0.0
 40
0.0841625393
 40
0.1664986606
 40
0.2068622687
 40
0.2466212407
 40
0.3241955549
 40
0.3990113614
 40
0.4353125713
 40
0.4708355802
 40
0.5394487629
 40
0.5724938722
 40
0.6046648806
 40
0.6662967897
 40
0.7242248322
 40
0.7517784225
 40
0.7783848021
 40
0.8040524014
 40
0.8288007922
 40
0.8526596292
 40
0.8756704669
 40
0.8978887666
 40
0.9193849642
 40
0.940242307
 40
0.9605564439
 40
0.9804355804
 40
1.0
 40
1.0
 40
1.0
 40
1.0
 10
1.5260517254
 20
6.0079698536
 30
0.0
 10
1.5250464474
 20
6.0082991241
 30
0.0
 10
1.523042483
 20
6.0089049507
 30
0.0
 10
1.5205219572
 20
6.0095464338
 30
0.0
 10
1.5185276697
 20
6.0099855741
 30
0.0
 10
1.5165831692
 20
6.0103703569
 30
0.0
 10
1.5141999505
 20
6.0107657702
 30
0.0
 10
1.5118465281
 20
6.0110636663
 30
0.0
 10
1.5100123785
 20
6.0112459389
 30
0.0
 10
1.508253069
 20
6.0113901201
 30
0.0
 10
1.5065310966
 20
6.0114862188
 30
0.0
 10
1.5048496005
 20
6.011533702
 30
0.0
 10
1.5032552625
 20
6.011549118
 30
0.0
 10
1.501347964
 20
6.0115139508
 30
0.0
 10
1.4995017858
 20
6.0113966526
 30
0.0
 10
1.4981005058
 20
6.0112494189
 30
0.0
 10
1.4971060434
 20
6.0111149571
 30
0.0
 10
1.4961513852
 20
6.0109530426
 30
0.0
 10
1.4952373757
 20
6.0107617625
 30
0.0
 10
1.4943648223
 20
6.0105392575
 30
0.0
 10
1.4935345203
 20
6.0102836726
 30
0.0
 10
1.4927473387
 20
6.009992998
 30
0.0
 10
1.4920039993
 20
6.0096658651
 30
0.0
 10
1.4913049181
 20
6.0093016472
 30
0.0
 10
1.4906505553
 20
6.0088995504
 30
0.0
 10
1.490041447
 20
6.0084588864
 30
0.0
 10
1.4896635914
 20
6.0081369496
 30
0.0
 10
1.489483183
 20
6.0079698536
 30
0.0
  0
LINE
  5
321
100
AcDbEntity
  8
0
100
AcDbLine
 62
9
  6
CONTINUOUS
 10
1.489483183
 20
6.0079698536
 11
1.4860517254
 21
6.0042556161
  0
SPLINE
  5
322
100
AcDbEntity
  8
0
100
AcDbSpline
 62
9
  6
CONTINUOUS
 70
0
 71
3
 72
20
 73
16
 74
0
 42
0.0000001
 43
0.0000001
 44
0.0000000001
 40
0.0
 40
0.0
 40
0.0
 40
0.0
 40
0.1249975868
 40
0.2499951991
 40
0.3749922254
 40
0.4374909498
 40
0.4999900195
 40
0.5624888643
 40
0.6249880717
 40
0.6874883597
 40
0.7499888235
 40
0.8124909218
 40
0.8749956557
 40
0.9374995994
 40
1.0
 40
1.0
 40
1.0
 40
1.0
 10
2.1520517254
 20
3.7899287653
 30
0.0
 10
2.1554622439
 20
3.7900896607
 30
0.0
 10
2.162279312
 20
3.7904981949
 30
0.0
 10
2.1724913707
 20
3.791295966
 30
0.0
 10
2.1809946679
 20
3.7920400685
 30
0.0
 10
2.1877970993
 20
3.7926374285
 30
0.0
 10
2.1928998378
 20
3.7930751974
 30
0.0
 10
2.198004337
 20
3.7934922582
 30
0.0
 10
2.2031113521
 20
3.7938780272
 30
0.0
 10
2.2082213869
 20
3.7942224926
 30
0.0
 10
2.2133346036
 20
3.7945177945
 30
0.0
 10
2.2184509812
 20
3.794755351
 30
0.0
 10
2.2235700642
 20
3.7949283309
 30
0.0
 10
2.2286909205
 20
3.7950344978
 30
0.0
 10
2.2321054612
 20
3.7950587706
 30
0.0
 10
2.2338126609
 20
3.7950588215
 30
0.0
  0
SPLINE
  5
323
100
AcDbEntity
  8
0
100
AcDbSpline
 62
9
  6
CONTINUOUS
 70
0
 71
3
 72
19
 73
15
 74
0
 42
0.0000001
 43
0.0000001
 44
0.0000000001
 40
0.0
 40
0.0
 40
0.0
 40
0.0
 40
0.1249991654
 40
0.1874999474
 40
0.2500004426
 40
0.3749999989
 40
0.4375002328
 40
0.5000002791
 40
0.5625003277
 40
0.6250002495
 40
0.7500002172
 40
0.8125003056
 40
0.8750005765
 40
1.0
 40
1.0
 40
1.0
 40
1.0
 10
3.0282970978
 20
3.7950586288
 30
0.0
 10
3.0317111781
 20
3.7950582879
 30
0.0
 10
3.0368326627
 20
3.7949868454
 30
0.0
 10
3.0436570908
 20
3.7947557206
 30
0.0
 10
3.050478147
 20
3.7944391372
 30
0.0
 10
3.0572931262
 20
3.7940060832
 30
0.0
 10
3.0641019535
 20
3.7934918643
 30
0.0
 10
3.0692061849
 20
3.7930754042
 30
0.0
 10
3.074308615
 20
3.792637785
 30
0.0
 10
3.0811105733
 20
3.7920397232
 30
0.0
 10
3.0879127743
 20
3.7914439518
 30
0.0
 10
3.0947191198
 20
3.7908971779
 30
0.0
 10
3.1015290059
 20
3.7903973063
 30
0.0
 10
3.1066414432
 20
3.7900898578
 30
0.0
 10
3.1100517254
 20
3.789928712
 30
0.0
  0
SPLINE
  5
324
100
AcDbEntity
  8
0
100
AcDbSpline
 62
9
  6
CONTINUOUS
 70
0
 71
3
 72
38
 73
34
 74
0
 42
0.0000001
 43
0.0000001
 44
0.0000000001
 40
0.0
 40
0.0
 40
0.0
 40
0.0
 40
0.0021025017
 40
0.0043026048
 40
0.0067476949
 40
0.0095456614
 40
0.0127682362
 40
0.016461701
 40
0.0206560798
 40
0.0253712163
 40
0.0306204954
 40
0.0364130968
 40
0.0427553831
 40
0.0496513013
 40
0.0571007796
 40
0.0651017952
 40
0.0827461582
 40
0.102556517
 40
0.1244985955
 40
0.1485346311
 40
0.1746211098
 40
0.2026936031
 40
0.2326799756
 40
0.2645074084
 40
0.2981025936
 40
0.370290191
 40
0.4485336545
 40
0.532059703
 40
0.6200840211
 40
0.7118014859
 40
0.8063865436
 40
0.9028261381
 40
1.0
 40
1.0
 40
1.0
 40
1.0
 10
3.8260517254
 20
5.9041171464
 30
0.0
 10
3.8260517143
 20
5.9040747332
 30
0.0
 10
3.8260390503
 20
5.9039874142
 30
0.0
 10
3.8259815651
 20
5.9038623477
 30
0.0
 10
3.8258877255
 20
5.9037437223
 30
0.0
 10
3.8257587178
 20
5.9036307781
 30
0.0
 10
3.8255947315
 20
5.9035226854
 30
0.0
 10
3.8253956789
 20
5.9034190347
 30
0.0
 10
3.8251614601
 20
5.903319634
 30
0.0
 10
3.8248920295
 20
5.9032244074
 30
0.0
 10
3.824587389
 20
5.903133324
 30
0.0
 10
3.8242475745
 20
5.9030463711
 30
0.0
 10
3.8238726525
 20
5.9029635431
 30
0.0
 10
3.8234627657
 20
5.9028848498
 30
0.0
 10
3.8230181582
 20
5.9028102399
 30
0.0
 10
3.822357629
 20
5.9027129807
 30
0.0
 10
3.8214470597
 20
5.9026034934
 30
0.0
 10
3.8202540108
 20
5.9024915097
 30
0.0
 10
3.8189303182
 20
5.9023948846
 30
0.0
 10
3.8174788083
 20
5.9023133764
 30
0.0
 10
3.8159027635
 20
5.9022467587
 30
0.0
 10
3.8142060748
 20
5.9021950043
 30
0.0
 10
3.8123931672
 20
5.9021581389
 30
0.0
 10
3.8104686063
 20
5.9021361665
 30
0.0
 10
3.8076926202
 20
5.9021265515
 30
0.0
 10
3.8039802851
 20
5.9021541822
 30
0.0
 10
3.7992615177
 20
5.9022456655
 30
0.0
 10
3.7942246603
 20
5.9023966486
 30
0.0
 10
3.7889179366
 20
5.902607833
 30
0.0
 10
3.7833907234
 20
5.9028822765
 30
0.0
 10
3.7776970857
 20
5.9032224712
 30
0.0
 10
3.7718975004
 20
5.9036297042
 30
0.0
 10
3.7680045373
 20
5.9039464011
 30
0.0
 10
3.7660517254
 20
5.9041171857
 30
0.0
  0
SPLINE
  5
325
100
AcDbEntity
  8
0
100
AcDbSpline
 62
9
  6
CONTINUOUS
 70
0
 71
3
 72
37
 73
33
 74
0
 42
0.0000001
 43
0.0000001
 44
0.0000000001
 40
0.0
 40
0.0
 40
0.0
 40
0.0
 40
0.0971731926
 40
0.1936231484
 40
0.2882472607
 40
0.3800247252
 40
0.4681088071
 40
0.55167472
 40
0.6299304702
 40
0.702123488
 40
0.735713133
 40
0.7675191351
 40
0.7974748963
 40
0.8255151964
 40
0.8515754973
 40
0.8755924476
 40
0.8975139243
 40
0.9173034475
 40
0.9349290099
 40
0.9503642486
 40
0.9572552816
 40
0.9635940846
 40
0.9693840373
 40
0.9746314044
 40
0.9793452672
 40
0.9835389063
 40
0.9872320531
 40
0.9904546054
 40
0.9932526991
 40
0.9956978971
 40
0.9978979112
 40
1.0
 40
1.0
 40
1.0
 40
1.0
 10
1.4960517254
 20
5.9041171464
 30
0.0
 10
1.4940989313
 20
5.9039463162
 30
0.0
 10
1.4902057714
 20
5.9036296193
 30
0.0
 10
1.4844051934
 20
5.9032224916
 30
0.0
 10
1.4787093502
 20
5.9028822201
 30
0.0
 10
1.4731789462
 20
5.9026074513
 30
0.0
 10
1.4678690051
 20
5.9023961
 30
0.0
 10
1.4628298785
 20
5.9022454721
 30
0.0
 10
1.4581099491
 20
5.9021540711
 30
0.0
 10
1.4543973679
 20
5.9021265296
 30
0.0
 10
1.451621817
 20
5.902136219
 30
0.0
 10
1.4496984183
 20
5.9021582374
 30
0.0
 10
1.4478872116
 20
5.9021951624
 30
0.0
 10
1.4461923211
 20
5.9022469997
 30
0.0
 10
1.444617846
 20
5.902313747
 30
0.0
 10
1.4431676723
 20
5.9023953747
 30
0.0
 10
1.4418452093
 20
5.9024919876
 30
0.0
 10
1.4406533522
 20
5.9026038442
 30
0.0
 10
1.4395947149
 20
5.9027312115
 30
0.0
 10
1.4387980166
 20
5.9028545518
 30
0.0
 10
1.4382300682
 20
5.9029635534
 30
0.0
 10
1.4378553654
 20
5.9030463461
 30
0.0
 10
1.4375157142
 20
5.9031332827
 30
0.0
 10
1.4372111969
 20
5.9032243677
 30
0.0
 10
1.4369418551
 20
5.903319608
 30
0.0
 10
1.4367076965
 20
5.9034190304
 30
0.0
 10
1.4365086816
 20
5.9035227061
 30
0.0
 10
1.4363447163
 20
5.9036308225
 30
0.0
 10
1.4362157185
 20
5.9037437837
 30
0.0
 10
1.4361218821
 20
5.9038624143
 30
0.0
 10
1.4360643962
 20
5.9039874711
 30
0.0
 10
1.4360517328
 20
5.9040747807
 30
0.0
 10
1.4360517254
 20
5.9041171857
 30
0.0
  0
LINE
  5
326
100
AcDbEntity
  8
0
100
AcDbLine
 62
9
  6
CONTINUOUS
 10
3.0282877026
 20
3.9251713746
 11
3.0282985246
 21
3.8236796399
  0
SPLINE
  5
327
100
AcDbEntity
  8
0
100
AcDbSpline
 62
9
  6
CONTINUOUS
 70
0
 71
3
 72
20
 73
16
 74
0
 42
0.0000001
 43
0.0000001
 44
0.0000000001
 40
0.0
 40
0.0
 40
0.0
 40
0.0
 40
0.1249975868
 40
0.2499951991
 40
0.3749922254
 40
0.4374909498
 40
0.4999900195
 40
0.5624888643
 40
0.6249880717
 40
0.6874883597
 40
0.7499888235
 40
0.8124909218
 40
0.8749956557
 40
0.9374995994
 40
1.0
 40
1.0
 40
1.0
 40
1.0
 10
8.7520517254
 20
3.7899287653
 30
0.0
 10
8.7554622439
 20
3.7900896607
 30
0.0
 10
8.762279312
 20
3.7904981949
 30
0.0
 10
8.7724913707
 20
3.791295966
 30
0.0
 10
8.7809946679
 20
3.7920400685
 30
0.0
 10
8.7877970993
 20
3.7926374285
 30
0.0
 10
8.7928998378
 20
3.7930751974
 30
0.0
 10
8.798004337
 20
3.7934922582
 30
0.0
 10
8.8031113521
 20
3.7938780272
 30
0.0
 10
8.8082213869
 20
3.7942224926
 30
0.0
 10
8.8133346036
 20
3.7945177945
 30
0.0
 10
8.8184509812
 20
3.794755351
 30
0.0
 10
8.8235700642
 20
3.7949283309
 30
0.0
 10
8.8286909205
 20
3.7950344978
 30
0.0
 10
8.8321054612
 20
3.7950587706
 30
0.0
 10
8.8338126609
 20
3.7950588215
 30
0.0
  0
SPLINE
  5
328
100
AcDbEntity
  8
0
100
AcDbSpline
 62
9
  6
CONTINUOUS
 70
0
 71
3
 72
19
 73
15
 74
0
 42
0.0000001
 43
0.0000001
 44
0.0000000001
 40
0.0
 40
0.0
 40
0.0
 40
0.0
 40
0.1249991654
 40
0.1874999474
 40
0.2500004426
 40
0.3749999989
 40
0.4375002328
 40
0.5000002791
 40
0.5625003277
 40
0.6250002495
 40
0.7500002172
 40
0.8125003056
 40
0.8750005765
 40
1.0
 40
1.0
 40
1.0
 40
1.0
 10
9.6282970978
 20
3.7950586288
 30
0.0
 10
9.6317111781
 20
3.7950582879
 30
0.0
 10
9.6368326627
 20
3.7949868454
 30
0.0
 10
9.6436570908
 20
3.7947557206
 30
0.0
 10
9.650478147
 20
3.7944391372
 30
0.0
 10
9.6572931262
 20
3.7940060832
 30
0.0
 10
9.6641019535
 20
3.7934918643
 30
0.0
 10
9.6692061849
 20
3.7930754042
 30
0.0
 10
9.674308615
 20
3.792637785
 30
0.0
 10
9.6811105733
 20
3.7920397232
 30
0.0
 10
9.6879127743
 20
3.7914439518
 30
0.0
 10
9.6947191198
 20
3.7908971779
 30
0.0
 10
9.7015290059
 20
3.7903973063
 30
0.0
 10
9.7066414432
 20
3.7900898578
 30
0.0
 10
9.7100517254
 20
3.789928712
 30
0.0
  0
LINE
  5
329
100
AcDbEntity
  8
0
100
AcDbLine
 62
9
  6
CONTINUOUS
 10
9.6282877026
 20
3.9251713746
 11
9.6282985246
 21
3.8236796399
  0
SPLINE
  5
32A
100
AcDbEntity
  8
0
100
AcDbSpline
 62
9
  6
CONTINUOUS
 70
0
 71
3
 72
38
 73
34
 74
0
 42
0.0000001
 43
0.0000001
 44
0.0000000001
 40
0.0
 40
0.0
 40
0.0
 40
0.0
 40
0.0019669578
 40
0.0039580313
 40
0.0061326637
 40
0.008616322
 40
0.0114953296
 40
0.0148262679
 40
0.0186464422
 40
0.0229812139
 40
0.0278485061
 40
0.0332612672
 40
0.0392270591
 40
0.0457499444
 40
0.0528323858
 40
0.0604757239
 40
0.0774459942
 40
0.0966593506
 40
0.1181041749
 40
0.1417413618
 40
0.167519491
 40
0.1953854928
 40
0.2252849678
 40
0.2571497779
 40
0.2908916697
 40
0.3636443284
 40
0.4427889096
 40
0.5274319839
 40
0.6166365128
 40
0.7094637232
 40
0.8049729252
 40
0.9021744141
 40
1.0
 40
1.0
 40
1.0
 40
1.0
 10
3.3741191729
 20
5.5513424839
 30
0.0
 10
3.37412595
 20
5.5513810134
 30
0.0
 10
3.3741288062
 20
5.5514610542
 30
0.0
 10
3.3740956726
 20
5.5515802037
 30
0.0
 10
3.3740266103
 20
5.5516945196
 30
0.0
 10
3.3739232487
 20
5.5518042229
 30
0.0
 10
3.3737859299
 20
5.5519101604
 30
0.0
 10
3.3736144507
 20
5.5520127633
 30
0.0
 10
3.373408517
 20
5.5521121789
 30
0.0
 10
3.3731678766
 20
5.5522083926
 30
0.0
 10
3.3728923342
 20
5.5523013264
 30
0.0
 10
3.3725817789
 20
5.552390851
 30
0.0
 10
3.3722362273
 20
5.5524769155
 30
0.0
 10
3.3718557797
 20
5.5525594698
 30
0.0
 10
3.3714405699
 20
5.5526384575
 30
0.0
 10
3.3708187825
 20
5.5527425883
 30
0.0
 10
3.3699550433
 20
5.5528613372
 30
0.0
 10
3.3688153843
 20
5.5529844637
 30
0.0
 10
3.3675410494
 20
5.5530921019
 30
0.0
 10
3.3661346348
 20
5.5531839613
 30
0.0
 10
3.3645993913
 20
5.5532596691
 30
0.0
 10
3.3629387973
 20
5.5533188723
 30
0.0
 10
3.3611565998
 20
5.5533611903
 30
0.0
 10
3.3592572072
 20
5.5533864112
 30
0.0
 10
3.3565053585
 20
5.5533975022
 30
0.0
 10
3.3528131469
 20
5.5533656735
 30
0.0
 10
3.3481096357
 20
5.5532607051
 30
0.0
 10
3.3430806519
 20
5.5530899957
 30
0.0
 10
3.337781835
 20
5.5528556341
 30
0.0
 10
3.3322696231
 20
5.5525605504
 30
0.0
 10
3.3266014316
 20
5.5522078978
 30
0.0
 10
3.3208371454
 20
5.5518020926
 30
0.0
 10
3.3169699267
 20
5.5515006689
 30
0.0
 10
3.3150307077
 20
5.5513424839
 30
0.0
  0
SPLINE
  5
32B
100
AcDbEntity
  8
0
100
AcDbSpline
 62
9
  6
CONTINUOUS
 70
0
 71
3
 72
40
 73
36
 74
0
 42
0.0000001
 43
0.0000001
 44
0.0000000001
 40
0.0
 40
0.0
 40
0.0
 40
0.0
 40
0.0055072735
 40
0.0108649209
 40
0.0161198568
 40
0.0213239401
 40
0.0265327485
 40
0.0318039195
 40
0.0371952865
 40
0.0427630981
 40
0.0546237661
 40
0.0610190089
 40
0.0677720057
 40
0.0824713377
 40
0.0989445061
 40
0.1173472963
 40
0.137769387
 40
0.1602660016
 40
0.1848734069
 40
0.2115997176
 40
0.2404067073
 40
0.2712426739
 40
0.3040497309
 40
0.3387471534
 40
0.3752238469
 40
0.4133635099
 40
0.453047109
 40
0.4941439476
 40
0.5365115406
 40
0.6244782907
 40
0.6697981287
 40
0.7158353897
 40
0.8095488632
 40
0.9046025943
 40
1.0
 40
1.0
 40
1.0
 40
1.0
 10
3.0873816278
 20
3.9251730572
 30
0.0
 10
3.0874015728
 20
3.9252860514
 30
0.0
 10
3.0874311275
 20
3.9255108631
 30
0.0
 10
3.0874426923
 20
3.9258470434
 30
0.0
 10
3.0874203363
 20
3.9261764229
 30
0.0
 10
3.0873636251
 20
3.9264985312
 30
0.0
 10
3.0872721702
 20
3.9268129175
 30
0.0
 10
3.0871456388
 20
3.9271191116
 30
0.0
 10
3.0869837185
 20
3.9274166924
 30
0.0
 10
3.0867147609
 20
3.927809582
 30
0.0
 10
3.0863751583
 20
3.9281758547
 30
0.0
 10
3.0859779299
 20
3.9285134764
 30
0.0
 10
3.0855090386
 20
3.9288560432
 30
0.0
 10
3.0848250179
 20
3.929255806
 30
0.0
 10
3.0838812429
 20
3.9296791411
 30
0.0
 10
3.0827917215
 20
3.9300574192
 30
0.0
 10
3.0815571373
 20
3.9303895458
 30
0.0
 10
3.0801785908
 20
3.9306738871
 30
0.0
 10
3.0786578251
 20
3.9309085587
 30
0.0
 10
3.0769977937
 20
3.9310919153
 30
0.0
 10
3.0752027999
 20
3.9312234578
 30
0.0
 10
3.0732779769
 20
3.9313023435
 30
0.0
 10
3.0712290159
 20
3.9313276728
 30
0.0
 10
3.0690626047
 20
3.9312991653
 30
0.0
 10
3.0667864026
 20
3.9312174586
 30
0.0
 10
3.0644086693
 20
3.9310830147
 30
0.0
 10
3.0619379473
 20
3.9308962613
 30
0.0
 10
3.0593831624
 20
3.930658285
 30
0.0
 10
3.0558325338
 20
3.930270035
 30
0.0
 10
3.0522039119
 20
3.9297899622
 30
0.0
 10
3.0485103774
 20
3.9292270725
 30
0.0
 10
3.0447060347
 20
3.9285984147
 30
0.0
 10
3.039894071
 20
3.9277144026
 30
0.0
 10
3.0340955199
 20
3.9265173587
 30
0.0
 10
3.0302265667
 20
3.9256351164
 30
0.0
 10
3.0282932929
 20
3.9251737964
 30
0.0
  0
SPLINE
  5
32C
100
AcDbEntity
  8
0
100
AcDbSpline
 62
9
  6
CONTINUOUS
 70
0
 71
3
 72
38
 73
34
 74
0
 42
0.0000001
 43
0.0000001
 44
0.0000000001
 40
0.0
 40
0.0
 40
0.0
 40
0.0
 40
0.097826991
 40
0.1950282845
 40
0.2905297908
 40
0.3833443643
 40
0.4725388795
 40
0.557176841
 40
0.6363169883
 40
0.7090721082
 40
0.7428171239
 40
0.7746840811
 40
0.8045852189
 40
0.8324556541
 40
0.8582394132
 40
0.8818816412
 40
0.9033292859
 40
0.9225450939
 40
0.9395182519
 40
0.9471630411
 40
0.9542468538
 40
0.9607709658
 40
0.9667377743
 40
0.9721512761
 40
0.9770190119
 40
0.9813539761
 40
0.9851741459
 40
0.9885049418
 40
0.991383736
 40
0.9938671869
 40
0.9960417019
 40
0.9980328197
 40
1.0
 40
1.0
 40
1.0
 40
1.0
 10
1.9470727432
 20
5.5513424839
 30
0.0
 10
1.9451334938
 20
5.5515006475
 30
0.0
 10
1.9412662498
 20
5.5518020685
 30
0.0
 10
1.9355020942
 20
5.5522079162
 30
0.0
 10
1.929834309
 20
5.5525605541
 30
0.0
 10
1.9243226964
 20
5.5528555756
 30
0.0
 10
1.9190244291
 20
5.5530898958
 30
0.0
 10
1.9139958353
 20
5.553260672
 30
0.0
 10
1.9092924635
 20
5.5533656423
 30
0.0
 10
1.9056002284
 20
5.5533974901
 30
0.0
 10
1.9028482249
 20
5.5533864361
 30
0.0
 10
1.9009486936
 20
5.5533612242
 30
0.0
 10
1.899166332
 20
5.5533188907
 30
0.0
 10
1.8975055034
 20
5.5532597094
 30
0.0
 10
1.8959699573
 20
5.5531840292
 30
0.0
 10
1.8945632716
 20
5.5530921962
 30
0.0
 10
1.8932887309
 20
5.5529845503
 30
0.0
 10
1.8921489113
 20
5.5528613954
 30
0.0
 10
1.8912850391
 20
5.5527426205
 30
0.0
 10
1.8906631399
 20
5.5526384686
 30
0.0
 10
1.8902478507
 20
5.5525594668
 30
0.0
 10
1.8898673319
 20
5.5524769012
 30
0.0
 10
1.8895217209
 20
5.5523908294
 30
0.0
 10
1.8892111206
 20
5.5523013025
 30
0.0
 10
1.8889355482
 20
5.5522083718
 30
0.0
 10
1.8886948915
 20
5.552112165
 30
0.0
 10
1.8884889522
 20
5.5520127585
 30
0.0
 10
1.8883174755
 20
5.5519101651
 30
0.0
 10
1.8881801645
 20
5.5518042353
 30
0.0
 10
1.8880768136
 20
5.5516945361
 30
0.0
 10
1.8880077634
 20
5.5515802189
 30
0.0
 10
1.8879746415
 20
5.5514610631
 30
0.0
 10
1.8879775012
 20
5.551381018
 30
0.0
 10
1.887984278
 20
5.5513424839
 30
0.0
  0
SPLINE
  5
32D
100
AcDbEntity
  8
0
100
AcDbSpline
 62
9
  6
CONTINUOUS
 70
0
 71
3
 72
40
 73
36
 74
0
 42
0.0000001
 43
0.0000001
 44
0.0000000001
 40
0.0
 40
0.0
 40
0.0
 40
0.0
 40
0.0953824712
 40
0.1904086917
 40
0.2840885093
 40
0.3754189996
 40
0.4198887986
 40
0.4633766108
 40
0.5057372479
 40
0.5468267451
 40
0.5865059954
 40
0.6246470162
 40
0.6611253909
 40
0.6958194269
 40
0.7286256418
 40
0.7594696785
 40
0.7882840985
 40
0.8150085879
 40
0.839617225
 40
0.8621231774
 40
0.8825544682
 40
0.9009594592
 40
0.9174362202
 40
0.9321430443
 40
0.9389001956
 40
0.9452994291
 40
0.9571668894
 40
0.9627382066
 40
0.9681338685
 40
0.9734105393
 40
0.9786264379
 40
0.98383953
 40
0.9891056433
 40
0.9944768008
 40
1.0
 40
1.0
 40
1.0
 40
1.0
 10
2.2338105719
 20
3.9251714487
 30
0.0
 10
2.2318776033
 20
3.9256335302
 30
0.0
 10
2.2280092099
 20
3.9265160162
 30
0.0
 10
2.2222114514
 20
3.9277119724
 30
0.0
 10
2.2164720686
 20
3.9287664353
 30
0.0
 10
2.2117496052
 20
3.9295193618
 30
0.0
 10
2.2080493021
 20
3.9300333529
 30
0.0
 10
2.2053546792
 20
3.9303691625
 30
0.0
 10
2.2027253522
 20
3.9306570531
 30
0.0
 10
2.2001707366
 20
3.9308952846
 30
0.0
 10
2.1977000053
 20
3.9310822259
 30
0.0
 10
2.1953220982
 20
3.9312171388
 30
0.0
 10
2.1930456987
 20
3.9312992992
 30
0.0
 10
2.1908791306
 20
3.9313279106
 30
0.0
 10
2.1888298939
 20
3.9313025243
 30
0.0
 10
2.1869045751
 20
3.9312238102
 30
0.0
 10
2.1851091087
 20
3.9310923861
 30
0.0
 10
2.1834488093
 20
3.9309086473
 30
0.0
 10
2.1819277802
 20
3.9306735314
 30
0.0
 10
2.1805487249
 20
3.9303889718
 30
0.0
 10
2.179313604
 20
3.9300566861
 30
0.0
 10
2.1782237782
 20
3.9296779742
 30
0.0
 10
2.1772797897
 20
3.9292542042
 30
0.0
 10
2.1765954948
 20
3.9288541312
 30
0.0
 10
2.1761263647
 20
3.9285112425
 30
0.0
 10
2.1757289504
 20
3.9281732791
 30
0.0
 10
2.1753893228
 20
3.9278065365
 30
0.0
 10
2.1751204969
 20
3.9274131317
 30
0.0
 10
2.1749586819
 20
3.9271151403
 30
0.0
 10
2.1748322701
 20
3.9268084811
 30
0.0
 10
2.1747409382
 20
3.9264935578
 30
0.0
 10
2.1746843453
 20
3.9261708206
 30
0.0
 10
2.1746620933
 20
3.9258407005
 30
0.0
 10
2.1746737384
 20
3.9255036462
 30
0.0
 10
2.1747033192
 20
3.9252781999
 30
0.0
 10
2.1747232688
 20
3.9251648584
 30
0.0
  0
SPLINE
  5
32E
100
AcDbEntity
  8
0
100
AcDbSpline
 62
9
  6
CONTINUOUS
 70
0
 71
3
 72
40
 73
36
 74
0
 42
0.0000001
 43
0.0000001
 44
0.0000000001
 40
0.0
 40
0.0
 40
0.0
 40
0.0
 40
0.097818533
 40
0.194882467
 40
0.2900740787
 40
0.3823907684
 40
0.4709970326
 40
0.555073985
 40
0.633831629
 40
0.7064929936
 40
0.7723414051
 40
0.8025203806
 40
0.8307700119
 40
0.8570161508
 40
0.8811945414
 40
0.9032544368
 40
0.9231461757
 40
0.9408202984
 40
0.956227691
 40
0.9630664163
 40
0.9693231783
 40
0.9749962181
 40
0.9800839635
 40
0.9845850935
 40
0.9884986938
 40
0.9918245492
 40
0.994563752
 40
0.9957145166
 40
0.9967204929
 40
0.9975832764
 40
0.9983055866
 40
0.998892315
 40
0.9993529705
 40
0.9997077169
 40
1.0
 40
1.0
 40
1.0
 40
1.0
 10
3.1100517254
 20
3.789928712
 30
0.0
 10
3.1120090328
 20
3.7898826555
 30
0.0
 10
3.1159088614
 20
3.789803902
 30
0.0
 10
3.1217141108
 20
3.789717943
 30
0.0
 10
3.127409553
 20
3.7896578226
 30
0.0
 10
3.13293588
 20
3.7896177265
 30
0.0
 10
3.1382398296
 20
3.7895929478
 30
0.0
 10
3.1432724273
 20
3.7895781669
 30
0.0
 10
3.1479859016
 20
3.7895708915
 30
0.0
 10
3.152334534
 20
3.7895689988
 30
0.0
 10
3.1557108592
 20
3.7895707341
 30
0.0
 10
3.1581982745
 20
3.7895750908
 30
0.0
 10
3.1598930432
 20
3.7895797653
 30
0.0
 10
3.1614677034
 20
3.7895860457
 30
0.0
 10
3.1629184654
 20
3.7895942218
 30
0.0
 10
3.1642420239
 20
3.7896049237
 30
0.0
 10
3.1654353642
 20
3.7896187146
 30
0.0
 10
3.166495491
 20
3.7896361763
 30
0.0
 10
3.167294292
 20
3.7896548721
 30
0.0
 10
3.1678645022
 20
3.7896727826
 30
0.0
 10
3.1682398906
 20
3.7896869967
 30
0.0
 10
3.1685801449
 20
3.7897026175
 30
0.0
 10
3.1688851409
 20
3.789719735
 30
0.0
 10
3.169154756
 20
3.7897384345
 30
0.0
 10
3.1693888811
 20
3.7897587789
 30
0.0
 10
3.1695874014
 20
3.7897808502
 30
0.0
 10
3.1697303726
 20
3.7898016821
 30
0.0
 10
3.1698266663
 20
3.7898199366
 30
0.0
 10
3.1698856197
 20
3.7898333142
 30
0.0
 10
3.1699356207
 20
3.7898471798
 30
0.0
 10
3.1699766912
 20
3.7898615395
 30
0.0
 10
3.1700089401
 20
3.789876404
 30
0.0
 10
3.1700324974
 20
3.7898918999
 30
0.0
 10
3.1700478072
 20
3.7899085021
 30
0.0
 10
3.1700517198
 20
3.7899215369
 30
0.0
 10
3.1700517254
 20
3.789927387
 30
0.0
  0
SPLINE
  5
32F
100
AcDbEntity
  8
0
100
AcDbSpline
 62
9
  6
CONTINUOUS
 70
0
 71
3
 72
38
 73
34
 74
0
 42
0.0000001
 43
0.0000001
 44
0.0000000001
 40
0.0
 40
0.0
 40
0.0
 40
0.0
 40
0.0019669578
 40
0.0039580313
 40
0.0061326637
 40
0.008616322
 40
0.0114953296
 40
0.0148262679
 40
0.0186464422
 40
0.0229812139
 40
0.0278485061
 40
0.0332612672
 40
0.0392270591
 40
0.0457499444
 40
0.0528323858
 40
0.0604757239
 40
0.0774459942
 40
0.0966593506
 40
0.1181041749
 40
0.1417413618
 40
0.167519491
 40
0.1953854928
 40
0.2252849678
 40
0.2571497779
 40
0.2908916697
 40
0.3636443284
 40
0.4427889096
 40
0.5274319839
 40
0.6166365128
 40
0.7094637232
 40
0.8049729252
 40
0.9021744141
 40
1.0
 40
1.0
 40
1.0
 40
1.0
 10
9.9741191729
 20
5.5513424839
 30
0.0
 10
9.97412595
 20
5.5513810134
 30
0.0
 10
9.9741288062
 20
5.5514610542
 30
0.0
 10
9.9740956726
 20
5.5515802037
 30
0.0
 10
9.9740266103
 20
5.5516945196
 30
0.0
 10
9.9739232487
 20
5.5518042229
 30
0.0
 10
9.9737859299
 20
5.5519101604
 30
0.0
 10
9.9736144507
 20
5.5520127633
 30
0.0
 10
9.973408517
 20
5.5521121789
 30
0.0
 10
9.9731678766
 20
5.5522083926
 30
0.0
 10
9.9728923342
 20
5.5523013264
 30
0.0
 10
9.9725817789
 20
5.552390851
 30
0.0
 10
9.9722362273
 20
5.5524769155
 30
0.0
 10
9.9718557797
 20
5.5525594698
 30
0.0
 10
9.9714405699
 20
5.5526384575
 30
0.0
 10
9.9708187825
 20
5.5527425883
 30
0.0
 10
9.9699550433
 20
5.5528613372
 30
0.0
 10
9.9688153843
 20
5.5529844637
 30
0.0
 10
9.9675410494
 20
5.5530921019
 30
0.0
 10
9.9661346348
 20
5.5531839613
 30
0.0
 10
9.9645993913
 20
5.5532596691
 30
0.0
 10
9.9629387973
 20
5.5533188723
 30
0.0
 10
9.9611565998
 20
5.5533611903
 30
0.0
 10
9.9592572072
 20
5.5533864112
 30
0.0
 10
9.9565053585
 20
5.5533975022
 30
0.0
 10
9.9528131469
 20
5.5533656735
 30
0.0
 10
9.9481096357
 20
5.5532607051
 30
0.0
 10
9.9430806519
 20
5.5530899957
 30
0.0
 10
9.937781835
 20
5.5528556341
 30
0.0
 10
9.9322696231
 20
5.5525605504
 30
0.0
 10
9.9266014316
 20
5.5522078978
 30
0.0
 10
9.9208371454
 20
5.5518020926
 30
0.0
 10
9.9169699267
 20
5.5515006689
 30
0.0
 10
9.9150307077
 20
5.5513424839
 30
0.0
  0
SPLINE
  5
330
100
AcDbEntity
  8
0
100
AcDbSpline
 62
9
  6
CONTINUOUS
 70
0
 71
3
 72
40
 73
36
 74
0
 42
0.0000001
 43
0.0000001
 44
0.0000000001
 40
0.0
 40
0.0
 40
0.0
 40
0.0
 40
0.0055072735
 40
0.0108649209
 40
0.0161198568
 40
0.0213239401
 40
0.0265327485
 40
0.0318039195
 40
0.0371952865
 40
0.0427630981
 40
0.0546237661
 40
0.0610190089
 40
0.0677720057
 40
0.0824713377
 40
0.0989445061
 40
0.1173472963
 40
0.137769387
 40
0.1602660016
 40
0.1848734069
 40
0.2115997176
 40
0.2404067073
 40
0.2712426739
 40
0.3040497309
 40
0.3387471534
 40
0.3752238469
 40
0.4133635099
 40
0.453047109
 40
0.4941439476
 40
0.5365115406
 40
0.6244782907
 40
0.6697981287
 40
0.7158353897
 40
0.8095488632
 40
0.9046025943
 40
1.0
 40
1.0
 40
1.0
 40
1.0
 10
9.6873816278
 20
3.9251730572
 30
0.0
 10
9.6874015728
 20
3.9252860514
 30
0.0
 10
9.6874311275
 20
3.9255108631
 30
0.0
 10
9.6874426923
 20
3.9258470434
 30
0.0
 10
9.6874203363
 20
3.9261764229
 30
0.0
 10
9.6873636251
 20
3.9264985312
 30
0.0
 10
9.6872721702
 20
3.9268129175
 30
0.0
 10
9.6871456388
 20
3.9271191116
 30
0.0
 10
9.6869837185
 20
3.9274166924
 30
0.0
 10
9.6867147609
 20
3.927809582
 30
0.0
 10
9.6863751583
 20
3.9281758547
 30
0.0
 10
9.6859779299
 20
3.9285134764
 30
0.0
 10
9.6855090386
 20
3.9288560432
 30
0.0
 10
9.6848250179
 20
3.929255806
 30
0.0
 10
9.6838812429
 20
3.9296791411
 30
0.0
 10
9.6827917215
 20
3.9300574192
 30
0.0
 10
9.6815571373
 20
3.9303895458
 30
0.0
 10
9.6801785908
 20
3.9306738871
 30
0.0
 10
9.6786578251
 20
3.9309085587
 30
0.0
 10
9.6769977937
 20
3.9310919153
 30
0.0
 10
9.6752027999
 20
3.9312234578
 30
0.0
 10
9.6732779769
 20
3.9313023435
 30
0.0
 10
9.6712290159
 20
3.9313276728
 30
0.0
 10
9.6690626047
 20
3.9312991653
 30
0.0
 10
9.6667864026
 20
3.9312174586
 30
0.0
 10
9.6644086693
 20
3.9310830147
 30
0.0
 10
9.6619379473
 20
3.9308962613
 30
0.0
 10
9.6593831624
 20
3.930658285
 30
0.0
 10
9.6558325338
 20
3.930270035
 30
0.0
 10
9.6522039119
 20
3.9297899622
 30
0.0
 10
9.6485103774
 20
3.9292270725
 30
0.0
 10
9.6447060347
 20
3.9285984147
 30
0.0
 10
9.639894071
 20
3.9277144026
 30
0.0
 10
9.6340955199
 20
3.9265173587
 30
0.0
 10
9.6302265667
 20
3.9256351164
 30
0.0
 10
9.6282932929
 20
3.9251737964
 30
0.0
  0
SPLINE
  5
331
100
AcDbEntity
  8
0
100
AcDbSpline
 62
9
  6
CONTINUOUS
 70
0
 71
3
 72
38
 73
34
 74
0
 42
0.0000001
 43
0.0000001
 44
0.0000000001
 40
0.0
 40
0.0
 40
0.0
 40
0.0
 40
0.097826991
 40
0.1950282845
 40
0.2905297908
 40
0.3833443643
 40
0.4725388795
 40
0.557176841
 40
0.6363169883
 40
0.7090721082
 40
0.7428171239
 40
0.7746840811
 40
0.8045852189
 40
0.8324556541
 40
0.8582394132
 40
0.8818816412
 40
0.9033292859
 40
0.9225450939
 40
0.9395182519
 40
0.9471630411
 40
0.9542468538
 40
0.9607709658
 40
0.9667377743
 40
0.9721512761
 40
0.9770190119
 40
0.9813539761
 40
0.9851741459
 40
0.9885049418
 40
0.991383736
 40
0.9938671869
 40
0.9960417019
 40
0.9980328197
 40
1.0
 40
1.0
 40
1.0
 40
1.0
 10
8.5470727432
 20
5.5513424839
 30
0.0
 10
8.5451334938
 20
5.5515006475
 30
0.0
 10
8.5412662498
 20
5.5518020685
 30
0.0
 10
8.5355020942
 20
5.5522079162
 30
0.0
 10
8.529834309
 20
5.5525605541
 30
0.0
 10
8.5243226964
 20
5.5528555756
 30
0.0
 10
8.5190244291
 20
5.5530898958
 30
0.0
 10
8.5139958353
 20
5.553260672
 30
0.0
 10
8.5092924635
 20
5.5533656423
 30
0.0
 10
8.5056002284
 20
5.5533974901
 30
0.0
 10
8.5028482249
 20
5.5533864361
 30
0.0
 10
8.5009486936
 20
5.5533612242
 30
0.0
 10
8.499166332
 20
5.5533188907
 30
0.0
 10
8.4975055034
 20
5.5532597094
 30
0.0
 10
8.4959699573
 20
5.5531840292
 30
0.0
 10
8.4945632716
 20
5.5530921962
 30
0.0
 10
8.4932887309
 20
5.5529845503
 30
0.0
 10
8.4921489113
 20
5.5528613954
 30
0.0
 10
8.4912850391
 20
5.5527426205
 30
0.0
 10
8.4906631399
 20
5.5526384686
 30
0.0
 10
8.4902478507
 20
5.5525594668
 30
0.0
 10
8.4898673319
 20
5.5524769012
 30
0.0
 10
8.4895217209
 20
5.5523908294
 30
0.0
 10
8.4892111206
 20
5.5523013025
 30
0.0
 10
8.4889355482
 20
5.5522083718
 30
0.0
 10
8.4886948915
 20
5.552112165
 30
0.0
 10
8.4884889522
 20
5.5520127585
 30
0.0
 10
8.4883174755
 20
5.5519101651
 30
0.0
 10
8.4881801645
 20
5.5518042353
 30
0.0
 10
8.4880768136
 20
5.5516945361
 30
0.0
 10
8.4880077634
 20
5.5515802189
 30
0.0
 10
8.4879746415
 20
5.5514610631
 30
0.0
 10
8.4879775012
 20
5.551381018
 30
0.0
 10
8.487984278
 20
5.5513424839
 30
0.0
  0
SPLINE
  5
332
100
AcDbEntity
  8
0
100
AcDbSpline
 62
9
  6
CONTINUOUS
 70
0
 71
3
 72
40
 73
36
 74
0
 42
0.0000001
 43
0.0000001
 44
0.0000000001
 40
0.0
 40
0.0
 40
0.0
 40
0.0
 40
0.0953824712
 40
0.1904086917
 40
0.2840885093
 40
0.3754189996
 40
0.4198887986
 40
0.4633766108
 40
0.5057372479
 40
0.5468267451
 40
0.5865059954
 40
0.6246470162
 40
0.6611253909
 40
0.6958194269
 40
0.7286256418
 40
0.7594696785
 40
0.7882840985
 40
0.8150085879
 40
0.839617225
 40
0.8621231774
 40
0.8825544682
 40
0.9009594592
 40
0.9174362202
 40
0.9321430443
 40
0.9389001956
 40
0.9452994291
 40
0.9571668894
 40
0.9627382066
 40
0.9681338685
 40
0.9734105393
 40
0.9786264379
 40
0.98383953
 40
0.9891056433
 40
0.9944768008
 40
1.0
 40
1.0
 40
1.0
 40
1.0
 10
8.8338105719
 20
3.9251714487
 30
0.0
 10
8.8318776033
 20
3.9256335302
 30
0.0
 10
8.8280092099
 20
3.9265160162
 30
0.0
 10
8.8222114514
 20
3.9277119724
 30
0.0
 10
8.8164720686
 20
3.9287664353
 30
0.0
 10
8.8117496052
 20
3.9295193618
 30
0.0
 10
8.8080493021
 20
3.9300333529
 30
0.0
 10
8.8053546792
 20
3.9303691625
 30
0.0
 10
8.8027253522
 20
3.9306570531
 30
0.0
 10
8.8001707366
 20
3.9308952846
 30
0.0
 10
8.7977000053
 20
3.9310822259
 30
0.0
 10
8.7953220982
 20
3.9312171388
 30
0.0
 10
8.7930456987
 20
3.9312992992
 30
0.0
 10
8.7908791306
 20
3.9313279106
 30
0.0
 10
8.7888298939
 20
3.9313025243
 30
0.0
 10
8.7869045751
 20
3.9312238102
 30
0.0
 10
8.7851091087
 20
3.9310923861
 30
0.0
 10
8.7834488093
 20
3.9309086473
 30
0.0
 10
8.7819277802
 20
3.9306735314
 30
0.0
 10
8.7805487249
 20
3.9303889718
 30
0.0
 10
8.779313604
 20
3.9300566861
 30
0.0
 10
8.7782237782
 20
3.9296779742
 30
0.0
 10
8.7772797897
 20
3.9292542042
 30
0.0
 10
8.7765954948
 20
3.9288541312
 30
0.0
 10
8.7761263647
 20
3.9285112425
 30
0.0
 10
8.7757289504
 20
3.9281732791
 30
0.0
 10
8.7753893228
 20
3.9278065365
 30
0.0
 10
8.7751204969
 20
3.9274131317
 30
0.0
 10
8.7749586819
 20
3.9271151403
 30
0.0
 10
8.7748322701
 20
3.9268084811
 30
0.0
 10
8.7747409382
 20
3.9264935578
 30
0.0
 10
8.7746843453
 20
3.9261708206
 30
0.0
 10
8.7746620933
 20
3.9258407005
 30
0.0
 10
8.7746737384
 20
3.9255036462
 30
0.0
 10
8.7747033192
 20
3.9252781999
 30
0.0
 10
8.7747232688
 20
3.9251648584
 30
0.0
  0
SPLINE
  5
333
100
AcDbEntity
  8
0
100
AcDbSpline
 62
9
  6
CONTINUOUS
 70
0
 71
3
 72
40
 73
36
 74
0
 42
0.0000001
 43
0.0000001
 44
0.0000000001
 40
0.0
 40
0.0
 40
0.0
 40
0.0
 40
0.097818533
 40
0.194882467
 40
0.2900740787
 40
0.3823907684
 40
0.4709970326
 40
0.555073985
 40
0.633831629
 40
0.7064929936
 40
0.7723414051
 40
0.8025203806
 40
0.8307700119
 40
0.8570161508
 40
0.8811945414
 40
0.9032544368
 40
0.9231461757
 40
0.9408202984
 40
0.956227691
 40
0.9630664163
 40
0.9693231783
 40
0.9749962181
 40
0.9800839635
 40
0.9845850935
 40
0.9884986938
 40
0.9918245492
 40
0.994563752
 40
0.9957145166
 40
0.9967204929
 40
0.9975832764
 40
0.9983055866
 40
0.998892315
 40
0.9993529705
 40
0.9997077169
 40
1.0
 40
1.0
 40
1.0
 40
1.0
 10
9.7100517254
 20
3.789928712
 30
0.0
 10
9.7120090328
 20
3.7898826555
 30
0.0
 10
9.7159088614
 20
3.789803902
 30
0.0
 10
9.7217141108
 20
3.789717943
 30
0.0
 10
9.727409553
 20
3.7896578226
 30
0.0
 10
9.73293588
 20
3.7896177265
 30
0.0
 10
9.7382398296
 20
3.7895929478
 30
0.0
 10
9.7432724273
 20
3.7895781669
 30
0.0
 10
9.7479859016
 20
3.7895708915
 30
0.0
 10
9.752334534
 20
3.7895689988
 30
0.0
 10
9.7557108592
 20
3.7895707341
 30
0.0
 10
9.7581982745
 20
3.7895750908
 30
0.0
 10
9.7598930432
 20
3.7895797653
 30
0.0
 10
9.7614677034
 20
3.7895860457
 30
0.0
 10
9.7629184654
 20
3.7895942218
 30
0.0
 10
9.7642420239
 20
3.7896049237
 30
0.0
 10
9.7654353642
 20
3.7896187146
 30
0.0
 10
9.766495491
 20
3.7896361763
 30
0.0
 10
9.767294292
 20
3.7896548721
 30
0.0
 10
9.7678645022
 20
3.7896727826
 30
0.0
 10
9.7682398906
 20
3.7896869967
 30
0.0
 10
9.7685801449
 20
3.7897026175
 30
0.0
 10
9.7688851409
 20
3.789719735
 30
0.0
 10
9.769154756
 20
3.7897384345
 30
0.0
 10
9.7693888811
 20
3.7897587789
 30
0.0
 10
9.7695874014
 20
3.7897808502
 30
0.0
 10
9.7697303726
 20
3.7898016821
 30
0.0
 10
9.7698266663
 20
3.7898199366
 30
0.0
 10
9.7698856197
 20
3.7898333142
 30
0.0
 10
9.7699356207
 20
3.7898471798
 30
0.0
 10
9.7699766912
 20
3.7898615395
 30
0.0
 10
9.7700089401
 20
3.789876404
 30
0.0
 10
9.7700324974
 20
3.7898918999
 30
0.0
 10
9.7700478072
 20
3.7899085021
 30
0.0
 10
9.7700517198
 20
3.7899215369
 30
0.0
 10
9.7700517254
 20
3.789927387
 30
0.0
  0
SPLINE
  5
334
100
AcDbEntity
  8
0
100
AcDbSpline
 62
9
  6
CONTINUOUS
 70
0
 71
3
 72
40
 73
36
 74
0
 42
0.0000001
 43
0.0000001
 44
0.0000000001
 40
0.0
 40
0.0
 40
0.0
 40
0.0
 40
0.0002915375
 40
0.0006453521
 40
0.0011048386
 40
0.0016901522
 40
0.0024108098
 40
0.0032717184
 40
0.0042756167
 40
0.0054241216
 40
0.0081583513
 40
0.0114787855
 40
0.0153867105
 40
0.0198821084
 40
0.0249642634
 40
0.0306320544
 40
0.0368840579
 40
0.0437170798
 40
0.0591052307
 40
0.0767535877
 40
0.0966184198
 40
0.1186556449
 40
0.1428199271
 40
0.1690518881
 40
0.197282221
 40
0.2274413809
 40
0.2932672788
 40
0.3659116546
 40
0.4446463015
 40
0.5287273648
 40
0.6173682163
 40
0.7097566813
 40
0.8050403536
 40
0.9021618824
 40
1.0
 40
1.0
 40
1.0
 40
1.0
 10
8.6920517254
 20
3.7899275649
 30
0.0
 10
8.6920517293
 20
3.7899217297
 30
0.0
 10
8.6920556279
 20
3.7899087271
 30
0.0
 10
8.692070898
 20
3.7898921664
 30
0.0
 10
8.6920943977
 20
3.7898767117
 30
0.0
 10
8.6921265717
 20
3.7898618877
 30
0.0
 10
8.6921675512
 20
3.7898475681
 30
0.0
 10
8.6922174466
 20
3.7898337418
 30
0.0
 10
8.6922762811
 20
3.7898204026
 30
0.0
 10
8.6923723946
 20
3.7898022
 30
0.0
 10
8.6925151183
 20
3.7897814281
 30
0.0
 10
8.6927133214
 20
3.7897594197
 30
0.0
 10
8.6929471127
 20
3.7897391301
 30
0.0
 10
8.6932163893
 20
3.7897204758
 30
0.0
 10
8.6935210544
 20
3.7897033924
 30
0.0
 10
8.6938609964
 20
3.7896877935
 30
0.0
 10
8.6942360697
 20
3.7896735873
 30
0.0
 10
8.6948056842
 20
3.7896556811
 30
0.0
 10
8.6956034687
 20
3.7896369989
 30
0.0
 10
8.6966621535
 20
3.789619523
 30
0.0
 10
8.6978539822
 20
3.7896056433
 30
0.0
 10
8.6991762617
 20
3.789594743
 30
0.0
 10
8.7006259986
 20
3.7895861647
 30
0.0
 10
8.7021997022
 20
3.789579563
 30
0.0
 10
8.7038934006
 20
3.7895747515
 30
0.0
 10
8.7063795774
 20
3.7895703181
 30
0.0
 10
8.7097547087
 20
3.7895683196
 30
0.0
 10
8.714102082
 20
3.789570194
 30
0.0
 10
8.7188148282
 20
3.7895780401
 30
0.0
 10
8.7238477305
 20
3.7895927525
 30
0.0
 10
8.7291538791
 20
3.7896180217
 30
0.0
 10
8.7346841633
 20
3.7896585366
 30
0.0
 10
8.7403840273
 20
3.7897185624
 30
0.0
 10
8.7461926562
 20
3.7898043142
 30
0.0
 10
8.7500940268
 20
3.7898828364
 30
0.0
 10
8.7520517254
 20
3.7899287653
 30
0.0
  0
SPLINE
  5
335
100
AcDbEntity
  8
0
100
AcDbSpline
 62
9
  6
CONTINUOUS
 70
0
 71
3
 72
29
 73
25
 74
0
 42
0.0000001
 43
0.0000001
 44
0.0000000001
 40
0.0
 40
0.0
 40
0.0
 40
0.0
 40
0.0035828672
 40
0.007665769
 40
0.0122486963
 40
0.0173291533
 40
0.0289649507
 40
0.0425309249
 40
0.057975682
 40
0.0752445475
 40
0.0942865792
 40
0.1150519379
 40
0.1615499735
 40
0.2143337392
 40
0.2730165171
 40
0.3372184034
 40
0.4065505358
 40
0.4806086239
 40
0.5589864997
 40
0.6412730315
 40
0.7270542667
 40
0.8158843416
 40
0.9071099014
 40
1.0
 40
1.0
 40
1.0
 40
1.0
 10
8.720109411
 20
3.8198314983
 30
0.0
 10
8.7201445666
 20
3.8198217504
 30
0.0
 10
8.7202204801
 20
3.8198033914
 30
0.0
 10
8.7203429414
 20
3.8197796182
 30
0.0
 10
8.7204812124
 20
3.8197577295
 30
0.0
 10
8.7206962841
 20
3.8197296611
 30
0.0
 10
8.721003264
 20
3.8196999059
 30
0.0
 10
8.7214161765
 20
3.8196712729
 30
0.0
 10
8.7218868385
 20
3.8196476071
 30
0.0
 10
8.7224134798
 20
3.8196280576
 30
0.0
 10
8.7229944394
 20
3.8196121443
 30
0.0
 10
8.7238730599
 20
3.8195944922
 30
0.0
 10
8.7250953519
 20
3.8195800135
 30
0.0
 10
8.7267037702
 20
3.8195694755
 30
0.0
 10
8.7284924823
 20
3.8195639821
 30
0.0
 10
8.7304497009
 20
3.819562153
 30
0.0
 10
8.7325634772
 20
3.8195633365
 30
0.0
 10
8.7348215924
 20
3.8195688811
 30
0.0
 10
8.7372115976
 20
3.8195795014
 30
0.0
 10
8.7397209318
 20
3.8195978217
 30
0.0
 10
8.7423365962
 20
3.8196274212
 30
0.0
 10
8.7450431002
 20
3.8196713209
 30
0.0
 10
8.7478216085
 20
3.8197357972
 30
0.0
 10
8.7496953941
 20
3.8197965855
 30
0.0
 10
8.7506405449
 20
3.8198326755
 30
0.0
  0
SPLINE
  5
336
100
AcDbEntity
  8
0
100
AcDbSpline
 62
9
  6
CONTINUOUS
 70
0
 71
3
 72
42
 73
38
 74
0
 42
0.0000001
 43
0.0000001
 44
0.0000000001
 40
0.0
 40
0.0
 40
0.0
 40
0.0
 40
0.000018069
 40
0.0000758498
 40
0.0001734387
 40
0.0003108343
 40
0.0007049956
 40
0.0012582182
 40
0.0019703752
 40
0.002841337
 40
0.0038709733
 40
0.0050591532
 40
0.0079106189
 40
0.011394684
 40
0.015510294
 40
0.0202551474
 40
0.0256238391
 40
0.0316104927
 40
0.0382092375
 40
0.0454142095
 40
0.0616194168
 40
0.0801796791
 40
0.101049233
 40
0.1241825536
 40
0.1495246039
 40
0.1769938053
 40
0.2065041624
 40
0.2379638666
 40
0.3062375778
 40
0.3808054594
 40
0.460797426
 40
0.5453746329
 40
0.6335243624
 40
0.7241580278
 40
0.8160872854
 40
0.9082684093
 40
1.0
 40
1.0
 40
1.0
 40
1.0
 10
8.7130612018
 20
3.823680252
 30
0.0
 10
8.7130612005
 20
3.8236803006
 30
0.0
 10
8.7130614963
 20
3.8236800307
 30
0.0
 10
8.7130617621
 20
3.823679935
 30
0.0
 10
8.7130624818
 20
3.8236793955
 30
0.0
 10
8.7130638268
 20
3.8236784864
 30
0.0
 10
8.713066243
 20
3.8236767615
 30
0.0
 10
8.7130698663
 20
3.823674199
 30
0.0
 10
8.7130745507
 20
3.8236708562
 30
0.0
 10
8.7130802654
 20
3.8236667745
 30
0.0
 10
8.7130870209
 20
3.8236619395
 30
0.0
 10
8.7130981025
 20
3.8236540007
 30
0.0
 10
8.7131145435
 20
3.823642208
 30
0.0
 10
8.7131373761
 20
3.8236258201
 30
0.0
 10
8.7131643423
 20
3.8236064589
 30
0.0
 10
8.7131954265
 20
3.8235841435
 30
0.0
 10
8.7132306127
 20
3.8235589141
 30
0.0
 10
8.7132698756
 20
3.8235308145
 30
0.0
 10
8.7133131892
 20
3.8234998903
 30
0.0
 10
8.7133789293
 20
3.8234530852
 30
0.0
 10
8.7134710217
 20
3.8233878325
 30
0.0
 10
8.7135933927
 20
3.8233017536
 30
0.0
 10
8.713731383
 20
3.8232054987
 30
0.0
 10
8.7138847906
 20
3.823099471
 30
0.0
 10
8.7140533271
 20
3.8229841216
 30
0.0
 10
8.7142365755
 20
3.8228599085
 30
0.0
 10
8.7144340429
 20
3.8227273557
 30
0.0
 10
8.7147234923
 20
3.8225349529
 30
0.0
 10
8.7151159361
 20
3.8222786228
 30
0.0
 10
8.7156217063
 20
3.8219571969
 30
0.0
 10
8.7161709079
 20
3.8216225239
 30
0.0
 10
8.7167600022
 20
3.8212834844
 30
0.0
 10
8.7173835377
 20
3.8209474254
 30
0.0
 10
8.7180352973
 20
3.8206227537
 30
0.0
 10
8.7187094123
 20
3.820319746
 30
0.0
 10
8.7194003632
 20
3.8200489246
 30
0.0
 10
8.7198717511
 20
3.8198976102
 30
0.0
 10
8.720109411
 20
3.8198314983
 30
0.0
  0
LINE
  5
337
100
AcDbEntity
  8
0
100
AcDbLine
 62
9
  6
CONTINUOUS
 10
8.833809051
 20
3.9251713746
 11
8.8338125749
 21
3.8236796582
  0
SPLINE
  5
338
100
AcDbEntity
  8
0
100
AcDbSpline
 62
9
  6
CONTINUOUS
 70
0
 71
3
 72
18
 73
14
 74
0
 42
0.0000001
 43
0.0000001
 44
0.0000000001
 40
0.0
 40
0.0
 40
0.0
 40
0.0
 40
0.1244151737
 40
0.2489509143
 40
0.3112756509
 40
0.3736473163
 40
0.4985491698
 40
0.6236682764
 40
0.6863039993
 40
0.7489844701
 40
0.8117034933
 40
0.8744542895
 40
1.0
 40
1.0
 40
1.0
 40
1.0
 10
8.7506405449
 20
3.8198326755
 30
0.0
 10
8.7540915959
 20
3.8199645428
 30
0.0
 10
8.7609942527
 20
3.8203023532
 30
0.0
 10
8.76961823
 20
3.8208378017
 30
0.0
 10
8.7765216608
 20
3.8212910071
 30
0.0
 10
8.7834350533
 20
3.8217476032
 30
0.0
 10
8.7920888842
 20
3.8223016994
 30
0.0
 10
8.8007543053
 20
3.8227878107
 30
0.0
 10
8.8076986141
 20
3.8231092898
 30
0.0
 10
8.8129142701
 20
3.8233124316
 30
0.0
 10
8.8181345765
 20
3.8234745057
 30
0.0
 10
8.8251006602
 20
3.8236313889
 30
0.0
 10
8.8303276234
 20
3.8236802387
 30
0.0
 10
8.8338125749
 20
3.8236803195
 30
0.0
  0
SPLINE
  5
339
100
AcDbEntity
  8
0
100
AcDbSpline
 62
9
  6
CONTINUOUS
 70
0
 71
3
 72
21
 73
17
 74
0
 42
0.0000001
 43
0.0000001
 44
0.0000000001
 40
0.0
 40
0.0
 40
0.0
 40
0.0
 40
0.1255427991
 40
0.1882894397
 40
0.2510065357
 40
0.3136864357
 40
0.3763222389
 40
0.4389089734
 40
0.5014426345
 40
0.5639207696
 40
0.6263447237
 40
0.7510470506
 40
0.8133346544
 40
0.8755839315
 40
0.9378028006
 40
1.0
 40
1.0
 40
1.0
 40
1.0
 10
9.6282985246
 20
3.8236799309
 30
0.0
 10
9.6317831717
 20
3.8236795915
 30
0.0
 10
9.6370096026
 20
3.8236313907
 30
0.0
 10
9.643975007
 20
3.823475172
 30
0.0
 10
9.6491947977
 20
3.8233131702
 30
0.0
 10
9.6544100205
 20
3.8231091861
 30
0.0
 10
9.6596199768
 20
3.8228669948
 30
0.0
 10
9.6648242571
 20
3.8225925824
 30
0.0
 10
9.6700226832
 20
3.8222917272
 30
0.0
 10
9.6752153066
 20
3.8219697127
 30
0.0
 10
9.682128972
 20
3.8215214006
 30
0.0
 10
9.6890364356
 20
3.8210593395
 30
0.0
 10
9.6959407342
 20
3.820623228
 30
0.0
 10
9.7011155882
 20
3.8203198402
 30
0.0
 10
9.7062897832
 20
3.8200496362
 30
0.0
 10
9.7097399234
 20
3.8198987508
 30
0.0
 10
9.7114650432
 20
3.819832649
 30
0.0
  0
SPLINE
  5
33A
100
AcDbEntity
  8
0
100
AcDbSpline
 62
9
  6
CONTINUOUS
 70
0
 71
3
 72
43
 73
39
 74
0
 42
0.0000001
 43
0.0000001
 44
0.0000000001
 40
0.0
 40
0.0
 40
0.0
 40
0.0
 40
0.0918549409
 40
0.1842511462
 40
0.2762364131
 40
0.3667085856
 40
0.4546454691
 40
0.5391632244
 40
0.6192859041
 40
0.6939372067
 40
0.7621020878
 40
0.793496144
 40
0.822966582
 40
0.850414951
 40
0.8757561684
 40
0.8989210015
 40
0.919840852
 40
0.9384468551
 40
0.9546699194
 40
0.9618673683
 40
0.9684498305
 40
0.9744152604
 40
0.9797616116
 40
0.984486838
 40
0.9885888929
 40
0.9920657297
 40
0.9949153012
 40
0.9961042229
 40
0.9971355605
 40
0.9980090582
 40
0.9987244602
 40
0.9992815104
 40
0.9995005737
 40
0.9996799532
 40
0.9998196169
 40
0.999919533
 40
0.9999796702
 40
1.0
 40
1.0
 40
1.0
 40
1.0
 10
9.7419907169
 20
3.8198313452
 30
0.0
 10
9.7422287012
 20
3.8198978579
 30
0.0
 10
9.7427010625
 20
3.8200496049
 30
0.0
 10
9.7433936984
 20
3.8203197287
 30
0.0
 10
9.7440688394
 20
3.8206218385
 30
0.0
 10
9.7447202002
 20
3.8209460137
 30
0.0
 10
9.745342367
 20
3.8212827075
 30
0.0
 10
9.7459307183
 20
3.8216227396
 30
0.0
 10
9.7464807267
 20
3.8219573102
 30
0.0
 10
9.7469875555
 20
3.822277996
 30
0.0
 10
9.7473803151
 20
3.8225337049
 30
0.0
 10
9.7476694446
 20
3.8227257731
 30
0.0
 10
9.7478665921
 20
3.8228583458
 30
0.0
 10
9.7480495668
 20
3.8229828086
 30
0.0
 10
9.7482179435
 20
3.8230985674
 30
0.0
 10
9.7483713704
 20
3.8232050669
 30
0.0
 10
9.7485095328
 20
3.8233017796
 30
0.0
 10
9.7486321184
 20
3.8233881788
 30
0.0
 10
9.748724381
 20
3.8234535219
 30
0.0
 10
9.7487902181
 20
3.8235002126
 30
0.0
 10
9.7488335351
 20
3.8235309562
 30
0.0
 10
9.7488727804
 20
3.8235588326
 30
0.0
 10
9.7489079429
 20
3.8235838294
 30
0.0
 10
9.748939011
 20
3.823605934
 30
0.0
 10
9.7489659734
 20
3.8236251341
 30
0.0
 10
9.7489888185
 20
3.8236414172
 30
0.0
 10
9.7490052765
 20
3.8236531593
 30
0.0
 10
9.7490163757
 20
3.8236610853
 30
0.0
 10
9.7490231471
 20
3.8236659241
 30
0.0
 10
9.7490288813
 20
3.823670024
 30
0.0
 10
9.7490335744
 20
3.8236733846
 30
0.0
 10
9.7490368388
 20
3.8236757202
 30
0.0
 10
9.7490389227
 20
3.8236772211
 30
0.0
 10
9.7490401076
 20
3.8236780612
 30
0.0
 10
9.7490409984
 20
3.8236787315
 30
0.0
 10
9.7490417064
 20
3.8236791765
 30
0.0
 10
9.7490420035
 20
3.8236795092
 30
0.0
 10
9.7490422775
 20
3.8236795878
 30
0.0
 10
9.749042279
 20
3.8236796425
 30
0.0
  0
SPLINE
  5
33B
100
AcDbEntity
  8
0
100
AcDbSpline
 62
9
  6
CONTINUOUS
 70
0
 71
3
 72
28
 73
24
 74
0
 42
0.0000001
 43
0.0000001
 44
0.0000000001
 40
0.0
 40
0.0
 40
0.0
 40
0.0
 40
0.1840789203
 40
0.2728481197
 40
0.358587668
 40
0.4408595653
 40
0.5192363374
 40
0.5933019288
 40
0.6626444751
 40
0.7268627194
 40
0.7855746601
 40
0.8383989397
 40
0.8849343062
 40
0.9057146294
 40
0.9247684656
 40
0.9420450678
 40
0.9574910781
 40
0.9710532012
 40
0.982682415
 40
0.9877593156
 40
0.9923389185
 40
0.9964190431
 40
1.0
 40
1.0
 40
1.0
 40
1.0
 10
9.7114650432
 20
3.819832649
 30
0.0
 10
9.7133376952
 20
3.8197609316
 30
0.0
 10
9.7161146466
 20
3.8196862994
 30
0.0
 10
9.7197647747
 20
3.8196266511
 30
0.0
 10
9.7223787931
 20
3.8195973843
 30
0.0
 10
9.7248871011
 20
3.8195795624
 30
0.0
 10
9.7272766007
 20
3.8195690383
 30
0.0
 10
9.729534489
 20
3.8195640222
 30
0.0
 10
9.7316482402
 20
3.8195628318
 30
0.0
 10
9.7336056827
 20
3.8195643684
 30
0.0
 10
9.7353949542
 20
3.8195697903
 30
0.0
 10
9.7370041822
 20
3.8195795585
 30
0.0
 10
9.7382272068
 20
3.8195937906
 30
0.0
 10
9.7391063263
 20
3.8196113648
 30
0.0
 10
9.7396875355
 20
3.819627231
 30
0.0
 10
9.7402143001
 20
3.8196466577
 30
0.0
 10
9.7406849319
 20
3.8196703212
 30
0.0
 10
9.7410976711
 20
3.819699056
 30
0.0
 10
9.7414044392
 20
3.8197289669
 30
0.0
 10
9.7416193138
 20
3.8197571915
 30
0.0
 10
9.7417574413
 20
3.8197792008
 30
0.0
 10
9.7418797726
 20
3.8198031013
 30
0.0
 10
9.7419556008
 20
3.8198215519
 30
0.0
 10
9.7419907169
 20
3.8198313452
 30
0.0
  0
SPLINE
  5
33C
100
AcDbEntity
  8
0
100
AcDbSpline
 62
9
  6
CONTINUOUS
 70
0
 71
3
 72
40
 73
36
 74
0
 42
0.0000001
 43
0.0000001
 44
0.0000000001
 40
0.0
 40
0.0
 40
0.0
 40
0.0
 40
0.0002915375
 40
0.0006453521
 40
0.0011048386
 40
0.0016901522
 40
0.0024108098
 40
0.0032717184
 40
0.0042756167
 40
0.0054241216
 40
0.0081583513
 40
0.0114787855
 40
0.0153867105
 40
0.0198821084
 40
0.0249642634
 40
0.0306320544
 40
0.0368840579
 40
0.0437170798
 40
0.0591052307
 40
0.0767535877
 40
0.0966184198
 40
0.1186556449
 40
0.1428199271
 40
0.1690518881
 40
0.197282221
 40
0.2274413809
 40
0.2932672788
 40
0.3659116546
 40
0.4446463015
 40
0.5287273648
 40
0.6173682163
 40
0.7097566813
 40
0.8050403536
 40
0.9021618824
 40
1.0
 40
1.0
 40
1.0
 40
1.0
 10
2.0920517254
 20
3.7899275649
 30
0.0
 10
2.0920517293
 20
3.7899217297
 30
0.0
 10
2.0920556279
 20
3.7899087271
 30
0.0
 10
2.092070898
 20
3.7898921664
 30
0.0
 10
2.0920943977
 20
3.7898767117
 30
0.0
 10
2.0921265717
 20
3.7898618877
 30
0.0
 10
2.0921675512
 20
3.7898475681
 30
0.0
 10
2.0922174466
 20
3.7898337418
 30
0.0
 10
2.0922762811
 20
3.7898204026
 30
0.0
 10
2.0923723946
 20
3.7898022
 30
0.0
 10
2.0925151183
 20
3.7897814281
 30
0.0
 10
2.0927133214
 20
3.7897594197
 30
0.0
 10
2.0929471127
 20
3.7897391301
 30
0.0
 10
2.0932163893
 20
3.7897204758
 30
0.0
 10
2.0935210544
 20
3.7897033924
 30
0.0
 10
2.0938609964
 20
3.7896877935
 30
0.0
 10
2.0942360697
 20
3.7896735873
 30
0.0
 10
2.0948056842
 20
3.7896556811
 30
0.0
 10
2.0956034687
 20
3.7896369989
 30
0.0
 10
2.0966621535
 20
3.789619523
 30
0.0
 10
2.0978539822
 20
3.7896056433
 30
0.0
 10
2.0991762617
 20
3.789594743
 30
0.0
 10
2.1006259986
 20
3.7895861647
 30
0.0
 10
2.1021997022
 20
3.789579563
 30
0.0
 10
2.1038934006
 20
3.7895747515
 30
0.0
 10
2.1063795774
 20
3.7895703181
 30
0.0
 10
2.1097547087
 20
3.7895683196
 30
0.0
 10
2.114102082
 20
3.789570194
 30
0.0
 10
2.1188148282
 20
3.7895780401
 30
0.0
 10
2.1238477305
 20
3.7895927525
 30
0.0
 10
2.1291538791
 20
3.7896180217
 30
0.0
 10
2.1346841633
 20
3.7896585366
 30
0.0
 10
2.1403840273
 20
3.7897185624
 30
0.0
 10
2.1461926562
 20
3.7898043142
 30
0.0
 10
2.1500940268
 20
3.7898828364
 30
0.0
 10
2.1520517254
 20
3.7899287653
 30
0.0
  0
SPLINE
  5
33D
100
AcDbEntity
  8
0
100
AcDbSpline
 62
9
  6
CONTINUOUS
 70
0
 71
3
 72
29
 73
25
 74
0
 42
0.0000001
 43
0.0000001
 44
0.0000000001
 40
0.0
 40
0.0
 40
0.0
 40
0.0
 40
0.0035828672
 40
0.007665769
 40
0.0122486963
 40
0.0173291533
 40
0.0289649507
 40
0.0425309249
 40
0.057975682
 40
0.0752445475
 40
0.0942865792
 40
0.1150519379
 40
0.1615499735
 40
0.2143337392
 40
0.2730165171
 40
0.3372184034
 40
0.4065505358
 40
0.4806086239
 40
0.5589864997
 40
0.6412730315
 40
0.7270542667
 40
0.8158843416
 40
0.9071099014
 40
1.0
 40
1.0
 40
1.0
 40
1.0
 10
2.120109411
 20
3.8198314983
 30
0.0
 10
2.1201445666
 20
3.8198217504
 30
0.0
 10
2.1202204801
 20
3.8198033914
 30
0.0
 10
2.1203429414
 20
3.8197796182
 30
0.0
 10
2.1204812124
 20
3.8197577295
 30
0.0
 10
2.1206962841
 20
3.8197296611
 30
0.0
 10
2.121003264
 20
3.8196999059
 30
0.0
 10
2.1214161765
 20
3.8196712729
 30
0.0
 10
2.1218868385
 20
3.8196476071
 30
0.0
 10
2.1224134798
 20
3.8196280576
 30
0.0
 10
2.1229944394
 20
3.8196121443
 30
0.0
 10
2.1238730599
 20
3.8195944922
 30
0.0
 10
2.1250953519
 20
3.8195800135
 30
0.0
 10
2.1267037702
 20
3.8195694755
 30
0.0
 10
2.1284924823
 20
3.8195639821
 30
0.0
 10
2.1304497009
 20
3.819562153
 30
0.0
 10
2.1325634772
 20
3.8195633365
 30
0.0
 10
2.1348215924
 20
3.8195688811
 30
0.0
 10
2.1372115976
 20
3.8195795014
 30
0.0
 10
2.1397209318
 20
3.8195978217
 30
0.0
 10
2.1423365962
 20
3.8196274212
 30
0.0
 10
2.1450431002
 20
3.8196713209
 30
0.0
 10
2.1478216085
 20
3.8197357972
 30
0.0
 10
2.1496953941
 20
3.8197965855
 30
0.0
 10
2.1506405449
 20
3.8198326755
 30
0.0
  0
SPLINE
  5
33E
100
AcDbEntity
  8
0
100
AcDbSpline
 62
9
  6
CONTINUOUS
 70
0
 71
3
 72
42
 73
38
 74
0
 42
0.0000001
 43
0.0000001
 44
0.0000000001
 40
0.0
 40
0.0
 40
0.0
 40
0.0
 40
0.000018069
 40
0.0000758498
 40
0.0001734387
 40
0.0003108343
 40
0.0007049956
 40
0.0012582182
 40
0.0019703752
 40
0.002841337
 40
0.0038709733
 40
0.0050591532
 40
0.0079106189
 40
0.011394684
 40
0.015510294
 40
0.0202551474
 40
0.0256238391
 40
0.0316104927
 40
0.0382092375
 40
0.0454142095
 40
0.0616194168
 40
0.0801796791
 40
0.101049233
 40
0.1241825536
 40
0.1495246039
 40
0.1769938053
 40
0.2065041624
 40
0.2379638666
 40
0.3062375778
 40
0.3808054594
 40
0.460797426
 40
0.5453746329
 40
0.6335243624
 40
0.7241580278
 40
0.8160872854
 40
0.9082684093
 40
1.0
 40
1.0
 40
1.0
 40
1.0
 10
2.1130612018
 20
3.823680252
 30
0.0
 10
2.1130612005
 20
3.8236803006
 30
0.0
 10
2.1130614963
 20
3.8236800307
 30
0.0
 10
2.1130617621
 20
3.823679935
 30
0.0
 10
2.1130624818
 20
3.8236793955
 30
0.0
 10
2.1130638268
 20
3.8236784864
 30
0.0
 10
2.113066243
 20
3.8236767615
 30
0.0
 10
2.1130698663
 20
3.823674199
 30
0.0
 10
2.1130745507
 20
3.8236708562
 30
0.0
 10
2.1130802654
 20
3.8236667745
 30
0.0
 10
2.1130870209
 20
3.8236619395
 30
0.0
 10
2.1130981025
 20
3.8236540007
 30
0.0
 10
2.1131145435
 20
3.823642208
 30
0.0
 10
2.1131373761
 20
3.8236258201
 30
0.0
 10
2.1131643423
 20
3.8236064589
 30
0.0
 10
2.1131954265
 20
3.8235841435
 30
0.0
 10
2.1132306127
 20
3.8235589141
 30
0.0
 10
2.1132698756
 20
3.8235308145
 30
0.0
 10
2.1133131892
 20
3.8234998903
 30
0.0
 10
2.1133789293
 20
3.8234530852
 30
0.0
 10
2.1134710217
 20
3.8233878325
 30
0.0
 10
2.1135933927
 20
3.8233017536
 30
0.0
 10
2.113731383
 20
3.8232054987
 30
0.0
 10
2.1138847906
 20
3.823099471
 30
0.0
 10
2.1140533271
 20
3.8229841216
 30
0.0
 10
2.1142365755
 20
3.8228599085
 30
0.0
 10
2.1144340429
 20
3.8227273557
 30
0.0
 10
2.1147234923
 20
3.8225349529
 30
0.0
 10
2.1151159361
 20
3.8222786228
 30
0.0
 10
2.1156217063
 20
3.8219571969
 30
0.0
 10
2.1161709079
 20
3.8216225239
 30
0.0
 10
2.1167600022
 20
3.8212834844
 30
0.0
 10
2.1173835377
 20
3.8209474254
 30
0.0
 10
2.1180352973
 20
3.8206227537
 30
0.0
 10
2.1187094123
 20
3.820319746
 30
0.0
 10
2.1194003632
 20
3.8200489246
 30
0.0
 10
2.1198717511
 20
3.8198976102
 30
0.0
 10
2.120109411
 20
3.8198314983
 30
0.0
  0
LINE
  5
33F
100
AcDbEntity
  8
0
100
AcDbLine
 62
9
  6
CONTINUOUS
 10
2.233809051
 20
3.9251713746
 11
2.2338125749
 21
3.8236796582
  0
SPLINE
  5
340
100
AcDbEntity
  8
0
100
AcDbSpline
 62
9
  6
CONTINUOUS
 70
0
 71
3
 72
18
 73
14
 74
0
 42
0.0000001
 43
0.0000001
 44
0.0000000001
 40
0.0
 40
0.0
 40
0.0
 40
0.0
 40
0.1244151737
 40
0.2489509143
 40
0.3112756509
 40
0.3736473163
 40
0.4985491698
 40
0.6236682764
 40
0.6863039993
 40
0.7489844701
 40
0.8117034933
 40
0.8744542895
 40
1.0
 40
1.0
 40
1.0
 40
1.0
 10
2.1506405449
 20
3.8198326755
 30
0.0
 10
2.1540915959
 20
3.8199645428
 30
0.0
 10
2.1609942527
 20
3.8203023532
 30
0.0
 10
2.16961823
 20
3.8208378017
 30
0.0
 10
2.1765216608
 20
3.8212910071
 30
0.0
 10
2.1834350533
 20
3.8217476032
 30
0.0
 10
2.1920888842
 20
3.8223016994
 30
0.0
 10
2.2007543053
 20
3.8227878107
 30
0.0
 10
2.2076986141
 20
3.8231092898
 30
0.0
 10
2.2129142701
 20
3.8233124316
 30
0.0
 10
2.2181345765
 20
3.8234745057
 30
0.0
 10
2.2251006602
 20
3.8236313889
 30
0.0
 10
2.2303276234
 20
3.8236802387
 30
0.0
 10
2.2338125749
 20
3.8236803195
 30
0.0
  0
SPLINE
  5
341
100
AcDbEntity
  8
0
100
AcDbSpline
 62
9
  6
CONTINUOUS
 70
0
 71
3
 72
21
 73
17
 74
0
 42
0.0000001
 43
0.0000001
 44
0.0000000001
 40
0.0
 40
0.0
 40
0.0
 40
0.0
 40
0.1255427991
 40
0.1882894397
 40
0.2510065357
 40
0.3136864357
 40
0.3763222389
 40
0.4389089734
 40
0.5014426345
 40
0.5639207696
 40
0.6263447237
 40
0.7510470506
 40
0.8133346544
 40
0.8755839315
 40
0.9378028006
 40
1.0
 40
1.0
 40
1.0
 40
1.0
 10
3.0282985246
 20
3.8236799309
 30
0.0
 10
3.0317831717
 20
3.8236795915
 30
0.0
 10
3.0370096026
 20
3.8236313907
 30
0.0
 10
3.043975007
 20
3.823475172
 30
0.0
 10
3.0491947977
 20
3.8233131702
 30
0.0
 10
3.0544100205
 20
3.8231091861
 30
0.0
 10
3.0596199768
 20
3.8228669948
 30
0.0
 10
3.0648242571
 20
3.8225925824
 30
0.0
 10
3.0700226832
 20
3.8222917272
 30
0.0
 10
3.0752153066
 20
3.8219697127
 30
0.0
 10
3.082128972
 20
3.8215214006
 30
0.0
 10
3.0890364356
 20
3.8210593395
 30
0.0
 10
3.0959407342
 20
3.820623228
 30
0.0
 10
3.1011155882
 20
3.8203198402
 30
0.0
 10
3.1062897832
 20
3.8200496362
 30
0.0
 10
3.1097399234
 20
3.8198987508
 30
0.0
 10
3.1114650432
 20
3.819832649
 30
0.0
  0
SPLINE
  5
342
100
AcDbEntity
  8
0
100
AcDbSpline
 62
9
  6
CONTINUOUS
 70
0
 71
3
 72
43
 73
39
 74
0
 42
0.0000001
 43
0.0000001
 44
0.0000000001
 40
0.0
 40
0.0
 40
0.0
 40
0.0
 40
0.0918549409
 40
0.1842511462
 40
0.2762364131
 40
0.3667085856
 40
0.4546454691
 40
0.5391632244
 40
0.6192859041
 40
0.6939372067
 40
0.7621020878
 40
0.793496144
 40
0.822966582
 40
0.850414951
 40
0.8757561684
 40
0.8989210015
 40
0.919840852
 40
0.9384468551
 40
0.9546699194
 40
0.9618673683
 40
0.9684498305
 40
0.9744152604
 40
0.9797616116
 40
0.984486838
 40
0.9885888929
 40
0.9920657297
 40
0.9949153012
 40
0.9961042229
 40
0.9971355605
 40
0.9980090582
 40
0.9987244602
 40
0.9992815104
 40
0.9995005737
 40
0.9996799532
 40
0.9998196169
 40
0.999919533
 40
0.9999796702
 40
1.0
 40
1.0
 40
1.0
 40
1.0
 10
3.1419907169
 20
3.8198313452
 30
0.0
 10
3.1422287012
 20
3.8198978579
 30
0.0
 10
3.1427010625
 20
3.8200496049
 30
0.0
 10
3.1433936984
 20
3.8203197287
 30
0.0
 10
3.1440688394
 20
3.8206218385
 30
0.0
 10
3.1447202002
 20
3.8209460137
 30
0.0
 10
3.145342367
 20
3.8212827075
 30
0.0
 10
3.1459307183
 20
3.8216227396
 30
0.0
 10
3.1464807267
 20
3.8219573102
 30
0.0
 10
3.1469875555
 20
3.822277996
 30
0.0
 10
3.1473803151
 20
3.8225337049
 30
0.0
 10
3.1476694446
 20
3.8227257731
 30
0.0
 10
3.1478665921
 20
3.8228583458
 30
0.0
 10
3.1480495668
 20
3.8229828086
 30
0.0
 10
3.1482179435
 20
3.8230985674
 30
0.0
 10
3.1483713704
 20
3.8232050669
 30
0.0
 10
3.1485095328
 20
3.8233017796
 30
0.0
 10
3.1486321184
 20
3.8233881788
 30
0.0
 10
3.148724381
 20
3.8234535219
 30
0.0
 10
3.1487902181
 20
3.8235002126
 30
0.0
 10
3.1488335351
 20
3.8235309562
 30
0.0
 10
3.1488727804
 20
3.8235588326
 30
0.0
 10
3.1489079429
 20
3.8235838294
 30
0.0
 10
3.148939011
 20
3.823605934
 30
0.0
 10
3.1489659734
 20
3.8236251341
 30
0.0
 10
3.1489888185
 20
3.8236414172
 30
0.0
 10
3.1490052765
 20
3.8236531593
 30
0.0
 10
3.1490163757
 20
3.8236610853
 30
0.0
 10
3.1490231471
 20
3.8236659241
 30
0.0
 10
3.1490288813
 20
3.823670024
 30
0.0
 10
3.1490335744
 20
3.8236733846
 30
0.0
 10
3.1490368388
 20
3.8236757202
 30
0.0
 10
3.1490389227
 20
3.8236772211
 30
0.0
 10
3.1490401076
 20
3.8236780612
 30
0.0
 10
3.1490409984
 20
3.8236787315
 30
0.0
 10
3.1490417064
 20
3.8236791765
 30
0.0
 10
3.1490420035
 20
3.8236795092
 30
0.0
 10
3.1490422775
 20
3.8236795878
 30
0.0
 10
3.149042279
 20
3.8236796425
 30
0.0
  0
SPLINE
  5
343
100
AcDbEntity
  8
0
100
AcDbSpline
 62
9
  6
CONTINUOUS
 70
0
 71
3
 72
28
 73
24
 74
0
 42
0.0000001
 43
0.0000001
 44
0.0000000001
 40
0.0
 40
0.0
 40
0.0
 40
0.0
 40
0.1840789203
 40
0.2728481197
 40
0.358587668
 40
0.4408595653
 40
0.5192363374
 40
0.5933019288
 40
0.6626444751
 40
0.7268627194
 40
0.7855746601
 40
0.8383989397
 40
0.8849343062
 40
0.9057146294
 40
0.9247684656
 40
0.9420450678
 40
0.9574910781
 40
0.9710532012
 40
0.982682415
 40
0.9877593156
 40
0.9923389185
 40
0.9964190431
 40
1.0
 40
1.0
 40
1.0
 40
1.0
 10
3.1114650432
 20
3.819832649
 30
0.0
 10
3.1133376952
 20
3.8197609316
 30
0.0
 10
3.1161146466
 20
3.8196862994
 30
0.0
 10
3.1197647747
 20
3.8196266511
 30
0.0
 10
3.1223787931
 20
3.8195973843
 30
0.0
 10
3.1248871011
 20
3.8195795624
 30
0.0
 10
3.1272766007
 20
3.8195690383
 30
0.0
 10
3.129534489
 20
3.8195640222
 30
0.0
 10
3.1316482402
 20
3.8195628318
 30
0.0
 10
3.1336056827
 20
3.8195643684
 30
0.0
 10
3.1353949542
 20
3.8195697903
 30
0.0
 10
3.1370041822
 20
3.8195795585
 30
0.0
 10
3.1382272068
 20
3.8195937906
 30
0.0
 10
3.1391063263
 20
3.8196113648
 30
0.0
 10
3.1396875355
 20
3.819627231
 30
0.0
 10
3.1402143001
 20
3.8196466577
 30
0.0
 10
3.1406849319
 20
3.8196703212
 30
0.0
 10
3.1410976711
 20
3.819699056
 30
0.0
 10
3.1414044392
 20
3.8197289669
 30
0.0
 10
3.1416193138
 20
3.8197571915
 30
0.0
 10
3.1417574413
 20
3.8197792008
 30
0.0
 10
3.1418797726
 20
3.8198031013
 30
0.0
 10
3.1419556008
 20
3.8198215519
 30
0.0
 10
3.1419907169
 20
3.8198313452
 30
0.0
  0
LINE
  5
344
100
AcDbEntity
  8
0
100
AcDbLine
 62
9
  6
CONTINUOUS
 10
1.4506965924
 20
5.930896703
 11
1.4485517285
 21
5.9311546606
  0
SPLINE
  5
345
100
AcDbEntity
  8
0
100
AcDbSpline
 62
9
  6
CONTINUOUS
 70
0
 71
3
 72
25
 73
21
 74
0
 42
0.0000001
 43
0.0000001
 44
0.0000000001
 40
0.0
 40
0.0
 40
0.0
 40
0.0
 40
0.0642177762
 40
0.1283214416
 40
0.1922369129
 40
0.2559001672
 40
0.3192931468
 40
0.3824173381
 40
0.4452770388
 40
0.5078724865
 40
0.570198854
 40
0.6322548446
 40
0.6940537995
 40
0.7556232117
 40
0.7863358774
 40
0.8170033162
 40
0.8476273462
 40
0.8782059311
 40
0.9392080881
 40
1.0
 40
1.0
 40
1.0
 40
1.0
 10
1.489483183
 20
6.0079698536
 30
0.0
 10
1.489563176
 20
6.0060374971
 30
0.0
 10
1.4896033583
 20
6.0021701962
 30
0.0
 10
1.4893051662
 20
5.9963848623
 30
0.0
 10
1.4886498895
 20
5.9906455299
 30
0.0
 10
1.487637845
 20
5.9849799862
 30
0.0
 10
1.4862743358
 20
5.9794131206
 30
0.0
 10
1.4845660072
 20
5.9739675197
 30
0.0
 10
1.4825185939
 20
5.9686657999
 30
0.0
 10
1.4801413219
 20
5.9635300074
 30
0.0
 10
1.4774455193
 20
5.9585815188
 30
0.0
 10
1.4744414655
 20
5.9538420894
 30
0.0
 10
1.4711412894
 20
5.9493322152
 30
0.0
 10
1.4681535047
 20
5.9457766768
 30
0.0
 10
1.4656299731
 20
5.9430661597
 30
0.0
 10
1.4636735052
 20
5.9411032866
 30
0.0
 10
1.4616540333
 20
5.9392112033
 30
0.0
 10
1.4588835106
 20
5.9367876028
 30
0.0
 10
1.4552765976
 20
5.9339446201
 30
0.0
 10
1.4522439241
 20
5.9318753385
 30
0.0
 10
1.4506965924
 20
5.930896703
 30
0.0
  0
SPLINE
  5
346
100
AcDbEntity
  8
0
100
AcDbSpline
 62
9
  6
CONTINUOUS
 70
0
 71
3
 72
10
 73
6
 74
0
 42
0.0000001
 43
0.0000001
 44
0.0000000001
 40
0.0
 40
0.0
 40
0.0
 40
0.0
 40
0.2506041879
 40
0.5007641252
 40
1.0
 40
1.0
 40
1.0
 40
1.0
 10
1.5021868528
 20
5.9308970459
 30
0.0
 10
1.5012854083
 20
5.9309148689
 30
0.0
 10
1.4994835481
 20
5.9309265717
 30
0.0
 10
1.4958861385
 20
5.9308588306
 30
0.0
 10
1.4931927946
 20
5.9307122466
 30
0.0
 10
1.4914016448
 20
5.9305783866
 30
0.0
  0
SPLINE
  5
347
100
AcDbEntity
  8
0
100
AcDbSpline
 62
9
  6
CONTINUOUS
 70
0
 71
3
 72
27
 73
23
 74
0
 42
0.0000001
 43
0.0000001
 44
0.0000000001
 40
0.0
 40
0.0
 40
0.0
 40
0.0
 40
0.0910020348
 40
0.1803463456
 40
0.3517756359
 40
0.4328462315
 40
0.5102043409
 40
0.5834065683
 40
0.6520288174
 40
0.715657854
 40
0.7739598713
 40
0.8266489595
 40
0.8508082539
 40
0.8734813519
 40
0.894649867
 40
0.9142965455
 40
0.9324059682
 40
0.9489726527
 40
0.9640024026
 40
0.9775051354
 40
0.9894962956
 40
1.0
 40
1.0
 40
1.0
 40
1.0
 10
1.4914016448
 20
5.9305783866
 30
0.0
 10
1.4902275004
 20
5.9304907386
 30
0.0
 10
1.4878999803
 20
5.9303251796
 30
0.0
 10
1.4833578128
 20
5.9300354212
 30
0.0
 10
1.4789407273
 20
5.929804325
 30
0.0
 10
1.474676099
 20
5.929638515
 30
0.0
 10
1.4716804288
 20
5.9295505754
 30
0.0
 10
1.4688450263
 20
5.9294970994
 30
0.0
 10
1.4661868048
 20
5.9294782892
 30
0.0
 10
1.4637213313
 20
5.9294944488
 30
0.0
 10
1.4614625134
 20
5.9295453215
 30
0.0
 10
1.4597152551
 20
5.9296179868
 30
0.0
 10
1.4584298975
 20
5.9296951385
 30
0.0
 10
1.4575524283
 20
5.929759778
 30
0.0
 10
1.456734212
 20
5.9298327925
 30
0.0
 10
1.4559761296
 20
5.9299141104
 30
0.0
 10
1.4552789576
 20
5.930003696
 30
0.0
 10
1.4546432367
 20
5.9301014105
 30
0.0
 10
1.4540692544
 20
5.9302069438
 30
0.0
 10
1.4535571421
 20
5.930320027
 30
0.0
 10
1.453107046
 20
5.9304403742
 30
0.0
 10
1.4528302666
 20
5.9305311774
 30
0.0
 10
1.452702904
 20
5.9305785861
 30
0.0
  0
SPLINE
  5
348
100
AcDbEntity
  8
0
100
AcDbSpline
 62
9
  6
CONTINUOUS
 70
0
 71
3
 72
10
 73
6
 74
0
 42
0.0000001
 43
0.0000001
 44
0.0000000001
 40
0.0
 40
0.0
 40
0.0
 40
0.0
 40
0.2730122876
 40
0.5308083402
 40
1.0
 40
1.0
 40
1.0
 40
1.0
 10
1.452702904
 20
5.9305785861
 30
0.0
 10
1.4525284544
 20
5.930643678
 30
0.0
 10
1.4521837879
 20
5.9307568505
 30
0.0
 10
1.451518479
 20
5.9309070067
 30
0.0
 10
1.4510149351
 20
5.9309348142
 30
0.0
 10
1.4506971741
 20
5.930897071
 30
0.0
  0
SPLINE
  5
349
100
AcDbEntity
  8
0
100
AcDbSpline
 62
9
  6
CONTINUOUS
 70
0
 71
3
 72
23
 73
19
 74
0
 42
0.0000001
 43
0.0000001
 44
0.0000000001
 40
0.0
 40
0.0
 40
0.0
 40
0.0
 40
0.0718993462
 40
0.1437939799
 40
0.2153569045
 40
0.2862687327
 40
0.3562617592
 40
0.4250920081
 40
0.4925174486
 40
0.5582980186
 40
0.6221959902
 40
0.683978112
 40
0.7434358287
 40
0.8003918178
 40
0.8546786335
 40
0.9061384027
 40
0.9546227679
 40
1.0
 40
1.0
 40
1.0
 40
1.0
 10
1.5260517254
 20
6.0079698536
 30
0.0
 10
1.5258250128
 20
6.0060333984
 30
0.0
 10
1.5253296101
 20
6.0021654023
 30
0.0
 10
1.5244636331
 20
5.9963897432
 30
0.0
 10
1.5234779533
 20
5.9906604336
 30
0.0
 10
1.5223763061
 20
5.9850048054
 30
0.0
 10
1.5211638393
 20
5.9794477007
 30
0.0
 10
1.5198459425
 20
5.9740118561
 30
0.0
 10
1.518427561
 20
5.9687194981
 30
0.0
 10
1.5169148486
 20
5.9635925889
 30
0.0
 10
1.5153147754
 20
5.9586528299
 30
0.0
 10
1.513633782
 20
5.9539215186
 30
0.0
 10
1.5118786492
 20
5.9494185853
 30
0.0
 10
1.5100570905
 20
5.9451622275
 30
0.0
 10
1.5081762629
 20
5.941170085
 30
0.0
 10
1.5062438898
 20
5.937459601
 30
0.0
 10
1.5042701517
 20
5.9340473353
 30
0.0
 10
1.5028861914
 20
5.9319094794
 30
0.0
 10
1.5021868528
 20
5.9308970459
 30
0.0
  0
LINE
  5
34A
100
AcDbEntity
  8
0
100
AcDbLine
 62
9
  6
CONTINUOUS
 10
1.5460516337
 20
5.9311546592
 11
1.5021865522
 21
5.9308966106
  0
LINE
  5
34B
100
AcDbEntity
  8
0
100
AcDbLine
 62
9
  6
CONTINUOUS
 10
8.1042332625
 20
5.9052056603
 11
8.0960517254
 21
5.9041171464
  0
SPLINE
  5
34C
100
AcDbEntity
  8
0
100
AcDbSpline
 62
9
  6
CONTINUOUS
 70
0
 71
3
 72
18
 73
14
 74
0
 42
0.0000001
 43
0.0000001
 44
0.0000000001
 40
0.0
 40
0.0
 40
0.0
 40
0.0
 40
0.1249996081
 40
0.1874995832
 40
0.2499995587
 40
0.3124995935
 40
0.3749996329
 40
0.4374996565
 40
0.4999997294
 40
0.6249996494
 40
0.7499995289
 40
0.8749998696
 40
1.0
 40
1.0
 40
1.0
 40
1.0
 10
8.1460517865
 20
5.9067876726
 30
0.0
 10
8.144307665
 20
5.9067876538
 30
0.0
 10
8.1416914577
 20
5.9067764959
 30
0.0
 10
8.1382034236
 20
5.9067370208
 30
0.0
 10
8.1355875606
 20
5.9066950034
 30
0.0
 10
8.1329719175
 20
5.9066410466
 30
0.0
 10
8.130356538
 20
5.9065755055
 30
0.0
 10
8.1277414916
 20
5.9064977288
 30
0.0
 10
8.1242553096
 20
5.906377198
 30
0.0
 10
8.119898718
 20
5.9061952397
 30
0.0
 10
8.114673235
 20
5.9059248588
 30
0.0
 10
8.1094508695
 20
5.9055996569
 30
0.0
 10
8.1059718926
 20
5.9053440462
 30
0.0
 10
8.1042332625
 20
5.9052056603
 30
0.0
  0
SPLINE
  5
34D
100
AcDbEntity
  8
0
100
AcDbSpline
 62
9
  6
CONTINUOUS
 70
0
 71
3
 72
11
 73
7
 74
0
 42
0.0000001
 43
0.0000001
 44
0.0000000001
 40
0.0
 40
0.0
 40
0.0
 40
0.0
 40
0.2499999242
 40
0.4999998341
 40
0.7499998942
 40
1.0
 40
1.0
 40
1.0
 40
1.0
 10
10.3578701303
 20
5.9052056649
 30
0.0
 10
10.3543929349
 20
5.9054825405
 30
0.0
 10
10.3474316142
 20
5.905951488
 30
0.0
 10
10.3369777592
 20
5.9064395353
 30
0.0
 10
10.3265164415
 20
5.9067248853
 30
0.0
 10
10.3195398735
 20
5.9067878546
 30
0.0
 10
10.3160516697
 20
5.9067876726
 30
0.0
  0
LINE
  5
34E
100
AcDbEntity
  8
0
100
AcDbLine
 62
9
  6
CONTINUOUS
 10
10.3660517254
 20
5.9041171857
 11
10.3578701303
 21
5.9052056649
  0
LINE
  5
34F
100
AcDbEntity
  8
0
100
AcDbLine
 62
9
  6
CONTINUOUS
 10
3.7599171886
 20
5.930896703
 11
3.7160517255
 21
5.9311546597
  0
SPLINE
  5
350
100
AcDbEntity
  8
0
100
AcDbSpline
 62
9
  6
CONTINUOUS
 70
0
 71
3
 72
23
 73
19
 74
0
 42
0.0000001
 43
0.0000001
 44
0.0000000001
 40
0.0
 40
0.0
 40
0.0
 40
0.0
 40
0.0718995375
 40
0.1437943752
 40
0.2153575095
 40
0.2862695483
 40
0.3562627826
 40
0.4250932285
 40
0.4925188458
 40
0.5582995614
 40
0.6221976358
 40
0.6839798051
 40
0.743437504
 40
0.8003933979
 40
0.8546800261
 40
0.9061394941
 40
0.9546234095
 40
1.0
 40
1.0
 40
1.0
 40
1.0
 10
3.7360517254
 20
6.0079698536
 30
0.0
 10
3.7362784615
 20
6.0060333851
 30
0.0
 10
3.7367739093
 20
6.0021653625
 30
0.0
 10
3.7376399519
 20
5.9963896643
 30
0.0
 10
3.7386256974
 20
5.9906603164
 30
0.0
 10
3.7397274132
 20
5.9850046521
 30
0.0
 10
3.7409399499
 20
5.9794475136
 30
0.0
 10
3.7422579149
 20
5.9740116377
 30
0.0
 10
3.7436763602
 20
5.9687192512
 30
0.0
 10
3.7451891303
 20
5.9635923165
 30
0.0
 10
3.7467892535
 20
5.9586525355
 30
0.0
 10
3.7484702882
 20
5.9539212058
 30
0.0
 10
3.7502254519
 20
5.9494182582
 30
0.0
 10
3.7520470299
 20
5.94516189
 30
0.0
 10
3.753927864
 20
5.9411697415
 30
0.0
 10
3.7558602288
 20
5.9374592562
 30
0.0
 10
3.7578339396
 20
5.9340469936
 30
0.0
 10
3.7592178693
 20
5.931909137
 30
0.0
 10
3.7599171886
 20
5.930896703
 30
0.0
  0
SPLINE
  5
351
100
AcDbEntity
  8
0
100
AcDbSpline
 62
9
  6
CONTINUOUS
 70
0
 71
3
 72
10
 73
6
 74
0
 42
0.0000001
 43
0.0000001
 44
0.0000000001
 40
0.0
 40
0.0
 40
0.0
 40
0.0
 40
0.4692227262
 40
0.7270042722
 40
1.0
 40
1.0
 40
1.0
 40
1.0
 10
3.8114063636
 20
5.9308970459
 30
0.0
 10
3.8110884948
 20
5.9309348044
 30
0.0
 10
3.8105847902
 20
5.9309070672
 30
0.0
 10
3.8099193268
 20
5.9307567309
 30
0.0
 10
3.8095745943
 20
5.9306435143
 30
0.0
 10
3.8094001157
 20
5.9305783866
 30
0.0
  0
SPLINE
  5
352
100
AcDbEntity
  8
0
100
AcDbSpline
 62
9
  6
CONTINUOUS
 70
0
 71
3
 72
28
 73
24
 74
0
 42
0.0000001
 43
0.0000001
 44
0.0000000001
 40
0.0
 40
0.0
 40
0.0
 40
0.0
 40
0.0105027249
 40
0.0224948279
 40
0.0360003626
 40
0.0510345977
 40
0.0676072075
 40
0.0857239638
 40
0.1053804793
 40
0.1265605083
 40
0.1492456067
 40
0.1734162029
 40
0.2261289484
 40
0.2844649934
 40
0.3481072648
 40
0.3818165859
 40
0.4167240958
 40
0.4899174804
 40
0.5672526113
 40
0.6482893359
 40
0.8196638618
 40
0.9090011503
 40
1.0
 40
1.0
 40
1.0
 40
1.0
 10
3.8094001157
 20
5.9305783866
 30
0.0
 10
3.809272769
 20
5.9305309543
 30
0.0
 10
3.8089959812
 20
5.930440132
 30
0.0
 10
3.8085458201
 20
5.9303198085
 30
0.0
 10
3.8080335649
 20
5.9302067703
 30
0.0
 10
3.807459374
 20
5.9301012849
 30
0.0
 10
3.8068233874
 20
5.930003604
 30
0.0
 10
3.8061258839
 20
5.9299140122
 30
0.0
 10
3.805367396
 20
5.9298326812
 30
0.0
 10
3.804548712
 20
5.9297596469
 30
0.0
 10
3.8036707535
 20
5.9296949901
 30
0.0
 10
3.8023847315
 20
5.9296178243
 30
0.0
 10
3.8006365004
 20
5.9295451965
 30
0.0
 10
3.7983766639
 20
5.9294944679
 30
0.0
 10
3.7963622071
 20
5.9294812458
 30
0.0
 10
3.7946509263
 20
5.9294872044
 30
0.0
 10
3.7928161413
 20
5.9295053382
 30
0.0
 10
3.7904171838
 20
5.9295506974
 30
0.0
 10
3.7874222358
 20
5.9296386777
 30
0.0
 10
3.7831588631
 20
5.929804449
 30
0.0
 10
3.7787428216
 20
5.9300355378
 30
0.0
 10
3.7742013036
 20
5.9303254124
 30
0.0
 10
3.7718738134
 20
5.9304909712
 30
0.0
 10
3.770699656
 20
5.9305785861
 30
0.0
  0
SPLINE
  5
353
100
AcDbEntity
  8
0
100
AcDbSpline
 62
9
  6
CONTINUOUS
 70
0
 71
3
 72
10
 73
6
 74
0
 42
0.0000001
 43
0.0000001
 44
0.0000000001
 40
0.0
 40
0.0
 40
0.0
 40
0.0
 40
0.4992380277
 40
0.7493963796
 40
1.0
 40
1.0
 40
1.0
 40
1.0
 10
3.770699656
 20
5.9305785861
 30
0.0
 10
3.7689089104
 20
5.9307123864
 30
0.0
 10
3.7662161815
 20
5.9308588258
 30
0.0
 10
3.7626196049
 20
5.9309265569
 30
0.0
 10
3.7608181685
 20
5.9309148887
 30
0.0
 10
3.7599169344
 20
5.930897071
 30
0.0
  0
SPLINE
  5
354
100
AcDbEntity
  8
0
100
AcDbSpline
 62
9
  6
CONTINUOUS
 70
0
 71
3
 72
25
 73
21
 74
0
 42
0.0000001
 43
0.0000001
 44
0.0000000001
 40
0.0
 40
0.0
 40
0.0
 40
0.0
 40
0.064217821
 40
0.1283215408
 40
0.19223708
 40
0.2559004194
 40
0.3192934976
 40
0.3824177934
 40
0.4452775958
 40
0.5078731351
 40
0.5701995782
 40
0.6322556209
 40
0.6940545946
 40
0.7556239805
 40
0.7863366123
 40
0.8170040016
 40
0.8476279661
 40
0.8782064683
 40
0.9392084013
 40
1.0
 40
1.0
 40
1.0
 40
1.0
 10
3.7726202679
 20
6.0079698536
 30
0.0
 10
3.7725402831
 20
6.00603751
 30
0.0
 10
3.7725001146
 20
6.002170235
 30
0.0
 10
3.7727983201
 20
5.9963849404
 30
0.0
 10
3.7734536038
 20
5.9906456462
 30
0.0
 10
3.7744656498
 20
5.984980139
 30
0.0
 10
3.7758291549
 20
5.9794133079
 30
0.0
 10
3.7775374728
 20
5.973967739
 30
0.0
 10
3.779584868
 20
5.9686660485
 30
0.0
 10
3.7819621146
 20
5.9635302823
 30
0.0
 10
3.7846578843
 20
5.9585818165
 30
0.0
 10
3.7876618974
 20
5.9538424062
 30
0.0
 10
3.7909620254
 20
5.9493325472
 30
0.0
 10
3.793949764
 20
5.9457770174
 30
0.0
 10
3.796473255
 20
5.943066505
 30
0.0
 10
3.7984296899
 20
5.9411036348
 30
0.0
 10
3.8004491269
 20
5.9392115533
 30
0.0
 10
3.8032195997
 20
5.9367879548
 30
0.0
 10
3.8068264447
 20
5.9339449719
 30
0.0
 10
3.8098590615
 20
5.9318756848
 30
0.0
 10
3.8114063636
 20
5.9308970459
 30
0.0
  0
LINE
  5
355
100
AcDbEntity
  8
0
100
AcDbLine
 62
9
  6
CONTINUOUS
 10
3.8135517244
 20
5.9311546592
 11
3.8114070517
 21
5.9308966106
  0
LINE
  5
356
100
AcDbEntity
  8
0
100
AcDbLine
 62
9
  6
CONTINUOUS
 10
10.3760517254
 20
6.0042556161
 11
10.3726202679
 21
6.0079698536
  0
SPLINE
  5
357
100
AcDbEntity
  8
0
100
AcDbSpline
 62
9
  6
CONTINUOUS
 70
0
 71
3
 72
30
 73
26
 74
0
 42
0.0000001
 43
0.0000001
 44
0.0000000001
 40
0.0
 40
0.0
 40
0.0
 40
0.0
 40
0.019565376
 40
0.0394444113
 40
0.0597575429
 40
0.0806132288
 40
0.1021074494
 40
0.1243238436
 40
0.1473330694
 40
0.1711906621
 40
0.1959382757
 40
0.2216056864
 40
0.2482125422
 40
0.2757664927
 40
0.3336947624
 40
0.3953269763
 40
0.4605393917
 40
0.5291510588
 40
0.5646737803
 40
0.6009749594
 40
0.6757903829
 40
0.7533679771
 40
0.8334942614
 40
0.9158355771
 40
1.0
 40
1.0
 40
1.0
 40
1.0
 10
10.3726202679
 20
6.0079698536
 30
0.0
 10
10.3724398676
 20
6.0081369736
 30
0.0
 10
10.372062041
 20
6.0084589557
 30
0.0
 10
10.3714529816
 20
6.0088996762
 30
0.0
 10
10.3707986773
 20
6.0093017937
 30
0.0
 10
10.3700996525
 20
6.0096659845
 30
0.0
 10
10.3693563558
 20
6.0099930325
 30
0.0
 10
10.3685691952
 20
6.0102835483
 30
0.0
 10
10.3677389359
 20
6.0105390439
 30
0.0
 10
10.3668664262
 20
6.0107615083
 30
0.0
 10
10.3659524558
 20
6.0109528056
 30
0.0
 10
10.3649978227
 20
6.0111147867
 30
0.0
 10
10.3640033786
 20
6.0112493958
 30
0.0
 10
10.362602103
 20
6.0113967122
 30
0.0
 10
10.3607559102
 20
6.0115139336
 30
0.0
 10
10.3584333265
 20
6.0115567672
 30
0.0
 10
10.3559765968
 20
6.0115087568
 30
0.0
 10
10.3538509368
 20
6.0113900612
 30
0.0
 10
10.3520916487
 20
6.0112459643
 30
0.0
 10
10.350257504
 20
6.011063895
 30
0.0
 10
10.3479040382
 20
6.0107660216
 30
0.0
 10
10.3450202066
 20
6.0102874979
 30
0.0
 10
10.3420661205
 20
6.009669617
 30
0.0
 10
10.3390611272
 20
6.0089048037
 30
0.0
 10
10.3370570376
 20
6.0082990731
 30
0.0
 10
10.3360517254
 20
6.0079698536
 30
0.0
  0
SPLINE
  5
358
100
AcDbEntity
  8
0
100
AcDbSpline
 62
9
  6
CONTINUOUS
 70
0
 71
3
 72
16
 73
12
 74
0
 42
0.0000001
 43
0.0000001
 44
0.0000000001
 40
0.0
 40
0.0
 40
0.0
 40
0.0
 40
0.2441476796
 40
0.3681505664
 40
0.4931959572
 40
0.5560495074
 40
0.6190929648
 40
0.6823118855
 40
0.7456938817
 40
0.8727784376
 40
1.0
 40
1.0
 40
1.0
 40
1.0
 10
10.3360517254
 20
6.0079698536
 30
0.0
 10
10.334472545
 20
6.007449224
 30
0.0
 10
10.3320765391
 20
6.0067059999
 30
0.0
 10
10.3288262317
 20
6.0058564398
 30
0.0
 10
10.3267522059
 20
6.0053944909
 30
0.0
 10
10.3250731559
 20
6.0050749916
 30
0.0
 10
10.3238027479
 20
6.0048622179
 30
0.0
 10
10.3225241316
 20
6.0046786956
 30
0.0
 10
10.3208081969
 20
6.0044756987
 30
0.0
 10
10.3186504659
 20
6.0043031493
 30
0.0
 10
10.3169181788
 20
6.0042556174
 30
0.0
 10
10.3160517254
 20
6.0042556161
 30
0.0
  0
SPLINE
  5
359
100
AcDbEntity
  8
0
100
AcDbSpline
 62
9
  6
CONTINUOUS
 70
0
 71
3
 72
16
 73
12
 74
0
 42
0.0000001
 43
0.0000001
 44
0.0000000001
 40
0.0
 40
0.0
 40
0.0
 40
0.0
 40
0.1272614526
 40
0.2543750228
 40
0.3177648503
 40
0.3809907166
 40
0.5068808447
 40
0.6318898729
 40
0.7558603549
 40
0.8786246478
 40
1.0
 40
1.0
 40
1.0
 40
1.0
 10
8.1460517254
 20
6.0042556161
 30
0.0
 10
8.1451849916
 20
6.0042556146
 30
0.0
 10
8.143452217
 20
6.0043031421
 30
0.0
 10
8.1412939412
 20
6.0044757155
 30
0.0
 10
8.1395777005
 20
6.0046788599
 30
0.0
 10
8.1378752567
 20
6.0049231389
 30
0.0
 10
8.1357686866
 20
6.0053009042
 30
0.0
 10
8.1332761805
 20
6.0058567843
 30
0.0
 10
8.1308262731
 20
6.0064974486
 30
0.0
 10
8.1284206572
 20
6.0072044737
 30
0.0
 10
8.1268368489
 20
6.0077111564
 30
0.0
 10
8.1260517254
 20
6.0079698536
 30
0.0
  0
SPLINE
  5
35A
100
AcDbEntity
  8
0
100
AcDbSpline
 62
9
  6
CONTINUOUS
 70
0
 71
3
 72
32
 73
28
 74
0
 42
0.0000001
 43
0.0000001
 44
0.0000000001
 40
0.0
 40
0.0
 40
0.0
 40
0.0
 40
0.0841625393
 40
0.1664986606
 40
0.2068622687
 40
0.2466212407
 40
0.3241955549
 40
0.3990113614
 40
0.4353125713
 40
0.4708355802
 40
0.5394487629
 40
0.5724938722
 40
0.6046648806
 40
0.6662967897
 40
0.7242248322
 40
0.7517784225
 40
0.7783848021
 40
0.8040524014
 40
0.8288007922
 40
0.8526596292
 40
0.8756704669
 40
0.8978887666
 40
0.9193849642
 40
0.940242307
 40
0.9605564439
 40
0.9804355804
 40
1.0
 40
1.0
 40
1.0
 40
1.0
 10
8.1260517254
 20
6.0079698536
 30
0.0
 10
8.1250464474
 20
6.0082991241
 30
0.0
 10
8.123042483
 20
6.0089049507
 30
0.0
 10
8.1205219572
 20
6.0095464338
 30
0.0
 10
8.1185276697
 20
6.0099855741
 30
0.0
 10
8.1165831692
 20
6.0103703569
 30
0.0
 10
8.1141999505
 20
6.0107657702
 30
0.0
 10
8.1118465281
 20
6.0110636663
 30
0.0
 10
8.1100123785
 20
6.0112459389
 30
0.0
 10
8.108253069
 20
6.0113901201
 30
0.0
 10
8.1065310966
 20
6.0114862188
 30
0.0
 10
8.1048496005
 20
6.011533702
 30
0.0
 10
8.1032552625
 20
6.011549118
 30
0.0
 10
8.101347964
 20
6.0115139508
 30
0.0
 10
8.0995017858
 20
6.0113966526
 30
0.0
 10
8.0981005058
 20
6.0112494189
 30
0.0
 10
8.0971060434
 20
6.0111149571
 30
0.0
 10
8.0961513852
 20
6.0109530426
 30
0.0
 10
8.0952373757
 20
6.0107617625
 30
0.0
 10
8.0943648223
 20
6.0105392575
 30
0.0
 10
8.0935345203
 20
6.0102836726
 30
0.0
 10
8.0927473387
 20
6.009992998
 30
0.0
 10
8.0920039993
 20
6.0096658651
 30
0.0
 10
8.0913049181
 20
6.0093016472
 30
0.0
 10
8.0906505553
 20
6.0088995504
 30
0.0
 10
8.090041447
 20
6.0084588864
 30
0.0
 10
8.0896635914
 20
6.0081369496
 30
0.0
 10
8.089483183
 20
6.0079698536
 30
0.0
  0
LINE
  5
35B
100
AcDbEntity
  8
0
100
AcDbLine
 62
9
  6
CONTINUOUS
 10
8.089483183
 20
6.0079698536
 11
8.0860517254
 21
6.0042556161
  0
SPLINE
  5
35C
100
AcDbEntity
  8
0
100
AcDbSpline
 62
9
  6
CONTINUOUS
 70
0
 71
3
 72
38
 73
34
 74
0
 42
0.0000001
 43
0.0000001
 44
0.0000000001
 40
0.0
 40
0.0
 40
0.0
 40
0.0
 40
0.0021025017
 40
0.0043026048
 40
0.0067476949
 40
0.0095456614
 40
0.0127682362
 40
0.016461701
 40
0.0206560798
 40
0.0253712163
 40
0.0306204954
 40
0.0364130968
 40
0.0427553831
 40
0.0496513013
 40
0.0571007796
 40
0.0651017952
 40
0.0827461582
 40
0.102556517
 40
0.1244985955
 40
0.1485346311
 40
0.1746211098
 40
0.2026936031
 40
0.2326799756
 40
0.2645074084
 40
0.2981025936
 40
0.370290191
 40
0.4485336545
 40
0.532059703
 40
0.6200840211
 40
0.7118014859
 40
0.8063865436
 40
0.9028261381
 40
1.0
 40
1.0
 40
1.0
 40
1.0
 10
10.4260517254
 20
5.9041171464
 30
0.0
 10
10.4260517143
 20
5.9040747332
 30
0.0
 10
10.4260390503
 20
5.9039874142
 30
0.0
 10
10.4259815651
 20
5.9038623477
 30
0.0
 10
10.4258877255
 20
5.9037437223
 30
0.0
 10
10.4257587178
 20
5.9036307781
 30
0.0
 10
10.4255947315
 20
5.9035226854
 30
0.0
 10
10.4253956789
 20
5.9034190347
 30
0.0
 10
10.4251614601
 20
5.903319634
 30
0.0
 10
10.4248920295
 20
5.9032244074
 30
0.0
 10
10.424587389
 20
5.903133324
 30
0.0
 10
10.4242475745
 20
5.9030463711
 30
0.0
 10
10.4238726525
 20
5.9029635431
 30
0.0
 10
10.4234627657
 20
5.9028848498
 30
0.0
 10
10.4230181582
 20
5.9028102399
 30
0.0
 10
10.422357629
 20
5.9027129807
 30
0.0
 10
10.4214470597
 20
5.9026034934
 30
0.0
 10
10.4202540108
 20
5.9024915097
 30
0.0
 10
10.4189303182
 20
5.9023948846
 30
0.0
 10
10.4174788083
 20
5.9023133764
 30
0.0
 10
10.4159027635
 20
5.9022467587
 30
0.0
 10
10.4142060748
 20
5.9021950043
 30
0.0
 10
10.4123931672
 20
5.9021581389
 30
0.0
 10
10.4104686063
 20
5.9021361665
 30
0.0
 10
10.4076926202
 20
5.9021265515
 30
0.0
 10
10.4039802851
 20
5.9021541822
 30
0.0
 10
10.3992615177
 20
5.9022456655
 30
0.0
 10
10.3942246603
 20
5.9023966486
 30
0.0
 10
10.3889179366
 20
5.902607833
 30
0.0
 10
10.3833907234
 20
5.9028822765
 30
0.0
 10
10.3776970857
 20
5.9032224712
 30
0.0
 10
10.3718975004
 20
5.9036297042
 30
0.0
 10
10.3680045373
 20
5.9039464011
 30
0.0
 10
10.3660517254
 20
5.9041171857
 30
0.0
  0
SPLINE
  5
35D
100
AcDbEntity
  8
0
100
AcDbSpline
 62
9
  6
CONTINUOUS
 70
0
 71
3
 72
37
 73
33
 74
0
 42
0.0000001
 43
0.0000001
 44
0.0000000001
 40
0.0
 40
0.0
 40
0.0
 40
0.0
 40
0.0971731926
 40
0.1936231484
 40
0.2882472607
 40
0.3800247252
 40
0.4681088071
 40
0.55167472
 40
0.6299304702
 40
0.702123488
 40
0.735713133
 40
0.7675191351
 40
0.7974748963
 40
0.8255151964
 40
0.8515754973
 40
0.8755924476
 40
0.8975139243
 40
0.9173034475
 40
0.9349290099
 40
0.9503642486
 40
0.9572552816
 40
0.9635940846
 40
0.9693840373
 40
0.9746314044
 40
0.9793452672
 40
0.9835389063
 40
0.9872320531
 40
0.9904546054
 40
0.9932526991
 40
0.9956978971
 40
0.9978979112
 40
1.0
 40
1.0
 40
1.0
 40
1.0
 10
8.0960517254
 20
5.9041171464
 30
0.0
 10
8.0940989313
 20
5.9039463162
 30
0.0
 10
8.0902057714
 20
5.9036296193
 30
0.0
 10
8.0844051934
 20
5.9032224916
 30
0.0
 10
8.0787093502
 20
5.9028822201
 30
0.0
 10
8.0731789462
 20
5.9026074513
 30
0.0
 10
8.0678690051
 20
5.9023961
 30
0.0
 10
8.0628298785
 20
5.9022454721
 30
0.0
 10
8.0581099491
 20
5.9021540711
 30
0.0
 10
8.0543973679
 20
5.9021265296
 30
0.0
 10
8.051621817
 20
5.902136219
 30
0.0
 10
8.0496984183
 20
5.9021582374
 30
0.0
 10
8.0478872116
 20
5.9021951624
 30
0.0
 10
8.0461923211
 20
5.9022469997
 30
0.0
 10
8.044617846
 20
5.902313747
 30
0.0
 10
8.0431676723
 20
5.9023953747
 30
0.0
 10
8.0418452093
 20
5.9024919876
 30
0.0
 10
8.0406533522
 20
5.9026038442
 30
0.0
 10
8.0395947149
 20
5.9027312115
 30
0.0
 10
8.0387980166
 20
5.9028545518
 30
0.0
 10
8.0382300682
 20
5.9029635534
 30
0.0
 10
8.0378553654
 20
5.9030463461
 30
0.0
 10
8.0375157142
 20
5.9031332827
 30
0.0
 10
8.0372111969
 20
5.9032243677
 30
0.0
 10
8.0369418551
 20
5.903319608
 30
0.0
 10
8.0367076965
 20
5.9034190304
 30
0.0
 10
8.0365086816
 20
5.9035227061
 30
0.0
 10
8.0363447163
 20
5.9036308225
 30
0.0
 10
8.0362157185
 20
5.9037437837
 30
0.0
 10
8.0361218821
 20
5.9038624143
 30
0.0
 10
8.0360643962
 20
5.9039874711
 30
0.0
 10
8.0360517328
 20
5.9040747807
 30
0.0
 10
8.0360517254
 20
5.9041171857
 30
0.0
  0
LINE
  5
35E
100
AcDbEntity
  8
0
100
AcDbLine
 62
9
  6
CONTINUOUS
 10
8.0506965924
 20
5.930896703
 11
8.0485517285
 21
5.9311546606
  0
SPLINE
  5
35F
100
AcDbEntity
  8
0
100
AcDbSpline
 62
9
  6
CONTINUOUS
 70
0
 71
3
 72
25
 73
21
 74
0
 42
0.0000001
 43
0.0000001
 44
0.0000000001
 40
0.0
 40
0.0
 40
0.0
 40
0.0
 40
0.0642177762
 40
0.1283214416
 40
0.1922369129
 40
0.2559001672
 40
0.3192931468
 40
0.3824173381
 40
0.4452770388
 40
0.5078724865
 40
0.570198854
 40
0.6322548446
 40
0.6940537995
 40
0.7556232117
 40
0.7863358774
 40
0.8170033162
 40
0.8476273462
 40
0.8782059311
 40
0.9392080881
 40
1.0
 40
1.0
 40
1.0
 40
1.0
 10
8.089483183
 20
6.0079698536
 30
0.0
 10
8.089563176
 20
6.0060374971
 30
0.0
 10
8.0896033583
 20
6.0021701962
 30
0.0
 10
8.0893051662
 20
5.9963848623
 30
0.0
 10
8.0886498895
 20
5.9906455299
 30
0.0
 10
8.087637845
 20
5.9849799862
 30
0.0
 10
8.0862743358
 20
5.9794131206
 30
0.0
 10
8.0845660072
 20
5.9739675197
 30
0.0
 10
8.0825185939
 20
5.9686657999
 30
0.0
 10
8.0801413219
 20
5.9635300074
 30
0.0
 10
8.0774455193
 20
5.9585815188
 30
0.0
 10
8.0744414655
 20
5.9538420894
 30
0.0
 10
8.0711412894
 20
5.9493322152
 30
0.0
 10
8.0681535047
 20
5.9457766768
 30
0.0
 10
8.0656299731
 20
5.9430661597
 30
0.0
 10
8.0636735052
 20
5.9411032866
 30
0.0
 10
8.0616540333
 20
5.9392112033
 30
0.0
 10
8.0588835106
 20
5.9367876028
 30
0.0
 10
8.0552765976
 20
5.9339446201
 30
0.0
 10
8.0522439241
 20
5.9318753385
 30
0.0
 10
8.0506965924
 20
5.930896703
 30
0.0
  0
SPLINE
  5
360
100
AcDbEntity
  8
0
100
AcDbSpline
 62
9
  6
CONTINUOUS
 70
0
 71
3
 72
10
 73
6
 74
0
 42
0.0000001
 43
0.0000001
 44
0.0000000001
 40
0.0
 40
0.0
 40
0.0
 40
0.0
 40
0.2506041879
 40
0.5007641252
 40
1.0
 40
1.0
 40
1.0
 40
1.0
 10
8.1021868528
 20
5.9308970459
 30
0.0
 10
8.1012854083
 20
5.9309148689
 30
0.0
 10
8.0994835481
 20
5.9309265717
 30
0.0
 10
8.0958861385
 20
5.9308588306
 30
0.0
 10
8.0931927946
 20
5.9307122466
 30
0.0
 10
8.0914016448
 20
5.9305783866
 30
0.0
  0
SPLINE
  5
361
100
AcDbEntity
  8
0
100
AcDbSpline
 62
9
  6
CONTINUOUS
 70
0
 71
3
 72
27
 73
23
 74
0
 42
0.0000001
 43
0.0000001
 44
0.0000000001
 40
0.0
 40
0.0
 40
0.0
 40
0.0
 40
0.0910020348
 40
0.1803463456
 40
0.3517756359
 40
0.4328462315
 40
0.5102043409
 40
0.5834065683
 40
0.6520288174
 40
0.715657854
 40
0.7739598713
 40
0.8266489595
 40
0.8508082539
 40
0.8734813519
 40
0.894649867
 40
0.9142965455
 40
0.9324059682
 40
0.9489726527
 40
0.9640024026
 40
0.9775051354
 40
0.9894962956
 40
1.0
 40
1.0
 40
1.0
 40
1.0
 10
8.0914016448
 20
5.9305783866
 30
0.0
 10
8.0902275004
 20
5.9304907386
 30
0.0
 10
8.0878999803
 20
5.9303251796
 30
0.0
 10
8.0833578128
 20
5.9300354212
 30
0.0
 10
8.0789407273
 20
5.929804325
 30
0.0
 10
8.074676099
 20
5.929638515
 30
0.0
 10
8.0716804288
 20
5.9295505754
 30
0.0
 10
8.0688450263
 20
5.9294970994
 30
0.0
 10
8.0661868048
 20
5.9294782892
 30
0.0
 10
8.0637213313
 20
5.9294944488
 30
0.0
 10
8.0614625134
 20
5.9295453215
 30
0.0
 10
8.0597152551
 20
5.9296179868
 30
0.0
 10
8.0584298975
 20
5.9296951385
 30
0.0
 10
8.0575524283
 20
5.929759778
 30
0.0
 10
8.056734212
 20
5.9298327925
 30
0.0
 10
8.0559761296
 20
5.9299141104
 30
0.0
 10
8.0552789576
 20
5.930003696
 30
0.0
 10
8.0546432367
 20
5.9301014105
 30
0.0
 10
8.0540692544
 20
5.9302069438
 30
0.0
 10
8.0535571421
 20
5.930320027
 30
0.0
 10
8.053107046
 20
5.9304403742
 30
0.0
 10
8.0528302666
 20
5.9305311774
 30
0.0
 10
8.052702904
 20
5.9305785861
 30
0.0
  0
SPLINE
  5
362
100
AcDbEntity
  8
0
100
AcDbSpline
 62
9
  6
CONTINUOUS
 70
0
 71
3
 72
10
 73
6
 74
0
 42
0.0000001
 43
0.0000001
 44
0.0000000001
 40
0.0
 40
0.0
 40
0.0
 40
0.0
 40
0.2730122876
 40
0.5308083402
 40
1.0
 40
1.0
 40
1.0
 40
1.0
 10
8.052702904
 20
5.9305785861
 30
0.0
 10
8.0525284544
 20
5.930643678
 30
0.0
 10
8.0521837879
 20
5.9307568505
 30
0.0
 10
8.051518479
 20
5.9309070067
 30
0.0
 10
8.0510149351
 20
5.9309348142
 30
0.0
 10
8.0506971741
 20
5.930897071
 30
0.0
  0
SPLINE
  5
363
100
AcDbEntity
  8
0
100
AcDbSpline
 62
9
  6
CONTINUOUS
 70
0
 71
3
 72
23
 73
19
 74
0
 42
0.0000001
 43
0.0000001
 44
0.0000000001
 40
0.0
 40
0.0
 40
0.0
 40
0.0
 40
0.0718993462
 40
0.1437939799
 40
0.2153569045
 40
0.2862687327
 40
0.3562617592
 40
0.4250920081
 40
0.4925174486
 40
0.5582980186
 40
0.6221959902
 40
0.683978112
 40
0.7434358287
 40
0.8003918178
 40
0.8546786335
 40
0.9061384027
 40
0.9546227679
 40
1.0
 40
1.0
 40
1.0
 40
1.0
 10
8.1260517254
 20
6.0079698536
 30
0.0
 10
8.1258250128
 20
6.0060333984
 30
0.0
 10
8.1253296101
 20
6.0021654023
 30
0.0
 10
8.1244636331
 20
5.9963897432
 30
0.0
 10
8.1234779533
 20
5.9906604336
 30
0.0
 10
8.1223763061
 20
5.9850048054
 30
0.0
 10
8.1211638393
 20
5.9794477007
 30
0.0
 10
8.1198459425
 20
5.9740118561
 30
0.0
 10
8.118427561
 20
5.9687194981
 30
0.0
 10
8.1169148486
 20
5.9635925889
 30
0.0
 10
8.1153147754
 20
5.9586528299
 30
0.0
 10
8.113633782
 20
5.9539215186
 30
0.0
 10
8.1118786492
 20
5.9494185853
 30
0.0
 10
8.1100570905
 20
5.9451622275
 30
0.0
 10
8.1081762629
 20
5.941170085
 30
0.0
 10
8.1062438898
 20
5.937459601
 30
0.0
 10
8.1042701517
 20
5.9340473353
 30
0.0
 10
8.1028861914
 20
5.9319094794
 30
0.0
 10
8.1021868528
 20
5.9308970459
 30
0.0
  0
LINE
  5
364
100
AcDbEntity
  8
0
100
AcDbLine
 62
9
  6
CONTINUOUS
 10
8.1460516337
 20
5.9311546592
 11
8.1021865522
 21
5.9308966106
  0
ENDSEC
  0
SECTION
  2
OBJECTS
  0
DICTIONARY
  5
C
100
AcDbDictionary
280
0
281
1
  3
ACAD_GROUP
350
D
  3
ACAD_MLINESTYLE
350
17
  3
ACAD_LAYOUT
350
1A
  3
ACAD_PLOTSETTINGS
350
19
  3
ACAD_PLOTSTYLENAME
350
E
  0
DICTIONARY
  5
D
102
{ACAD_REACTORS
330
C
102
}
100
AcDbDictionary
280
0
281
1
  0
ACDBDICTIONARYWDFLT
  5
E
102
{ACAD_REACTORS
330
C
102
}
100
AcDbDictionary
281
1
  3
Normal
350
F
100
AcDbDictionaryWithDefault
340
F
  0
DICTIONARY
  5
17
102
{ACAD_REACTORS
330
C
102
}
100
AcDbDictionary
280
0
281
1
  3
Standard
350
18
  0
DICTIONARY
  5
19
102
{ACAD_REACTORS
330
C
102
}
100
AcDbDictionary
281
1
  0
DICTIONARY
  5
1A
102
{ACAD_REACTORS
330
C
102
}
100
AcDbDictionary
281
1
  3
Model
350
365
  3
Layout1
350
366
  0
ACDBPLACEHOLDER
  5
F
102
{ACAD_REACTORS
330
E
102
}
  0
MLINESTYLE
  5
18
102
{ACAD_REACTORS
330
17
102
}
100
AcDbMlineStyle
  2
STANDARD
 70
0
  3

 62
256
 51
90.0
 52
90.0
 71
2
 49
0.5
 62
256
  6
BYLAYER
 49
-0.5
 62
256
  6
BYLAYER
  0
LAYOUT
  5
365
102
{ACAD_REACTORS
330
1A
102
}
100
AcDbPlotSettings
  1

  2
none_device
  4
ISO_A4_(297.00_x_210.00_MM)
  6

 40
0.0
 41
0.0
 42
0.0
 43
0.0
 44
297.0
 45
210.0
 46
0.0
 47
0.0
 48
0.0
 49
0.0
140
0.0
141
0.0
142
1.0
143
1.0
 70
1024
 72
0
 73
0
 74
0
  7

 75
0
147
1.0
148
0.0
149
0.0
100
AcDbLayout
  1
Model
 70
0
 71
0
 10
0.0
 20
0.0
 11
11.6929133858
 21
8.2677165354
 12
0.0
 22
0.0
 32
0.0
 14
0.0
 24
0.0
 34
0.0
 15
0.0
 25
0.0
 35
0.0
146
0.0
 13
0.0
 23
0.0
 33
0.0
 16
1.0
 26
0.0
 36
0.0
 17
0.0
 27
1.0
 37
0.0
 76
0
330
202
345
0
346
0
  0
LAYOUT
  5
366
102
{ACAD_REACTORS
330
1A
102
}
100
AcDbPlotSettings
  1

  2
none_device
  4
ISO_A4_(297.00_x_210.00_MM)
  6

 40
0.0
 41
0.0
 42
0.0
 43
0.0
 44
297.0
 45
210.0
 46
0.0
 47
0.0
 48
0.0
 49
0.0
140
0.0
141
0.0
142
1.0
143
1.0
 70
0
 72
0
 73
0
 74
0
  7

 75
0
147
1.0
148
0.0
149
0.0
100
AcDbLayout
  1
Layout1
 70
0
 71
1
 10
0.0
 20
0.0
 11
11.6929133858
 21
8.2677165354
 12
0.0
 22
0.0
 32
0.0
 14
0.0
 24
0.0
 34
0.0
 15
0.0
 25
0.0
 35
0.0
146
0.0
 13
0.0
 23
0.0
 33
0.0
 16
1.0
 26
0.0
 36
0.0
 17
0.0
 27
1.0
 37
0.0
 76
0
330
203
345
0
346
0
  0
ENDSEC
  0
EOF
