999
DXF file: C:\Prowork\plots\442_top.dxf
999
Pro/ENGINEER 2018500 by Parametric Technology Corporation
  0
SECTION
  2
HEADER
  9
$ACADVER
  1
AC1032
  9
$DWGCODEPAGE
  3
ANSI_1252
  9
$EXTMAX
 10
11.0
 20
8.5
 30
0.0
  9
$EXTMIN
 10
0.0
 20
0.0
 30
0.0
  9
$LIMMIN
 10
0.0
 20
0.0
  9
$LIMMAX
 10
11.0
 20
8.5
  9
$VIEWCTR
 10
5.5
 20
4.25
  9
$VIEWSIZE
 40
8.5
  9
$CLAYER
  8
0
  9
$LTSCALE
 40
0.605
  9
$CELTYPE
  6
BYLAYER
  9
$DIMSCALE
 40
1.0
  9
$DIMASZ
 40
0.1
  9
$DIMEXO
 40
0.0625
  9
$DIMDLI
 40
0.418
  9
$DIMEXE
 40
0.125
  9
$DIMCEN
 40
0.099
  9
$DIMLFAC
 40
1.0
  9
$DIMBLK
  1
_FILLED
  9
$DIMALT
 70
1
  9
$DIMALTD
 70
2
  9
$DIMALTTD
 70
2
  9
$DIMALTF
 40
25.4
  9
$DIMTXT
 40
0.08
  9
$DIMTOL
 70
1
  9
$DIMLIM
 70
0
  9
$DIMTFAC
 40
1.0
  9
$DIMTP
 40
0.001
  9
$DIMTM
 40
0.001
  9
$DIMGAP
 40
0.09
  9
$DIMDSEP
 70
46
  9
$AUNITS
 70
0
  9
$PDMODE
 70
3
  9
$PDSIZE
 40
0.06
  9
$HANDSEED
  5
233
  9
$TILEMODE
 70
1
  9
$MEASUREMENT
 70
0
  9
$INSUNITS
 70
1
  0
ENDSEC
  0
SECTION
  2
CLASSES
  0
CLASS
  1
ACDBDICTIONARYWDFLT
  2
AcDbDictionaryWithDefault
  3
AutoCAD 2000
 90
0
 91
1
280
0
281
0
  0
CLASS
  1
ACDBPLACEHOLDER
  2
AcDbPlaceHolder
  3
AutoCAD 2000
 90
0
 91
1
280
0
281
0
  0
CLASS
  1
LAYOUT
  2
AcDbLayout
  3
AutoCAD 2000
 90
0
 91
0
280
0
281
0
  0
ENDSEC
  0
SECTION
  2
TABLES
  0
TABLE
  2
VPORT
  5
8
100
AcDbSymbolTable
 70
2
  0
VPORT
  5
1F4
100
AcDbSymbolTableRecord
100
AcDbViewportTableRecord
  2
*ACTIVE
 70
0
 10
0.0
 20
0.0
 11
1.0
 21
1.0
 12
5.5
 22
4.25
 13
0.0
 23
0.0
 14
1.0
 24
1.0
 15
0.0
 25
0.0
 16
0.0
 26
0.0
 36
1.0
 17
0.0
 27
0.0
 37
0.0
 40
8.5
 41
1.2941176471
 42
50.0
 43
0.0
 44
0.0
 50
0.0
 51
0.0
 71
0
 72
100
 73
1
 74
1
 75
0
 76
0
 77
0
 78
0
  0
ENDTAB
  0
TABLE
  2
LTYPE
  5
5
100
AcDbSymbolTable
 70
6
  0
LTYPE
  5
14
100
AcDbSymbolTableRecord
100
AcDbLinetypeTableRecord
  2
BYBLOCK
 70
0
  3

 72
65
 73
0
 40
0.0
  0
LTYPE
  5
15
100
AcDbSymbolTableRecord
100
AcDbLinetypeTableRecord
  2
BYLAYER
 70
0
  3

 72
65
 73
0
 40
0.0
  0
LTYPE
  5
16
100
AcDbSymbolTableRecord
100
AcDbLinetypeTableRecord
  2
CONTINUOUS
 70
64
  3
Solid line
 72
65
 73
0
 40
0.0
  0
LTYPE
  5
1F5
100
AcDbSymbolTableRecord
100
AcDbLinetypeTableRecord
  2
CENTER
 70
64
  3
____ _ ____ _ ____ _ ____ _ ____ _ ____ _ ____
 72
65
 73
4
 40
0.6
 49
0.375
 74
0
 49
-0.075
 74
0
 49
0.075
 74
0
 49
-0.075
 74
0
  0
LTYPE
  5
1F6
100
AcDbSymbolTableRecord
100
AcDbLinetypeTableRecord
  2
HIDDEN
 70
64
  3
- - - - - - - - - - - - - - - - - - - -
 72
65
 73
2
 40
0.2
 49
0.1
 74
0
 49
-0.1
 74
0
  0
LTYPE
  5
1F7
100
AcDbSymbolTableRecord
100
AcDbLinetypeTableRecord
  2
PHANTOM
 70
64
  3
_____ _ _ _____ _ _ _____ _ _ _____
 72
65
 73
6
 40
0.8
 49
0.45
 74
0
 49
-0.05
 74
0
 49
0.1
 74
0
 49
-0.05
 74
0
 49
0.1
 74
0
 49
-0.05
 74
0
  0
LTYPE
  5
1F8
100
AcDbSymbolTableRecord
100
AcDbLinetypeTableRecord
  2
DOT
 70
64
  3
. . . . . . . . . . . . . . . . . . . .
 72
65
 73
2
 40
0.2
 49
0.1
 74
0
 49
-0.1
 74
0
  0
LTYPE
  5
1F9
100
AcDbSymbolTableRecord
100
AcDbLinetypeTableRecord
  2
DASHED
 70
64
  3
- - - - - - - - - - - - - - - - - - - -
 72
65
 73
2
 40
0.2
 49
0.1
 74
0
 49
-0.1
 74
0
  0
ENDTAB
  0
TABLE
  2
LAYER
  5
2
100
AcDbSymbolTable
 70
36
  0
LAYER
  5
10
100
AcDbSymbolTableRecord
100
AcDbLayerTableRecord
  2
0
 70
0
 62
7
  6
CONTINUOUS
370
-3
390
F
  0
LAYER
  5
1FA
100
AcDbSymbolTableRecord
100
AcDbLayerTableRecord
  2
DEFAULT_1
 70
0
 62
7
  6
CENTER
370
-3
390
F
  0
LAYER
  5
1FB
100
AcDbSymbolTableRecord
100
AcDbLayerTableRecord
  2
DEFAULT_2
 70
0
 62
8
  6
HIDDEN
370
-3
390
F
  0
LAYER
  5
1FC
100
AcDbSymbolTableRecord
100
AcDbLayerTableRecord
  2
DEFAULT_3
 70
0
 62
7
  6
PHANTOM
370
-3
390
F
  0
LAYER
  5
1FD
100
AcDbSymbolTableRecord
100
AcDbLayerTableRecord
  2
ALL_FEATURES
 70
0
 62
7
  6
CONTINUOUS
370
-3
390
F
  0
LAYER
  5
1FE
100
AcDbSymbolTableRecord
100
AcDbLayerTableRecord
  2
AXES_FEATURES
 70
0
 62
7
  6
CONTINUOUS
370
-3
390
F
  0
LAYER
  5
1FF
100
AcDbSymbolTableRecord
100
AcDbLayerTableRecord
  2
DATUM_CURVE
 70
0
 62
7
  6
CONTINUOUS
370
-3
390
F
  0
LAYER
  5
200
100
AcDbSymbolTableRecord
100
AcDbLayerTableRecord
  2
DEFAULT_COORDINATE_SYSTEM
 70
0
 62
7
  6
CONTINUOUS
370
-3
390
F
  0
LAYER
  5
201
100
AcDbSymbolTableRecord
100
AcDbLayerTableRecord
  2
DEFAULT_DATUM_AXES
 70
0
 62
7
  6
CONTINUOUS
370
-3
390
F
  0
LAYER
  5
202
100
AcDbSymbolTableRecord
100
AcDbLayerTableRecord
  2
DEFAULT_DATUM_PLANES
 70
0
 62
7
  6
CONTINUOUS
370
-3
390
F
  0
LAYER
  5
203
100
AcDbSymbolTableRecord
100
AcDbLayerTableRecord
  2
DIMENSIONS
 70
0
 62
7
  6
CONTINUOUS
370
-3
390
F
  0
ENDTAB
  0
TABLE
  2
STYLE
  5
3
100
AcDbSymbolTable
 70
1
  0
STYLE
  5
11
100
AcDbSymbolTableRecord
100
AcDbTextStyleTableRecord
  2
STANDARD
 70
0
 40
0.0
 41
0.8
 50
0.0
 71
0
 42
0.2
  3
txt
  4

  0
STYLE
  5
204
100
AcDbSymbolTableRecord
100
AcDbTextStyleTableRecord
  2
TEXTSTYLE_1
 70
0
 40
0.0
 41
0.8
 50
0.0
 71
0
 42
0.2
  3
gdt
  4

  0
ENDTAB
  0
TABLE
  2
VIEW
  5
6
100
AcDbSymbolTable
 70
0
  0
ENDTAB
  0
TABLE
  2
UCS
  5
7
100
AcDbSymbolTable
 70
0
  0
ENDTAB
  0
TABLE
  2
APPID
  5
9
100
AcDbSymbolTable
 70
1
  0
APPID
  5
205
100
AcDbSymbolTableRecord
100
AcDbRegAppTableRecord
  2
ACAD
 70
0
  0
ENDTAB
  0
TABLE
  2
BLOCK_RECORD
  5
1
100
AcDbSymbolTable
 70
0
  0
BLOCK_RECORD
  5
206
100
AcDbSymbolTableRecord
100
AcDbBlockTableRecord
  2
*Model_Space
  0
BLOCK_RECORD
  5
207
100
AcDbSymbolTableRecord
100
AcDbBlockTableRecord
  2
*Paper_Space
  0
BLOCK_RECORD
  5
208
100
AcDbSymbolTableRecord
100
AcDbBlockTableRecord
  2
_FILLED
  0
ENDTAB
  0
TABLE
  2
DIMSTYLE
  5
A
100
AcDbSymbolTable
 70
1
100
AcDbDimStyleTable
 71
0
  0
DIMSTYLE
105
209
100
AcDbSymbolTableRecord
100
AcDbDimStyleTableRecord
  2
STANDARD
 70
0
  3

  4

 40
1.0
 41
0.1
 42
0.0625
 43
0.38
 44
0.125
 45
0.0
 46
0.0
 47
0.001
 48
0.001
140
0.08
141
0.09
142
0.0
143
25.4
144
1.0
145
0.0
146
1.0
147
0.09
 71
1.0
 72
0.0
 73
1
 74
1
 75
0
 76
0
 77
0
 78
4
 79
1
170
1
171
2
172
0
173
0
174
0
175
0
176
0
177
0
178
0
270
2
179
3
271
3
272
3
273
2
274
2
275
0
280
0
281
0
282
0
283
1
284
4
285
0
286
0
287
3
288
0
340
11
278
46
341
208
342
208
343
208
344
208
  0
ENDTAB
  0
ENDSEC
  0
SECTION
  2
BLOCKS
  0
BLOCK
  5
20
100
AcDbEntity
  8
0
100
AcDbBlockBegin
  2
*Model_Space
 70
0
 10
0.0
 20
0.0
 30
0.0
  3
*Model_Space
  1

  0
ENDBLK
  5
21
100
AcDbEntity
  8
0
100
AcDbBlockEnd
  0
BLOCK
  5
1C
100
AcDbEntity
  8
0
100
AcDbBlockBegin
  2
*Paper_Space
 70
0
 10
0.0
 20
0.0
 30
0.0
  3
*Paper_Space
  1

  0
ENDBLK
  5
1D
100
AcDbEntity
  8
0
100
AcDbBlockEnd
  0
BLOCK
  5
20A
100
AcDbEntity
  8
0
100
AcDbBlockBegin
  2
_FILLED
 70
64
 10
0.0
 20
0.0
  3
_FILLED
  1

  0
SOLID
  5
20B
100
AcDbEntity
  8
0
  6
BYBLOCK
 62
0
100
AcDbTrace
 10
0.0
 20
0.0
 11
-1.0
 21
0.2
 12
-1.0
 22
-0.2
 13
-1.0
 23
-0.2
  0
ENDBLK
  5
20C
100
AcDbEntity
  8
0
  6
BYBLOCK
 62
0
100
AcDbBlockEnd
  0
ENDSEC
  0
SECTION
  2
ENTITIES
  0
MTEXT
  5
20D
100
AcDbEntity
  8
0
100
AcDbMText
 62
7
  6
CONTINUOUS
  7
STANDARD
 71
1
 72
1
 10
9.6333268634
 20
0.306556677
 30
0.0
 11
1.0
 21
0.0
 31
0.0
 73
2
 44
0.9
  1
SCALE: 3.00
 40
0.08
 41
0.704
  0
LINE
  5
20E
100
AcDbEntity
  8
0
100
AcDbLine
 62
7
  6
CONTINUOUS
 10
0.0
 20
0.0
 11
0.0
 21
8.5
  0
LINE
  5
20F
100
AcDbEntity
  8
0
100
AcDbLine
 62
7
  6
CONTINUOUS
 10
0.0
 20
0.0
 11
11.0
 21
0.0
  0
LINE
  5
210
100
AcDbEntity
  8
0
100
AcDbLine
 62
7
  6
CONTINUOUS
 10
0.0
 20
8.5
 11
11.0
 21
8.5
  0
LINE
  5
211
100
AcDbEntity
  8
0
100
AcDbLine
 62
7
  6
CONTINUOUS
 10
11.0
 20
0.0
 11
11.0
 21
8.5
  0
CIRCLE
  5
212
100
AcDbEntity
  8
0
100
AcDbCircle
 62
7
  6
CONTINUOUS
 10
5.5980007764
 20
4.3941187888
 40
3.75
  0
CIRCLE
  5
213
100
AcDbEntity
  8
0
100
AcDbCircle
 62
9
  6
CONTINUOUS
 10
5.5980007764
 20
4.3941187888
 40
3.6807179677
  0
CIRCLE
  5
214
100
AcDbEntity
  8
0
100
AcDbCircle
 62
9
  6
CONTINUOUS
 10
5.5980007764
 20
4.3941187888
 40
3.0643272184
  0
CIRCLE
  5
215
100
AcDbEntity
  8
0
100
AcDbCircle
 62
9
  6
CONTINUOUS
 10
5.5980007764
 20
4.3941187888
 40
1.7604802355
  0
CIRCLE
  5
216
100
AcDbEntity
  8
0
100
AcDbCircle
 62
9
  6
CONTINUOUS
 10
5.5980007764
 20
4.3941187888
 40
1.506041522
  0
CIRCLE
  5
217
100
AcDbEntity
  8
0
100
AcDbCircle
 62
9
  6
CONTINUOUS
 10
5.5980007764
 20
4.3941187888
 40
1.3299798229
  0
CIRCLE
  5
218
100
AcDbEntity
  8
0
100
AcDbCircle
 62
9
  6
CONTINUOUS
 10
5.5980007764
 20
4.3941187888
 40
1.2702081882
  0
ARC
  5
219
100
AcDbEntity
  8
0
100
AcDbCircle
 62
7
  6
CONTINUOUS
 10
5.5980007764
 20
4.3941187888
 40
1.2487534009
100
AcDbArc
 50
27.9237142761
 51
62.4766735524
  0
ARC
  5
21A
100
AcDbEntity
  8
0
100
AcDbCircle
 62
7
  6
CONTINUOUS
 10
5.5980007764
 20
4.3941187888
 40
1.2487534009
100
AcDbArc
 50
117.5233264476
 51
152.0762857239
  0
ARC
  5
21B
100
AcDbEntity
  8
0
100
AcDbCircle
 62
7
  6
CONTINUOUS
 10
5.5980007764
 20
4.3941187888
 40
1.2487534009
100
AcDbArc
 50
207.9237142761
 51
242.4766735524
  0
ARC
  5
21C
100
AcDbEntity
  8
0
100
AcDbCircle
 62
7
  6
CONTINUOUS
 10
5.5980007764
 20
4.3941187888
 40
1.2487534009
100
AcDbArc
 50
297.5233264476
 51
332.0762857239
  0
ARC
  5
21D
100
AcDbEntity
  8
0
100
AcDbCircle
 62
7
  6
CONTINUOUS
 10
5.5980007764
 20
4.3941187888
 40
1.224
100
AcDbArc
 50
82.9607633175
 51
97.0392366825
  0
ARC
  5
21E
100
AcDbEntity
  8
0
100
AcDbCircle
 62
7
  6
CONTINUOUS
 10
5.5980007764
 20
4.3941187888
 40
1.224
100
AcDbArc
 50
262.9607633175
 51
277.0392366825
  0
ARC
  5
21F
100
AcDbEntity
  8
0
100
AcDbCircle
 62
7
  6
CONTINUOUS
 10
5.5980007764
 20
4.3941187888
 40
1.2225068019
100
AcDbArc
 50
172.9521218286
 51
187.0478781714
  0
ARC
  5
220
100
AcDbEntity
  8
0
100
AcDbCircle
 62
7
  6
CONTINUOUS
 10
5.5980007764
 20
4.3941187888
 40
1.2225068019
100
AcDbArc
 50
352.9521218286
 51
7.0478781714
  0
SPLINE
  5
221
100
AcDbEntity
  8
0
100
AcDbSpline
 62
7
  6
CONTINUOUS
 70
0
 71
3
 72
24
 73
20
 74
0
 42
0.0000001
 43
0.0000001
 44
0.0000000001
 40
0.0
 40
0.0
 40
0.0
 40
0.0
 40
0.0403537004
 40
0.0848812399
 40
0.1333666968
 40
0.185593486
 40
0.2413093733
 40
0.3002522206
 40
0.3621622709
 40
0.4267300341
 40
0.4936178477
 40
0.5624948928
 40
0.6330419266
 40
0.704946498
 40
0.7413122178
 40
0.7779020038
 40
0.8515993343
 40
0.9257342496
 40
1.0
 40
1.0
 40
1.0
 40
1.0
 10
6.8114445176
 20
4.1952049349
 30
0.0
 10
6.8113565461
 20
4.1897626639
 30
0.0
 10
6.8109624889
 20
4.1783179902
 30
0.0
 10
6.809771504
 20
4.1603660322
 30
0.0
 10
6.8078826246
 20
4.1408641058
 30
0.0
 10
6.8052291302
 20
4.1199293068
 30
0.0
 10
6.8017553916
 20
4.0976860104
 30
0.0
 10
6.7974083505
 20
4.0742668246
 30
0.0
 10
6.7921340515
 20
4.049815847
 30
0.0
 10
6.7859046026
 20
4.0244855474
 30
0.0
 10
6.7787033433
 20
3.9984376691
 30
0.0
 10
6.7705074777
 20
3.9718400518
 30
0.0
 10
6.7613227304
 20
3.9448518509
 30
0.0
 10
6.7528949251
 20
3.9222490738
 30
0.0
 10
6.7456709143
 20
3.9040939148
 30
0.0
 10
6.7380869462
 20
3.8858240426
 30
0.0
 10
6.7280463887
 20
3.8630610664
 30
0.0
 10
6.7151724898
 20
3.8360072188
 30
0.0
 10
6.7060551333
 20
3.818183948
 30
0.0
 10
6.7013641689
 20
3.8093331183
 30
0.0
  0
SPLINE
  5
222
100
AcDbEntity
  8
0
100
AcDbSpline
 62
7
  6
CONTINUOUS
 70
0
 71
3
 72
24
 73
20
 74
0
 42
0.0000001
 43
0.0000001
 44
0.0000000001
 40
0.0
 40
0.0
 40
0.0
 40
0.0
 40
0.0742657801
 40
0.1484007698
 40
0.2220981971
 40
0.2586880324
 40
0.2950537986
 40
0.3669584489
 40
0.4375055346
 40
0.5063825925
 40
0.5732703887
 40
0.6378381246
 40
0.6997481469
 40
0.7586909
 40
0.8144066571
 40
0.8666333459
 40
0.9151187618
 40
0.9596462957
 40
1.0
 40
1.0
 40
1.0
 40
1.0
 10
6.7013641689
 20
4.9789044594
 30
0.0
 10
6.7060551352
 20
4.9700536261
 30
0.0
 10
6.7151724954
 20
4.9522303414
 30
0.0
 10
6.7280464008
 20
4.925176467
 30
0.0
 10
6.7380869689
 20
4.902413463
 30
0.0
 10
6.7456709531
 20
4.8841435694
 30
0.0
 10
6.752894974
 20
4.865988389
 30
0.0
 10
6.7613227791
 20
4.8433855862
 30
0.0
 10
6.7705075205
 20
4.8163973631
 30
0.0
 10
6.7787034
 20
4.7897997434
 30
0.0
 10
6.7859046486
 20
4.7637518664
 30
0.0
 10
6.7921340789
 20
4.7384215726
 30
0.0
 10
6.7974083795
 20
4.7139706161
 30
0.0
 10
6.8017554162
 20
4.690551464
 30
0.0
 10
6.805229142
 20
4.6683082099
 30
0.0
 10
6.807882626
 20
4.6473734466
 30
0.0
 10
6.8097715023
 20
4.6278715399
 30
0.0
 10
6.8109624878
 20
4.6099195877
 30
0.0
 10
6.811356546
 20
4.5984749143
 30
0.0
 10
6.8114445176
 20
4.5930326428
 30
0.0
  0
SPLINE
  5
223
100
AcDbEntity
  8
0
100
AcDbSpline
 62
7
  6
CONTINUOUS
 70
0
 71
3
 72
23
 73
19
 74
0
 42
0.0000001
 43
0.0000001
 44
0.0000000001
 40
0.0
 40
0.0
 40
0.0
 40
0.0
 40
0.0415546878
 40
0.0870730748
 40
0.1363428864
 40
0.1891514315
 40
0.245256631
 40
0.3044100688
 40
0.366364017
 40
0.4308226784
 40
0.4974684707
 40
0.5659904054
 40
0.6360880277
 40
0.7074666702
 40
0.7798351532
 40
0.852905761
 40
0.9263902798
 40
1.0
 40
1.0
 40
1.0
 40
1.0
 10
5.795384954
 20
5.6087008788
 30
0.0
 10
5.8008918427
 20
5.6085731796
 30
0.0
 10
5.8124269003
 20
5.6081082589
 30
0.0
 10
5.8304575434
 20
5.6068329037
 30
0.0
 10
5.8499280215
 20
5.604884121
 30
0.0
 10
5.8707267267
 20
5.6022003748
 30
0.0
 10
5.8927363869
 20
5.5987312457
 30
0.0
 10
5.9158328498
 20
5.5944283071
 30
0.0
 10
5.9398814832
 20
5.5892427893
 30
0.0
 10
5.9647405452
 20
5.5831511032
 30
0.0
 10
5.9902597684
 20
5.576137764
 30
0.0
 10
6.0162839904
 20
5.5681821614
 30
0.0
 10
6.0426665728
 20
5.5592911946
 30
0.0
 10
6.0692672423
 20
5.549485537
 30
0.0
 10
6.0959433805
 20
5.5387785738
 30
0.0
 10
6.1225588836
 20
5.5272029047
 30
0.0
 10
6.1489885961
 20
5.5148170152
 30
0.0
 10
6.1664086675
 20
5.5060507716
 30
0.0
 10
6.1750618331
 20
5.5015417402
 30
0.0
  0
SPLINE
  5
224
100
AcDbEntity
  8
0
100
AcDbSpline
 62
7
  6
CONTINUOUS
 70
0
 71
3
 72
23
 73
19
 74
0
 42
0.0000001
 43
0.0000001
 44
0.0000000001
 40
0.0
 40
0.0
 40
0.0
 40
0.0
 40
0.0736097194
 40
0.1470942189
 40
0.2201647686
 40
0.2925331367
 40
0.3639116265
 40
0.4340091086
 40
0.5025309681
 40
0.5691767559
 40
0.6336354428
 40
0.6955894144
 40
0.7547429518
 40
0.8108483055
 40
0.8636569819
 40
0.9129268718
 40
0.9584452998
 40
1.0
 40
1.0
 40
1.0
 40
1.0
 10
5.0209397197
 20
5.5015417402
 30
0.0
 10
5.0295928852
 20
5.5060507716
 30
0.0
 10
5.0470129543
 20
5.514817014
 30
0.0
 10
5.0734426572
 20
5.5272028995
 30
0.0
 10
5.1000581366
 20
5.5387785592
 30
0.0
 10
5.1267342341
 20
5.5494855076
 30
0.0
 10
5.1533348481
 20
5.5592911592
 30
0.0
 10
5.1797173817
 20
5.5681821194
 30
0.0
 10
5.2057415819
 20
5.5761376935
 30
0.0
 10
5.2312607951
 20
5.5831510406
 30
0.0
 10
5.2561198574
 20
5.5892427509
 30
0.0
 10
5.2801685112
 20
5.5944282683
 30
0.0
 10
5.3032650106
 20
5.5987312114
 30
0.0
 10
5.3252747198
 20
5.6022003573
 30
0.0
 10
5.3460734721
 20
5.6048841158
 30
0.0
 10
5.3655439832
 20
5.6068329026
 30
0.0
 10
5.3835746437
 20
5.6081082589
 30
0.0
 10
5.3951097084
 20
5.6085731795
 30
0.0
 10
5.4006165988
 20
5.6087008788
 30
0.0
  0
SPLINE
  5
225
100
AcDbEntity
  8
0
100
AcDbSpline
 62
7
  6
CONTINUOUS
 70
0
 71
3
 72
24
 73
20
 74
0
 42
0.0000001
 43
0.0000001
 44
0.0000000001
 40
0.0
 40
0.0
 40
0.0
 40
0.0
 40
0.0403537081
 40
0.0848812508
 40
0.1333666762
 40
0.1855933744
 40
0.2413091457
 40
0.3002519188
 40
0.3621619729
 40
0.4267297549
 40
0.4936175864
 40
0.5624946423
 40
0.6330416878
 40
0.7049462839
 40
0.7413120252
 40
0.7779018406
 40
0.8515992427
 40
0.9257342219
 40
1.0
 40
1.0
 40
1.0
 40
1.0
 10
4.3845570352
 20
4.5930326428
 30
0.0
 10
4.3846450068
 20
4.5984749148
 30
0.0
 10
4.3850390653
 20
4.6099195899
 30
0.0
 10
4.3862300513
 20
4.6278715451
 30
0.0
 10
4.3881189278
 20
4.6473734555
 30
0.0
 10
4.390772412
 20
4.6683082233
 30
0.0
 10
4.3942461391
 20
4.6905514832
 30
0.0
 10
4.398593178
 20
4.7139706438
 30
0.0
 10
4.4038674837
 20
4.7384216128
 30
0.0
 10
4.4100969237
 20
4.76375192
 30
0.0
 10
4.4172981763
 20
4.7897998069
 30
0.0
 10
4.425494047
 20
4.8163974284
 30
0.0
 10
4.4346787876
 20
4.8433856381
 30
0.0
 10
4.4431065914
 20
4.8659884242
 30
0.0
 10
4.4503306088
 20
4.8841435916
 30
0.0
 10
4.4579145891
 20
4.9024134766
 30
0.0
 10
4.4679551548
 20
4.9251764735
 30
0.0
 10
4.4808290582
 20
4.9522303432
 30
0.0
 10
4.4899464177
 20
4.9700536263
 30
0.0
 10
4.4946373839
 20
4.9789044594
 30
0.0
  0
SPLINE
  5
226
100
AcDbEntity
  8
0
100
AcDbSpline
 62
7
  6
CONTINUOUS
 70
0
 71
3
 72
24
 73
20
 74
0
 42
0.0000001
 43
0.0000001
 44
0.0000000001
 40
0.0
 40
0.0
 40
0.0
 40
0.0
 40
0.0742657522
 40
0.1484006778
 40
0.2220980333
 40
0.2586878393
 40
0.2950535842
 40
0.3669582106
 40
0.4375052852
 40
0.5063823327
 40
0.5732701105
 40
0.637837827
 40
0.6997478452
 40
0.7586906725
 40
0.8144065457
 40
0.8666333255
 40
0.9151187729
 40
0.9596463035
 40
1.0
 40
1.0
 40
1.0
 40
1.0
 10
4.4946373839
 20
3.8093331183
 30
0.0
 10
4.4899464194
 20
3.8181839482
 30
0.0
 10
4.4808290622
 20
3.8360072205
 30
0.0
 10
4.4679551614
 20
3.8630610727
 30
0.0
 10
4.4579146014
 20
3.8858240559
 30
0.0
 10
4.4503306295
 20
3.9040939368
 30
0.0
 10
4.4431066152
 20
3.922249109
 30
0.0
 10
4.4346788085
 20
3.944851903
 30
0.0
 10
4.4254940604
 20
3.9718401175
 30
0.0
 10
4.4172981858
 20
3.9984377331
 30
0.0
 10
4.4100969305
 20
4.0244856014
 30
0.0
 10
4.4038674914
 20
4.0498158874
 30
0.0
 10
4.3985931975
 20
4.0742668525
 30
0.0
 10
4.3942461586
 20
4.0976860295
 30
0.0
 10
4.3907724215
 20
4.1199293202
 30
0.0
 10
4.3881189271
 20
4.1408641148
 30
0.0
 10
4.386230048
 20
4.1603660374
 30
0.0
 10
4.3850390636
 20
4.1783179924
 30
0.0
 10
4.3846450067
 20
4.1897626644
 30
0.0
 10
4.3845570352
 20
4.1952049349
 30
0.0
  0
SPLINE
  5
227
100
AcDbEntity
  8
0
100
AcDbSpline
 62
7
  6
CONTINUOUS
 70
0
 71
3
 72
23
 73
19
 74
0
 42
0.0000001
 43
0.0000001
 44
0.0000000001
 40
0.0
 40
0.0
 40
0.0
 40
0.0
 40
0.0415547002
 40
0.0870731282
 40
0.1363430181
 40
0.1891516945
 40
0.2452570482
 40
0.3044105856
 40
0.3663645572
 40
0.4308232441
 40
0.4974690319
 40
0.5659908914
 40
0.6360883735
 40
0.7074668633
 40
0.7798352314
 40
0.8529057811
 40
0.9263902806
 40
1.0
 40
1.0
 40
1.0
 40
1.0
 10
5.4006165988
 20
3.1795366988
 30
0.0
 10
5.3951097084
 20
3.1796643981
 30
0.0
 10
5.3835746437
 20
3.1801293187
 30
0.0
 10
5.3655439832
 20
3.181404675
 30
0.0
 10
5.3460734721
 20
3.1833534618
 30
0.0
 10
5.3252747198
 20
3.1860372204
 30
0.0
 10
5.3032650106
 20
3.1895063662
 30
0.0
 10
5.2801685112
 20
3.1938093094
 30
0.0
 10
5.2561198574
 20
3.1989948268
 30
0.0
 10
5.2312607951
 20
3.205086537
 30
0.0
 10
5.2057415819
 20
3.2120998841
 30
0.0
 10
5.1797173817
 20
3.2200554582
 30
0.0
 10
5.1533348481
 20
3.2289464185
 30
0.0
 10
5.1267342341
 20
3.23875207
 30
0.0
 10
5.1000581366
 20
3.2494590185
 30
0.0
 10
5.0734426572
 20
3.2610346782
 30
0.0
 10
5.0470129543
 20
3.2734205637
 30
0.0
 10
5.0295928852
 20
3.2821868061
 30
0.0
 10
5.0209397197
 20
3.2866958374
 30
0.0
  0
SPLINE
  5
228
100
AcDbEntity
  8
0
100
AcDbSpline
 62
7
  6
CONTINUOUS
 70
0
 71
3
 72
23
 73
19
 74
0
 42
0.0000001
 43
0.0000001
 44
0.0000000001
 40
0.0
 40
0.0
 40
0.0
 40
0.0
 40
0.0736097202
 40
0.147094239
 40
0.2201648468
 40
0.2925333298
 40
0.3639119723
 40
0.4340095946
 40
0.5025315293
 40
0.5691773216
 40
0.633635983
 40
0.6955899312
 40
0.754743369
 40
0.8108485685
 40
0.8636571136
 40
0.9129269252
 40
0.9584453122
 40
1.0
 40
1.0
 40
1.0
 40
1.0
 10
6.1750618331
 20
3.2866958374
 30
0.0
 10
6.1664086675
 20
3.282186806
 30
0.0
 10
6.1489885961
 20
3.2734205624
 30
0.0
 10
6.1225588836
 20
3.261034673
 30
0.0
 10
6.0959433805
 20
3.2494590038
 30
0.0
 10
6.0692672423
 20
3.2387520407
 30
0.0
 10
6.0426665728
 20
3.2289463831
 30
0.0
 10
6.0162839904
 20
3.2200554162
 30
0.0
 10
5.9902597684
 20
3.2120998136
 30
0.0
 10
5.9647405452
 20
3.2050864745
 30
0.0
 10
5.9398814832
 20
3.1989947883
 30
0.0
 10
5.9158328498
 20
3.1938092705
 30
0.0
 10
5.8927363869
 20
3.1895063319
 30
0.0
 10
5.8707267267
 20
3.1860372029
 30
0.0
 10
5.8499280215
 20
3.1833534566
 30
0.0
 10
5.8304575434
 20
3.1814046739
 30
0.0
 10
5.8124269003
 20
3.1801293188
 30
0.0
 10
5.8008918427
 20
3.1796643981
 30
0.0
 10
5.795384954
 20
3.1795366988
 30
0.0
  0
ELLIPSE
  5
229
100
AcDbEntity
  8
0
100
AcDbEllipse
 62
7
  6
CONTINUOUS
 10
5.5980007764
 20
4.2152457509
 30
0.0
 11
0.0
 21
1.2267169077
 31
0.0
 40
0.9893119575
 41
1.5472573144
 42
1.5871340062
  0
ELLIPSE
  5
22A
100
AcDbEntity
  8
0
100
AcDbEllipse
 62
7
  6
CONTINUOUS
 10
5.4293244537
 20
4.3941187888
 30
0.0
 11
1.2265683472
 21
-0.0
 31
0.0
 40
0.9904991437
 41
-1.5942034827
 42
-1.5555692549
  0
ELLIPSE
  5
22B
100
AcDbEntity
  8
0
100
AcDbEllipse
 62
7
  6
CONTINUOUS
 10
5.4293244537
 20
4.3941187888
 30
0.0
 11
1.2265683472
 21
-0.0
 31
0.0
 40
0.9904991437
 41
1.5555692549
 42
1.5942034827
  0
ELLIPSE
  5
22C
100
AcDbEntity
  8
0
100
AcDbEllipse
 62
7
  6
CONTINUOUS
 10
5.5980007764
 20
4.5729918268
 30
0.0
 11
0.0
 21
1.2267169077
 31
0.0
 40
0.9893119575
 41
1.5544586474
 42
1.5943353392
  0
ELLIPSE
  5
22D
100
AcDbEntity
  8
0
100
AcDbEllipse
 62
7
  6
CONTINUOUS
 10
5.7666770991
 20
4.3941187888
 30
0.0
 11
1.2265683472
 21
0.0
 31
0.0
 40
0.9904991437
 41
1.5473891708
 42
1.5860233987
  0
ELLIPSE
  5
22E
100
AcDbEntity
  8
0
100
AcDbEllipse
 62
7
  6
CONTINUOUS
 10
5.7666770991
 20
4.3941187888
 30
0.0
 11
1.2265683472
 21
0.0
 31
0.0
 40
0.9904991437
 41
-1.5860233987
 42
-1.5473891708
  0
ELLIPSE
  5
22F
100
AcDbEntity
  8
0
100
AcDbEllipse
 62
7
  6
CONTINUOUS
 10
5.5980007764
 20
4.2152457509
 30
0.0
 11
0.0
 21
1.2267169077
 31
0.0
 40
0.9893119575
 41
-1.5871340062
 42
-1.5472573144
  0
ELLIPSE
  5
230
100
AcDbEntity
  8
0
100
AcDbEllipse
 62
7
  6
CONTINUOUS
 10
5.5980007764
 20
4.5729918268
 30
0.0
 11
0.0
 21
1.2267169077
 31
0.0
 40
0.9893119575
 41
-1.5943353392
 42
-1.5544586474
  0
ENDSEC
  0
SECTION
  2
OBJECTS
  0
DICTIONARY
  5
C
100
AcDbDictionary
280
0
281
1
  3
ACAD_GROUP
350
D
  3
ACAD_MLINESTYLE
350
17
  3
ACAD_LAYOUT
350
1A
  3
ACAD_PLOTSETTINGS
350
19
  3
ACAD_PLOTSTYLENAME
350
E
  0
DICTIONARY
  5
D
102
{ACAD_REACTORS
330
C
102
}
100
AcDbDictionary
280
0
281
1
  0
ACDBDICTIONARYWDFLT
  5
E
102
{ACAD_REACTORS
330
C
102
}
100
AcDbDictionary
281
1
  3
Normal
350
F
100
AcDbDictionaryWithDefault
340
F
  0
DICTIONARY
  5
17
102
{ACAD_REACTORS
330
C
102
}
100
AcDbDictionary
280
0
281
1
  3
Standard
350
18
  0
DICTIONARY
  5
19
102
{ACAD_REACTORS
330
C
102
}
100
AcDbDictionary
281
1
  0
DICTIONARY
  5
1A
102
{ACAD_REACTORS
330
C
102
}
100
AcDbDictionary
281
1
  3
Model
350
231
  3
Layout1
350
232
  0
ACDBPLACEHOLDER
  5
F
102
{ACAD_REACTORS
330
E
102
}
  0
MLINESTYLE
  5
18
102
{ACAD_REACTORS
330
17
102
}
100
AcDbMlineStyle
  2
STANDARD
 70
0
  3

 62
256
 51
90.0
 52
90.0
 71
2
 49
0.5
 62
256
  6
BYLAYER
 49
-0.5
 62
256
  6
BYLAYER
  0
LAYOUT
  5
231
102
{ACAD_REACTORS
330
1A
102
}
100
AcDbPlotSettings
  1

  2
none_device
  4
ANSI_A_(11.00_x_8.50_Inches)
  6

 40
0.0
 41
0.0
 42
0.0
 43
0.0
 44
279.4
 45
215.9
 46
0.0
 47
0.0
 48
0.0
 49
0.0
140
0.0
141
0.0
142
1.0
143
1.0
 70
1024
 72
0
 73
0
 74
0
  7

 75
0
147
1.0
148
0.0
149
0.0
100
AcDbLayout
  1
Model
 70
0
 71
0
 10
0.0
 20
0.0
 11
11.0
 21
8.5
 12
0.0
 22
0.0
 32
0.0
 14
0.0
 24
0.0
 34
0.0
 15
0.0
 25
0.0
 35
0.0
146
0.0
 13
0.0
 23
0.0
 33
0.0
 16
1.0
 26
0.0
 36
0.0
 17
0.0
 27
1.0
 37
0.0
 76
0
330
206
345
0
346
0
  0
LAYOUT
  5
232
102
{ACAD_REACTORS
330
1A
102
}
100
AcDbPlotSettings
  1

  2
none_device
  4
ANSI_A_(11.00_x_8.50_Inches)
  6

 40
0.0
 41
0.0
 42
0.0
 43
0.0
 44
279.4
 45
215.9
 46
0.0
 47
0.0
 48
0.0
 49
0.0
140
0.0
141
0.0
142
1.0
143
1.0
 70
0
 72
0
 73
0
 74
0
  7

 75
0
147
1.0
148
0.0
149
0.0
100
AcDbLayout
  1
Layout1
 70
0
 71
1
 10
0.0
 20
0.0
 11
11.0
 21
8.5
 12
0.0
 22
0.0
 32
0.0
 14
0.0
 24
0.0
 34
0.0
 15
0.0
 25
0.0
 35
0.0
146
0.0
 13
0.0
 23
0.0
 33
0.0
 16
1.0
 26
0.0
 36
0.0
 17
0.0
 27
1.0
 37
0.0
 76
0
330
207
345
0
346
0
  0
ENDSEC
  0
EOF
