  0
SECTION
  2
HEADER
  9
$ACADVER
  1
AC1015
  9
$DWGCODEPAGE
  3
ANSI_1252
  9
$EXTMAX
 10
11.6929133858
 20
8.2677165354
 30
0.0
  9
$EXTMIN
 10
0.0
 20
0.0
 30
0.0
  9
$LIMMIN
 10
0.0
 20
0.0
  9
$LIMMAX
 10
11.6929133858
 20
8.2677165354
  9
$VIEWCTR
 10
5.8464566929
 20
4.1338582677
  9
$VIEWSIZE
 40
8.2677165354
  9
$CLAYER
  8
0
  9
$LTSCALE
 40
0.6431102362
  9
$CELTYPE
  6
BYLAYER
  9
$DIMSCALE
 40
1.0
  9
$DIMASZ
 40
0.1875
  9
$DIMEXO
 40
0.0730807087
  9
$DIMDLI
 40
0.4443307087
  9
$DIMEXE
 40
0.2104724409
  9
$DIMCEN
 40
0.1052362205
  9
$DIMLFAC
 40
1.0
  9
$DIMBLK
  1
_CLOSED
  9
$DIMTXT
 40
0.15625
  9
$DIMTOL
 70
0
  9
$DIMLIM
 70
0
  9
$DIMTFAC
 40
1.0
  9
$PDMODE
 70
3
  9
$PDSIZE
 40
0.3125
  9
$HANDSEED
  5
2BE
  9
$TILEMODE
 70
1
  9
$MEASUREMENT
 70
0
  9
$INSUNITS
 70
1
  0
ENDSEC
  0
SECTION
  2
CLASSES
  0
CLASS
  1
ACDBDICTIONARYWDFLT
  2
AcDbDictionaryWithDefault
  3
AutoCAD 2000
 90
0
280
0
281
0
  0
CLASS
  1
ACDBPLACEHOLDER
  2
AcDbPlaceHolder
  3
AutoCAD 2000
 90
0
280
0
281
0
  0
CLASS
  1
LAYOUT
  2
AcDbLayout
  3
AutoCAD 2000
 90
0
280
0
281
0
  0
ENDSEC
  0
SECTION
  2
TABLES
  0
TABLE
  2
VPORT
  5
8
100
AcDbSymbolTable
 70
2
  0
VPORT
  5
1F4
100
AcDbSymbolTableRecord
100
AcDbViewportTableRecord
  2
*ACTIVE
 70
0
 10
0.0
 20
0.0
 11
1.0
 21
1.0
 12
5.8464566929
 22
4.1338582677
 13
0.0
 23
0.0
 14
1.0
 24
1.0
 15
0.0
 25
0.0
 16
0.0
 26
0.0
 36
1.0
 17
0.0
 27
0.0
 37
0.0
 40
8.2677165354
 41
1.4142857143
 42
50.0
 43
0.0
 44
0.0
 50
0.0
 51
0.0
 71
0
 72
100
 73
1
 74
1
 75
0
 76
0
 77
0
 78
0
  0
ENDTAB
  0
TABLE
  2
LTYPE
  5
5
100
AcDbSymbolTable
 70
6
  0
LTYPE
  5
14
100
AcDbSymbolTableRecord
100
AcDbLinetypeTableRecord
  2
BYBLOCK
 70
0
  3

 72
65
 73
0
 40
0.0
  0
LTYPE
  5
15
100
AcDbSymbolTableRecord
100
AcDbLinetypeTableRecord
  2
BYLAYER
 70
0
  3

 72
65
 73
0
 40
0.0
  0
LTYPE
  5
16
100
AcDbSymbolTableRecord
100
AcDbLinetypeTableRecord
  2
CONTINUOUS
 70
64
  3
Solid line
 72
65
 73
0
 40
0.0
  0
LTYPE
  5
1F5
100
AcDbSymbolTableRecord
100
AcDbLinetypeTableRecord
  2
CENTER
 70
64
  3
____ _ ____ _ ____ _ ____ _ ____ _ ____ _ ____
 72
65
 73
4
 40
0.6
 49
0.375
 74
0
 49
-0.075
 74
0
 49
0.075
 74
0
 49
-0.075
 74
0
  0
LTYPE
  5
1F6
100
AcDbSymbolTableRecord
100
AcDbLinetypeTableRecord
  2
HIDDEN
 70
64
  3
- - - - - - - - - - - - - - - - - - - -
 72
65
 73
2
 40
0.2
 49
0.1
 74
0
 49
-0.1
 74
0
  0
LTYPE
  5
1F7
100
AcDbSymbolTableRecord
100
AcDbLinetypeTableRecord
  2
PHANTOM
 70
64
  3
_____ _ _ _____ _ _ _____ _ _ _____
 72
65
 73
6
 40
0.8
 49
0.45
 74
0
 49
-0.05
 74
0
 49
0.1
 74
0
 49
-0.05
 74
0
 49
0.1
 74
0
 49
-0.05
 74
0
  0
LTYPE
  5
1F8
100
AcDbSymbolTableRecord
100
AcDbLinetypeTableRecord
  2
DOT
 70
64
  3
. . . . . . . . . . . . . . . . . . . .
 72
65
 73
2
 40
0.2
 49
0.1
 74
0
 49
-0.1
 74
0
  0
LTYPE
  5
1F9
100
AcDbSymbolTableRecord
100
AcDbLinetypeTableRecord
  2
DASHED
 70
64
  3
- - - - - - - - - - - - - - - - - - - -
 72
65
 73
2
 40
0.2
 49
0.1
 74
0
 49
-0.1
 74
0
  0
ENDTAB
  0
TABLE
  2
LAYER
  5
2
100
AcDbSymbolTable
 70
36
  0
LAYER
  5
10
100
AcDbSymbolTableRecord
100
AcDbLayerTableRecord
  2
0
 70
0
 62
7
  6
CONTINUOUS
370
-3
390
F
  0
LAYER
  5
1FA
100
AcDbSymbolTableRecord
100
AcDbLayerTableRecord
  2
DEFAULT_1
 70
0
 62
7
  6
CENTER
370
-3
390
F
  0
LAYER
  5
1FB
100
AcDbSymbolTableRecord
100
AcDbLayerTableRecord
  2
DEFAULT_2
 70
0
 62
8
  6
HIDDEN
370
-3
390
F
  0
LAYER
  5
1FC
100
AcDbSymbolTableRecord
100
AcDbLayerTableRecord
  2
DEFAULT_3
 70
0
 62
7
  6
PHANTOM
370
-3
390
F
  0
LAYER
  5
1FD
100
AcDbSymbolTableRecord
100
AcDbLayerTableRecord
  2
DEFAULT_COORDINATE_SYSTEM
 70
0
 62
7
  6
CONTINUOUS
370
-3
390
F
  0
LAYER
  5
1FE
100
AcDbSymbolTableRecord
100
AcDbLayerTableRecord
  2
DEFAULT_DATUM_AXES
 70
0
 62
7
  6
CONTINUOUS
370
-3
390
F
  0
LAYER
  5
1FF
100
AcDbSymbolTableRecord
100
AcDbLayerTableRecord
  2
DEFAULT_DATUM_CURVES
 70
0
 62
7
  6
CONTINUOUS
370
-3
390
F
  0
LAYER
  5
200
100
AcDbSymbolTableRecord
100
AcDbLayerTableRecord
  2
DEFAULT_DATUM_PLANES
 70
0
 62
7
  6
CONTINUOUS
370
-3
390
F
  0
ENDTAB
  0
TABLE
  2
STYLE
  5
3
100
AcDbSymbolTable
 70
1
  0
STYLE
  5
11
100
AcDbSymbolTableRecord
100
AcDbTextStyleTableRecord
  2
STANDARD
 70
0
 40
0.0
 41
0.8
 50
0.0
 71
0
 42
0.2
  3
txt
  4

  0
STYLE
  5
201
100
AcDbSymbolTableRecord
100
AcDbTextStyleTableRecord
  2
TEXTSTYLE_1
 70
0
 40
0.0
 41
0.8
 50
0.0
 71
0
 42
0.2
  3
gdt
  4

  0
ENDTAB
  0
TABLE
  2
VIEW
  5
6
100
AcDbSymbolTable
 70
0
  0
ENDTAB
  0
TABLE
  2
UCS
  5
7
100
AcDbSymbolTable
 70
0
  0
ENDTAB
  0
TABLE
  2
APPID
  5
9
100
AcDbSymbolTable
 70
1
  0
APPID
  5
202
100
AcDbSymbolTableRecord
100
AcDbRegAppTableRecord
  2
ACAD
 70
0
  0
ENDTAB
  0
TABLE
  2
BLOCK_RECORD
  5
1
100
AcDbSymbolTable
 70
0
  0
BLOCK_RECORD
  5
203
100
AcDbSymbolTableRecord
100
AcDbBlockTableRecord
  2
*Model_Space
  0
BLOCK_RECORD
  5
204
100
AcDbSymbolTableRecord
100
AcDbBlockTableRecord
  2
*Paper_Space
  0
ENDTAB
  0
TABLE
  2
DIMSTYLE
  5
A
100
AcDbSymbolTable
 70
1
100
AcDbDimStyleTable
 71
0
  0
DIMSTYLE
105
205
100
AcDbSymbolTableRecord
100
AcDbDimStyleTableRecord
  2
STANDARD
 70
0
  3

  4

 40
1.0
 41
0.1875
 42
0.0625
 43
0.38
 44
0.18
 45
0.0
 46
0.0
 47
0.01
 48
0.01
140
0.15625
141
0.09
142
0.0
143
25.4
144
1.0
145
0.0
146
1.0
147
0.09
 71
0.0
 72
0.0
 73
1
 74
1
 75
0
 76
0
 77
0
 78
4
170
0
171
2
172
0
173
0
174
0
175
0
176
0
177
0
178
0
270
2
271
2
272
2
273
2
274
2
275
0
280
0
281
0
282
0
283
1
284
4
285
0
286
0
287
3
288
0
340
11
  0
ENDTAB
  0
ENDSEC
  0
SECTION
  2
BLOCKS
  0
BLOCK
  5
20
100
AcDbEntity
  8
0
100
AcDbBlockBegin
  2
*Model_Space
 70
0
 10
0.0
 20
0.0
 30
0.0
  3
*Model_Space
  1

  0
ENDBLK
  5
21
100
AcDbEntity
  8
0
100
AcDbBlockEnd
  0
BLOCK
  5
1C
100
AcDbEntity
  8
0
100
AcDbBlockBegin
  2
*Paper_Space
 70
0
 10
0.0
 20
0.0
 30
0.0
  3
*Paper_Space
  1

  0
ENDBLK
  5
1D
100
AcDbEntity
  8
0
100
AcDbBlockEnd
  0
ENDSEC
  0
SECTION
  2
ENTITIES
  0
LINE
  5
206
100
AcDbEntity
  8
0
100
AcDbLine
 62
6
  6
CONTINUOUS
 10
5.7848312064
 20
4.6882902073
 11
5.7848312064
 21
4.6866515893
  0
ARC
  5
207
100
AcDbEntity
  8
0
100
AcDbCircle
 62
6
  6
CONTINUOUS
 10
5.7848312064
 20
4.2817902073
 40
0.4065
100
AcDbArc
 50
121.830053596
 51
90.0748474869
  0
ARC
  5
208
100
AcDbEntity
  8
0
100
AcDbCircle
 62
6
  6
CONTINUOUS
 10
5.7851742562
 20
4.2818861505
 40
0.4064029356
100
AcDbArc
 50
90.1275989432
 51
121.6769566882
  0
ARC
  5
209
100
AcDbEntity
  8
0
100
AcDbCircle
 62
6
  6
CONTINUOUS
 10
5.7850078441
 20
4.2821088867
 40
0.4061227653
100
AcDbArc
 50
121.9142018629
 51
180.0460516542
  0
ARC
  5
20A
100
AcDbEntity
  8
0
100
AcDbCircle
 62
6
  6
CONTINUOUS
 10
5.7845633392
 20
4.2820555489
 40
0.4056639642
100
AcDbArc
 50
180.0385689262
 51
269.9600039808
  0
ARC
  5
20B
100
AcDbEntity
  8
0
100
AcDbCircle
 62
6
  6
CONTINUOUS
 10
5.7845169826
 20
4.2829639213
 40
0.4051406627
100
AcDbArc
 50
121.6778921402
 51
121.919201105
  0
ARC
  5
20C
100
AcDbEntity
  8
0
100
AcDbCircle
 62
6
  6
CONTINUOUS
 10
5.7851742487
 20
4.281886182
 40
0.404764289
100
AcDbArc
 50
90.1357620154
 51
121.6771179819
  0
ARC
  5
20D
100
AcDbEntity
  8
0
100
AcDbCircle
 62
6
  6
CONTINUOUS
 10
5.7851742802
 20
4.2818860392
 40
0.4041798137
100
AcDbArc
 50
90.1283010023
 51
121.6738303848
  0
ARC
  5
20E
100
AcDbEntity
  8
0
100
AcDbCircle
 62
6
  6
CONTINUOUS
 10
5.784516025
 20
4.2829654877
 40
0.4035002095
100
AcDbArc
 50
121.6780573839
 51
121.8988426109
  0
ARC
  5
20F
100
AcDbEntity
  8
0
100
AcDbCircle
 62
6
  6
CONTINUOUS
 10
5.7845138693
 20
4.2829698685
 40
0.402910727
100
AcDbArc
 50
121.6748339186
 51
121.8915236236
  0
ARC
  5
210
100
AcDbEntity
  8
0
100
AcDbCircle
 62
6
  6
CONTINUOUS
 10
5.7851742373
 20
4.2818861595
 40
0.4025410724
100
AcDbArc
 50
90.1657393849
 51
121.6739957326
  0
ARC
  5
211
100
AcDbEntity
  8
0
100
AcDbCircle
 62
6
  6
CONTINUOUS
 10
5.7850944227
 20
4.2820337942
 40
0.4023734232
100
AcDbArc
 50
121.8707780659
 51
153.4174615589
  0
ARC
  5
212
100
AcDbEntity
  8
0
100
AcDbCircle
 62
6
  6
CONTINUOUS
 10
5.7851745761
 20
4.2818860919
 40
0.4019565367
100
AcDbArc
 50
90.1592309941
 51
121.7702104043
  0
ARC
  5
213
100
AcDbEntity
  8
0
100
AcDbCircle
 62
6
  6
CONTINUOUS
 10
5.7846310122
 20
4.2821290829
 40
0.4018927809
100
AcDbArc
 50
153.4000476722
 51
269.9139602164
  0
ARC
  5
214
100
AcDbEntity
  8
0
100
AcDbCircle
 62
6
  6
CONTINUOUS
 10
5.7850948975
 20
4.2820335937
 40
0.4017892906
100
AcDbArc
 50
122.2649446811
 51
153.452027723
  0
ARC
  5
215
100
AcDbEntity
  8
0
100
AcDbCircle
 62
6
  6
CONTINUOUS
 10
5.7846307697
 20
4.2821289638
 40
0.4013079284
100
AcDbArc
 50
153.4345924572
 51
269.9212142631
  0
ARC
  5
216
100
AcDbEntity
  8
0
100
AcDbCircle
 62
6
  6
CONTINUOUS
 10
5.7845128963
 20
4.2829714583
 40
0.4012702456
100
AcDbArc
 50
121.6750010449
 51
121.8709544653
  0
ARC
  5
217
100
AcDbEntity
  8
0
100
AcDbCircle
 62
6
  6
CONTINUOUS
 10
5.7845446993
 20
4.2828932301
 40
0.4007687642
100
AcDbArc
 50
121.7694629851
 51
122.2640386841
  0
ARC
  5
218
100
AcDbEntity
  8
0
100
AcDbCircle
 62
6
  6
CONTINUOUS
 10
5.7851746087
 20
4.2818860148
 40
0.4003180049
100
AcDbArc
 50
90.1380472728
 51
121.7901535611
  0
ARC
  5
219
100
AcDbEntity
  8
0
100
AcDbCircle
 62
6
  6
CONTINUOUS
 10
5.7850947642
 20
4.2820337205
 40
0.4001504937
100
AcDbArc
 50
122.2651037016
 51
153.471673848
  0
ARC
  5
21A
100
AcDbEntity
  8
0
100
AcDbCircle
 62
6
  6
CONTINUOUS
 10
5.7851751168
 20
4.281888587
 40
0.3997318458
100
AcDbArc
 50
90.1103141341
 51
121.8140403933
  0
ARC
  5
21B
100
AcDbEntity
  8
0
100
AcDbCircle
 62
6
  6
CONTINUOUS
 10
5.7846306581
 20
4.2821289013
 40
0.3996692011
100
AcDbArc
 50
153.4541667175
 51
269.9421831827
  0
ARC
  5
21C
100
AcDbEntity
  8
0
100
AcDbCircle
 62
6
  6
CONTINUOUS
 10
5.7850715285
 20
4.282053376
 40
0.399535771
100
AcDbArc
 50
121.8138747909
 51
153.4678687375
  0
ARC
  5
21D
100
AcDbEntity
  8
0
100
AcDbCircle
 62
6
  6
CONTINUOUS
 10
5.7845434539
 20
4.2828952897
 40
0.3991277405
100
AcDbArc
 50
121.7894680782
 51
122.2642075127
  0
ARC
  5
21E
100
AcDbEntity
  8
0
100
AcDbCircle
 62
6
  6
CONTINUOUS
 10
5.7846268511
 20
4.2821240327
 40
0.3990795539
100
AcDbArc
 50
153.6674181235
 51
269.9494908834
  0
ARC
  5
21F
100
AcDbEntity
  8
0
100
AcDbCircle
 62
6
  6
CONTINUOUS
 10
5.7839373035
 20
4.282623433
 40
0.3982665099
100
AcDbArc
 50
153.4683525502
 51
153.6878048679
  0
ARC
  5
220
100
AcDbEntity
  8
0
100
AcDbCircle
 62
6
  6
CONTINUOUS
 10
5.7851751098
 20
4.2818886079
 40
0.3980932067
100
AcDbArc
 50
90.1166577138
 51
121.8142441883
  0
ARC
  5
221
100
AcDbEntity
  8
0
100
AcDbCircle
 62
6
  6
CONTINUOUS
 10
5.7850715202
 20
4.2820533916
 40
0.39789714
100
AcDbArc
 50
121.8140774505
 51
153.4894195905
  0
ARC
  5
222
100
AcDbEntity
  8
0
100
AcDbCircle
 62
6
  6
CONTINUOUS
 10
5.7851743785
 20
4.2818857167
 40
0.3975104397
100
AcDbArc
 50
90.1304249178
 51
121.6452596217
  0
ARC
  5
223
100
AcDbEntity
  8
0
100
AcDbCircle
 62
6
  6
CONTINUOUS
 10
5.7846269206
 20
4.2821240848
 40
0.3974410177
100
AcDbArc
 50
153.6464559828
 51
269.9415716596
  0
ARC
  5
224
100
AcDbEntity
  8
0
100
AcDbCircle
 62
6
  6
CONTINUOUS
 10
5.7850950091
 20
4.2820333349
 40
0.3973430503
100
AcDbArc
 50
121.8065999419
 51
153.4473262561
  0
ARC
  5
225
100
AcDbEntity
  8
0
100
AcDbCircle
 62
6
  6
CONTINUOUS
 10
5.784626858
 20
4.2821240698
 40
0.3968563443
100
AcDbArc
 50
153.638730878
 51
269.9492361072
  0
ARC
  5
226
100
AcDbEntity
  8
0
100
AcDbCircle
 62
6
  6
CONTINUOUS
 10
5.7839387139
 20
4.2826227606
 40
0.3966294548
100
AcDbArc
 50
153.4899769137
 51
153.6668747161
  0
ARC
  5
227
100
AcDbEntity
  8
0
100
AcDbCircle
 62
6
  6
CONTINUOUS
 10
5.783993478
 20
4.2826043396
 40
0.3961020625
100
AcDbArc
 50
153.4499835286
 51
153.6602963252
  0
ARC
  5
228
100
AcDbEntity
  8
0
100
AcDbCircle
 62
6
  6
CONTINUOUS
 10
5.7851416007
 20
4.2819843396
 40
0.3957702196
100
AcDbArc
 50
90.1637861749
 51
153.4441372487
  0
ARC
  5
229
100
AcDbEntity
  8
0
100
AcDbCircle
 62
6
  6
CONTINUOUS
 10
5.7846270283
 20
4.282124159
 40
0.3952179034
100
AcDbArc
 50
153.6174652993
 51
269.9118062867
  0
ARC
  5
22A
100
AcDbEntity
  8
0
100
AcDbCircle
 62
6
  6
CONTINUOUS
 10
5.7851426329
 20
4.2819827278
 40
0.3951874088
100
AcDbArc
 50
90.15605311
 51
153.4700481004
  0
ARC
  5
22B
100
AcDbEntity
  8
0
100
AcDbCircle
 62
6
  6
CONTINUOUS
 10
5.7846253637
 20
4.2821238196
 40
0.3946315904
100
AcDbArc
 50
153.6094416244
 51
269.9205606386
  0
ARC
  5
22C
100
AcDbEntity
  8
0
100
AcDbCircle
 62
6
  6
CONTINUOUS
 10
5.783991531
 20
4.2826053004
 40
0.3944612739
100
AcDbArc
 50
153.4501342026
 51
153.6390551153
  0
ARC
  5
22D
100
AcDbEntity
  8
0
100
AcDbCircle
 62
6
  6
CONTINUOUS
 10
5.7851414879
 20
4.2819845568
 40
0.3935467436
100
AcDbArc
 50
90.1345734452
 51
153.4703398652
  0
ARC
  5
22E
100
AcDbEntity
  8
0
100
AcDbCircle
 62
6
  6
CONTINUOUS
 10
5.7848208722
 20
4.282173376
 40
0.3931724829
100
AcDbArc
 50
153.6072520523
 51
185.4587712049
  0
ARC
  5
22F
100
AcDbEntity
  8
0
100
AcDbCircle
 62
6
  6
CONTINUOUS
 10
5.7851420281
 20
4.2819826733
 40
0.3929640054
100
AcDbArc
 50
90.1268617782
 51
167.6112716355
  0
ARC
  5
230
100
AcDbEntity
  8
0
100
AcDbCircle
 62
6
  6
CONTINUOUS
 10
5.7845535192
 20
4.2820436602
 40
0.3928948552
100
AcDbArc
 50
185.4483734528
 51
269.9523532962
  0
ARC
  5
231
100
AcDbEntity
  8
0
100
AcDbCircle
 62
6
  6
CONTINUOUS
 10
5.784915736
 20
4.2821428721
 40
0.392688578
100
AcDbArc
 50
167.6187523381
 51
185.4506687806
  0
ARC
  5
232
100
AcDbEntity
  8
0
100
AcDbCircle
 62
6
  6
CONTINUOUS
 10
5.7845377228
 20
4.2815631074
 40
0.3924000279
100
AcDbArc
 50
270.1325055675
 51
345.2129388886
  0
ARC
  5
233
100
AcDbEntity
  8
0
100
AcDbCircle
 62
6
  6
CONTINUOUS
 10
5.7845535282
 20
4.2820438401
 40
0.3923103697
100
AcDbArc
 50
185.4412958934
 51
269.9597257918
  0
ARC
  5
234
100
AcDbEntity
  8
0
100
AcDbCircle
 62
6
  6
CONTINUOUS
 10
5.7850662025
 20
4.2814838403
 40
0.3918455767
100
AcDbArc
 50
345.2044233251
 51
89.9459051994
  0
ARC
  5
235
100
AcDbEntity
  8
0
100
AcDbCircle
 62
6
  6
CONTINUOUS
 10
5.784533232
 20
4.2815699968
 40
0.3918230919
100
AcDbArc
 50
270.1260874599
 51
344.3710825329
  0
ARC
  5
236
100
AcDbEntity
  8
0
100
AcDbCircle
 62
6
  6
CONTINUOUS
 10
5.7851420093
 20
4.2819827002
 40
0.3913253589
100
AcDbArc
 50
90.1352620526
 51
153.574925052
  0
ARC
  5
237
100
AcDbEntity
  8
0
100
AcDbCircle
 62
6
  6
CONTINUOUS
 10
5.7850654622
 20
4.2814845059
 40
0.3912617458
100
AcDbArc
 50
345.2046153275
 51
89.9539363027
  0
ARC
  5
238
100
AcDbEntity
  8
0
100
AcDbCircle
 62
6
  6
CONTINUOUS
 10
5.7849152073
 20
4.2821428851
 40
0.3910494379
100
AcDbArc
 50
153.5808827757
 51
185.4299229479
  0
ARC
  5
239
100
AcDbEntity
  8
0
100
AcDbCircle
 62
6
  6
CONTINUOUS
 10
5.7851429068
 20
4.2819823091
 40
0.3907415157
100
AcDbArc
 50
90.1281811693
 51
153.321776662
  0
ARC
  5
23A
100
AcDbEntity
  8
0
100
AcDbCircle
 62
6
  6
CONTINUOUS
 10
5.785585394
 20
4.2812110758
 40
0.3907074785
100
AcDbArc
 50
344.3802027316
 51
345.2239125639
  0
ARC
  5
23B
100
AcDbEntity
  8
0
100
AcDbCircle
 62
6
  6
CONTINUOUS
 10
5.7845535814
 20
4.2820439083
 40
0.3906718365
100
AcDbArc
 50
185.4204910833
 51
269.9517533268
  0
ARC
  5
23C
100
AcDbEntity
  8
0
100
AcDbCircle
 62
6
  6
CONTINUOUS
 10
5.7850088618
 20
4.282106309
 40
0.3905633254
100
AcDbArc
 50
153.5728019187
 51
167.6065653559
  0
ARC
  5
23D
100
AcDbEntity
  8
0
100
AcDbCircle
 62
6
  6
CONTINUOUS
 10
5.7848374036
 20
4.2821433185
 40
0.390387379
100
AcDbArc
 50
167.606469684
 51
185.4267555165
  0
ARC
  5
23E
100
AcDbEntity
  8
0
100
AcDbCircle
 62
6
  6
CONTINUOUS
 10
5.7845332624
 20
4.2815699599
 40
0.3901844319
100
AcDbArc
 50
270.134578191
 51
344.3711992914
  0
ARC
  5
23F
100
AcDbEntity
  8
0
100
AcDbCircle
 62
6
  6
CONTINUOUS
 10
5.784553546
 20
4.2820438037
 40
0.3900871206
100
AcDbArc
 50
185.4161476091
 51
269.960051284
  0
ARC
  5
240
100
AcDbEntity
  8
0
100
AcDbCircle
 62
6
  6
CONTINUOUS
 10
5.785065373
 20
4.2814844292
 40
0.3896231693
100
AcDbArc
 50
345.1858964194
 51
90.0344368514
  0
ARC
  5
241
100
AcDbEntity
  8
0
100
AcDbCircle
 62
6
  6
CONTINUOUS
 10
5.7845326912
 20
4.2815705903
 40
0.3896006268
100
AcDbArc
 50
270.126590767
 51
344.1829840948
  0
ARC
  5
242
100
AcDbEntity
  8
0
100
AcDbCircle
 62
6
  6
CONTINUOUS
 10
5.784050637
 20
4.2825796153
 40
0.3894945196
100
AcDbArc
 50
153.3281479152
 51
153.5724162443
  0
ARC
  5
243
100
AcDbEntity
  8
0
100
AcDbCircle
 62
6
  6
CONTINUOUS
 10
5.7855871889
 20
4.281210609
 40
0.3890670067
100
AcDbArc
 50
344.3803492528
 51
345.2052320657
  0
ARC
  5
244
100
AcDbEntity
  8
0
100
AcDbCircle
 62
6
  6
CONTINUOUS
 10
5.7851222129
 20
4.2820224072
 40
0.3890597634
100
AcDbArc
 50
90.04285499
 51
167.5905730976
  0
ARC
  5
245
100
AcDbEntity
  8
0
100
AcDbCircle
 62
6
  6
CONTINUOUS
 10
5.7850663553
 20
4.2814838495
 40
0.3890376105
100
AcDbArc
 50
345.1762115996
 51
90.0346332377
  0
ARC
  5
246
100
AcDbEntity
  8
0
100
AcDbCircle
 62
6
  6
CONTINUOUS
 10
5.7848360933
 20
4.2821433631
 40
0.3887474647
100
AcDbArc
 50
167.5989216151
 51
185.2732311621
  0
ARC
  5
247
100
AcDbEntity
  8
0
100
AcDbCircle
 62
6
  6
CONTINUOUS
 10
5.7855605037
 20
4.281215012
 40
0.3885092607
100
AcDbArc
 50
344.1921229205
 51
345.1958942309
  0
ARC
  5
248
100
AcDbEntity
  8
0
100
AcDbCircle
 62
6
  6
CONTINUOUS
 10
5.7851274521
 20
4.2820161399
 40
0.3884826997
100
AcDbArc
 50
90.0436914875
 51
167.5909998288
  0
ARC
  5
249
100
AcDbEntity
  8
0
100
AcDbCircle
 62
6
  6
CONTINUOUS
 10
5.7845533797
 20
4.2820437054
 40
0.3884483311
100
AcDbArc
 50
185.3945360497
 51
270.0409800011
  0
ARC
  5
24A
100
AcDbEntity
  8
0
100
AcDbCircle
 62
6
  6
CONTINUOUS
 10
5.7848314805
 20
4.2821437282
 40
0.388158237
100
AcDbArc
 50
167.6000049724
 51
185.2986505269
  0
ARC
  5
24B
100
AcDbEntity
  8
0
100
AcDbCircle
 62
6
  6
CONTINUOUS
 10
5.7845359326
 20
4.281566274
 40
0.3879570146
100
AcDbArc
 50
270.0436070816
 51
344.1835814901
  0
ARC
  5
24C
100
AcDbEntity
  8
0
100
AcDbCircle
 62
6
  6
CONTINUOUS
 10
5.7845530573
 20
4.2820432136
 40
0.3878631708
100
AcDbArc
 50
185.5683349009
 51
270.0410894556
  0
ARC
  5
24D
100
AcDbEntity
  8
0
100
AcDbCircle
 62
6
  6
CONTINUOUS
 10
5.7850663112
 20
4.2814837995
 40
0.3873990545
100
AcDbArc
 50
345.1577895368
 51
90.0347732077
  0
ARC
  5
24E
100
AcDbEntity
  8
0
100
AcDbCircle
 62
6
  6
CONTINUOUS
 10
5.7845331863
 20
4.2815695361
 40
0.3873763558
100
AcDbArc
 50
270.0440787223
 51
344.4572191859
  0
ARC
  5
24F
100
AcDbEntity
  8
0
100
AcDbCircle
 62
6
  6
CONTINUOUS
 10
5.783812809
 20
4.2820466486
 40
0.3871353251
100
AcDbArc
 50
185.2982667094
 51
185.5794714309
  0
ARC
  5
250
100
AcDbEntity
  8
0
100
AcDbCircle
 62
6
  6
CONTINUOUS
 10
5.7855622664
 20
4.2812145536
 40
0.3868688224
100
AcDbArc
 50
344.1922707265
 51
345.1775195458
  0
ARC
  5
251
100
AcDbEntity
  8
0
100
AcDbCircle
 62
6
  6
CONTINUOUS
 10
5.7851223384
 20
4.2820222941
 40
0.3868366971
100
AcDbArc
 50
90.043119858
 51
167.5828336033
  0
ARC
  5
252
100
AcDbEntity
  8
0
100
AcDbCircle
 62
6
  6
CONTINUOUS
 10
5.7850662697
 20
4.2814837593
 40
0.386814479
100
AcDbArc
 50
345.154635376
 51
90.0348196104
  0
ARC
  5
253
100
AcDbEntity
  8
0
100
AcDbCircle
 62
6
  6
CONTINUOUS
 10
5.7848319295
 20
4.2821437234
 40
0.3865200689
100
AcDbArc
 50
167.5911559138
 51
185.3196434176
  0
ARC
  5
254
100
AcDbEntity
  8
0
100
AcDbCircle
 62
6
  6
CONTINUOUS
 10
5.7855839661
 20
4.2812119969
 40
0.3862626211
100
AcDbArc
 50
344.4665493183
 51
345.1739264076
  0
ARC
  5
255
100
AcDbEntity
  8
0
100
AcDbCircle
 62
6
  6
CONTINUOUS
 10
5.7851234391
 20
4.2820207208
 40
0.3862539279
100
AcDbArc
 50
90.0433482203
 51
167.5787553764
  0
ARC
  5
256
100
AcDbEntity
  8
0
100
AcDbCircle
 62
6
  6
CONTINUOUS
 10
5.7845530549
 20
4.2820432107
 40
0.3862245525
100
AcDbArc
 50
185.5684392287
 51
270.041264148
  0
ARC
  5
257
100
AcDbEntity
  8
0
100
AcDbCircle
 62
6
  6
CONTINUOUS
 10
5.7849383282
 20
4.2821425043
 40
0.3860410512
100
AcDbArc
 50
167.5904976793
 51
185.3447150866
  0
ARC
  5
258
100
AcDbEntity
  8
0
100
AcDbCircle
 62
6
  6
CONTINUOUS
 10
5.7845333893
 20
4.2815696976
 40
0.3857377214
100
AcDbArc
 50
270.0442357972
 51
344.45730292
  0
ARC
  5
259
100
AcDbEntity
  8
0
100
AcDbCircle
 62
6
  6
CONTINUOUS
 10
5.7845514078
 20
4.2820449077
 40
0.3856406674
100
AcDbArc
 50
185.3356327511
 51
270.0415712421
  0
ARC
  5
25A
100
AcDbEntity
  8
0
100
AcDbCircle
 62
6
  6
CONTINUOUS
 10
5.7838107432
 20
4.2820464525
 40
0.3854946327
100
AcDbArc
 50
185.3193200338
 51
185.5796245297
  0
ARC
  5
25B
100
AcDbEntity
  8
0
100
AcDbCircle
 62
6
  6
CONTINUOUS
 10
5.785065535
 20
4.2814844661
 40
0.3851766241
100
AcDbArc
 50
345.1351199652
 51
90.0348585184
  0
ARC
  5
25C
100
AcDbEntity
  8
0
100
AcDbCircle
 62
6
  6
CONTINUOUS
 10
5.7845375825
 20
4.2815632667
 40
0.385145919
100
AcDbArc
 50
270.0436798885
 51
345.1316029971
  0
ARC
  5
25D
100
AcDbEntity
  8
0
100
AcDbCircle
 62
6
  6
CONTINUOUS
 10
5.7855858709
 20
4.2812115019
 40
0.3846220361
100
AcDbArc
 50
344.466699363
 51
345.154536526
  0
ARC
  5
25E
100
AcDbEntity
  8
0
100
AcDbCircle
 62
6
  6
CONTINUOUS
 10
5.7851234472
 20
4.2820207056
 40
0.3846153298
100
AcDbArc
 50
90.0435341016
 51
167.5702982821
  0
ARC
  5
25F
100
AcDbEntity
  8
0
100
AcDbCircle
 62
6
  6
CONTINUOUS
 10
5.7850655381
 20
4.2814844861
 40
0.3845919819
100
AcDbArc
 50
345.1227644937
 51
90.0349119783
  0
ARC
  5
260
100
AcDbEntity
  8
0
100
AcDbCircle
 62
6
  6
CONTINUOUS
 10
5.784937674
 20
4.2821425264
 40
0.3844017862
100
AcDbArc
 50
167.5820702984
 51
185.344943134
  0
ARC
  5
261
100
AcDbEntity
  8
0
100
AcDbCircle
 62
6
  6
CONTINUOUS
 10
5.7851274227
 20
4.2820161176
 40
0.3840362298
100
AcDbArc
 50
90.0441929568
 51
167.566799042
  0
ARC
  5
262
100
AcDbEntity
  8
0
100
AcDbCircle
 62
6
  6
CONTINUOUS
 10
5.7845514068
 20
4.2820449067
 40
0.3840020488
100
AcDbArc
 50
185.3358097717
 51
270.0417487842
  0
ARC
  5
263
100
AcDbEntity
  8
0
100
AcDbCircle
 62
6
  6
CONTINUOUS
 10
5.7848361632
 20
4.2821436291
 40
0.3837164487
100
AcDbArc
 50
167.5760287614
 51
185.3553181291
  0
ARC
  5
264
100
AcDbEntity
  8
0
100
AcDbCircle
 62
6
  6
CONTINUOUS
 10
5.7845374438
 20
4.2815635142
 40
0.3835075242
100
AcDbArc
 50
270.0438872109
 51
345.1219419169
  0
ARC
  5
265
100
AcDbEntity
  8
0
100
AcDbCircle
 62
6
  6
CONTINUOUS
 10
5.7845532177
 20
4.2820434972
 40
0.383416995
100
AcDbArc
 50
185.4666892028
 51
270.0415419721
  0
ARC
  5
266
100
AcDbEntity
  8
0
100
AcDbCircle
 62
6
  6
CONTINUOUS
 10
5.7850201628
 20
4.2814633312
 40
0.3829995981
100
AcDbArc
 50
345.1178849597
 51
72.8949557692
  0
ARC
  5
267
100
AcDbEntity
  8
0
100
AcDbCircle
 62
6
  6
CONTINUOUS
 10
5.784536549
 20
4.2815646427
 40
0.3829243659
100
AcDbArc
 50
270.0440879675
 51
345.1148603998
  0
ARC
  5
268
100
AcDbEntity
  8
0
100
AcDbCircle
 62
6
  6
CONTINUOUS
 10
5.7851895298
 20
4.2817816414
 40
0.3826371296
100
AcDbArc
 50
72.9051758503
 51
90.0752914082
  0
ARC
  5
269
100
AcDbEntity
  8
0
100
AcDbCircle
 62
6
  6
CONTINUOUS
 10
5.7850160374
 20
4.2814627383
 40
0.3824188509
100
AcDbArc
 50
345.1111617402
 51
72.8980434969
  0
ARC
  5
26A
100
AcDbEntity
  8
0
100
AcDbCircle
 62
6
  6
CONTINUOUS
 10
5.7848312064
 20
4.2817902073
 40
0.3821502168
100
AcDbArc
 50
72.8571188915
 51
167.5227907937
  0
ARC
  5
26B
100
AcDbEntity
  8
0
100
AcDbCircle
 62
6
  6
CONTINUOUS
 10
5.7844994172
 20
4.2819445831
 40
0.3446477473
100
AcDbArc
 50
270.2969992857
 51
275.3449152583
  0
ARC
  5
26C
100
AcDbEntity
  8
0
100
AcDbCircle
 62
6
  6
CONTINUOUS
 10
5.7845110743
 20
4.2816262218
 40
0.3443282312
100
AcDbArc
 50
275.3479186181
 51
320.3725577012
  0
CIRCLE
  5
26D
100
AcDbEntity
  8
0
100
AcDbCircle
 62
6
  6
CONTINUOUS
 10
5.7848312064
 20
4.2817902073
 40
0.34125
  0
SPLINE
  5
26E
100
AcDbEntity
  8
0
100
AcDbSpline
 62
6
  6
CONTINUOUS
 70
0
 71
3
 72
33
 73
29
 74
27
 42
0.0000001
 43
0.0000001
 44
0.0000000001
 12
-0.1126394572
 22
-0.6748492893
 32
0.0
 13
0.6764542467
 23
0.1025615073
 33
0.0
 40
0.0
 40
0.0
 40
0.0
 40
0.0
 40
0.0624831416
 40
0.0937503081
 40
0.1250099212
 40
0.1562650876
 40
0.1875208585
 40
0.2500127461
 40
0.2812721885
 40
0.3125318825
 40
0.343792101
 40
0.3750538075
 40
0.4375531772
 40
0.5000541663
 40
0.531316989
 40
0.5625787729
 40
0.593838492
 40
0.6250957516
 40
0.6563505987
 40
0.687602766
 40
0.7188527576
 40
0.7501006243
 40
0.8125633558
 40
0.8750225543
 40
0.9062649449
 40
0.9375103682
 40
0.9687610726
 40
1.0
 40
1.0
 40
1.0
 40
1.0
 10
5.4117066043
 20
4.3643542398
 30
0.0
 10
5.4093605819
 20
4.3502986719
 30
0.0
 10
5.4070230503
 20
4.3289861583
 30
0.0
 10
5.4063144411
 20
4.300474735
 30
0.0
 10
5.4069949394
 20
4.2790852448
 30
0.0
 10
5.4088858194
 20
4.2577714625
 30
0.0
 10
5.4130179891
 20
4.2295524929
 30
0.0
 10
5.4195605054
 20
4.2017273202
 30
0.0
 10
5.4284549762
 20
4.1746274924
 30
0.0
 10
5.436287064
 20
4.1547122768
 30
0.0
 10
5.4452552527
 20
4.1352817816
 30
0.0
 10
5.4586920864
 20
4.1101186966
 30
0.0
 10
5.4781954604
 20
4.0801891084
 30
0.0
 10
5.5010666815
 20
4.0527447197
 30
0.0
 10
5.5211894873
 20
4.0325238187
 30
0.0
 10
5.5371567626
 20
4.0182733233
 30
0.0
 10
5.5539373243
 20
4.0049932055
 30
0.0
 10
5.5714769034
 20
3.9927352338
 30
0.0
 10
5.5897150898
 20
3.9815463739
 30
0.0
 10
5.6085876447
 20
3.9714679389
 30
0.0
 10
5.6280311224
 20
3.9625423529
 30
0.0
 10
5.6546127024
 20
3.9522265333
 30
0.0
 10
5.6889362561
 20
3.9423749166
 30
0.0
 10
5.7242029471
 20
3.9367669931
 30
0.0
 10
5.7526518259
 20
3.9348927109
 30
0.0
 10
5.7740441043
 20
3.9348004355
 30
0.0
 10
5.7953989335
 20
3.9360294594
 30
0.0
 10
5.8095598414
 20
3.9377274002
 30
0.0
 10
5.8166037431
 20
3.9387953707
 30
0.0
 11
5.4117066043
 21
4.3643542398
 31
0.0
 11
5.4070470036
 21
4.3218589058
 31
0.0
 11
5.4065164805
 21
4.3004729566
 31
0.0
 11
5.4071967479
 21
4.2790964174
 31
0.0
 11
5.4090872705
 21
4.2577958308
 31
0.0
 11
5.4121863472
 21
4.2366368497
 31
0.0
 11
5.4219787554
 21
4.1950173148
 31
0.0
 11
5.4286482444
 21
4.1746965837
 31
0.0
 11
5.4364763321
 21
4.1547932522
 31
0.0
 11
5.4454402905
 21
4.135374592
 31
0.0
 11
5.4555154692
 21
4.116507392
 31
0.0
 11
5.4788687275
 21
4.0806864478
 31
0.0
 11
5.5062464885
 21
4.0478372822
 31
0.0
 11
5.5213351193
 21
4.0326765978
 31
0.0
 11
5.5372928338
 21
4.018434615
 31
0.0
 11
5.554064489
 21
4.0051630712
 31
0.0
 11
5.5715940384
 21
3.9929129604
 31
0.0
 11
5.5898215878
 21
3.9817310032
 31
0.0
 11
5.6086834806
 21
3.9716597414
 31
0.0
 11
5.6281147326
 21
3.9627398704
 31
0.0
 11
5.6480462883
 21
3.9550062696
 31
0.0
 11
5.689125897
 21
3.9432233466
 31
0.0
 11
5.7313299687
 21
3.9365165384
 31
0.0
 11
5.7526593315
 21
3.935111696
 31
0.0
 11
5.7740367898
 21
3.9350206409
 31
0.0
 11
5.7953827213
 21
3.9362493458
 31
0.0
 11
5.8166037431
 21
3.9387953707
 31
0.0
  0
LINE
  5
26F
100
AcDbEntity
  8
0
100
AcDbLine
 62
6
  6
CONTINUOUS
 10
5.7848312064
 20
4.6822051066
 11
5.7842100887
 21
4.6822040733
  0
LINE
  5
270
100
AcDbEntity
  8
0
100
AcDbLine
 62
6
  6
CONTINUOUS
 10
5.7842273817
 20
3.8824868527
 11
5.7848312064
 21
3.8824869287
  0
LINE
  5
271
100
AcDbEntity
  8
0
100
AcDbLine
 62
6
  6
CONTINUOUS
 10
5.7848312064
 20
4.6866515893
 11
5.78421516
 21
4.6866505796
  0
SPLINE
  5
272
100
AcDbEntity
  8
0
100
AcDbSpline
 62
6
  6
CONTINUOUS
 70
0
 71
3
 72
41
 73
37
 74
35
 42
0.0000001
 43
0.0000001
 44
0.0000000001
 12
-0.8865867792
 22
-0.5518266846
 32
0.0
 13
1.044293243
 23
-0.0006554341
 33
0.0
 40
0.0
 40
0.0
 40
0.0
 40
0.0
 40
0.0312495793
 40
0.0624987634
 40
0.0937475771
 40
0.12499646
 40
0.1562450453
 40
0.1874939957
 40
0.2187432186
 40
0.2499932164
 40
0.2812435131
 40
0.3124937968
 40
0.3437439269
 40
0.3749931768
 40
0.4062422281
 40
0.4374912902
 40
0.4687410377
 40
0.4999907108
 40
0.5312401052
 40
0.5624893356
 40
0.5937383332
 40
0.6249874525
 40
0.6562361928
 40
0.6874851359
 40
0.7187341385
 40
0.7343620446
 40
0.749990216
 40
0.7812408888
 40
0.8124927235
 40
0.8437440648
 40
0.8749920663
 40
0.9062407565
 40
0.921871157
 40
0.9375048881
 40
0.968766947
 40
1.0
 40
1.0
 40
1.0
 40
1.0
 10
5.5712979661
 20
4.6255300486
 30
0.0
 10
5.5620628115
 20
4.6197819313
 30
0.0
 10
5.544049194
 20
4.6075331347
 30
0.0
 10
5.5186004067
 20
4.5870516157
 30
0.0
 10
5.4948866724
 20
4.5645811141
 30
0.0
 10
5.473059293
 20
4.5402753501
 30
0.0
 10
5.4532624454
 20
4.5142885477
 30
0.0
 10
5.4356258741
 20
4.4867899121
 30
0.0
 10
5.420260037
 20
4.4579601072
 30
0.0
 10
5.407273195
 20
4.4279829116
 30
0.0
 10
5.3967391941
 20
4.3970579639
 30
0.0
 10
5.3887394078
 20
4.3653826194
 30
0.0
 10
5.3833147449
 20
4.3331667056
 30
0.0
 10
5.3805086197
 20
4.3006182637
 30
0.0
 10
5.380335986
 20
4.2679500825
 30
0.0
 10
5.3827970712
 20
4.2353739298
 30
0.0
 10
5.3878814734
 20
4.2031029498
 30
0.0
 10
5.3955467731
 20
4.1713456715
 30
0.0
 10
5.4057551581
 20
4.1403124962
 30
0.0
 10
5.418428074
 20
4.1102019138
 30
0.0
 10
5.4334934427
 20
4.0812142043
 30
0.0
 10
5.45084567
 20
4.0535352031
 30
0.0
 10
5.4703757
 20
4.0273467853
 30
0.0
 10
5.4919556248
 20
4.0028216666
 30
0.0
 10
5.5115307474
 20
3.9838965994
 30
0.0
 10
5.5280665785
 20
3.9697475589
 30
0.0
 10
5.5451599796
 20
3.9562766086
 30
0.0
 10
5.5675260777
 20
3.9407460853
 30
0.0
 10
5.5957815258
 20
3.9243457
 30
0.0
 10
5.6252664562
 20
3.9102745905
 30
0.0
 10
5.6557893627
 20
3.898631313
 30
0.0
 10
5.6819302539
 20
3.8910140936
 30
0.0
 10
5.7031570948
 20
3.8862011326
 30
0.0
 10
5.7245663923
 20
3.882251351
 30
0.0
 10
5.7515918315
 20
3.8789442948
 30
0.0
 10
5.7733550865
 20
3.8780471936
 30
0.0
 10
5.7842272419
 20
3.8780403699
 30
0.0
 11
5.5712979661
 21
4.6255300486
 31
0.0
 11
5.5443109975
 21
4.6071816448
 31
0.0
 11
5.5188894539
 21
4.586720008
 31
0.0
 11
5.4952010574
 21
4.5642752295
 31
0.0
 11
5.4733976534
 21
4.5399951038
 31
0.0
 11
5.4536225745
 21
4.5140366966
 31
0.0
 11
5.4360044184
 21
4.4865682037
 31
0.0
 11
5.4206566873
 21
4.4577691889
 31
0.0
 11
5.4076820633
 21
4.4278251068
 31
0.0
 11
5.3971615651
 21
4.3969329005
 31
0.0
 11
5.3891685735
 21
4.3652924123
 31
0.0
 11
5.3837511203
 21
4.3331109093
 31
0.0
 11
5.3809475269
 21
4.3005981763
 31
0.0
 11
5.3807749359
 21
4.2679654531
 31
0.0
 11
5.3832342592
 21
4.2354250648
 31
0.0
 11
5.3883116265
 21
4.2031885606
 31
0.0
 11
5.3959706556
 21
4.1714662332
 31
0.0
 11
5.4061659469
 21
4.1404661715
 31
0.0
 11
5.4188268568
 21
4.1103889711
 31
0.0
 11
5.4338745792
 21
4.0814323347
 31
0.0
 11
5.4512087133
 21
4.0537835221
 31
0.0
 11
5.4707173081
 21
4.0276240508
 31
0.0
 11
5.4922738006
 21
4.0031243637
 31
0.0
 11
5.5157362407
 21
3.9804432043
 31
0.0
 11
5.5281361542
 21
3.9698324334
 31
0.0
 11
5.5409544643
 21
3.9597306372
 31
0.0
 11
5.5677618993
 21
3.9411189109
 31
0.0
 11
5.5959867335
 21
3.9247337694
 31
0.0
 11
5.6254406877
 21
3.9106786967
 31
0.0
 11
5.6559299083
 21
3.8990485512
 31
0.0
 11
5.687259474
 21
3.8899184845
 31
0.0
 11
5.7031781995
 21
3.8863093957
 31
0.0
 11
5.7192334293
 21
3.8833472172
 31
0.0
 11
5.7516383132
 21
3.8793805245
 31
0.0
 11
5.7842272419
 21
3.8780403699
 31
0.0
  0
LINE
  5
273
100
AcDbEntity
  8
0
100
AcDbLine
 62
6
  6
CONTINUOUS
 10
5.7842272419
 20
3.8780403699
 11
5.7848312064
 21
3.878040445
  0
LINE
  5
274
100
AcDbEntity
  8
0
100
AcDbLine
 62
6
  6
CONTINUOUS
 10
5.7848312064
 20
4.6844283488
 11
5.7840098056
 21
4.6844267845
  0
LINE
  5
275
100
AcDbEntity
  8
0
100
AcDbLine
 62
6
  6
CONTINUOUS
 10
5.7840275397
 20
3.8802637873
 11
5.7848312064
 21
3.8802636868
  0
LINE
  5
276
100
AcDbEntity
  8
0
100
AcDbLine
 62
6
  6
CONTINUOUS
 10
5.7848312064
 20
4.6799818659
 11
5.7843645678
 21
4.679981177
  0
LINE
  5
277
100
AcDbEntity
  8
0
100
AcDbLine
 62
6
  6
CONTINUOUS
 10
5.7842216508
 20
3.8847100956
 11
5.7848312064
 21
3.8847101683
  0
LINE
  5
278
100
AcDbEntity
  8
0
100
AcDbLine
 62
6
  6
CONTINUOUS
 10
5.7848312064
 20
4.6755353834
 11
5.7842171362
 21
4.6755343501
  0
LINE
  5
279
100
AcDbEntity
  8
0
100
AcDbLine
 62
6
  6
CONTINUOUS
 10
5.4330362427
 20
4.4577653983
 11
5.4326291277
 21
4.4569473173
  0
LINE
  5
27A
100
AcDbEntity
  8
0
100
AcDbLine
 62
6
  6
CONTINUOUS
 10
5.7842267974
 20
3.889156575
 11
5.7848312064
 21
3.8891566519
  0
LINE
  5
27B
100
AcDbEntity
  8
0
100
AcDbLine
 62
6
  6
CONTINUOUS
 10
5.7848312064
 20
4.6777586257
 11
5.7840102387
 21
4.6777570363
  0
LINE
  5
27C
100
AcDbEntity
  8
0
100
AcDbLine
 62
6
  6
CONTINUOUS
 10
5.7840187225
 20
3.8869335224
 11
5.7848312064
 21
3.8869334099
  0
LINE
  5
27D
100
AcDbEntity
  8
0
100
AcDbLine
 62
6
  6
CONTINUOUS
 10
5.7848312064
 20
4.6733121425
 11
5.7842181719
 21
4.6733111059
  0
LINE
  5
27E
100
AcDbEntity
  8
0
100
AcDbLine
 62
6
  6
CONTINUOUS
 10
5.7842246174
 20
3.8913798157
 11
5.7848312064
 21
3.8913798916
  0
LINE
  5
27F
100
AcDbEntity
  8
0
100
AcDbLine
 62
6
  6
CONTINUOUS
 10
5.3977335698
 20
4.2464153522
 11
5.3978169279
 21
4.2455235573
  0
LINE
  5
280
100
AcDbEntity
  8
0
100
AcDbLine
 62
6
  6
CONTINUOUS
 10
5.7848312064
 20
3.878040445
 11
5.7854475398
 21
3.8780414582
  0
SPLINE
  5
281
100
AcDbEntity
  8
0
100
AcDbSpline
 62
6
  6
CONTINUOUS
 70
0
 71
3
 72
56
 73
52
 74
50
 42
0.0000001
 43
0.0000001
 44
0.0000000001
 12
1.2651418546
 22
0.0030506848
 32
0.0
 13
-1.2651452849
 23
0.0007918511
 33
0.0
 40
0.0
 40
0.0
 40
0.0
 40
0.0
 40
0.0312330029
 40
0.0468671165
 40
0.0625006913
 40
0.0937470556
 40
0.1249882981
 40
0.1406149198
 40
0.1562422324
 40
0.1718696981
 40
0.18749701
 40
0.203124232
 40
0.2187513215
 40
0.2343781957
 40
0.2500049782
 40
0.26563181
 40
0.2812586343
 40
0.2968854345
 40
0.3125124045
 40
0.3437575551
 40
0.3593850067
 40
0.3750127364
 40
0.4062591385
 40
0.43750532
 40
0.4687510001
 40
0.4999956828
 40
0.5312401204
 40
0.5624850289
 40
0.5937297731
 40
0.6249742224
 40
0.6406011279
 40
0.6562280947
 40
0.6718552699
 40
0.6874825149
 40
0.7031096179
 40
0.7187365714
 40
0.7343635391
 40
0.7499904991
 40
0.7656174201
 40
0.7812444872
 40
0.7968718451
 40
0.8124994568
 40
0.8281273575
 40
0.8437556137
 40
0.8593837872
 40
0.8750112157
 40
0.9062534981
 40
0.9375000289
 40
0.9531334206
 40
0.968767332
 40
1.0
 40
1.0
 40
1.0
 40
1.0
 10
5.7854475398
 20
3.8780414582
 30
0.0
 10
5.7986189328
 20
3.8780732189
 30
0.0
 10
5.8183987541
 20
3.8790939002
 30
0.0
 10
5.8445587981
 20
3.8823740555
 30
0.0
 10
5.8705348172
 20
3.8869318706
 30
0.0
 10
5.9025312509
 20
3.8950111538
 30
0.0
 10
5.9335821796
 20
3.9061791814
 30
0.0
 10
5.9576673347
 20
3.916901299
 30
0.0
 10
5.9753219801
 20
3.92581841
 30
0.0
 10
5.9925192816
 20
3.9355882989
 30
0.0
 10
6.0092162742
 20
3.946190763
 30
0.0
 10
6.0253734693
 20
3.9575985419
 30
0.0
 10
6.0409533396
 20
3.9697826483
 30
0.0
 10
6.0559180381
 20
3.9827146795
 30
0.0
 10
6.0702295328
 20
3.9963659072
 30
0.0
 10
6.0838555704
 20
4.0107013505
 30
0.0
 10
6.0967641597
 20
4.0256858734
 30
0.0
 10
6.108923319
 20
4.0412856589
 30
0.0
 10
6.124090901
 20
4.062850435
 30
0.0
 10
6.137658308
 20
4.085506049
 30
0.0
 10
6.1495042944
 20
4.1090608134
 30
0.0
 10
6.1601809397
 20
4.1331696056
 30
0.0
 10
6.1712966094
 20
4.1642431542
 30
0.0
 10
6.1809103793
 20
4.2026510727
 30
0.0
 10
6.1867251453
 20
4.2418156628
 30
0.0
 10
6.1886699863
 20
4.2813606133
 30
0.0
 10
6.18674001
 20
4.3209059654
 30
0.0
 10
6.1809394799
 20
4.3600716816
 30
0.0
 10
6.1713387518
 20
4.3984809836
 30
0.0
 10
6.1602326475
 20
4.429556468
 30
0.0
 10
6.1495625197
 20
4.4536659459
 30
0.0
 10
6.1406791033
 20
4.4713375681
 30
0.0
 10
6.130939111
 20
4.4885514614
 30
0.0
 10
6.1203679369
 20
4.5052679903
 30
0.0
 10
6.108990555
 20
4.5214465033
 30
0.0
 10
6.0968315063
 20
4.5370459557
 30
0.0
 10
6.0839220347
 20
4.5520301609
 30
0.0
 10
6.0702943212
 20
4.5663642326
 30
0.0
 10
6.0559800695
 20
4.5800129012
 30
0.0
 10
6.041011805
 20
4.5929412198
 30
0.0
 10
6.025427669
 20
4.605120491
 30
0.0
 10
6.0092653599
 20
4.6165219903
 30
0.0
 10
5.9925622938
 20
4.6271163355
 30
0.0
 10
5.9753583193
 20
4.636876438
 30
0.0
 10
5.9576966278
 20
4.6457819567
 30
0.0
 10
5.9336020556
 20
4.6564857974
 30
0.0
 10
5.9025396068
 20
4.6676250171
 30
0.0
 10
5.8705331187
 20
4.6756672046
 30
0.0
 10
5.8445510836
 20
4.6801903445
 30
0.0
 10
5.8183865328
 20
4.6834321996
 30
0.0
 10
5.7986050585
 20
4.6844201811
 30
0.0
 10
5.7854337709
 20
4.684428425
 30
0.0
 11
5.7854475398
 21
3.8780414582
 31
0.0
 11
5.8249095917
 21
3.8800726883
 31
0.0
 11
5.8445353125
 21
3.8825337636
 31
0.0
 11
5.8640163334
 21
3.8859526336
 31
0.0
 11
5.9023447976
 21
3.8956296401
 31
0.0
 11
5.9395368141
 21
3.9090071315
 31
0.0
 11
5.9575982253
 21
3.9170468065
 31
0.0
 11
5.9752456558
 21
3.9259604875
 31
0.0
 11
5.9924359576
 21
3.9357270985
 31
0.0
 11
6.0091263614
 21
3.9463250179
 31
0.0
 11
6.0252773179
 21
3.9577279817
 31
0.0
 11
6.040850905
 21
3.9699073796
 31
0.0
 11
6.0558092132
 21
3.9828345835
 31
0.0
 11
6.0701152778
 21
3.9964799308
 31
0.0
 11
6.0837359969
 21
4.010809532
 31
0.0
 11
6.0966392552
 21
4.0257884173
 31
0.0
 11
6.1087929565
 21
4.0413816025
 31
0.0
 11
6.1201671911
 21
4.0575524144
 31
0.0
 11
6.140474888
 21
4.0914668904
 31
0.0
 11
6.1493580265
 21
4.1091299116
 31
0.0
 11
6.1573642634
 21
4.127207703
 31
0.0
 11
6.1706759384
 21
4.1644302597
 31
0.0
 11
6.1802772742
 21
4.2027775112
 31
0.0
 11
6.186080212
 21
4.2418795969
 31
0.0
 11
6.1880241885
 21
4.2813608379
 31
0.0
 11
6.1860949378
 21
4.3208424908
 31
0.0
 11
6.1803060976
 21
4.3599456791
 31
0.0
 11
6.1707177419
 21
4.3982943039
 31
0.0
 11
6.1574175592
 21
4.435518345
 31
0.0
 11
6.149415936
 21
4.4535970387
 31
0.0
 11
6.1405363933
 21
4.4712611814
 31
0.0
 11
6.1308006002
 21
4.4884685336
 31
0.0
 11
6.1202335267
 21
4.5051783836
 31
0.0
 11
6.1088602283
 21
4.5213500596
 31
0.0
 11
6.0967064334
 21
4.5369434178
 31
0.0
 11
6.083802324
 21
4.5519218093
 31
0.0
 11
6.0701798917
 21
4.5662500056
 31
0.0
 11
6.0558711341
 21
4.5798927831
 31
0.0
 11
6.0409092921
 21
4.59281627
 31
0.0
 11
6.0253314398
 21
4.6049907636
 31
0.0
 11
6.0091753876
 21
4.6163873618
 31
0.0
 11
5.9924789712
 21
4.626977197
 31
0.0
 11
5.9752819722
 21
4.6367340378
 31
0.0
 11
5.9576274671
 21
4.6456361177
 31
0.0
 11
5.9395588511
 21
4.653662102
 31
0.0
 11
5.9023530151
 21
4.6670050077
 31
0.0
 11
5.8640130988
 21
4.6766374066
 31
0.0
 11
5.8445277526
 21
4.6800301883
 31
0.0
 11
5.8248987072
 21
4.6824625256
 31
0.0
 11
5.7854337709
 21
4.684428425
 31
0.0
  0
LINE
  5
282
100
AcDbEntity
  8
0
100
AcDbLine
 62
6
  6
CONTINUOUS
 10
5.7854337709
 20
4.684428425
 11
5.7848312064
 21
4.6844283488
  0
LINE
  5
283
100
AcDbEntity
  8
0
100
AcDbLine
 62
6
  6
CONTINUOUS
 10
5.7848312064
 20
3.8802636868
 11
5.7854463248
 21
3.8802647026
  0
SPLINE
  5
284
100
AcDbEntity
  8
0
100
AcDbSpline
 62
6
  6
CONTINUOUS
 70
0
 71
3
 72
57
 73
53
 74
51
 42
0.0000001
 43
0.0000001
 44
0.0000000001
 12
1.2581719976
 22
0.0030468037
 32
0.0
 13
-1.2581754373
 23
0.0007921374
 33
0.0
 40
0.0
 40
0.0
 40
0.0
 40
0.0
 40
0.0312326195
 40
0.0468664768
 40
0.0624997579
 40
0.0937455779
 40
0.1249863668
 40
0.140612767
 40
0.1562398439
 40
0.1718670601
 40
0.1874941167
 40
0.2031210882
 40
0.2187479409
 40
0.2343746081
 40
0.2500012401
 40
0.265628023
 40
0.2812549596
 40
0.2968821043
 40
0.3125096646
 40
0.3281375873
 40
0.3437656433
 40
0.3593937114
 40
0.3750219009
 40
0.4062689089
 40
0.42189686
 40
0.4375247557
 40
0.4687704954
 40
0.5000149195
 40
0.5312586691
 40
0.5625023861
 40
0.5937463689
 40
0.6249909959
 40
0.6406181699
 40
0.6562453748
 40
0.6874907257
 40
0.7031179061
 40
0.7187448323
 40
0.7343716775
 40
0.7499984492
 40
0.7656251106
 40
0.7812518235
 40
0.796878751
 40
0.8125058532
 40
0.8281331321
 40
0.8437606711
 40
0.8593880928
 40
0.8750147663
 40
0.9062554973
 40
0.9375006953
 40
0.9531337365
 40
0.9687674948
 40
1.0
 40
1.0
 40
1.0
 40
1.0
 10
5.7854463248
 20
3.8802647026
 30
0.0
 10
5.7985449939
 20
3.8802964225
 30
0.0
 10
5.8182155666
 20
3.8813116332
 30
0.0
 10
5.844231078
 20
3.8845738757
 30
0.0
 10
5.8700634968
 20
3.8891067418
 30
0.0
 10
5.9018830899
 20
3.8971415397
 30
0.0
 10
5.9327624074
 20
3.9082480465
 30
0.0
 10
5.9567145042
 20
3.918910983
 30
0.0
 10
5.9742716191
 20
3.9277788433
 30
0.0
 10
5.9913738864
 20
3.9374947962
 30
0.0
 10
6.00797858
 20
3.9480387503
 30
0.0
 10
6.0240465268
 20
3.9593834737
 30
0.0
 10
6.0395403699
 20
3.9715002362
 30
0.0
 10
6.0544224246
 20
3.9843608718
 30
0.0
 10
6.06865497
 20
3.9979367687
 30
0.0
 10
6.0822059735
 20
4.0121931019
 30
0.0
 10
6.0950436849
 20
4.0270952821
 30
0.0
 10
6.1071357935
 20
4.0426090692
 30
0.0
 10
6.1184517454
 20
4.0586982239
 30
0.0
 10
6.1289671043
 20
4.0753221191
 30
0.0
 10
6.1386567511
 20
4.0924405328
 30
0.0
 10
6.1474951622
 20
4.1100144991
 30
0.0
 10
6.1581124837
 20
4.1339900057
 30
0.0
 10
6.1669574697
 20
4.1587192571
 30
0.0
 10
6.1739477353
 20
4.1839919317
 30
0.0
 10
6.1796898564
 20
4.2095773511
 30
0.0
 10
6.1845098472
 20
4.2420406017
 30
0.0
 10
6.1864431014
 20
4.2813660404
 30
0.0
 10
6.1845233906
 20
4.3206929612
 30
0.0
 10
6.1787547174
 20
4.3596416534
 30
0.0
 10
6.1692066009
 20
4.3978386483
 30
0.0
 10
6.158161483
 20
4.4287423803
 30
0.0
 10
6.1475494677
 20
4.4527197632
 30
0.0
 10
6.1357732933
 20
4.4761467798
 30
0.0
 10
6.1222833379
 20
4.4986793909
 30
0.0
 10
6.1072003567
 20
4.5201263901
 30
0.0
 10
6.0951080968
 20
4.5356403837
 30
0.0
 10
6.0822695724
 20
4.5505415274
 30
0.0
 10
6.0687167485
 20
4.5647961669
 30
0.0
 10
6.0544815601
 20
4.5783693491
 30
0.0
 10
6.0395960316
 20
4.5912261014
 30
0.0
 10
6.0240979238
 20
4.6033376207
 30
0.0
 10
6.0080249875
 20
4.6146756312
 30
0.0
 10
5.9914146626
 20
4.6252112952
 30
0.0
 10
5.9743061847
 20
4.6349171261
 30
0.0
 10
5.9567425064
 20
4.643772927
 30
0.0
 10
5.9327817379
 20
4.6544170196
 30
0.0
 10
5.9018919388
 20
4.6654945643
 30
0.0
 10
5.8700630818
 20
4.6734920878
 30
0.0
 10
5.8442249537
 20
4.6779902204
 30
0.0
 10
5.8182048373
 20
4.6812142794
 30
0.0
 10
5.79853248
 20
4.6821969363
 30
0.0
 10
5.785433823
 20
4.6822051831
 30
0.0
 11
5.7854463248
 21
3.8802647026
 31
0.0
 11
5.8246904754
 21
3.8822850697
 31
0.0
 11
5.8442077356
 21
3.8847327076
 31
0.0
 11
5.8635810398
 21
3.8881328452
 31
0.0
 11
5.9016976257
 21
3.8977566021
 31
0.0
 11
5.9386841464
 21
3.9110603781
 31
0.0
 11
5.9566457838
 21
3.9190556852
 31
0.0
 11
5.9741957186
 21
3.927920144
 31
0.0
 11
5.9912910209
 21
3.937632835
 31
0.0
 11
6.0078891731
 21
3.9481722458
 31
0.0
 11
6.0239509046
 21
3.959512193
 31
0.0
 11
6.0394384837
 21
3.9716242794
 31
0.0
 11
6.054314188
 21
3.9844800948
 31
0.0
 11
6.0685413219
 21
3.9980501164
 31
0.0
 11
6.0820870243
 21
4.0123006686
 31
0.0
 11
6.0949193283
 21
4.0271971068
 31
0.0
 11
6.1070062895
 21
4.0427047682
 31
0.0
 11
6.1183181931
 21
4.0587871682
 31
0.0
 11
6.1288294382
 21
4.0754044607
 31
0.0
 11
6.1385148673
 21
4.0925164373
 31
0.0
 11
6.1473494312
 21
4.1100828359
 31
0.0
 11
6.1553115969
 21
4.1280616514
 31
0.0
 11
6.1685496836
 21
4.1650800442
 31
0.0
 11
6.1737917154
 21
4.1840311178
 31
0.0
 11
6.1780978205
 21
4.2032164457
 31
0.0
 11
6.1838681829
 21
4.2421032789
 31
0.0
 11
6.185800945
 21
4.2813667119
 31
0.0
 11
6.1838818958
 21
4.3206299678
 31
0.0
 11
6.1781248461
 21
4.3595162014
 31
0.0
 11
6.1685891604
 21
4.397652533
 31
0.0
 11
6.1553617466
 21
4.4346715595
 31
0.0
 11
6.1474039477
 21
4.4526509111
 31
0.0
 11
6.1385731949
 21
4.4702180102
 31
0.0
 11
6.1183814057
 21
4.5039483536
 31
0.0
 11
6.1070705444
 21
4.5200309024
 31
0.0
 11
6.09498368
 21
4.5355382906
 31
0.0
 11
6.0821504893
 21
4.5504338132
 31
0.0
 11
6.068602982
 21
4.5646826301
 31
0.0
 11
6.0543731945
 21
4.5782499227
 31
0.0
 11
6.0394940285
 21
4.5911018194
 31
0.0
 11
6.0240022096
 21
4.6032086352
 31
0.0
 11
6.00793552
 21
4.6145418419
 31
0.0
 11
5.9913317495
 21
4.6250729216
 31
0.0
 11
5.9742302365
 21
4.6347754961
 31
0.0
 11
5.9566737353
 21
4.6436279062
 31
0.0
 11
5.9387054562
 21
4.651609123
 31
0.0
 11
5.9017064519
 21
4.6648779252
 31
0.0
 11
5.863579392
 21
4.6744568919
 31
0.0
 11
5.844201834
 21
4.6778309437
 31
0.0
 11
5.8246811278
 21
4.6802499312
 31
0.0
 11
5.785433823
 21
4.6822051831
 31
0.0
  0
LINE
  5
285
100
AcDbEntity
  8
0
100
AcDbLine
 62
6
  6
CONTINUOUS
 10
5.785433823
 20
4.6822051831
 11
5.7848312064
 21
4.6822051066
  0
LINE
  5
286
100
AcDbEntity
  8
0
100
AcDbLine
 62
6
  6
CONTINUOUS
 10
5.7848312064
 20
3.8824869287
 11
5.7854511487
 21
3.882487962
  0
SPLINE
  5
287
100
AcDbEntity
  8
0
100
AcDbSpline
 62
6
  6
CONTINUOUS
 70
0
 71
3
 72
57
 73
53
 74
51
 42
0.0000001
 43
0.0000001
 44
0.0000000001
 12
1.2511817698
 22
0.0030620044
 32
0.0
 13
-1.2511852609
 23
0.0007998317
 33
0.0
 40
0.0
 40
0.0
 40
0.0
 40
0.0
 40
0.0312328398
 40
0.0468671153
 40
0.0625011499
 40
0.0937489522
 40
0.1249916009
 40
0.1406188344
 40
0.1562466681
 40
0.171874449
 40
0.1875017187
 40
0.2031285739
 40
0.2187551739
 40
0.2343816043
 40
0.2500081013
 40
0.2656348105
 40
0.2812616146
 40
0.2968884079
 40
0.3125153001
 40
0.3281422999
 40
0.3437692196
 40
0.3593959431
 40
0.375022622
 40
0.4062666596
 40
0.4375110052
 40
0.468755484
 40
0.4999993669
 40
0.5312431599
 40
0.5624875622
 40
0.5937326599
 40
0.6249787287
 40
0.640606584
 40
0.6562343791
 40
0.6718622166
 40
0.6874899806
 40
0.703117454
 40
0.7187445964
 40
0.7343715871
 40
0.7499984325
 40
0.7656250943
 40
0.7812517316
 40
0.7968785005
 40
0.8125053515
 40
0.8281322757
 40
0.8437593719
 40
0.8593863587
 40
0.8750127266
 40
0.9062537207
 40
0.9374999518
 40
0.9531334166
 40
0.968767395
 40
1.0
 40
1.0
 40
1.0
 40
1.0
 10
5.7854511487
 20
3.882487962
 30
0.0
 10
5.7984771353
 20
3.8825198403
 30
0.0
 10
5.8180386634
 20
3.8835299472
 30
0.0
 10
5.8439101244
 20
3.886774829
 30
0.0
 10
5.8696002303
 20
3.8912832692
 30
0.0
 10
5.9012446144
 20
3.8992750175
 30
0.0
 10
5.931954
 20
3.9103210884
 30
0.0
 10
5.9557738399
 20
3.9209265127
 30
0.0
 10
5.9732337457
 20
3.9297464319
 30
0.0
 10
5.9902412089
 20
3.9394093039
 30
0.0
 10
6.0067538172
 20
3.9498949348
 30
0.0
 10
6.0227319345
 20
3.961177328
 30
0.0
 10
6.0381388696
 20
3.9732274126
 30
0.0
 10
6.0529376199
 20
3.9860169099
 30
0.0
 10
6.0670906152
 20
3.9995176178
 30
0.0
 10
6.0805655724
 20
4.0136952786
 30
0.0
 10
6.093331187
 20
4.0285150118
 30
0.0
 10
6.1053556863
 20
4.0439423255
 30
0.0
 10
6.1166079633
 20
4.0599416797
 30
0.0
 10
6.1270637041
 20
4.0764726179
 30
0.0
 10
6.1366982872
 20
4.0934950236
 30
0.0
 10
6.1454867126
 20
4.1109697726
 30
0.0
 10
6.1560441013
 20
4.1348105912
 30
0.0
 10
6.1670357115
 20
4.165539757
 30
0.0
 10
6.1765426967
 20
4.2035215996
 30
0.0
 10
6.1822929339
 20
4.2422524961
 30
0.0
 10
6.1842163632
 20
4.2813599747
 30
0.0
 10
6.1823078667
 20
4.3204681571
 30
0.0
 10
6.1765719028
 20
4.3592014512
 30
0.0
 10
6.1670770475
 20
4.3971875646
 30
0.0
 10
6.1560930411
 20
4.4279212815
 30
0.0
 10
6.1455402766
 20
4.451766108
 30
0.0
 10
6.1367546086
 20
4.4692437421
 30
0.0
 10
6.1271215014
 20
4.4862683281
 30
0.0
 10
6.1166663973
 20
4.5028008016
 30
0.0
 10
6.1054142455
 20
4.5188011198
 30
0.0
 10
6.09338934
 20
4.5342287362
 30
0.0
 10
6.0806220328
 20
4.54904742
 30
0.0
 10
6.0671445399
 20
4.5632229715
 30
0.0
 10
6.0529885133
 20
4.5767208346
 30
0.0
 10
6.0381858377
 20
4.58950618
 30
0.0
 10
6.0227740718
 20
4.6015503857
 30
0.0
 10
6.0067907828
 20
4.612825346
 30
0.0
 10
5.9902731976
 20
4.6233023759
 30
0.0
 10
5.9732603656
 20
4.6329542854
 30
0.0
 10
5.9557948572
 20
4.6417609586
 30
0.0
 10
5.9319675164
 20
4.6523461261
 30
0.0
 10
5.9012489881
 20
4.6633623635
 30
0.0
 10
5.8695964288
 20
4.6713162461
 30
0.0
 10
5.8439012041
 20
4.6757897642
 30
0.0
 10
5.8180253779
 20
4.6789962295
 30
0.0
 10
5.7984621907
 20
4.6799736144
 30
0.0
 10
5.7854362657
 20
4.6799819413
 30
0.0
 11
5.7854511487
 21
3.882487962
 31
0.0
 11
5.8244774893
 21
3.8844981436
 31
0.0
 11
5.8438867725
 21
3.8869327434
 31
0.0
 11
5.863153293
 21
3.8903145988
 31
0.0
 11
5.9010602334
 21
3.899886613
 31
0.0
 11
5.937843075
 21
3.9131183171
 31
0.0
 11
5.9557055111
 21
3.9210704427
 31
0.0
 11
5.9731583549
 21
3.9298869349
 31
0.0
 11
5.9901589738
 21
3.9395465758
 31
0.0
 11
6.0066649474
 21
3.95002787
 31
0.0
 11
6.02263687
 21
3.9613053745
 31
0.0
 11
6.0380375797
 21
3.9733507084
 31
0.0
 11
6.0528299683
 21
3.9861354207
 31
0.0
 11
6.066977528
 21
3.9996303622
 31
0.0
 11
6.080447308
 21
4.0138022463
 31
0.0
 11
6.0932076625
 21
4.0286162688
 31
0.0
 11
6.1052269501
 21
4.0440376214
 31
0.0
 11
6.1164751772
 21
4.0600302325
 31
0.0
 11
6.1269268672
 21
4.0765545681
 31
0.0
 11
6.1365573101
 21
4.093570506
 31
0.0
 11
6.1453418611
 21
4.1110378937
 31
0.0
 11
6.1532589406
 21
4.1289151318
 31
0.0
 11
6.1664219738
 21
4.1657244491
 31
0.0
 11
6.1759165603
 21
4.2036463986
 31
0.0
 11
6.18165516
 21
4.2423155455
 31
0.0
 11
6.183577713
 21
4.2813601348
 31
0.0
 11
6.1816699913
 21
4.3204053389
 31
0.0
 11
6.1759455094
 21
4.3590764816
 31
0.0
 11
6.1664630019
 21
4.3970024231
 31
0.0
 11
6.1533089615
 21
4.4338176539
 31
0.0
 11
6.145395286
 21
4.4516980088
 31
0.0
 11
6.136613374
 21
4.4691682241
 31
0.0
 11
6.1269844742
 21
4.4861863545
 31
0.0
 11
6.1165334615
 21
4.5027122499
 31
0.0
 11
6.1052853393
 21
4.5187058237
 31
0.0
 11
6.0932655389
 21
4.5341273304
 31
0.0
 11
6.0805036054
 21
4.548940301
 31
0.0
 11
6.0670313796
 21
4.5631100952
 31
0.0
 11
6.0528807273
 21
4.5766020925
 31
0.0
 11
6.0380843753
 21
4.5893826136
 31
0.0
 11
6.0226788614
 21
4.6014221457
 31
0.0
 11
6.0067017778
 21
4.6126923281
 31
0.0
 11
5.9901907259
 21
4.6231648138
 31
0.0
 11
5.9731848446
 21
4.6328134513
 31
0.0
 11
5.9557265093
 21
4.641616711
 31
0.0
 11
5.9378585043
 21
4.6495536481
 31
0.0
 11
5.9010648585
 21
4.6627491479
 31
0.0
 11
5.8631485129
 21
4.6722757741
 31
0.0
 11
5.8438781277
 21
4.6756313848
 31
0.0
 11
5.8244656263
 21
4.6780371686
 31
0.0
 11
5.7854362657
 21
4.6799819413
 31
0.0
  0
LINE
  5
288
100
AcDbEntity
  8
0
100
AcDbLine
 62
6
  6
CONTINUOUS
 10
5.7854362657
 20
4.6799819413
 11
5.7848312064
 21
4.6799818659
  0
LINE
  5
289
100
AcDbEntity
  8
0
100
AcDbLine
 62
6
  6
CONTINUOUS
 10
5.7848312064
 20
3.8847101683
 11
5.7854479419
 21
3.8847111995
  0
SPLINE
  5
28A
100
AcDbEntity
  8
0
100
AcDbSpline
 62
6
  6
CONTINUOUS
 70
0
 71
3
 72
57
 73
53
 74
51
 42
0.0000001
 43
0.0000001
 44
0.0000000001
 12
1.2441991898
 22
0.0030517912
 32
0.0
 13
-1.2442026695
 23
0.000809082
 33
0.0
 40
0.0
 40
0.0
 40
0.0
 40
0.0
 40
0.0312326888
 40
0.0468666848
 40
0.0625002325
 40
0.0937467465
 40
0.1249879179
 40
0.1406143141
 40
0.1562413128
 40
0.1718684046
 40
0.1874953059
 40
0.2031221156
 40
0.2187488382
 40
0.2343754405
 40
0.2500020901
 40
0.265628943
 40
0.2812559562
 40
0.2968831336
 40
0.3125106555
 40
0.3281384821
 40
0.3437663942
 40
0.3593942739
 40
0.3750222255
 40
0.4062685681
 40
0.4375140347
 40
0.4687587607
 40
0.5000026046
 40
0.5312464056
 40
0.5624908301
 40
0.5937351787
 40
0.6249791824
 40
0.6406058442
 40
0.6562325437
 40
0.6718594421
 40
0.6874864295
 40
0.7031133173
 40
0.7187401067
 40
0.7343669059
 40
0.7499936058
 40
0.7656200799
 40
0.7812464574
 40
0.7968729742
 40
0.8124997161
 40
0.828126841
 40
0.8437544685
 40
0.8593821564
 40
0.8750092608
 40
0.9062516302
 40
0.9374991022
 40
0.9531330258
 40
0.9687672599
 40
1.0
 40
1.0
 40
1.0
 40
1.0
 10
5.7854479419
 20
3.8847111995
 30
0.0
 10
5.7984011706
 20
3.8847429713
 30
0.0
 10
5.8178533453
 20
3.8857474871
 30
0.0
 10
5.8435800427
 20
3.8889742542
 30
0.0
 10
5.8691259113
 20
3.8934575261
 30
0.0
 10
5.9005924287
 20
3.9014041664
 30
0.0
 10
5.9311290212
 20
3.9123880569
 30
0.0
 10
5.9548149727
 20
3.922933211
 30
0.0
 10
5.9721768016
 20
3.9317029995
 30
0.0
 10
5.9890888041
 20
3.9413113339
 30
0.0
 10
6.0055087952
 20
3.9517383181
 30
0.0
 10
6.0213979506
 20
3.9629572247
 30
0.0
 10
6.0367194043
 20
3.9749395929
 30
0.0
 10
6.0514359546
 20
3.9876575571
 30
0.0
 10
6.065510276
 20
4.0010828711
 30
0.0
 10
6.0789106472
 20
4.0151811074
 30
0.0
 10
6.0916056746
 20
4.0299179845
 30
0.0
 10
6.1035634384
 20
4.0452595609
 30
0.0
 10
6.11475358
 20
4.0611700878
 30
0.0
 10
6.1251519523
 20
4.0776093488
 30
0.0
 10
6.1347337842
 20
4.0945376045
 30
0.0
 10
6.1434738761
 20
4.1119160665
 30
0.0
 10
6.1539731776
 20
4.1356256121
 30
0.0
 10
6.164904414
 20
4.1661850066
 30
0.0
 10
6.1743589127
 20
4.2039563303
 30
0.0
 10
6.1800768392
 20
4.2424716702
 30
0.0
 10
6.1819896055
 20
4.2813609744
 30
0.0
 10
6.1800917358
 20
4.3202509112
 30
0.0
 10
6.1743875423
 20
4.3587676991
 30
0.0
 10
6.1649462789
 20
4.3965407579
 30
0.0
 10
6.1540244588
 20
4.4271015137
 30
0.0
 10
6.1435313823
 20
4.4508116454
 30
0.0
 10
6.1347954947
 20
4.4681906134
 30
0.0
 10
6.1252171381
 20
4.4851194049
 30
0.0
 10
6.1148213451
 20
4.5015590953
 30
0.0
 10
6.1036326989
 20
4.5174697543
 30
0.0
 10
6.091675332
 20
4.5328110104
 30
0.0
 10
6.0789799363
 20
4.5475471766
 30
0.0
 10
6.0655783093
 20
4.561643941
 30
0.0
 10
6.0515017473
 20
4.5750666084
 30
0.0
 10
6.036782229
 20
4.5877807844
 30
0.0
 10
6.0214571555
 20
4.599758224
 30
0.0
 10
6.0055634991
 20
4.6109707752
 30
0.0
 10
5.9891379154
 20
4.6213895398
 30
0.0
 10
5.9722197331
 20
4.630988253
 30
0.0
 10
5.9548512867
 20
4.6397467771
 30
0.0
 10
5.9311562045
 20
4.6502741481
 30
0.0
 10
5.9006079327
 20
4.6612297813
 30
0.0
 10
5.8691309338
 20
4.6691401949
 30
0.0
 10
5.8435783501
 20
4.6735891349
 30
0.0
 10
5.8178466256
 20
4.6767780919
 30
0.0
 10
5.7983924641
 20
4.6777502763
 30
0.0
 10
5.7854391779
 20
4.6777586996
 30
0.0
 11
5.7854479419
 21
3.8847111995
 31
0.0
 11
5.8242562906
 21
3.8867102904
 31
0.0
 11
5.8435569037
 21
3.8891313085
 31
0.0
 11
5.862715293
 21
3.8924942569
 31
0.0
 11
5.9004091507
 21
3.9020123745
 31
0.0
 11
5.9369850713
 21
3.9151693763
 31
0.0
 11
5.9547470377
 21
3.9230763209
 31
0.0
 11
5.9721017651
 21
3.9318427235
 31
0.0
 11
5.9890068809
 21
3.9414478233
 31
0.0
 11
6.0054203755
 21
3.9518703404
 31
0.0
 11
6.0213033792
 21
3.9630845022
 31
0.0
 11
6.0366186343
 21
3.9750622307
 31
0.0
 11
6.0513288956
 21
3.9877754291
 31
0.0
 11
6.0653978715
 21
4.0011949449
 31
0.0
 11
6.0787930208
 21
4.0152874712
 31
0.0
 11
6.0914827251
 21
4.030018679
 31
0.0
 11
6.103435383
 21
4.0453542258
 31
0.0
 11
6.1146215198
 21
4.061258063
 31
0.0
 11
6.1250158308
 21
4.0776907965
 31
0.0
 11
6.1345934965
 21
4.0946126432
 31
0.0
 11
6.1433297932
 21
4.1119837721
 31
0.0
 11
6.1512033829
 21
4.1297626661
 31
0.0
 11
6.1642941817
 21
4.1663691664
 31
0.0
 11
6.1737362443
 21
4.2040808039
 31
0.0
 11
6.1794426954
 21
4.2425344761
 31
0.0
 11
6.1813545046
 21
4.2813611185
 31
0.0
 11
6.1794573771
 21
4.3201884275
 31
0.0
 11
6.1737646907
 21
4.3586437608
 31
0.0
 11
6.1643355411
 21
4.3963571951
 31
0.0
 11
6.1512560747
 21
4.4329646558
 31
0.0
 11
6.1433872455
 21
4.4507439022
 31
0.0
 11
6.1346551327
 21
4.4681154914
 31
0.0
 11
6.1250809239
 21
4.485037845
 31
0.0
 11
6.1146891755
 21
4.5014709639
 31
0.0
 11
6.1035045469
 21
4.5173748972
 31
0.0
 11
6.0915523216
 21
4.532710169
 31
0.0
 11
6.0788621885
 21
4.547440656
 31
0.0
 11
6.0654657333
 21
4.5615316784
 31
0.0
 11
6.0513945493
 21
4.5749485624
 31
0.0
 11
6.0366813624
 21
4.587657947
 31
0.0
 11
6.0213625083
 21
4.5996306564
 31
0.0
 11
6.0054750406
 21
4.6108383468
 31
0.0
 11
5.9890560502
 21
4.6212527232
 31
0.0
 11
5.972144709
 21
4.6308482087
 31
0.0
 11
5.9547833207
 21
4.6396033169
 31
0.0
 11
5.9370144475
 21
4.6474968988
 31
0.0
 11
5.9004247735
 21
4.6606200194
 31
0.0
 11
5.8627186854
 21
4.6700944623
 31
0.0
 11
5.8435553191
 21
4.6734316599
 31
0.0
 11
5.8242508687
 21
4.6758242988
 31
0.0
 11
5.7854391779
 21
4.6777586996
 31
0.0
  0
LINE
  5
28B
100
AcDbEntity
  8
0
100
AcDbLine
 62
6
  6
CONTINUOUS
 10
5.7854391779
 20
4.6777586996
 11
5.7848312064
 21
4.6777586257
  0
LINE
  5
28C
100
AcDbEntity
  8
0
100
AcDbLine
 62
6
  6
CONTINUOUS
 10
5.7848312064
 20
3.8869334099
 11
5.7854453088
 21
3.8869344404
  0
SPLINE
  5
28D
100
AcDbEntity
  8
0
100
AcDbSpline
 62
6
  6
CONTINUOUS
 70
0
 71
3
 72
57
 73
53
 74
51
 42
0.0000001
 43
0.0000001
 44
0.0000000001
 12
1.2372168432
 22
0.003043471
 32
0.0
 13
-1.2372203176
 23
0.0008159103
 33
0.0
 40
0.0
 40
0.0
 40
0.0
 40
0.0
 40
0.0312325898
 40
0.0468663496
 40
0.0624994409
 40
0.0937448112
 40
0.1249855222
 40
0.1406120872
 40
0.1562393818
 40
0.1718668031
 40
0.1874939999
 40
0.2031210486
 40
0.2187479399
 40
0.2343746311
 40
0.2500012846
 40
0.2656280562
 40
0.2812549075
 40
0.2968818504
 40
0.3125090636
 40
0.3437545533
 40
0.3593818599
 40
0.3750091581
 40
0.40625401
 40
0.4374980359
 40
0.468741707
 40
0.4999853937
 40
0.5312293557
 40
0.5624738136
 40
0.5781007116
 40
0.5937274137
 40
0.6249713777
 40
0.6405980282
 40
0.6562247561
 40
0.6718516756
 40
0.6874786244
 40
0.7031054083
 40
0.7187320716
 40
0.734358766
 40
0.7499854605
 40
0.7656121576
 40
0.7812390815
 40
0.7968663552
 40
0.8124939555
 40
0.8281219701
 40
0.8437504282
 40
0.8593788461
 40
0.8750065742
 40
0.9062500377
 40
0.9374984795
 40
0.9531327487
 40
0.9687671695
 40
1.0
 40
1.0
 40
1.0
 40
1.0
 10
5.7854453088
 20
3.8869344404
 30
0.0
 10
5.7983258041
 20
3.8869661256
 30
0.0
 10
5.8176686678
 20
3.8879651217
 30
0.0
 10
5.8432506544
 20
3.8911738338
 30
0.0
 10
5.8686523935
 20
3.895631922
 30
0.0
 10
5.8999415575
 20
3.9035335351
 30
0.0
 10
5.9303061491
 20
3.914455802
 30
0.0
 10
5.9538592278
 20
3.9249416555
 30
0.0
 10
5.9711240095
 20
3.9336621913
 30
0.0
 10
5.98794151
 20
3.9432166636
 30
0.0
 10
6.0042696532
 20
3.9535853266
 30
0.0
 10
6.0200699298
 20
3.9647413643
 30
0.0
 10
6.0353056222
 20
3.9766565384
 30
0.0
 10
6.0499397028
 20
3.9893031634
 30
0.0
 10
6.063935081
 20
4.0026530853
 30
0.0
 10
6.0772602858
 20
4.0166720834
 30
0.0
 10
6.0898839647
 20
4.0313259086
 30
0.0
 10
6.1017747517
 20
4.0465815763
 30
0.0
 10
6.1166076083
 20
4.0676706843
 30
0.0
 10
6.1298756776
 20
4.0898263559
 30
0.0
 10
6.1414603034
 20
4.1128610415
 30
0.0
 10
6.1519010762
 20
4.1364368302
 30
0.0
 10
6.1627709187
 20
4.1668228415
 30
0.0
 10
6.1721728285
 20
4.2043804934
 30
0.0
 10
6.1778597033
 20
4.2426783119
 30
0.0
 10
6.1797626325
 20
4.2813492397
 30
0.0
 10
6.1778770327
 20
4.3200197195
 30
0.0
 10
6.1731498361
 20
4.3519430274
 30
0.0
 10
6.1675127806
 20
4.3771029504
 30
0.0
 10
6.1606480621
 20
4.4019549608
 30
0.0
 10
6.1519593186
 20
4.4262730256
 30
0.0
 10
6.1415261297
 20
4.4498498041
 30
0.0
 10
6.1328393751
 20
4.4671314638
 30
0.0
 10
6.1233155328
 20
4.4839656358
 30
0.0
 10
6.1129788941
 20
4.5003135406
 30
0.0
 10
6.1018535307
 20
4.5161351274
 30
0.0
 10
6.0899636491
 20
4.5313904063
 30
0.0
 10
6.0773403164
 20
4.5460444394
 30
0.0
 10
6.0640145409
 20
4.5600627833
 30
0.0
 10
6.0500169043
 20
4.5734105139
 30
0.0
 10
6.0353798292
 20
4.5860541037
 30
0.0
 10
6.020140576
 20
4.5979655358
 30
0.0
 10
6.0043357114
 20
4.6091164007
 30
0.0
 10
5.9880015014
 20
4.6194774192
 30
0.0
 10
5.9711776183
 20
4.6290231672
 30
0.0
 10
5.9539060971
 20
4.6377334612
 30
0.0
 10
5.9303433203
 20
4.6482027476
 30
0.0
 10
5.8999655395
 20
4.6590975729
 30
0.0
 10
5.8686643536
 20
4.6669643584
 30
0.0
 10
5.8432545944
 20
4.6713886592
 30
0.0
 10
5.8176670549
 20
4.6745600324
 30
0.0
 10
5.7983219621
 20
4.675526962
 30
0.0
 10
5.7854413312
 20
4.6755354564
 30
0.0
 11
5.7854453088
 21
3.8869344404
 31
0.0
 11
5.8240357342
 21
3.8889225426
 31
0.0
 11
5.8432277342
 21
3.8913300184
 31
0.0
 11
5.8622780424
 21
3.8946740533
 31
0.0
 11
5.8997590165
 21
3.9041383202
 31
0.0
 11
5.9361291179
 21
3.9172213558
 31
0.0
 11
5.9537916352
 21
3.9250839264
 31
0.0
 11
5.9710493775
 21
3.9338011369
 31
0.0
 11
5.9878600441
 21
3.9433524189
 31
0.0
 11
6.0041817566
 21
3.9537166099
 31
0.0
 11
6.0199759124
 21
3.9648679465
 31
0.0
 11
6.0352054384
 21
3.9767785164
 31
0.0
 11
6.0498332704
 21
3.9894203951
 31
0.0
 11
6.0638233434
 21
4.0027645556
 31
0.0
 11
6.0771433294
 21
4.0167778488
 31
0.0
 11
6.0897617731
 21
4.0314261628
 31
0.0
 11
6.1016472421
 21
4.0466753672
 31
0.0
 11
6.1127705193
 21
4.0624895457
 31
0.0
 11
6.1326302299
 21
4.0956557798
 31
0.0
 11
6.1413173157
 21
4.1129287224
 31
0.0
 11
6.1491467187
 21
4.1306069592
 31
0.0
 11
6.1621641882
 21
4.1670060204
 31
0.0
 11
6.171553703
 21
4.2045040761
 31
0.0
 11
6.1772290476
 21
4.2427404946
 31
0.0
 11
6.1791312125
 21
4.2813489974
 31
0.0
 11
6.1772459398
 21
4.3199586697
 31
0.0
 11
6.1715865662
 21
4.3581984393
 31
0.0
 11
6.1673592739
 21
4.3770645586
 31
0.0
 11
6.1622114006
 21
4.3957002902
 31
0.0
 11
6.149206773
 21
4.432102775
 31
0.0
 11
6.1413827031
 21
4.4497824965
 31
0.0
 11
6.1326999073
 21
4.4670567947
 31
0.0
 11
6.1231800744
 21
4.4838845773
 31
0.0
 11
6.1128473922
 21
4.500225892
 31
0.0
 11
6.1017260712
 21
4.516040797
 31
0.0
 11
6.0898414117
 21
4.5312901936
 31
0.0
 11
6.0772232441
 21
4.5459384894
 31
0.0
 11
6.0639025762
 21
4.5599510027
 31
0.0
 11
6.0499104304
 21
4.5732930679
 31
0.0
 11
6.0352796257
 21
4.5859319465
 31
0.0
 11
6.0200464759
 21
4.5978386496
 31
0.0
 11
6.0042476969
 21
4.6089846195
 31
0.0
 11
5.9879200939
 21
4.619341417
 31
0.0
 11
5.9711029791
 21
4.6288839403
 31
0.0
 11
5.9538384585
 21
4.6375908057
 31
0.0
 11
5.9361687844
 21
4.6454408243
 31
0.0
 11
5.8997833591
 21
4.6584912723
 31
0.0
 11
5.8622878391
 21
4.6679133511
 31
0.0
 11
5.8432316273
 21
4.6712320823
 31
0.0
 11
5.8240353072
 21
4.6736115222
 31
0.0
 11
5.7854413312
 21
4.6755354564
 31
0.0
  0
LINE
  5
28E
100
AcDbEntity
  8
0
100
AcDbLine
 62
6
  6
CONTINUOUS
 10
5.7854413312
 20
4.6755354564
 11
5.7848312064
 21
4.6755353834
  0
LINE
  5
28F
100
AcDbEntity
  8
0
100
AcDbLine
 62
6
  6
CONTINUOUS
 10
5.7848312064
 20
3.8891566519
 11
5.7854452241
 21
3.889157688
  0
LINE
  5
290
100
AcDbEntity
  8
0
100
AcDbLine
 62
6
  6
CONTINUOUS
 10
5.7854361404
 20
4.6733122192
 11
5.7848312064
 21
4.6733121425
  0
LINE
  5
291
100
AcDbEntity
  8
0
100
AcDbLine
 62
6
  6
CONTINUOUS
 10
5.7848312064
 20
3.8913798916
 11
5.7854497528
 21
3.8913809449
  0
LINE
  5
292
100
AcDbEntity
  8
0
100
AcDbLine
 62
6
  6
CONTINUOUS
 10
5.7848312064
 20
3.891964515
 11
5.7842815683
 21
3.8919644057
  0
LINE
  5
293
100
AcDbEntity
  8
0
100
AcDbLine
 62
6
  6
CONTINUOUS
 10
5.7842687386
 20
4.6727266046
 11
5.7848312064
 21
4.6727275206
  0
LINE
  5
294
100
AcDbEntity
  8
0
100
AcDbLine
 62
6
  6
CONTINUOUS
 10
5.7848312064
 20
3.8808483108
 11
5.7840789803
 21
3.8808483565
  0
LINE
  5
295
100
AcDbEntity
  8
0
100
AcDbLine
 62
6
  6
CONTINUOUS
 10
5.7840574947
 20
4.683842295
 11
5.7848312064
 21
4.6838437246
  0
LINE
  5
296
100
AcDbEntity
  8
0
100
AcDbLine
 62
6
  6
CONTINUOUS
 10
5.7848312064
 20
4.6727275206
 11
5.7853800073
 21
4.67272763
  0
LINE
  5
297
100
AcDbEntity
  8
0
100
AcDbLine
 62
6
  6
CONTINUOUS
 10
5.7853955058
 20
3.8897421912
 11
5.7848312064
 21
3.8897412736
  0
LINE
  5
298
100
AcDbEntity
  8
0
100
AcDbLine
 62
6
  6
CONTINUOUS
 10
5.7853934963
 20
3.8919654331
 11
5.7848312064
 21
3.891964515
  0
LINE
  5
299
100
AcDbEntity
  8
0
100
AcDbLine
 62
6
  6
CONTINUOUS
 10
5.7848312064
 20
3.8764018269
 11
5.7842801675
 21
3.8764017225
  0
LINE
  5
29A
100
AcDbEntity
  8
0
100
AcDbLine
 62
6
  6
CONTINUOUS
 10
5.7842691861
 20
4.6882893274
 11
5.7848312064
 21
4.6882902073
  0
LINE
  5
29B
100
AcDbEntity
  8
0
100
AcDbLine
 62
6
  6
CONTINUOUS
 10
5.7848312064
 20
3.8852947918
 11
5.7842752683
 21
3.8852946876
  0
LINE
  5
29C
100
AcDbEntity
  8
0
100
AcDbLine
 62
6
  6
CONTINUOUS
 10
5.5756738109
 20
4.6197082924
 11
5.5766170958
 21
4.6202914787
  0
LINE
  5
29D
100
AcDbEntity
  8
0
100
AcDbLine
 62
6
  6
CONTINUOUS
 10
5.7842695059
 20
4.679396345
 11
5.7848312064
 21
4.6793972438
  0
LINE
  5
29E
100
AcDbEntity
  8
0
100
AcDbLine
 62
6
  6
CONTINUOUS
 10
5.402871551
 20
4.245515681
 11
5.402794275
 21
4.2463306118
  0
SPLINE
  5
29F
100
AcDbEntity
  8
0
100
AcDbSpline
 62
6
  6
CONTINUOUS
 70
0
 71
3
 72
35
 73
31
 74
29
 42
0.0000001
 43
0.0000001
 44
0.0000000001
 12
0.4861009077
 22
0.5231677794
 32
0.0
 13
-0.6709102029
 23
0.2447000562
 33
0.0
 40
0.0
 40
0.0
 40
0.0
 40
0.0
 40
0.0312350912
 40
0.0624808848
 40
0.0937213556
 40
0.1249605754
 40
0.1874144698
 40
0.2498762065
 40
0.2811267447
 40
0.3123803381
 40
0.3436364718
 40
0.3748951297
 40
0.4061552708
 40
0.4374160338
 40
0.4686773246
 40
0.4999379303
 40
0.531197626
 40
0.5624569054
 40
0.5937153431
 40
0.6249733838
 40
0.6562310448
 40
0.687487885
 40
0.7187447428
 40
0.7500017728
 40
0.812487555
 40
0.8437418865
 40
0.8749959832
 40
0.9062549819
 40
0.9375219732
 40
1.0
 40
1.0
 40
1.0
 40
1.0
 10
6.0497144663
 20
4.0620168586
 30
0.0
 10
6.0547756017
 20
4.0674639231
 30
0.0
 10
6.0645481925
 20
4.0786925553
 30
0.0
 10
6.0780867851
 20
4.0964435473
 30
0.0
 10
6.0904539558
 20
4.1150329328
 30
0.0
 10
6.1053129175
 20
4.140814631
 30
0.0
 10
6.1207477075
 20
4.17474936
 30
0.0
 10
6.1317524289
 20
4.2103690333
 30
0.0
 10
6.1378094687
 20
4.2395103506
 30
0.0
 10
6.1409731537
 20
4.261619872
 30
0.0
 10
6.1427424566
 20
4.2838854419
 30
0.0
 10
6.143118684
 20
4.306219627
 30
0.0
 10
6.1421047714
 20
4.3285350003
 30
0.0
 10
6.1397050431
 20
4.3507446472
 30
0.0
 10
6.1359387076
 20
4.3727637213
 30
0.0
 10
6.1308220321
 20
4.3945084589
 30
0.0
 10
6.1243771426
 20
4.4158965136
 30
0.0
 10
6.1166371539
 20
4.4368500448
 30
0.0
 10
6.107631202
 20
4.457290997
 30
0.0
 10
6.0973979964
 20
4.4771453449
 30
0.0
 10
6.0859815389
 20
4.4963433332
 30
0.0
 10
6.0734236313
 20
4.5148140838
 30
0.0
 10
6.0597755885
 20
4.5324956199
 30
0.0
 10
6.0402038308
 20
4.5549268287
 30
0.0
 10
6.0186443321
 20
4.5755574639
 30
0.0
 10
5.9953879013
 20
4.5941384337
 30
0.0
 10
5.9771416258
 20
4.6070192173
 30
0.0
 10
5.9581629809
 20
4.618800477
 30
0.0
 10
5.9319875362
 20
4.632978333
 30
0.0
 10
5.9114444949
 20
4.6418663895
 30
0.0
 10
5.897472113
 20
4.646962515
 30
0.0
 11
6.0497144663
 21
4.0620168586
 31
0.0
 11
6.0643598662
 21
4.0788419198
 31
0.0
 11
6.0778921762
 21
4.096584187
 31
0.0
 11
6.0902508021
 21
4.1151585293
 31
0.0
 11
6.1013911291
 21
4.1344871372
 31
0.0
 11
6.1198609289
 21
4.1750840638
 31
0.0
 11
6.1330359709
 21
4.2177005142
 31
0.0
 11
6.1375792142
 21
4.2395504941
 31
0.0
 11
6.1407406536
 21
4.2616449588
 31
0.0
 11
6.1425102347
 21
4.283896018
 31
0.0
 11
6.1428869993
 21
4.3062159549
 31
0.0
 11
6.1418738203
 21
4.3285171274
 31
0.0
 11
6.1394772936
 21
4.3507127421
 31
0.0
 11
6.1357136084
 21
4.3727181995
 31
0.0
 11
6.1306005866
 21
4.3944492982
 31
0.0
 11
6.124161234
 21
4.4158242686
 31
0.0
 11
6.1164260603
 21
4.4367648617
 31
0.0
 11
6.1074265918
 21
4.4571933731
 31
0.0
 11
6.0972007127
 21
4.4770360859
 31
0.0
 11
6.0857911675
 21
4.4962223316
 31
0.0
 11
6.0732419308
 21
4.5146825656
 31
0.0
 11
6.059603271
 21
4.5323531938
 31
0.0
 11
6.0449276872
 21
4.5491727322
 31
0.0
 11
6.0126918925
 21
4.5800293257
 31
0.0
 11
5.9952545464
 21
4.593962113
 31
0.0
 11
5.9770209613
 21
4.6068350493
 31
0.0
 11
5.958054848
 21
4.6186087041
 31
0.0
 11
5.9384214478
 21
4.6292443453
 31
0.0
 11
5.897472113
 21
4.646962515
 31
0.0
  0
LINE
  5
2A0
100
AcDbEntity
  8
0
100
AcDbLine
 62
6
  6
CONTINUOUS
 10
5.7842719361
 20
4.6749498571
 11
5.7848312064
 21
4.6749507604
  0
LINE
  5
2A1
100
AcDbEntity
  8
0
100
AcDbLine
 62
6
  6
CONTINUOUS
 10
5.7848312064
 20
3.8897412736
 11
5.7842777718
 21
3.8897411668
  0
LINE
  5
2A2
100
AcDbEntity
  8
0
100
AcDbLine
 62
6
  6
CONTINUOUS
 10
5.7848312064
 20
4.6860669669
 11
5.7853809681
 21
4.6860670723
  0
SPLINE
  5
2A3
100
AcDbEntity
  8
0
100
AcDbSpline
 62
6
  6
CONTINUOUS
 70
0
 71
3
 72
56
 73
52
 74
50
 42
0.0000001
 43
0.0000001
 44
0.0000000001
 12
1.2703987718
 22
-0.0006251039
 32
0.0
 13
-1.2703956596
 23
-0.0028806713
 33
0.0
 40
0.0
 40
0.0
 40
0.0
 40
0.0
 40
0.0312325995
 40
0.046866506
 40
0.0624999088
 40
0.0937464559
 40
0.1249887394
 40
0.1406161681
 40
0.1562443432
 40
0.1718726022
 40
0.187500506
 40
0.2031281205
 40
0.2187554813
 40
0.2343825512
 40
0.2500094746
 40
0.2656364369
 40
0.281263407
 40
0.2968903628
 40
0.3125174679
 40
0.3281447153
 40
0.3437718929
 40
0.3593988623
 40
0.3750257701
 40
0.4062702224
 40
0.4375149695
 40
0.468759881
 40
0.5000043216
 40
0.5312490073
 40
0.5624946903
 40
0.5937408747
 40
0.6249872798
 40
0.6406150115
 40
0.6562424652
 40
0.6874876184
 40
0.7031145903
 40
0.7187413927
 40
0.7343682193
 40
0.7499950533
 40
0.7656218379
 40
0.7812487147
 40
0.7968758067
 40
0.812503031
 40
0.8281303454
 40
0.8437578134
 40
0.8593851273
 40
0.8750117492
 40
0.9062529931
 40
0.9374993741
 40
0.9531329601
 40
0.9687670684
 40
1.0
 40
1.0
 40
1.0
 40
1.0
 10
5.7853809681
 20
4.6860670723
 30
0.0
 10
5.7986069201
 20
4.6860605644
 30
0.0
 10
5.8184706392
 20
4.6850710398
 30
0.0
 10
5.8447442099
 20
4.6818189521
 30
0.0
 10
5.8708346864
 20
4.6772801461
 30
0.0
 10
5.9029750098
 20
4.6692081832
 30
0.0
 10
5.9341676314
 20
4.6580259753
 30
0.0
 10
5.9583633141
 20
4.6472800675
 30
0.0
 10
5.976099189
 20
4.638339238
 30
0.0
 10
5.9933754893
 20
4.6285401641
 30
0.0
 10
6.0101488364
 20
4.617903273
 30
0.0
 10
6.0263791987
 20
4.606455755
 30
0.0
 10
6.0420289995
 20
4.5942271223
 30
0.0
 10
6.0570603779
 20
4.5812462242
 30
0.0
 10
6.0714350245
 20
4.5675418772
 30
0.0
 10
6.0851202657
 20
4.5531491722
 30
0.0
 10
6.0980842619
 20
4.5381035329
 30
0.0
 10
6.1102946945
 20
4.5224399974
 30
0.0
 10
6.1217201771
 20
4.5061949024
 30
0.0
 10
6.1323360596
 20
4.4894094685
 30
0.0
 10
6.1421172604
 20
4.4721245235
 30
0.0
 10
6.1510382766
 20
4.4543798746
 30
0.0
 10
6.1617535753
 20
4.4301706616
 30
0.0
 10
6.1729067134
 20
4.3989664526
 30
0.0
 10
6.1825481115
 20
4.3603978456
 30
0.0
 10
6.1883732065
 20
4.3210695533
 30
0.0
 10
6.1903113384
 20
4.281359985
 30
0.0
 10
6.1883582173
 20
4.241650823
 30
0.0
 10
6.1825187626
 20
4.2023236711
 30
0.0
 10
6.1728641999
 20
4.1637564706
 30
0.0
 10
6.1617013951
 20
4.1325542278
 30
0.0
 10
6.1509794996
 20
4.1083457269
 30
0.0
 10
6.1390833206
 20
4.0846936534
 30
0.0
 10
6.1254584625
 20
4.0619446175
 30
0.0
 10
6.1102266955
 20
4.0402911367
 30
0.0
 10
6.0980161037
 20
4.0246273041
 30
0.0
 10
6.0850529438
 20
4.0095813888
 30
0.0
 10
6.0713693345
 20
3.9951873549
 30
0.0
 10
6.0569974047
 20
3.9814804923
 30
0.0
 10
6.0419695536
 20
3.9684959277
 30
0.0
 10
6.0263239827
 20
3.9562625082
 30
0.0
 10
6.0100987021
 20
3.94480876
 30
0.0
 10
5.9933314005
 20
3.9341637995
 30
0.0
 10
5.9760617477
 20
3.924354991
 30
0.0
 10
5.9583328962
 20
3.9154026217
 30
0.0
 10
5.9341466023
 20
3.9046385074
 30
0.0
 10
5.9029654699
 20
3.8934275775
 30
0.0
 10
5.870835176
 20
3.8853186056
 30
0.0
 10
5.8447506986
 20
3.8807451936
 30
0.0
 10
5.8184816214
 20
3.8774548739
 30
0.0
 10
5.7986195488
 20
3.8764327004
 30
0.0
 10
5.7853934885
 20
3.8764027098
 30
0.0
 11
5.7853809681
 21
4.6860670723
 31
0.0
 11
5.8250099463
 21
4.6840981321
 31
0.0
 11
5.8447207933
 21
4.6816581183
 31
0.0
 11
5.8642874707
 21
4.6782535801
 31
0.0
 11
5.9027877019
 21
4.6685855269
 31
0.0
 11
5.9401494363
 21
4.6551911297
 31
0.0
 11
5.9582938738
 21
4.6471336038
 31
0.0
 11
5.9760225314
 21
4.6381962282
 31
0.0
 11
5.9932918264
 21
4.6284004296
 31
0.0
 11
6.0100584935
 21
4.6177680653
 31
0.0
 11
6.026282572
 21
4.6063254701
 31
0.0
 11
6.0419260621
 21
4.5941016357
 31
0.0
 11
6.0569509898
 21
4.5811255892
 31
0.0
 11
6.0713201172
 21
4.5674271577
 31
0.0
 11
6.0850000544
 21
4.5530403539
 31
0.0
 11
6.0979586656
 21
4.5380005535
 31
0.0
 11
6.1101638205
 21
4.5223431375
 31
0.0
 11
6.1215852013
 21
4.5061049088
 31
0.0
 11
6.1321969655
 21
4.4893261828
 31
0.0
 11
6.1419739491
 21
4.4720478072
 31
0.0
 11
6.1508910736
 21
4.4543106695
 31
0.0
 11
6.158926571
 21
4.4361571894
 31
0.0
 11
6.1722830755
 21
4.398778966
 31
0.0
 11
6.1819120449
 21
4.3602712984
 31
0.0
 11
6.1877253995
 21
4.3210058045
 31
0.0
 11
6.1896628014
 21
4.281360211
 31
0.0
 11
6.1877105495
 21
4.2417150343
 31
0.0
 11
6.1818829737
 21
4.2024506576
 31
0.0
 11
6.1722409014
 21
4.1639443864
 31
0.0
 11
6.1588727828
 21
4.1265676806
 31
0.0
 11
6.1508326135
 21
4.1084151244
 31
0.0
 11
6.1419118375
 21
4.0906791341
 31
0.0
 11
6.121518152
 21
4.0566248235
 31
0.0
 11
6.110095785
 21
4.0403874953
 31
0.0
 11
6.0978906762
 21
4.0247302905
 31
0.0
 11
6.0849328701
 21
4.0096900372
 31
0.0
 11
6.0712546022
 21
3.995301871
 31
0.0
 11
6.0568881272
 21
3.9816009134
 31
0.0
 11
6.0418666948
 21
3.9686211961
 31
0.0
 11
6.0262274341
 21
3.9563925054
 31
0.0
 11
6.010008419
 21
3.9449435939
 31
0.0
 11
5.9932477363
 21
3.9343031953
 31
0.0
 11
5.9759851133
 21
3.9244976782
 31
0.0
 11
5.9582635078
 21
3.9155487541
 31
0.0
 11
5.9401262546
 21
3.9074775904
 31
0.0
 11
5.9027783035
 21
3.8940487115
 31
0.0
 11
5.8642894931
 21
3.8843361539
 31
0.0
 11
5.8447271276
 21
3.8809055791
 31
0.0
 11
5.8250195945
 21
3.8784368786
 31
0.0
 11
5.7853934885
 21
3.8764027098
 31
0.0
  0
LINE
  5
2A4
100
AcDbEntity
  8
0
100
AcDbLine
 62
6
  6
CONTINUOUS
 10
5.7853934885
 20
3.8764027098
 11
5.7848312064
 21
3.8764018269
  0
LINE
  5
2A5
100
AcDbEntity
  8
0
100
AcDbLine
 62
6
  6
CONTINUOUS
 10
5.7848312064
 20
4.6838437246
 11
5.7853810156
 21
4.6838438304
  0
SPLINE
  5
2A6
100
AcDbEntity
  8
0
100
AcDbSpline
 62
6
  6
CONTINUOUS
 70
0
 71
3
 72
57
 73
53
 74
51
 42
0.0000001
 43
0.0000001
 44
0.0000000001
 12
1.2634288746
 22
-0.0006253644
 32
0.0
 13
-1.2634257534
 23
-0.0028771301
 33
0.0
 40
0.0
 40
0.0
 40
0.0
 40
0.0
 40
0.0312324361
 40
0.0468661898
 40
0.0624992427
 40
0.0937444578
 40
0.1249851898
 40
0.1406118634
 40
0.1562392868
 40
0.1718668284
 40
0.1874941102
 40
0.203121215
 40
0.2187481452
 40
0.2343748608
 40
0.2500015244
 40
0.2656282983
 40
0.2812551458
 40
0.2968820742
 40
0.3125092567
 40
0.3437546106
 40
0.3593818179
 40
0.3750089943
 40
0.4062536246
 40
0.4374976104
 40
0.4687413304
 40
0.4999850828
 40
0.5312295098
 40
0.5624752525
 40
0.5781031506
 40
0.5937311039
 40
0.6249781149
 40
0.6406063066
 40
0.6562343769
 40
0.6718624351
 40
0.6874903598
 40
0.7031179218
 40
0.7187450684
 40
0.734372007
 40
0.7499987919
 40
0.7656254259
 40
0.7812520956
 40
0.7968789507
 40
0.8125059245
 40
0.8281329836
 40
0.843760202
 40
0.8593872804
 40
0.8750136807
 40
0.9062544709
 40
0.9375003075
 40
0.9531335998
 40
0.968767452
 40
1.0
 40
1.0
 40
1.0
 40
1.0
 10
5.7853810156
 20
4.6838438304
 30
0.0
 10
5.7985343361
 20
4.6838373199
 30
0.0
 10
5.818288937
 20
4.6828531201
 30
0.0
 10
5.8444180715
 20
4.6796188291
 30
0.0
 10
5.8703646375
 20
4.6751050317
 30
0.0
 10
5.902327324
 20
4.6670777361
 30
0.0
 10
5.933347289
 20
4.6559572063
 30
0.0
 10
5.957409163
 20
4.6452710513
 30
0.0
 10
5.9750470214
 20
4.6363799439
 30
0.0
 10
5.9922278223
 20
4.6266351461
 30
0.0
 10
6.0089084248
 20
4.6160569387
 30
0.0
 10
6.0250494127
 20
4.6046729139
 30
0.0
 10
6.0406131847
 20
4.5925120378
 30
0.0
 10
6.0555618271
 20
4.5796027101
 30
0.0
 10
6.0698574093
 20
4.5659738519
 30
0.0
 10
6.0834677624
 20
4.5516605831
 30
0.0
 10
6.096360813
 20
4.5366980097
 30
0.0
 10
6.1085044592
 20
4.5211199332
 30
0.0
 10
6.123651561
 20
4.4995841837
 30
0.0
 10
6.1371988998
 20
4.4769581104
 30
0.0
 10
6.1490251959
 20
4.4534337506
 30
0.0
 10
6.1596823872
 20
4.4293566316
 30
0.0
 10
6.1707745434
 20
4.39832418
 30
0.0
 10
6.1803633355
 20
4.3599678856
 30
0.0
 10
6.1861565796
 20
4.3208566251
 30
0.0
 10
6.1880844529
 20
4.2813654922
 30
0.0
 10
6.1861429285
 20
4.2418758505
 30
0.0
 10
6.1813023639
 20
4.2092771067
 30
0.0
 10
6.1755357461
 20
4.1835849709
 30
0.0
 10
6.1685156649
 20
4.1582069427
 30
0.0
 10
6.1596329696
 20
4.1333747032
 30
0.0
 10
6.1489704042
 20
4.1092994892
 30
0.0
 10
6.1400943394
 20
4.0916525177
 30
0.0
 10
6.1303634308
 20
4.0744630788
 30
0.0
 10
6.1198033124
 20
4.0577703084
 30
0.0
 10
6.1084392123
 20
4.0416146038
 30
0.0
 10
6.0962956749
 20
4.0260367688
 30
0.0
 10
6.0834033954
 20
4.0110731938
 30
0.0
 10
6.0697948235
 20
3.9967582688
 30
0.0
 10
6.055501847
 20
3.9831267351
 30
0.0
 10
6.0405566436
 20
3.9702135647
 30
0.0
 10
6.0249971038
 20
3.9580474874
 30
0.0
 10
6.0088610755
 20
3.9466567928
 30
0.0
 10
5.9921860771
 20
3.9360703396
 30
0.0
 10
5.9750114623
 20
3.9263154647
 30
0.0
 10
5.957380145
 20
3.9174123434
 30
0.0
 10
5.9333269142
 20
3.9067074059
 30
0.0
 10
5.902317399
 20
3.8955579909
 30
0.0
 10
5.8703639512
 20
3.8874934974
 30
0.0
 10
5.8444230782
 20
3.8829450283
 30
0.0
 10
5.8182985369
 20
3.8796726152
 30
0.0
 10
5.7985457148
 20
3.8786559073
 30
0.0
 10
5.7853923796
 20
3.878625954
 30
0.0
 11
5.7853810156
 21
4.6838438304
 31
0.0
 11
5.8247923597
 21
4.6818855384
 31
0.0
 11
5.8443948664
 21
4.6794588748
 31
0.0
 11
5.8638537538
 21
4.6760730674
 31
0.0
 11
5.9021411215
 21
4.6664584498
 31
0.0
 11
5.9392960155
 21
4.6531381609
 31
0.0
 11
5.9573401123
 21
4.6451254059
 31
0.0
 11
5.9749707628
 21
4.6362377043
 31
0.0
 11
5.9921445687
 21
4.6264961763
 31
0.0
 11
6.0088185867
 21
4.6159225706
 31
0.0
 11
6.024953301
 21
4.6045433711
 31
0.0
 11
6.040510757
 21
4.592387219
 31
0.0
 11
6.0554530084
 21
4.5794827667
 31
0.0
 11
6.0697431652
 21
4.565859823
 31
0.0
 11
6.0833481787
 21
4.5515524024
 31
0.0
 11
6.0962358728
 21
4.5365954746
 31
0.0
 11
6.1083740985
 21
4.521024031
 31
0.0
 11
6.119733044
 21
4.5048749314
 31
0.0
 11
6.1400107208
 21
4.4710046926
 31
0.0
 11
6.1488790577
 21
4.4533645991
 31
0.0
 11
6.1568707335
 21
4.4353104618
 31
0.0
 11
6.1701544756
 21
4.3981372556
 31
0.0
 11
6.1797307803
 21
4.3598418881
 31
0.0
 11
6.18551235
 21
4.3207933578
 31
0.0
 11
6.1874395578
 21
4.281366167
 31
0.0
 11
6.1854985283
 21
4.2419388009
 31
0.0
 11
6.179703537
 21
4.2028896766
 31
0.0
 11
6.1753790613
 21
4.1836243277
 31
0.0
 11
6.1701146713
 21
4.1645942536
 31
0.0
 11
6.1568201489
 21
4.1274217071
 31
0.0
 11
6.1488240539
 21
4.1093681237
 31
0.0
 11
6.1399518542
 21
4.0917287521
 31
0.0
 11
6.1302251814
 21
4.0745457783
 31
0.0
 11
6.1196691947
 21
4.0578596393
 31
0.0
 11
6.108309161
 21
4.041710719
 31
0.0
 11
6.0961707948
 21
4.0261390353
 31
0.0
 11
6.0832839458
 21
4.0111812273
 31
0.0
 11
6.0696806981
 21
3.9968721088
 31
0.0
 11
6.0553931577
 21
3.9832464753
 31
0.0
 11
6.0404543331
 21
3.9703381449
 31
0.0
 11
6.0249010843
 21
3.9581767641
 31
0.0
 11
6.0087712982
 21
3.9467908672
 31
0.0
 11
5.9921028714
 21
3.9362089747
 31
0.0
 11
5.9749352518
 21
3.9264573752
 31
0.0
 11
5.9573111456
 21
3.9175576705
 31
0.0
 11
5.9392736697
 21
3.9095308714
 31
0.0
 11
5.9021312214
 21
3.8961757007
 31
0.0
 11
5.8638542962
 21
3.8865163845
 31
0.0
 11
5.8443996505
 21
3.8831045377
 31
0.0
 11
5.8248005806
 21
3.8806492698
 31
0.0
 11
5.7853923796
 21
3.878625954
 31
0.0
  0
LINE
  5
2A7
100
AcDbEntity
  8
0
100
AcDbLine
 62
6
  6
CONTINUOUS
 10
5.7853923796
 20
3.878625954
 11
5.7848312064
 21
3.8786250687
  0
LINE
  5
2A8
100
AcDbEntity
  8
0
100
AcDbLine
 62
6
  6
CONTINUOUS
 10
5.7844054953
 20
4.6816198797
 11
5.7848312064
 21
4.6816204838
  0
LINE
  5
2A9
100
AcDbEntity
  8
0
100
AcDbLine
 62
6
  6
CONTINUOUS
 10
5.7848312064
 20
4.6816204838
 11
5.7853832444
 21
4.6816205891
  0
SPLINE
  5
2AA
100
AcDbEntity
  8
0
100
AcDbSpline
 62
6
  6
CONTINUOUS
 70
0
 71
3
 72
57
 73
53
 74
51
 42
0.0000001
 43
0.0000001
 44
0.0000000001
 12
1.2564393363
 22
-0.000632387
 32
0.0
 13
-1.2564361694
 23
-0.0028909999
 33
0.0
 40
0.0
 40
0.0
 40
0.0
 40
0.0
 40
0.0312325349
 40
0.0468665082
 40
0.0624999844
 40
0.0937462329
 40
0.1249872295
 40
0.1406135979
 40
0.1562405865
 40
0.1718676852
 40
0.1874946121
 40
0.2031214657
 40
0.2187482371
 40
0.234374877
 40
0.2500015409
 40
0.2656283885
 40
0.2812553814
 40
0.296882526
 40
0.3125100012
 40
0.3281377675
 40
0.3437656073
 40
0.3593934048
 40
0.3750212625
 40
0.4062673346
 40
0.4375124354
 40
0.4687568408
 40
0.5000006368
 40
0.5312445226
 40
0.5624890044
 40
0.5937333527
 40
0.6249773931
 40
0.6406040742
 40
0.6562308001
 40
0.6718577223
 40
0.6874847243
 40
0.7031116185
 40
0.7187384141
 40
0.7343652203
 40
0.7499919315
 40
0.7656184305
 40
0.7812448632
 40
0.7968714658
 40
0.8124983238
 40
0.8281255966
 40
0.8437533804
 40
0.8593812157
 40
0.8750084494
 40
0.9062510999
 40
0.9374989188
 40
0.9531329639
 40
0.9687672333
 40
1.0
 40
1.0
 40
1.0
 40
1.0
 10
5.7853832444
 20
4.6816205891
 30
0.0
 10
5.7984638395
 20
4.6816140054
 30
0.0
 10
5.8181092809
 20
4.6806350872
 30
0.0
 10
5.8440941405
 20
4.6774184005
 30
0.0
 10
5.8698978209
 20
4.6729292265
 30
0.0
 10
5.9016842323
 20
4.6649455786
 30
0.0
 10
5.9325329488
 20
4.6538863608
 30
0.0
 10
5.9564614105
 20
4.6432591333
 30
0.0
 10
5.9740011086
 20
4.6344171545
 30
0.0
 10
5.9910862726
 20
4.6247262781
 30
0.0
 10
6.0076741445
 20
4.6142067045
 30
0.0
 10
6.0237254944
 20
4.6028857284
 30
0.0
 10
6.039202934
 20
4.5907921634
 30
0.0
 10
6.0540687328
 20
4.5779542391
 30
0.0
 10
6.0682851624
 20
4.5644006953
 30
0.0
 10
6.081820193
 20
4.5501665088
 30
0.0
 10
6.0946420353
 20
4.535286388
 30
0.0
 10
6.1067183338
 20
4.5197946828
 30
0.0
 10
6.118018595
 20
4.5037277755
 30
0.0
 10
6.1285184172
 20
4.4871263894
 30
0.0
 10
6.1381927421
 20
4.4700307426
 30
0.0
 10
6.1470160173
 20
4.4524800706
 30
0.0
 10
6.1576139611
 20
4.4285354927
 30
0.0
 10
6.1686450096
 20
4.3976730324
 30
0.0
 10
6.17818054
 20
4.3595275933
 30
0.0
 10
6.1839410672
 20
4.3206317055
 30
0.0
 10
6.1858577156
 20
4.2813592917
 30
0.0
 10
6.1839259994
 20
4.2420875883
 30
0.0
 10
6.1781510648
 20
4.2031941197
 30
0.0
 10
6.1686032762
 20
4.1650529892
 30
0.0
 10
6.1575645229
 20
4.1341951242
 30
0.0
 10
6.146961877
 20
4.1102545974
 30
0.0
 10
6.138135788
 20
4.0927068454
 30
0.0
 10
6.128459934
 20
4.0756134145
 30
0.0
 10
6.1179594236
 20
4.059013601
 30
0.0
 10
6.1066589854
 20
4.0429476976
 30
0.0
 10
6.0945830434
 20
4.0274563363
 30
0.0
 10
6.0817628476
 20
4.0125752073
 30
0.0
 10
6.0682303084
 20
3.9983389546
 30
0.0
 10
6.0540168664
 20
3.9847826133
 30
0.0
 10
6.0391549537
 20
3.9719405835
 30
0.0
 10
6.0236823078
 20
3.9598411871
 30
0.0
 10
6.0076360932
 20
3.9485128272
 30
0.0
 10
5.9910531612
 20
3.9379847051
 30
0.0
 10
5.9739733327
 20
3.9282829154
 30
0.0
 10
5.9564392059
 20
3.9194277405
 30
0.0
 10
5.9325182058
 20
3.9087803254
 30
0.0
 10
5.9016785891
 20
3.8976913649
 30
0.0
 10
5.8699003193
 20
3.8896699434
 30
0.0
 10
5.8441017368
 20
3.8851459224
 30
0.0
 10
5.8181212283
 20
3.8818908934
 30
0.0
 10
5.7984774395
 20
3.880879309
 30
0.0
 10
5.7853967803
 20
3.880849211
 30
0.0
 11
5.7853832444
 21
4.6816205891
 31
0.0
 11
5.8245766649
 21
4.6796727953
 31
0.0
 11
5.8440709784
 21
4.6772593432
 31
0.0
 11
5.863422706
 21
4.6738919837
 31
0.0
 11
5.9014993882
 21
4.6643297151
 31
0.0
 11
5.93844895
 21
4.6510827338
 31
0.0
 11
5.9563927833
 21
4.6431142607
 31
0.0
 11
5.9739252773
 21
4.6342757105
 31
0.0
 11
5.9910034602
 21
4.6245881197
 31
0.0
 11
6.0075847688
 21
4.6140731078
 31
0.0
 11
6.0236298863
 21
4.602756931
 31
0.0
 11
6.0391010468
 21
4.5906680602
 31
0.0
 11
6.0539604936
 21
4.5778349799
 31
0.0
 11
6.0681715243
 21
4.5642873268
 31
0.0
 11
6.0817012649
 21
4.5500589231
 31
0.0
 11
6.0945177102
 21
4.5351845405
 31
0.0
 11
6.1065888799
 21
4.5196989706
 31
0.0
 11
6.1178850935
 21
4.5036388372
 31
0.0
 11
6.1283808064
 21
4.487044058
 31
0.0
 11
6.1380509058
 21
4.469954895
 31
0.0
 11
6.1468704071
 21
4.4524116735
 31
0.0
 11
6.1548179634
 21
4.4344565198
 31
0.0
 11
6.168028336
 21
4.3974870815
 31
0.0
 11
6.1775514617
 21
4.3594020771
 31
0.0
 11
6.1833004566
 21
4.3205686129
 31
0.0
 11
6.1852163256
 21
4.2813594531
 31
0.0
 11
6.1832854905
 21
4.2421509144
 31
0.0
 11
6.1775222439
 21
4.2033194657
 31
0.0
 11
6.1679869109
 21
4.1652384905
 31
0.0
 11
6.1547674247
 21
4.1282750211
 31
0.0
 11
6.1468164064
 21
4.1103230171
 31
0.0
 11
6.1379942099
 21
4.0927826578
 31
0.0
 11
6.128322514
 21
4.0756957231
 31
0.0
 11
6.1178260721
 21
4.0591025413
 31
0.0
 11
6.1065297023
 21
4.0430434103
 31
0.0
 11
6.0944589959
 21
4.0275580353
 31
0.0
 11
6.0816440829
 21
4.0126826421
 31
0.0
 11
6.0681167434
 21
3.9984521917
 31
0.0
 11
6.0539087623
 21
3.984901641
 31
0.0
 11
6.0390532395
 21
3.9720644164
 31
0.0
 11
6.0235868462
 21
3.9599697917
 31
0.0
 11
6.0075468534
 21
3.9486463424
 31
0.0
 11
5.9909705867
 21
3.9381225731
 31
0.0
 11
5.973897632
 21
3.9284240285
 31
0.0
 11
5.956370598
 21
3.9195722957
 31
0.0
 11
5.9384323042
 21
3.911588686
 31
0.0
 11
5.901493495
 21
3.8983056085
 31
0.0
 11
5.8634261772
 21
3.8886980624
 31
0.0
 11
5.8440782991
 21
3.8853045143
 31
0.0
 11
5.8245871927
 21
3.8828623022
 31
0.0
 11
5.7853967803
 21
3.880849211
 31
0.0
  0
LINE
  5
2AB
100
AcDbEntity
  8
0
100
AcDbLine
 62
6
  6
CONTINUOUS
 10
5.7853967803
 20
3.880849211
 11
5.7848312064
 21
3.8808483108
  0
LINE
  5
2AC
100
AcDbEntity
  8
0
100
AcDbLine
 62
6
  6
CONTINUOUS
 10
5.7848312064
 20
3.887518034
 11
5.784078251
 21
3.8875180812
  0
LINE
  5
2AD
100
AcDbEntity
  8
0
100
AcDbLine
 62
6
  6
CONTINUOUS
 10
5.4310962672
 20
4.4575445804
 11
5.4315705628
 21
4.4584980988
  0
LINE
  5
2AE
100
AcDbEntity
  8
0
100
AcDbLine
 62
6
  6
CONTINUOUS
 10
5.7840662752
 20
4.6771725728
 11
5.7848312064
 21
4.6771740014
  0
LINE
  5
2AF
100
AcDbEntity
  8
0
100
AcDbLine
 62
6
  6
CONTINUOUS
 10
5.7848312064
 20
3.8786250687
 11
5.7842813007
 21
3.8786249632
  0
SPLINE
  5
2B0
100
AcDbEntity
  8
0
100
AcDbSpline
 62
6
  6
CONTINUOUS
 70
0
 71
3
 72
41
 73
37
 74
35
 42
0.0000001
 43
0.0000001
 44
0.0000000001
 12
-1.0428884767
 22
0.0005150195
 32
0.0
 13
0.8854644774
 23
0.5509712328
 33
0.0
 40
0.0
 40
0.0
 40
0.0
 40
0.0
 40
0.0312330874
 40
0.0624948894
 40
0.0781281192
 40
0.0937577642
 40
0.1250046635
 40
0.156251274
 40
0.18750163
 40
0.2187526452
 40
0.250002759
 40
0.2656307262
 40
0.2812584792
 40
0.3125073989
 40
0.3437565381
 40
0.3750059232
 40
0.406255887
 40
0.4375053737
 40
0.4687545476
 40
0.5000034754
 40
0.5312525349
 40
0.5625016461
 40
0.5937503834
 40
0.6249994542
 40
0.6562490211
 40
0.6874997127
 40
0.7187507513
 40
0.7500021185
 40
0.7812534259
 40
0.8125042253
 40
0.8437546034
 40
0.8750038502
 40
0.9062526471
 40
0.9375012237
 40
0.9687503719
 40
1.0
 40
1.0
 40
1.0
 40
1.0
 10
5.7842813007
 20
3.8786249632
 30
0.0
 10
5.7734237583
 20
3.8786303251
 30
0.0
 10
5.7516897382
 20
3.8795234725
 30
0.0
 10
5.7247005027
 20
3.8828227726
 30
0.0
 10
5.7033200538
 20
3.886764601
 30
0.0
 10
5.6821222369
 20
3.8915683558
 30
0.0
 10
5.6560169599
 20
3.8991720304
 30
0.0
 10
5.6255354096
 20
3.9107963188
 30
0.0
 10
5.5960894796
 20
3.9248445321
 30
0.0
 10
5.5678713807
 20
3.941220119
 30
0.0
 10
5.5455344402
 20
3.9567274214
 30
0.0
 10
5.5284630257
 20
3.97017846
 30
0.0
 10
5.5119484895
 20
3.9843071314
 30
0.0
 10
5.4923985217
 20
4.0032054808
 30
0.0
 10
5.4708453887
 20
4.0276960178
 30
0.0
 10
5.4513404346
 20
4.0538490559
 30
0.0
 10
5.434009456
 20
4.0814903173
 30
0.0
 10
5.4189633597
 20
4.1104390358
 30
0.0
 10
5.4063064095
 20
4.1405086418
 30
0.0
 10
5.3961114278
 20
4.1714995648
 30
0.0
 10
5.3884561969
 20
4.203213435
 30
0.0
 10
5.3833781732
 20
4.2354404007
 30
0.0
 10
5.3809210666
 20
4.2679724456
 30
0.0
 10
5.3810930572
 20
4.3005966965
 30
0.0
 10
5.3838966914
 20
4.3331015689
 30
0.0
 10
5.3893144566
 20
4.3652746466
 30
0.0
 10
5.3973051097
 20
4.3969078542
 30
0.0
 10
5.4078267313
 20
4.4277917319
 30
0.0
 10
5.4207981354
 20
4.4577292448
 30
0.0
 10
5.4361463859
 20
4.4865203386
 30
0.0
 10
5.4537620171
 20
4.5139817054
 30
0.0
 10
5.4735349109
 20
4.5399324032
 30
0.0
 10
5.4953354766
 20
4.5642033536
 30
0.0
 10
5.5190197474
 20
4.586640881
 30
0.0
 10
5.5444366265
 20
4.6070918361
 30
0.0
 10
5.562427524
 20
4.6193219479
 30
0.0
 10
5.5716510025
 20
4.6250611632
 30
0.0
 11
5.7842813007
 21
3.8786249632
 31
0.0
 11
5.7517360057
 21
3.879959154
 31
0.0
 11
5.7193744996
 21
3.8839165454
 31
0.0
 11
5.7033410307
 21
3.8868727376
 31
0.0
 11
5.6874440659
 21
3.8904749333
 31
0.0
 11
5.6561574379
 21
3.8995887564
 31
0.0
 11
5.6257094285
 21
3.9111996974
 31
0.0
 11
5.5962945055
 21
3.9252322356
 31
0.0
 11
5.5681069085
 21
3.9415923705
 31
0.0
 11
5.5413343513
 21
3.9601763298
 31
0.0
 11
5.5285325447
 21
3.9702632527
 31
0.0
 11
5.5161486189
 21
3.9808586933
 31
0.0
 11
5.4927162307
 21
4.0035076531
 31
0.0
 11
5.4711868431
 21
4.0279729874
 31
0.0
 11
5.4517028903
 21
4.0540969115
 31
0.0
 11
5.4343901831
 21
4.0817083824
 31
0.0
 11
5.4193614785
 21
4.110626003
 31
0.0
 11
5.406716698
 21
4.1406622976
 31
0.0
 11
5.3965347305
 21
4.1716200153
 31
0.0
 11
5.3888857339
 21
4.2032989443
 31
0.0
 11
5.3838149771
 21
4.2354913756
 31
0.0
 11
5.3813592524
 21
4.2679876709
 31
0.0
 11
5.3815316496
 21
4.3005765147
 31
0.0
 11
5.3843323166
 21
4.3330457686
 31
0.0
 11
5.3897432268
 21
4.3651844476
 31
0.0
 11
5.3977268962
 21
4.3967828219
 31
0.0
 11
5.4082350427
 21
4.4276340361
 31
0.0
 11
5.4211943789
 21
4.4575383853
 31
0.0
 11
5.4365244184
 21
4.4862989461
 31
0.0
 11
5.4541218531
 21
4.5137303445
 31
0.0
 11
5.4738730209
 21
4.5396526475
 31
0.0
 11
5.4956494832
 21
4.5638978438
 31
0.0
 11
5.5193083283
 21
4.5863096244
 31
0.0
 11
5.5446980336
 21
4.6067407427
 31
0.0
 11
5.5716510025
 21
4.6250611632
 31
0.0
  0
LINE
  5
2B1
100
AcDbEntity
  8
0
100
AcDbLine
 62
6
  6
CONTINUOUS
 10
5.7842692084
 20
4.6860660823
 11
5.7848312064
 21
4.6860669669
  0
LINE
  5
2B2
100
AcDbEntity
  8
0
100
AcDbLine
 62
6
  6
CONTINUOUS
 10
5.7848312064
 20
4.6793972438
 11
5.7853859015
 21
4.6793973483
  0
SPLINE
  5
2B3
100
AcDbEntity
  8
0
100
AcDbSpline
 62
6
  6
CONTINUOUS
 70
0
 71
3
 72
58
 73
54
 74
52
 42
0.0000001
 43
0.0000001
 44
0.0000000001
 12
1.2494684758
 22
-0.0006408341
 32
0.0
 13
-1.2494653171
 23
-0.0028817084
 33
0.0
 40
0.0
 40
0.0
 40
0.0
 40
0.0
 40
0.0312323749
 40
0.0468664564
 40
0.0625002438
 40
0.0937474392
 40
0.124989517
 40
0.140616475
 40
0.1562440178
 40
0.1718715014
 40
0.1874984827
 40
0.2031250805
 40
0.218751453
 40
0.2343776861
 40
0.2500040152
 40
0.2656305702
 40
0.2812572248
 40
0.2968838695
 40
0.3125106126
 40
0.3281374553
 40
0.3437642093
 40
0.3593907643
 40
0.3750172814
 40
0.4062609942
 40
0.4375050517
 40
0.4687491854
 40
0.4999926954
 40
0.5312362484
 40
0.5624806834
 40
0.5781079144
 40
0.5937352665
 40
0.6249813182
 40
0.6406091251
 40
0.65623686
 40
0.6718646275
 40
0.687492309
 40
0.7031196858
 40
0.7187467182
 40
0.7343735865
 40
0.7500002943
 40
0.7656267988
 40
0.7812532565
 40
0.7968798345
 40
0.8125064995
 40
0.8281332563
 40
0.8437602036
 40
0.8593870568
 40
0.8750133063
 40
0.9062541857
 40
0.9375004226
 40
0.9531338344
 40
0.9687676777
 40
1.0
 40
1.0
 40
1.0
 40
1.0
 10
5.7853859015
 20
4.6793973483
 30
0.0
 10
5.7983938575
 20
4.6793906767
 30
0.0
 10
5.8179302736
 20
4.6784169715
 30
0.0
 10
5.8437710337
 20
4.6752178093
 30
0.0
 10
5.8694320786
 20
4.6707532298
 30
0.0
 10
5.9010429389
 20
4.6628130698
 30
0.0
 10
5.9317214107
 20
4.6518144743
 30
0.0
 10
5.9555176243
 20
4.6412450554
 30
0.0
 10
5.9729602682
 20
4.6324512336
 30
0.0
 10
5.9899507901
 20
4.6228135615
 30
0.0
 10
6.0064466692
 20
4.6123522644
 30
0.0
 10
6.0224083931
 20
4.6010937067
 30
0.0
 10
6.0377991458
 20
4.5890669169
 30
0.0
 10
6.0525817929
 20
4.5763001711
 30
0.0
 10
6.0667187657
 20
4.5628218333
 30
0.0
 10
6.0801779374
 20
4.5486664422
 30
0.0
 10
6.0929278755
 20
4.5338688472
 30
0.0
 10
6.104936644
 20
4.5184635118
 30
0.0
 10
6.1161734082
 20
4.5024862735
 30
0.0
 10
6.1266139268
 20
4.4859776802
 30
0.0
 10
6.1362335087
 20
4.4689778379
 30
0.0
 10
6.1450070124
 20
4.4515258433
 30
0.0
 10
6.1555452811
 20
4.4277159744
 30
0.0
 10
6.1665141633
 20
4.397026496
 30
0.0
 10
6.175996117
 20
4.3590940988
 30
0.0
 10
6.1817249338
 20
4.3204148157
 30
0.0
 10
6.1836308653
 20
4.2813603068
 30
0.0
 10
6.1817102793
 20
4.2423080561
 30
0.0
 10
6.1769231553
 20
4.2100707255
 30
0.0
 10
6.1712202197
 20
4.1846635859
 30
0.0
 10
6.1642778643
 20
4.1595668971
 30
0.0
 10
6.1554935959
 20
4.1350098105
 30
0.0
 10
6.1449491719
 20
4.1112012393
 30
0.0
 10
6.1361714013
 20
4.0937496233
 30
0.0
 10
6.1265483129
 20
4.0767503702
 30
0.0
 10
6.116105177
 20
4.0602422146
 30
0.0
 10
6.1048668841
 20
4.0442651315
 30
0.0
 10
6.0928576867
 20
4.0288594978
 30
0.0
 10
6.080108086
 20
4.0140612175
 30
0.0
 10
6.0666501405
 20
3.9999043814
 30
0.0
 10
6.0525153814
 20
3.9864234237
 30
0.0
 10
6.0377356756
 20
3.9736529185
 30
0.0
 10
6.0223485181
 20
3.9616212302
 30
0.0
 10
6.0063912736
 20
3.950356348
 30
0.0
 10
5.9899009693
 20
3.9398868615
 30
0.0
 10
5.9729166108
 20
3.9302396015
 30
0.0
 10
5.9554805703
 20
3.9214345494
 30
0.0
 10
5.9316934708
 20
3.9108473919
 30
0.0
 10
5.9010266614
 20
3.8998205928
 30
0.0
 10
5.8694262696
 20
3.8918442589
 30
0.0
 10
5.8437719312
 20
3.8873453885
 30
0.0
 10
5.8179361899
 20
3.8841084566
 30
0.0
 10
5.7984017557
 20
3.8831024495
 30
0.0
 10
5.7853938546
 20
3.8830724487
 30
0.0
 11
5.7853859015
 21
4.6793973483
 31
0.0
 11
5.8243616524
 21
4.6774599514
 31
0.0
 11
5.8437479168
 21
4.6750596566
 31
0.0
 11
5.8629926291
 21
4.6717107223
 31
0.0
 11
5.9008590651
 21
4.6622006599
 31
0.0
 11
5.9376046696
 21
4.649026079
 31
0.0
 11
5.955449379
 21
4.64110097
 31
0.0
 11
5.972884934
 21
4.6323105794
 31
0.0
 11
5.989868585
 21
4.6226761488
 31
0.0
 11
6.0063578404
 21
4.6122192563
 31
0.0
 11
6.0223133485
 21
4.6009655814
 31
0.0
 11
6.0376978545
 21
4.5889435426
 31
0.0
 11
6.0524741419
 21
4.5761816083
 31
0.0
 11
6.0666057117
 21
4.5627090784
 31
0.0
 11
6.080059689
 21
4.5485594549
 31
0.0
 11
6.0928043415
 21
4.5337675641
 31
0.0
 11
6.1048079446
 21
4.5183682382
 31
0.0
 11
6.1160406731
 21
4.502397755
 31
0.0
 11
6.1264771293
 21
4.4858957622
 31
0.0
 11
6.1360925454
 21
4.4689023862
 31
0.0
 11
6.1448622561
 21
4.451457802
 31
0.0
 11
6.1527649757
 21
4.4336037682
 31
0.0
 11
6.1659007951
 21
4.3968421202
 31
0.0
 11
6.1753705875
 21
4.3589696345
 31
0.0
 11
6.1810878149
 21
4.3203519846
 31
0.0
 11
6.1829931175
 21
4.281360722
 31
0.0
 11
6.181073054
 21
4.2423701298
 31
0.0
 11
6.1753419842
 21
4.2037541511
 31
0.0
 11
6.1710653018
 21
4.1847025286
 31
0.0
 11
6.1658591998
 21
4.165883476
 31
0.0
 11
6.1527119691
 21
4.1291228038
 31
0.0
 11
6.1448044504
 21
4.1112691326
 31
0.0
 11
6.1360305173
 21
4.0938250214
 31
0.0
 11
6.1264116067
 21
4.0768321681
 31
0.0
 11
6.1159725517
 21
4.0603305789
 31
0.0
 11
6.1047382812
 21
4.0443602123
 31
0.0
 11
6.0927342136
 21
4.0289606343
 31
0.0
 11
6.079989959
 21
4.0141680482
 31
0.0
 11
6.0665372584
 21
4.0000169475
 31
0.0
 11
6.0524078695
 21
3.9865418129
 31
0.0
 11
6.0376344811
 21
3.9737760934
 31
0.0
 11
6.0222535494
 21
3.9617490653
 31
0.0
 11
6.0063024834
 21
3.9504889494
 31
0.0
 11
5.989818706
 21
3.9400239471
 31
0.0
 11
5.9728412643
 21
3.9303799355
 31
0.0
 11
5.9554123564
 21
3.9215782843
 31
0.0
 11
5.9375745414
 21
3.9136398462
 31
0.0
 11
5.9008426703
 21
3.9004314488
 31
0.0
 11
5.8629884489
 21
3.8908777748
 31
0.0
 11
5.8437487067
 21
3.8875031204
 31
0.0
 11
5.8243662733
 21
3.8850744766
 31
0.0
 11
5.7853938546
 21
3.8830724487
 31
0.0
  0
LINE
  5
2B4
100
AcDbEntity
  8
0
100
AcDbLine
 62
6
  6
CONTINUOUS
 10
5.7853938546
 20
3.8830724487
 11
5.7848312064
 21
3.8830715502
  0
LINE
  5
2B5
100
AcDbEntity
  8
0
100
AcDbLine
 62
6
  6
CONTINUOUS
 10
5.7848312064
 20
4.6771740014
 11
5.7853878661
 21
4.6771741055
  0
SPLINE
  5
2B6
100
AcDbEntity
  8
0
100
AcDbSpline
 62
6
  6
CONTINUOUS
 70
0
 71
3
 72
57
 73
53
 74
51
 42
0.0000001
 43
0.0000001
 44
0.0000000001
 12
1.2424743299
 22
-0.0006470583
 32
0.0
 13
-1.2424711742
 23
-0.0028740891
 33
0.0
 40
0.0
 40
0.0
 40
0.0
 40
0.0
 40
0.0312327581
 40
0.0468671729
 40
0.0625014528
 40
0.0937499117
 40
0.1249933775
 40
0.140621106
 40
0.1562495256
 40
0.1718779867
 40
0.1875060047
 40
0.2031336081
 40
0.2187608848
 40
0.2343878117
 40
0.2500145114
 40
0.2656412082
 40
0.2812679051
 40
0.2968945708
 40
0.3125213569
 40
0.328148308
 40
0.34377523
 40
0.3594019604
 40
0.3750286133
 40
0.4062725803
 40
0.4218992848
 40
0.437526185
 40
0.468770646
 40
0.500014611
 40
0.5312583006
 40
0.5625019747
 40
0.5937460035
 40
0.6249908585
 40
0.640618159
 40
0.656245468
 40
0.6874909605
 40
0.7031181757
 40
0.7187451206
 40
0.7343719741
 40
0.7499987478
 40
0.7656254034
 40
0.7812520971
 40
0.796878991
 40
0.812506042
 40
0.8281332415
 40
0.8437606653
 40
0.8593879612
 40
0.8750145263
 40
0.9062552378
 40
0.9375006248
 40
0.9531337279
 40
0.9687674826
 40
1.0
 40
1.0
 40
1.0
 40
1.0
 10
5.7853878661
 20
4.6771741055
 30
0.0
 10
5.7983231661
 20
4.6771673691
 30
0.0
 10
5.8177505135
 20
4.676198928
 30
0.0
 10
5.8434470898
 20
4.6730173617
 30
0.0
 10
5.8689653137
 20
4.6685774338
 30
0.0
 10
5.9004003676
 20
4.6606809159
 30
0.0
 10
5.930908357
 20
4.649743142
 30
0.0
 10
5.954572273
 20
4.6392318173
 30
0.0
 10
5.971917998
 20
4.6304862313
 30
0.0
 10
5.9888142275
 20
4.6209015294
 30
0.0
 10
6.0052187419
 20
4.6104979852
 30
0.0
 10
6.0210916817
 20
4.5993011179
 30
0.0
 10
6.036396621
 20
4.5873403389
 30
0.0
 10
6.0510968317
 20
4.574644183
 30
0.0
 10
6.0651548874
 20
4.5612407891
 30
0.0
 10
6.0785382126
 20
4.5471638232
 30
0.0
 10
6.0912160918
 20
4.5324483661
 30
0.0
 10
6.1031573805
 20
4.5171290137
 30
0.0
 10
6.1143308691
 20
4.5012408541
 30
0.0
 10
6.1247122386
 20
4.4848240505
 30
0.0
 10
6.1342773116
 20
4.4679188319
 30
0.0
 10
6.1430016908
 20
4.4505641497
 30
0.0
 10
6.1534800814
 20
4.426887643
 30
0.0
 10
6.1622064868
 20
4.402466571
 30
0.0
 10
6.1691009751
 20
4.3775091915
 30
0.0
 10
6.1747624806
 20
4.3522425354
 30
0.0
 10
6.1795101903
 20
4.3201837151
 30
0.0
 10
6.1814039844
 20
4.2813490138
 30
0.0
 10
6.1794928139
 20
4.242513861
 30
0.0
 10
6.1737812874
 20
4.2040534685
 30
0.0
 10
6.1643386187
 20
4.1663365196
 30
0.0
 10
6.1534216683
 20
4.1358217975
 30
0.0
 10
6.1429356641
 20
4.1121462838
 30
0.0
 10
6.1313008615
 20
4.0890142692
 30
0.0
 10
6.1179753545
 20
4.066765154
 30
0.0
 10
6.1030783242
 20
4.0455873185
 30
0.0
 10
6.0911361121
 20
4.030267587
 30
0.0
 10
6.0784578689
 20
4.0155523531
 30
0.0
 10
6.065075098
 20
4.0014747487
 30
0.0
 10
6.0510192899
 20
3.9880691757
 30
0.0
 10
6.0363220608
 20
3.9753700017
 30
0.0
 10
6.0210206708
 20
3.963405499
 30
0.0
 10
6.0051523105
 20
3.9522034767
 30
0.0
 10
5.9887538592
 20
3.9417923016
 30
0.0
 10
5.9718640068
 20
3.9321988948
 30
0.0
 10
5.9545250174
 20
3.9234430861
 30
0.0
 10
5.9308707983
 20
3.9129152167
 30
0.0
 10
5.9003760001
 20
3.901950025
 30
0.0
 10
5.8689529709
 20
3.8940187028
 30
0.0
 10
5.8434427684
 20
3.8895450017
 30
0.0
 10
5.8177517411
 20
3.8863261102
 30
0.0
 10
5.7983266194
 20
3.8853256115
 30
0.0
 10
5.7853914519
 20
3.8852956898
 30
0.0
 11
5.7853878661
 21
4.6771741055
 31
0.0
 11
5.8241459015
 21
4.6752471938
 31
0.0
 11
5.8434240366
 21
4.6728601073
 31
0.0
 11
5.8625615968
 21
4.6695296486
 31
0.0
 11
5.9002174727
 21
4.6600719673
 31
0.0
 11
5.9367588388
 21
4.646970075
 31
0.0
 11
5.9545043549
 21
4.6390885365
 31
0.0
 11
5.9718430484
 21
4.6303463945
 31
0.0
 11
5.9887324803
 21
4.6207649316
 31
0.0
 11
6.0051303569
 21
4.6103656239
 31
0.0
 11
6.0209971841
 21
4.5991736738
 31
0.0
 11
6.0362959932
 21
4.5872176446
 31
0.0
 11
6.0509899056
 21
4.5745262202
 31
0.0
 11
6.0650424446
 21
4.5611285153
 31
0.0
 11
6.0784206398
 21
4.5470574062
 31
0.0
 11
6.0910933312
 21
4.5323477118
 31
0.0
 11
6.1030293739
 21
4.5170342669
 31
0.0
 11
6.1141988013
 21
4.5011528182
 31
0.0
 11
6.1245761968
 21
4.484742634
 31
0.0
 11
6.134137243
 21
4.4678438331
 31
0.0
 11
6.1428576446
 21
4.4504965442
 31
0.0
 11
6.1507156121
 21
4.4327420394
 31
0.0
 11
6.1637766063
 21
4.3961853737
 31
0.0
 11
6.1689468032
 21
4.3774706296
 31
0.0
 11
6.1731924309
 21
4.3585244777
 31
0.0
 11
6.1788763608
 21
4.3201223948
 31
0.0
 11
6.1807698252
 21
4.2813487702
 31
0.0
 11
6.1788594232
 21
4.2425763188
 31
0.0
 11
6.1731594775
 21
4.2041775982
 31
0.0
 11
6.1637292609
 21
4.1665205092
 31
0.0
 11
6.1506553798
 21
4.1299672786
 31
0.0
 11
6.1427920582
 21
4.1122142645
 31
0.0
 11
6.1340673469
 21
4.0948683381
 31
0.0
 11
6.1141216675
 21
4.0615622363
 31
0.0
 11
6.1029502663
 21
4.0456815242
 31
0.0
 11
6.0910133972
 21
4.0303682835
 31
0.0
 11
6.078340412
 21
4.0156585854
 31
0.0
 11
6.0649628829
 21
4.0015867114
 31
0.0
 11
6.0509124046
 21
3.9881869246
 31
0.0
 11
6.0362214526
 21
3.9754925168
 31
0.0
 11
6.0209262559
 21
3.9635326388
 31
0.0
 11
6.0050640435
 21
3.9523353391
 31
0.0
 11
5.9886720529
 21
3.9419286533
 31
0.0
 11
5.9717890646
 21
3.9323384502
 31
0.0
 11
5.9544571456
 21
3.9235859818
 31
0.0
 11
5.9367187844
 21
3.915691908
 31
0.0
 11
5.9001927448
 21
3.902557458
 31
0.0
 11
5.8625514197
 21
3.8930576155
 31
0.0
 11
5.8434197629
 21
3.889701864
 31
0.0
 11
5.8241459453
 21
3.8872867516
 31
0.0
 11
5.7853914519
 21
3.8852956898
 31
0.0
  0
LINE
  5
2B7
100
AcDbEntity
  8
0
100
AcDbLine
 62
6
  6
CONTINUOUS
 10
5.7853914519
 20
3.8852956898
 11
5.7848312064
 21
3.8852947918
  0
LINE
  5
2B8
100
AcDbEntity
  8
0
100
AcDbLine
 62
6
  6
CONTINUOUS
 10
5.7848312064
 20
3.8830715502
 11
5.784275066
 21
3.8830714467
  0
LINE
  5
2B9
100
AcDbEntity
  8
0
100
AcDbLine
 62
6
  6
CONTINUOUS
 10
5.7848312064
 20
4.6749507604
 11
5.7853831307
 21
4.6749508675
  0
SPLINE
  5
2BA
100
AcDbEntity
  8
0
100
AcDbSpline
 62
6
  6
CONTINUOUS
 70
0
 71
3
 72
56
 73
52
 74
50
 42
0.0000001
 43
0.0000001
 44
0.0000000001
 12
1.2354846058
 22
-0.0006320674
 32
0.0
 13
-1.2354814253
 23
-0.0028737321
 33
0.0
 40
0.0
 40
0.0
 40
0.0
 40
0.0
 40
0.0312328803
 40
0.0468669969
 40
0.062500549
 40
0.0937467975
 40
0.1249879792
 40
0.1406145957
 40
0.1562419028
 40
0.1718693623
 40
0.1874966668
 40
0.2031238823
 40
0.2187509604
 40
0.2343778073
 40
0.2500045418
 40
0.2656313294
 40
0.2812581427
 40
0.2968849931
 40
0.3125120834
 40
0.3437575547
 40
0.3593851617
 40
0.3750130154
 40
0.4062595927
 40
0.4375058901
 40
0.4687516468
 40
0.4999963496
 40
0.5312407527
 40
0.5624855527
 40
0.5937302007
 40
0.6249746336
 40
0.6406015669
 40
0.656228587
 40
0.6718558333
 40
0.6874831581
 40
0.7031103332
 40
0.7187373327
 40
0.7343643247
 40
0.7499912962
 40
0.7656182151
 40
0.7812452619
 40
0.7968725898
 40
0.8125001657
 40
0.8281280186
 40
0.8437562082
 40
0.8593842988
 40
0.8750116232
 40
0.9062536461
 40
0.9374999939
 40
0.953133361
 40
0.968767263
 40
1.0
 40
1.0
 40
1.0
 40
1.0
 10
5.7853831307
 20
4.6749508675
 30
0.0
 10
5.7982457116
 20
4.6749442871
 30
0.0
 10
5.817563702
 20
4.6739814961
 30
0.0
 10
5.84311539
 20
4.6708181844
 30
0.0
 10
5.8684887682
 20
4.6664036339
 30
0.0
 10
5.8997450922
 20
4.6585528467
 30
0.0
 10
5.9300793375
 20
4.6476775916
 30
0.0
 10
5.9536088847
 20
4.6372272062
 30
0.0
 10
5.9708563063
 20
4.6285323362
 30
0.0
 10
5.9876567982
 20
4.6190026787
 30
0.0
 10
6.0039682586
 20
4.6086580775
 30
0.0
 10
6.0197520807
 20
4.5975254096
 30
0.0
 10
6.0349714833
 20
4.5856330756
 30
0.0
 10
6.0495893697
 20
4.5730089092
 30
0.0
 10
6.0635685754
 20
4.5596811622
 30
0.0
 10
6.0768776109
 20
4.5456841696
 30
0.0
 10
6.089485164
 20
4.531052304
 30
0.0
 10
6.1013598997
 20
4.5158186391
 30
0.0
 10
6.1161716602
 20
4.4947590147
 30
0.0
 10
6.1294191028
 20
4.4726330168
 30
0.0
 10
6.1409835892
 20
4.4496282916
 30
0.0
 10
6.1514051011
 20
4.4260823626
 30
0.0
 10
6.1622522304
 20
4.3957342138
 30
0.0
 10
6.1716284842
 20
4.3582235008
 30
0.0
 10
6.1772930566
 20
4.3199749212
 30
0.0
 10
6.179177323
 20
4.2813563041
 30
0.0
 10
6.177277383
 20
4.2427388765
 30
0.0
 10
6.1715982748
 20
4.2044936671
 30
0.0
 10
6.1622093167
 20
4.166988324
 30
0.0
 10
6.1513542839
 20
4.1366448248
 30
0.0
 10
6.1409281394
 20
4.1131032985
 30
0.0
 10
6.1322490072
 20
4.0958479261
 30
0.0
 10
6.1227341806
 20
4.0790393259
 30
0.0
 10
6.1124084637
 20
4.0627161215
 30
0.0
 10
6.1012962697
 20
4.0469179157
 30
0.0
 10
6.089421587
 20
4.0316846765
 30
0.0
 10
6.0768149537
 20
4.0170515928
 30
0.0
 10
6.0635077712
 20
4.0030526007
 30
0.0
 10
6.0495309794
 20
3.9897219969
 30
0.0
 10
6.0349163098
 20
3.9770937533
 30
0.0
 10
6.0197009449
 20
3.9651957563
 30
0.0
 10
6.0039216261
 20
3.9540559146
 30
0.0
 10
5.9876148162
 20
3.943702771
 30
0.0
 10
5.9708193324
 20
3.9341626361
 30
0.0
 10
5.9535772368
 20
3.925455253
 30
0.0
 10
5.930055241
 20
3.9149856017
 30
0.0
 10
5.8997309185
 20
3.9040813733
 30
0.0
 10
5.8684837574
 20
3.896194008
 30
0.0
 10
5.8431165643
 20
3.8917450606
 30
0.0
 10
5.8175698453
 20
3.8885439439
 30
0.0
 10
5.7982538631
 20
3.887548855
 30
0.0
 10
5.7853913743
 20
3.8875189369
 30
0.0
 11
5.7853831307
 21
4.6749508675
 31
0.0
 11
5.8239232971
 21
4.6730351815
 31
0.0
 11
5.8430926402
 21
4.6706617764
 31
0.0
 11
5.8621216844
 21
4.6673503871
 31
0.0
 11
5.8995632401
 21
4.6579472433
 31
0.0
 11
5.9358966167
 21
4.6449206679
 31
0.0
 11
5.9535413744
 21
4.6370847629
 31
0.0
 11
5.9707817203
 21
4.6283932556
 31
0.0
 11
5.9875753529
 21
4.6188668183
 31
0.0
 11
6.0038803711
 21
4.6085266982
 31
0.0
 11
6.0196580813
 21
4.5973987459
 31
0.0
 11
6.0348713297
 21
4.5855110221
 31
0.0
 11
6.0494829722
 21
4.5728916016
 31
0.0
 11
6.0634568667
 21
4.5595696352
 31
0.0
 11
6.0767606847
 21
4.5455783711
 31
0.0
 11
6.0893630052
 21
4.5309520322
 31
0.0
 11
6.1012324326
 21
4.5157248613
 31
0.0
 11
6.1123398378
 21
4.4999328687
 31
0.0
 11
6.1321685507
 21
4.4668113166
 31
0.0
 11
6.1408406281
 21
4.4495607743
 31
0.0
 11
6.1486555503
 21
4.4319050415
 31
0.0
 11
6.161645687
 21
4.3955515422
 31
0.0
 11
6.1710099365
 21
4.3581001778
 31
0.0
 11
6.1766630615
 21
4.3199126868
 31
0.0
 11
6.1785466267
 21
4.2813563132
 31
0.0
 11
6.1766475378
 21
4.2428010718
 31
0.0
 11
6.1709799526
 21
4.2046169191
 31
0.0
 11
6.161603236
 21
4.1671707748
 31
0.0
 11
6.1486037688
 21
4.1308234245
 31
0.0
 11
6.1407851076
 21
4.113170591
 31
0.0
 11
6.1321097813
 21
4.0959224941
 31
0.0
 11
6.1225990537
 21
4.0791202624
 31
0.0
 11
6.1122773402
 21
4.0628035561
 31
0.0
 11
6.1011691317
 21
4.0470120002
 31
0.0
 11
6.0892995846
 21
4.0317846891
 31
0.0
 11
6.0766981861
 21
4.0171572645
 31
0.0
 11
6.0633961571
 21
4.0031639859
 31
0.0
 11
6.049424724
 21
3.9898391084
 31
0.0
 11
6.0348163183
 21
3.9772155631
 31
0.0
 11
6.019607079
 21
3.9653222095
 31
0.0
 11
6.0038338549
 21
3.9541871273
 31
0.0
 11
5.9875335194
 21
3.9438383627
 31
0.0
 11
5.9707448283
 21
3.9343013933
 31
0.0
 11
5.9535097253
 21
3.9255973464
 31
0.0
 11
5.9358704625
 21
3.9177469285
 31
0.0
 11
5.8995485509
 21
3.9046853477
 31
0.0
 11
5.8621179472
 21
3.8952382009
 31
0.0
 11
5.8430936382
 21
3.8919010372
 31
0.0
 11
5.8239280962
 21
3.8894992633
 31
0.0
 11
5.7853913743
 21
3.8875189369
 31
0.0
  0
LINE
  5
2BB
100
AcDbEntity
  8
0
100
AcDbLine
 62
6
  6
CONTINUOUS
 10
5.7853913743
 20
3.8875189369
 11
5.7848312064
 21
3.887518034
  0
ENDSEC
  0
SECTION
  2
OBJECTS
  0
DICTIONARY
  5
C
100
AcDbDictionary
280
0
281
1
  3
ACAD_GROUP
350
D
  3
ACAD_MLINESTYLE
350
17
  3
ACAD_LAYOUT
350
1A
  3
ACAD_PLOTSETTINGS
350
19
  3
ACAD_PLOTSTYLENAME
350
E
  0
DICTIONARY
  5
D
102
{ACAD_REACTORS
330
C
102
}
100
AcDbDictionary
280
0
281
1
  0
ACDBDICTIONARYWDFLT
  5
E
102
{ACAD_REACTORS
330
C
102
}
100
AcDbDictionary
281
1
  3
Normal
350
F
100
AcDbDictionaryWithDefault
340
F
  0
DICTIONARY
  5
17
102
{ACAD_REACTORS
330
C
102
}
100
AcDbDictionary
280
0
281
1
  3
Standard
350
18
  0
DICTIONARY
  5
19
102
{ACAD_REACTORS
330
C
102
}
100
AcDbDictionary
281
1
  0
DICTIONARY
  5
1A
102
{ACAD_REACTORS
330
C
102
}
100
AcDbDictionary
281
1
  3
Model
350
2BC
  3
Layout1
350
2BD
  0
ACDBPLACEHOLDER
  5
F
102
{ACAD_REACTORS
330
E
102
}
  0
MLINESTYLE
  5
18
102
{ACAD_REACTORS
330
17
102
}
100
AcDbMlineStyle
  2
STANDARD
 70
0
  3

 62
256
 51
90.0
 52
90.0
 71
2
 49
0.5
 62
256
  6
BYLAYER
 49
-0.5
 62
256
  6
BYLAYER
  0
LAYOUT
  5
2BC
102
{ACAD_REACTORS
330
1A
102
}
100
AcDbPlotSettings
  1

  2
none_device
  4
ISO_A4_(297.00_x_210.00_MM)
  6

 40
0.0
 41
0.0
 42
0.0
 43
0.0
 44
297.0
 45
210.0
 46
0.0
 47
0.0
 48
0.0
 49
0.0
140
0.0
141
0.0
142
1.0
143
1.0
 70
1024
 72
0
 73
0
 74
0
  7

 75
0
147
1.0
148
0.0
149
0.0
100
AcDbLayout
  1
Model
 70
0
 71
0
 10
0.0
 20
0.0
 11
11.6929133858
 21
8.2677165354
 12
0.0
 22
0.0
 32
0.0
 14
0.0
 24
0.0
 34
0.0
 15
0.0
 25
0.0
 35
0.0
146
0.0
 13
0.0
 23
0.0
 33
0.0
 16
1.0
 26
0.0
 36
0.0
 17
0.0
 27
1.0
 37
0.0
 76
0
330
203
345
0
346
0
  0
LAYOUT
  5
2BD
102
{ACAD_REACTORS
330
1A
102
}
100
AcDbPlotSettings
  1

  2
none_device
  4
ISO_A4_(297.00_x_210.00_MM)
  6

 40
0.0
 41
0.0
 42
0.0
 43
0.0
 44
297.0
 45
210.0
 46
0.0
 47
0.0
 48
0.0
 49
0.0
140
0.0
141
0.0
142
1.0
143
1.0
 70
0
 72
0
 73
0
 74
0
  7

 75
0
147
1.0
148
0.0
149
0.0
100
AcDbLayout
  1
Layout1
 70
0
 71
1
 10
0.0
 20
0.0
 11
11.6929133858
 21
8.2677165354
 12
0.0
 22
0.0
 32
0.0
 14
0.0
 24
0.0
 34
0.0
 15
0.0
 25
0.0
 35
0.0
146
0.0
 13
0.0
 23
0.0
 33
0.0
 16
1.0
 26
0.0
 36
0.0
 17
0.0
 27
1.0
 37
0.0
 76
0
330
204
345
0
346
0
  0
ENDSEC
  0
EOF
