999
DXF file: 4772_top.dxf
999
Pro/ENGINEER 2018400 by Parametric Technology Corporation
  0
SECTION
  2
HEADER
  9
$ACADVER
  1
AC1027
  9
$DWGCODEPAGE
  3
ANSI_1252
  9
$EXTMAX
 10
22.0
 20
17.0
 30
0.0
  9
$EXTMIN
 10
0.0
 20
0.0
 30
0.0
  9
$LIMMIN
 10
0.0
 20
0.0
  9
$LIMMAX
 10
22.0
 20
17.0
  9
$VIEWCTR
 10
11.0
 20
8.5
  9
$VIEWSIZE
 40
17.0
  9
$CLAYER
  8
0
  9
$LTSCALE
 40
1.21
  9
$CELTYPE
  6
BYLAYER
  9
$DIMSCALE
 40
1.0
  9
$DIMASZ
 40
0.1
  9
$DIMEXO
 40
0.0625
  9
$DIMDLI
 40
0.836
  9
$DIMEXE
 40
0.125
  9
$DIMCEN
 40
0.198
  9
$DIMLFAC
 40
1.0
  9
$DIMBLK
  1
_FILLED
  9
$DIMALT
 70
1
  9
$DIMALTD
 70
1
  9
$DIMALTTD
 70
2
  9
$DIMALTF
 40
25.4
  9
$DIMTXT
 40
0.08
  9
$DIMTOL
 70
1
  9
$DIMLIM
 70
0
  9
$DIMTFAC
 40
1.0
  9
$DIMTP
 40
0.01
  9
$DIMTM
 40
0.01
  9
$DIMGAP
 40
0.09
  9
$DIMDSEP
 70
46
  9
$AUNITS
 70
0
  9
$PDMODE
 70
3
  9
$PDSIZE
 40
0.3125
  9
$HANDSEED
  5
41D
  9
$TILEMODE
 70
1
  9
$MEASUREMENT
 70
0
  9
$INSUNITS
 70
1
  0
ENDSEC
  0
SECTION
  2
CLASSES
  0
CLASS
  1
ACDBDICTIONARYWDFLT
  2
AcDbDictionaryWithDefault
  3
AutoCAD 2000
 90
0
 91
1
280
0
281
0
  0
CLASS
  1
ACDBPLACEHOLDER
  2
AcDbPlaceHolder
  3
AutoCAD 2000
 90
0
 91
1
280
0
281
0
  0
CLASS
  1
LAYOUT
  2
AcDbLayout
  3
AutoCAD 2000
 90
0
 91
0
280
0
281
0
  0
ENDSEC
  0
SECTION
  2
TABLES
  0
TABLE
  2
VPORT
  5
8
100
AcDbSymbolTable
 70
2
  0
VPORT
  5
1F4
100
AcDbSymbolTableRecord
100
AcDbViewportTableRecord
  2
*ACTIVE
 70
0
 10
0.0
 20
0.0
 11
1.0
 21
1.0
 12
11.0
 22
8.5
 13
0.0
 23
0.0
 14
1.0
 24
1.0
 15
0.0
 25
0.0
 16
0.0
 26
0.0
 36
1.0
 17
0.0
 27
0.0
 37
0.0
 40
17.0
 41
1.2941176471
 42
50.0
 43
0.0
 44
0.0
 50
0.0
 51
0.0
 71
0
 72
100
 73
1
 74
1
 75
0
 76
0
 77
0
 78
0
  0
ENDTAB
  0
TABLE
  2
LTYPE
  5
5
100
AcDbSymbolTable
 70
6
  0
LTYPE
  5
14
100
AcDbSymbolTableRecord
100
AcDbLinetypeTableRecord
  2
BYBLOCK
 70
0
  3

 72
65
 73
0
 40
0.0
  0
LTYPE
  5
15
100
AcDbSymbolTableRecord
100
AcDbLinetypeTableRecord
  2
BYLAYER
 70
0
  3

 72
65
 73
0
 40
0.0
  0
LTYPE
  5
16
100
AcDbSymbolTableRecord
100
AcDbLinetypeTableRecord
  2
CONTINUOUS
 70
64
  3
Solid line
 72
65
 73
0
 40
0.0
  0
LTYPE
  5
1F5
100
AcDbSymbolTableRecord
100
AcDbLinetypeTableRecord
  2
CENTER
 70
64
  3
____ _ ____ _ ____ _ ____ _ ____ _ ____ _ ____
 72
65
 73
4
 40
0.6
 49
0.375
 74
0
 49
-0.075
 74
0
 49
0.075
 74
0
 49
-0.075
 74
0
  0
LTYPE
  5
1F6
100
AcDbSymbolTableRecord
100
AcDbLinetypeTableRecord
  2
HIDDEN
 70
64
  3
- - - - - - - - - - - - - - - - - - - -
 72
65
 73
2
 40
0.2
 49
0.1
 74
0
 49
-0.1
 74
0
  0
LTYPE
  5
1F7
100
AcDbSymbolTableRecord
100
AcDbLinetypeTableRecord
  2
PHANTOM
 70
64
  3
_____ _ _ _____ _ _ _____ _ _ _____
 72
65
 73
6
 40
0.8
 49
0.45
 74
0
 49
-0.05
 74
0
 49
0.1
 74
0
 49
-0.05
 74
0
 49
0.1
 74
0
 49
-0.05
 74
0
  0
LTYPE
  5
1F8
100
AcDbSymbolTableRecord
100
AcDbLinetypeTableRecord
  2
DOT
 70
64
  3
. . . . . . . . . . . . . . . . . . . .
 72
65
 73
2
 40
0.2
 49
0.1
 74
0
 49
-0.1
 74
0
  0
LTYPE
  5
1F9
100
AcDbSymbolTableRecord
100
AcDbLinetypeTableRecord
  2
DASHED
 70
64
  3
- - - - - - - - - - - - - - - - - - - -
 72
65
 73
2
 40
0.2
 49
0.1
 74
0
 49
-0.1
 74
0
  0
ENDTAB
  0
TABLE
  2
LAYER
  5
2
100
AcDbSymbolTable
 70
36
  0
LAYER
  5
10
100
AcDbSymbolTableRecord
100
AcDbLayerTableRecord
  2
0
 70
0
 62
7
  6
CONTINUOUS
370
-3
390
F
  0
LAYER
  5
1FA
100
AcDbSymbolTableRecord
100
AcDbLayerTableRecord
  2
DEFAULT_1
 70
0
 62
7
  6
CENTER
370
-3
390
F
  0
LAYER
  5
1FB
100
AcDbSymbolTableRecord
100
AcDbLayerTableRecord
  2
DEFAULT_2
 70
0
 62
8
  6
HIDDEN
370
-3
390
F
  0
LAYER
  5
1FC
100
AcDbSymbolTableRecord
100
AcDbLayerTableRecord
  2
DEFAULT_3
 70
0
 62
7
  6
PHANTOM
370
-3
390
F
  0
LAYER
  5
1FD
100
AcDbSymbolTableRecord
100
AcDbLayerTableRecord
  2
ALL_ASSEMBLY_MEMBERS
 70
0
 62
7
  6
CONTINUOUS
370
-3
390
F
  0
LAYER
  5
1FE
100
AcDbSymbolTableRecord
100
AcDbLayerTableRecord
  2
ALL_FEATURES
 70
0
 62
7
  6
CONTINUOUS
370
-3
390
F
  0
LAYER
  5
1FF
100
AcDbSymbolTableRecord
100
AcDbLayerTableRecord
  2
AXES_FEATURES
 70
0
 62
7
  6
CONTINUOUS
370
-3
390
F
  0
LAYER
  5
200
100
AcDbSymbolTableRecord
100
AcDbLayerTableRecord
  2
CHAMFER_FEATURES
 70
0
 62
7
  6
CONTINUOUS
370
-3
390
F
  0
LAYER
  5
201
100
AcDbSymbolTableRecord
100
AcDbLayerTableRecord
  2
CURVE_1
 70
0
 62
7
  6
CONTINUOUS
370
-3
390
F
  0
LAYER
  5
202
100
AcDbSymbolTableRecord
100
AcDbLayerTableRecord
  2
CURVE_2
 70
0
 62
7
  6
CONTINUOUS
370
-3
390
F
  0
LAYER
  5
203
100
AcDbSymbolTableRecord
100
AcDbLayerTableRecord
  2
CUT_FEATURES
 70
0
 62
7
  6
CONTINUOUS
370
-3
390
F
  0
LAYER
  5
204
100
AcDbSymbolTableRecord
100
AcDbLayerTableRecord
  2
DATUM_PLANES
 70
0
 62
7
  6
CONTINUOUS
370
-3
390
F
  0
LAYER
  5
205
100
AcDbSymbolTableRecord
100
AcDbLayerTableRecord
  2
DEFAULT_COORDINATE_SYSTEM
 70
0
 62
7
  6
CONTINUOUS
370
-3
390
F
  0
LAYER
  5
206
100
AcDbSymbolTableRecord
100
AcDbLayerTableRecord
  2
DEFAULT_DATUM_AXES
 70
0
 62
7
  6
CONTINUOUS
370
-3
390
F
  0
LAYER
  5
207
100
AcDbSymbolTableRecord
100
AcDbLayerTableRecord
  2
DEFAULT_DATUM_CURVES
 70
0
 62
7
  6
CONTINUOUS
370
-3
390
F
  0
LAYER
  5
208
100
AcDbSymbolTableRecord
100
AcDbLayerTableRecord
  2
DEFAULT_DATUM_PLANES
 70
0
 62
7
  6
CONTINUOUS
370
-3
390
F
  0
LAYER
  5
209
100
AcDbSymbolTableRecord
100
AcDbLayerTableRecord
  2
DEFAULT_SURFACES
 70
0
 62
7
  6
CONTINUOUS
370
-3
390
F
  0
LAYER
  5
20A
100
AcDbSymbolTableRecord
100
AcDbLayerTableRecord
  2
DIMENSIONS
 70
0
 62
7
  6
CONTINUOUS
370
-3
390
F
  0
LAYER
  5
20B
100
AcDbSymbolTableRecord
100
AcDbLayerTableRecord
  2
HOLE_FEATURES
 70
0
 62
7
  6
CONTINUOUS
370
-3
390
F
  0
LAYER
  5
20C
100
AcDbSymbolTableRecord
100
AcDbLayerTableRecord
  2
NOTES
 70
0
 62
7
  6
CONTINUOUS
370
-3
390
F
  0
LAYER
  5
20D
100
AcDbSymbolTableRecord
100
AcDbLayerTableRecord
  2
PART_REFERENCE_DIMENSIONS
 70
0
 62
7
  6
CONTINUOUS
370
-3
390
F
  0
LAYER
  5
20E
100
AcDbSymbolTableRecord
100
AcDbLayerTableRecord
  2
PLATED_SURFACE
 70
0
 62
7
  6
CONTINUOUS
370
-3
390
F
  0
LAYER
  5
20F
100
AcDbSymbolTableRecord
100
AcDbLayerTableRecord
  2
PROTRUSION_FEATURES
 70
0
 62
7
  6
CONTINUOUS
370
-3
390
F
  0
LAYER
  5
210
100
AcDbSymbolTableRecord
100
AcDbLayerTableRecord
  2
QUILTS
 70
0
 62
7
  6
CONTINUOUS
370
-3
390
F
  0
LAYER
  5
211
100
AcDbSymbolTableRecord
100
AcDbLayerTableRecord
  2
REFERENCE_DIMENSIONS
 70
0
 62
7
  6
CONTINUOUS
370
-3
390
F
  0
LAYER
  5
212
100
AcDbSymbolTableRecord
100
AcDbLayerTableRecord
  2
ROUND_FEATURES
 70
0
 62
7
  6
CONTINUOUS
370
-3
390
F
  0
LAYER
  5
213
100
AcDbSymbolTableRecord
100
AcDbLayerTableRecord
  2
SHELL_FEATURES
 70
0
 62
7
  6
CONTINUOUS
370
-3
390
F
  0
LAYER
  5
214
100
AcDbSymbolTableRecord
100
AcDbLayerTableRecord
  2
WETTED_SURFACES
 70
0
 62
7
  6
CONTINUOUS
370
-3
390
F
  0
LAYER
  5
215
100
AcDbSymbolTableRecord
100
AcDbLayerTableRecord
  2
XSEC_DATUMS
 70
0
 62
7
  6
CONTINUOUS
370
-3
390
F
  0
ENDTAB
  0
TABLE
  2
STYLE
  5
3
100
AcDbSymbolTable
 70
1
  0
STYLE
  5
11
100
AcDbSymbolTableRecord
100
AcDbTextStyleTableRecord
  2
STANDARD
 70
0
 40
0.0
 41
0.8
 50
0.0
 71
0
 42
0.2
  3
txt
  4

  0
STYLE
  5
216
100
AcDbSymbolTableRecord
100
AcDbTextStyleTableRecord
  2
TEXTSTYLE_1
 70
0
 40
0.0
 41
0.8
 50
0.0
 71
0
 42
0.2
  3
gdt
  4

  0
ENDTAB
  0
TABLE
  2
VIEW
  5
6
100
AcDbSymbolTable
 70
0
  0
ENDTAB
  0
TABLE
  2
UCS
  5
7
100
AcDbSymbolTable
 70
0
  0
ENDTAB
  0
TABLE
  2
APPID
  5
9
100
AcDbSymbolTable
 70
1
  0
APPID
  5
217
100
AcDbSymbolTableRecord
100
AcDbRegAppTableRecord
  2
ACAD
 70
0
  0
ENDTAB
  0
TABLE
  2
BLOCK_RECORD
  5
1
100
AcDbSymbolTable
 70
0
  0
BLOCK_RECORD
  5
218
100
AcDbSymbolTableRecord
100
AcDbBlockTableRecord
  2
*Model_Space
  0
BLOCK_RECORD
  5
219
100
AcDbSymbolTableRecord
100
AcDbBlockTableRecord
  2
*Paper_Space
  0
BLOCK_RECORD
  5
21A
100
AcDbSymbolTableRecord
100
AcDbBlockTableRecord
  2
_FILLED
  0
ENDTAB
  0
TABLE
  2
DIMSTYLE
  5
A
100
AcDbSymbolTable
 70
1
100
AcDbDimStyleTable
 71
0
  0
DIMSTYLE
105
21B
100
AcDbSymbolTableRecord
100
AcDbDimStyleTableRecord
  2
STANDARD
 70
0
  3

  4

 40
1.0
 41
0.1
 42
0.0625
 43
0.38
 44
0.125
 45
0.0
 46
0.0
 47
0.01
 48
0.01
140
0.08
141
0.09
142
0.0
143
25.4
144
1.0
145
0.0
146
1.0
147
0.09
 71
1.0
 72
0.0
 73
1
 74
1
 75
0
 76
0
 77
0
 78
4
 79
1
170
1
171
1
172
0
173
0
174
0
175
0
176
0
177
0
178
0
270
2
179
2
271
2
272
2
273
2
274
2
275
0
280
0
281
0
282
0
283
1
284
4
285
0
286
0
287
3
288
0
340
11
278
46
341
21A
342
21A
343
21A
344
21A
  0
ENDTAB
  0
ENDSEC
  0
SECTION
  2
BLOCKS
  0
BLOCK
  5
20
100
AcDbEntity
  8
0
100
AcDbBlockBegin
  2
*Model_Space
 70
0
 10
0.0
 20
0.0
 30
0.0
  3
*Model_Space
  1

  0
ENDBLK
  5
21
100
AcDbEntity
  8
0
100
AcDbBlockEnd
  0
BLOCK
  5
1C
100
AcDbEntity
  8
0
100
AcDbBlockBegin
  2
*Paper_Space
 70
0
 10
0.0
 20
0.0
 30
0.0
  3
*Paper_Space
  1

  0
ENDBLK
  5
1D
100
AcDbEntity
  8
0
100
AcDbBlockEnd
  0
BLOCK
  5
21C
100
AcDbEntity
  8
0
100
AcDbBlockBegin
  2
_FILLED
 70
64
 10
0.0
 20
0.0
  3
_FILLED
  1

  0
SOLID
  5
21D
100
AcDbEntity
  8
0
  6
BYBLOCK
 62
0
100
AcDbTrace
 10
0.0
 20
0.0
 11
-1.0
 21
0.2
 12
-1.0
 22
-0.2
 13
-1.0
 23
-0.2
  0
ENDBLK
  5
21E
100
AcDbEntity
  8
0
  6
BYBLOCK
 62
0
100
AcDbBlockEnd
  0
ENDSEC
  0
SECTION
  2
ENTITIES
  0
MTEXT
  5
21F
100
AcDbEntity
  8
0
100
AcDbMText
 62
2
  6
CONTINUOUS
  7
STANDARD
 71
3
 72
1
 10
10.019992236
 20
4.812246118
 30
0.0
 11
1.0
 21
0.0
 31
0.0
 73
2
 44
0.9
  1
SCALE  .500
 40
0.08
 41
0.704
  0
LINE
  5
220
100
AcDbEntity
  8
0
100
AcDbLine
 62
7
  6
CONTINUOUS
 10
0.0
 20
0.0
 11
0.0
 21
17.0
  0
LINE
  5
221
100
AcDbEntity
  8
0
100
AcDbLine
 62
7
  6
CONTINUOUS
 10
0.0
 20
0.0
 11
22.0
 21
0.0
  0
LINE
  5
222
100
AcDbEntity
  8
0
100
AcDbLine
 62
7
  6
CONTINUOUS
 10
0.0
 20
17.0
 11
22.0
 21
17.0
  0
LINE
  5
223
100
AcDbEntity
  8
0
100
AcDbLine
 62
7
  6
CONTINUOUS
 10
22.0
 20
0.0
 11
22.0
 21
17.0
  0
LINE
  5
224
100
AcDbEntity
  8
ALL_FEATURES
100
AcDbLine
 62
7
  6
CONTINUOUS
 10
7.1785074134
 20
11.4943208977
 11
7.169992236
 21
11.4890776398
  0
LINE
  5
225
100
AcDbEntity
  8
ALL_FEATURES
100
AcDbLine
 62
7
  6
CONTINUOUS
 10
9.9025054429
 20
5.9235776398
 11
9.6374790291
 21
5.9235776398
  0
LINE
  5
226
100
AcDbEntity
  8
ALL_FEATURES
100
AcDbLine
 62
7
  6
CONTINUOUS
 10
8.369992236
 20
11.4890776398
 11
8.032492236
 21
10.9409694949
  0
LINE
  5
227
100
AcDbEntity
  8
0
100
AcDbLine
 62
7
  6
CONTINUOUS
 10
7.544992236
 20
8.5815776398
 11
7.544992236
 21
8.6887890715
  0
LINE
  5
228
100
AcDbEntity
  8
0
100
AcDbLine
 62
7
  6
CONTINUOUS
 10
7.544992236
 20
8.784366208
 11
7.544992236
 21
8.8915776398
  0
LINE
  5
229
100
AcDbEntity
  8
0
100
AcDbLine
 62
7
  6
CONTINUOUS
 10
7.551242236
 20
8.3752569636
 11
7.551242236
 21
8.4873275832
  0
LINE
  5
22A
100
AcDbEntity
  8
0
100
AcDbLine
 62
7
  6
CONTINUOUS
 10
7.554992236
 20
8.5015776398
 11
7.554992236
 21
8.4890776398
  0
LINE
  5
22B
100
AcDbEntity
  8
0
100
AcDbLine
 62
7
  6
CONTINUOUS
 10
7.563742236
 20
8.4747657019
 11
7.563742236
 21
8.3878188449
  0
LINE
  5
22C
100
AcDbEntity
  8
0
100
AcDbLine
 62
7
  6
CONTINUOUS
 10
7.566867236
 20
8.5288910906
 11
7.566867236
 21
8.5257641889
  0
LINE
  5
22D
100
AcDbEntity
  8
0
100
AcDbLine
 62
7
  6
CONTINUOUS
 10
7.566867236
 20
8.5038910906
 11
7.566867236
 21
8.5015776398
  0
LINE
  5
22E
100
AcDbEntity
  8
0
100
AcDbLine
 62
7
  6
CONTINUOUS
 10
7.569992236
 20
8.8915776398
 11
7.569992236
 21
9.0040776398
  0
LINE
  5
22F
100
AcDbEntity
  8
0
100
AcDbLine
 62
7
  6
CONTINUOUS
 10
7.580397236
 20
8.5179526398
 11
7.580397236
 21
8.5117026398
  0
LINE
  5
230
100
AcDbEntity
  8
0
100
AcDbLine
 62
7
  6
CONTINUOUS
 10
7.586242236
 20
8.5315776398
 11
7.586242236
 21
8.5815776398
  0
LINE
  5
231
100
AcDbEntity
  8
0
100
AcDbLine
 62
7
  6
CONTINUOUS
 10
7.599992236
 20
9.0040776398
 11
7.599992236
 21
10.9290776398
  0
LINE
  5
232
100
AcDbEntity
  8
0
100
AcDbLine
 62
7
  6
CONTINUOUS
 10
7.612742236
 20
8.3465776398
 11
7.612742236
 21
8.3340776398
  0
LINE
  5
233
100
AcDbEntity
  8
ALL_FEATURES
100
AcDbLine
 62
7
  6
CONTINUOUS
 10
7.675992236
 20
8.3340776398
 11
7.675992236
 21
8.1783910499
  0
LINE
  5
234
100
AcDbEntity
  8
0
100
AcDbLine
 62
7
  6
CONTINUOUS
 10
7.757492236
 20
8.4747657019
 11
7.757492236
 21
8.3878188449
  0
LINE
  5
235
100
AcDbEntity
  8
0
100
AcDbLine
 62
7
  6
CONTINUOUS
 10
7.782492236
 20
8.4747657019
 11
7.782492236
 21
8.3878188449
  0
LINE
  5
236
100
AcDbEntity
  8
ALL_FEATURES
100
AcDbLine
 62
7
  6
CONTINUOUS
 10
9.6374790291
 20
6.8045776398
 11
9.9025054429
 21
6.8045776398
  0
LINE
  5
237
100
AcDbEntity
  8
ALL_FEATURES
100
AcDbLine
 62
7
  6
CONTINUOUS
 10
7.635281132
 20
8.5324041162
 11
7.5258172259
 21
8.7220011633
  0
LINE
  5
238
100
AcDbEntity
  8
ALL_FEATURES
100
AcDbLine
 62
7
  6
CONTINUOUS
 10
7.863992236
 20
8.3340776398
 11
7.863992236
 21
8.1783928043
  0
LINE
  5
239
100
AcDbEntity
  8
0
100
AcDbLine
 62
7
  6
CONTINUOUS
 10
7.927242236
 20
8.3465776398
 11
7.927242236
 21
8.3340776398
  0
LINE
  5
23A
100
AcDbEntity
  8
0
100
AcDbLine
 62
7
  6
CONTINUOUS
 10
7.939992236
 20
9.0040776398
 11
7.939992236
 21
10.9290776398
  0
LINE
  5
23B
100
AcDbEntity
  8
0
100
AcDbLine
 62
7
  6
CONTINUOUS
 10
7.953742236
 20
8.5315776398
 11
7.953742236
 21
8.5815776398
  0
LINE
  5
23C
100
AcDbEntity
  8
0
100
AcDbLine
 62
7
  6
CONTINUOUS
 10
7.959587236
 20
8.5015776398
 11
7.959587236
 21
8.5054526398
  0
LINE
  5
23D
100
AcDbEntity
  8
0
100
AcDbLine
 62
7
  6
CONTINUOUS
 10
7.959587236
 20
8.5242026398
 11
7.959587236
 21
8.5304526398
  0
LINE
  5
23E
100
AcDbEntity
  8
0
100
AcDbLine
 62
7
  6
CONTINUOUS
 10
7.969992236
 20
8.8915776398
 11
7.969992236
 21
9.0040776398
  0
LINE
  5
23F
100
AcDbEntity
  8
0
100
AcDbLine
 62
7
  6
CONTINUOUS
 10
7.973117236
 20
8.5163910906
 11
7.973117236
 21
8.5132641889
  0
LINE
  5
240
100
AcDbEntity
  8
0
100
AcDbLine
 62
7
  6
CONTINUOUS
 10
7.976242236
 20
8.4747657019
 11
7.976242236
 21
8.3878188449
  0
LINE
  5
241
100
AcDbEntity
  8
0
100
AcDbLine
 62
7
  6
CONTINUOUS
 10
7.984992236
 20
8.5015776398
 11
7.984992236
 21
8.4890776398
  0
LINE
  5
242
100
AcDbEntity
  8
0
100
AcDbLine
 62
7
  6
CONTINUOUS
 10
7.988742236
 20
8.3752569636
 11
7.988742236
 21
8.4873275832
  0
LINE
  5
243
100
AcDbEntity
  8
0
100
AcDbLine
 62
7
  6
CONTINUOUS
 10
7.994992236
 20
8.5815776398
 11
7.994992236
 21
8.6887890715
  0
LINE
  5
244
100
AcDbEntity
  8
0
100
AcDbLine
 62
7
  6
CONTINUOUS
 10
7.994992236
 20
8.784366208
 11
7.994992236
 21
8.8915776398
  0
LINE
  5
245
100
AcDbEntity
  8
ALL_FEATURES
100
AcDbLine
 62
7
  6
CONTINUOUS
 10
7.5258172259
 20
8.7511541162
 11
7.635281132
 21
8.9407511633
  0
LINE
  5
246
100
AcDbEntity
  8
ALL_FEATURES
100
AcDbLine
 62
7
  6
CONTINUOUS
 10
7.6168935813
 20
7.960698053
 11
7.6168889028
 21
7.9607005978
  0
LINE
  5
247
100
AcDbEntity
  8
ALL_FEATURES
100
AcDbLine
 62
7
  6
CONTINUOUS
 10
9.4547646491
 20
6.0290678362
 11
9.3222514422
 21
6.2585874433
  0
LINE
  5
248
100
AcDbEntity
  8
ALL_FEATURES
100
AcDbLine
 62
7
  6
CONTINUOUS
 10
7.9230955693
 20
8.1539546817
 11
7.9230908908
 21
8.1539572266
  0
LINE
  5
249
100
AcDbEntity
  8
0
100
AcDbLine
 62
7
  6
CONTINUOUS
 10
7.5669840441
 20
8.5256292458
 11
7.580522364
 21
8.5178080749
  0
LINE
  5
24A
100
AcDbEntity
  8
ALL_FEATURES
100
AcDbLine
 62
7
  6
CONTINUOUS
 10
7.809992236
 20
8.7218276398
 11
7.8352973062
 21
8.6997432149
  0
LINE
  5
24B
100
AcDbEntity
  8
ALL_FEATURES
100
AcDbLine
 62
7
  6
CONTINUOUS
 10
7.90470334
 20
8.9407511633
 11
8.0141672462
 21
8.7511541162
  0
LINE
  5
24C
100
AcDbEntity
  8
ALL_FEATURES
100
AcDbLine
 62
7
  6
CONTINUOUS
 10
8.0141672462
 20
8.7220011633
 11
7.90470334
 21
8.5324041162
  0
LINE
  5
24D
100
AcDbEntity
  8
0
100
AcDbLine
 62
7
  6
CONTINUOUS
 10
7.566867236
 20
8.5038910906
 11
7.5669840441
 21
8.5040260337
  0
LINE
  5
24E
100
AcDbEntity
  8
ALL_FEATURES
100
AcDbLine
 62
7
  6
CONTINUOUS
 10
9.9025054429
 20
7.4235776398
 11
9.6374790291
 21
7.4235776398
  0
LINE
  5
24F
100
AcDbEntity
  8
0
100
AcDbLine
 62
7
  6
CONTINUOUS
 10
7.551242236
 20
8.3752555607
 11
7.612742236
 21
8.3465776398
  0
LINE
  5
250
100
AcDbEntity
  8
0
100
AcDbLine
 62
7
  6
CONTINUOUS
 10
7.9730004279
 20
8.5165260337
 11
7.9594621081
 21
8.5243472046
  0
LINE
  5
251
100
AcDbEntity
  8
0
100
AcDbLine
 62
7
  6
CONTINUOUS
 10
7.9730004279
 20
8.5131292458
 11
7.973117236
 21
8.5132641889
  0
LINE
  5
252
100
AcDbEntity
  8
ALL_FEATURES
100
AcDbLine
 62
7
  6
CONTINUOUS
 10
7.729992236
 20
8.7218276398
 11
7.7046871658
 21
8.6997432149
  0
LINE
  5
253
100
AcDbEntity
  8
ALL_FEATURES
100
AcDbLine
 62
7
  6
CONTINUOUS
 10
11.6785074134
 20
11.4943208977
 11
11.669992236
 21
11.4890776398
  0
LINE
  5
254
100
AcDbEntity
  8
ALL_FEATURES
100
AcDbLine
 62
7
  6
CONTINUOUS
 10
12.2700835289
 20
7.9225826471
 11
12.2699895684
 21
7.9225776398
  0
LINE
  5
255
100
AcDbEntity
  8
ALL_FEATURES
100
AcDbLine
 62
7
  6
CONTINUOUS
 10
12.2700837794
 20
7.9225788451
 11
12.2699918535
 21
7.9225776398
  0
LINE
  5
256
100
AcDbEntity
  8
ALL_FEATURES
100
AcDbLine
 62
7
  6
CONTINUOUS
 10
12.2701044389
 20
7.9225781102
 11
12.2699895684
 21
7.9225776398
  0
LINE
  5
257
100
AcDbEntity
  8
ALL_FEATURES
100
AcDbLine
 62
7
  6
CONTINUOUS
 10
7.7701044389
 20
7.9225781102
 11
7.7699895684
 21
7.9225776398
  0
LINE
  5
258
100
AcDbEntity
  8
ALL_FEATURES
100
AcDbLine
 62
7
  6
CONTINUOUS
 10
12.2701051962
 20
7.9225776737
 11
12.2700021483
 21
7.9225776556
  0
LINE
  5
259
100
AcDbEntity
  8
ALL_FEATURES
100
AcDbLine
 62
7
  6
CONTINUOUS
 10
7.7701051962
 20
7.9225776737
 11
7.7698953664
 21
7.9225776569
  0
LINE
  5
25A
100
AcDbEntity
  8
ALL_FEATURES
100
AcDbLine
 62
7
  6
CONTINUOUS
 10
7.7699922201
 20
7.9225776398
 11
7.7699019776
 21
7.9225776543
  0
LINE
  5
25B
100
AcDbEntity
  8
ALL_FEATURES
100
AcDbLine
 62
7
  6
CONTINUOUS
 10
12.270083795
 20
7.9225776547
 11
12.2699019776
 21
7.9225776543
  0
LINE
  5
25C
100
AcDbEntity
  8
ALL_FEATURES
100
AcDbLine
 62
7
  6
CONTINUOUS
 10
12.2699928622
 20
7.9225776398
 11
12.2698953664
 21
7.9225776569
  0
LINE
  5
25D
100
AcDbEntity
  8
ALL_FEATURES
100
AcDbLine
 62
7
  6
CONTINUOUS
 10
7.7699022345
 20
7.9225824717
 11
7.7699928622
 21
7.9225776398
  0
LINE
  5
25E
100
AcDbEntity
  8
0
100
AcDbLine
 62
7
  6
CONTINUOUS
 10
7.984992236
 20
8.4890776398
 11
7.988742236
 21
8.487328986
  0
LINE
  5
25F
100
AcDbEntity
  8
ALL_FEATURES
100
AcDbLine
 62
7
  6
CONTINUOUS
 10
7.169992236
 20
11.4890776398
 11
7.507492236
 21
10.9409694949
  0
LINE
  5
260
100
AcDbEntity
  8
ALL_FEATURES
100
AcDbLine
 62
7
  6
CONTINUOUS
 10
9.4547646491
 20
7.5290678362
 11
9.3222514422
 21
7.7585874433
  0
LINE
  5
261
100
AcDbEntity
  8
ALL_FEATURES
100
AcDbLine
 62
7
  6
CONTINUOUS
 10
10.0852198229
 20
6.6990874433
 11
10.2177330298
 21
6.4695678362
  0
LINE
  5
262
100
AcDbEntity
  8
ALL_FEATURES
100
AcDbLine
 62
7
  6
CONTINUOUS
 10
9.019992236
 20
11.4890776398
 11
9.019992236
 21
10.8640776398
  0
LINE
  5
263
100
AcDbEntity
  8
0
100
AcDbLine
 62
6
  6
CONTINUOUS
 10
9.019992236
 20
11.4890776398
 11
9.019992236
 21
10.8640776398
  0
LINE
  5
264
100
AcDbEntity
  8
ALL_FEATURES
100
AcDbLine
 62
7
  6
CONTINUOUS
 10
7.7700835289
 20
7.9225826471
 11
7.7699895684
 21
7.9225776398
  0
LINE
  5
265
100
AcDbEntity
  8
ALL_FEATURES
100
AcDbLine
 62
7
  6
CONTINUOUS
 10
7.7700837794
 20
7.9225788451
 11
7.7699918535
 21
7.9225776398
  0
LINE
  5
266
100
AcDbEntity
  8
ALL_FEATURES
100
AcDbLine
 62
7
  6
CONTINUOUS
 10
12.2699022345
 20
7.9225824717
 11
12.2699928622
 21
7.9225776398
  0
LINE
  5
267
100
AcDbEntity
  8
ALL_FEATURES
100
AcDbLine
 62
7
  6
CONTINUOUS
 10
9.457492236
 20
6.7015565627
 11
9.457492236
 21
7.5265987168
  0
LINE
  5
268
100
AcDbEntity
  8
ALL_FEATURES
100
AcDbLine
 62
7
  6
CONTINUOUS
 10
9.457492236
 20
7.8640776398
 11
9.457492236
 21
10.6140776398
  0
LINE
  5
269
100
AcDbEntity
  8
ALL_FEATURES
100
AcDbLine
 62
7
  6
CONTINUOUS
 10
9.457492236
 20
11.4890776398
 11
9.457492236
 21
12.1140776398
  0
LINE
  5
26A
100
AcDbEntity
  8
0
100
AcDbLine
 62
7
  6
CONTINUOUS
 10
7.5714009575
 20
8.5315776398
 11
7.5669840441
 21
8.5290260337
  0
LINE
  5
26B
100
AcDbEntity
  8
0
100
AcDbLine
 62
7
  6
CONTINUOUS
 10
7.580522364
 20
8.5118472046
 11
7.5669840441
 21
8.5040260337
  0
LINE
  5
26C
100
AcDbEntity
  8
0
100
AcDbLine
 62
7
  6
CONTINUOUS
 10
7.9594621081
 20
8.5303080749
 11
7.9616596243
 21
8.5315776398
  0
LINE
  5
26D
100
AcDbEntity
  8
0
100
AcDbLine
 62
7
  6
CONTINUOUS
 10
7.9594621081
 20
8.5053080749
 11
7.9730004279
 21
8.5131292458
  0
LINE
  5
26E
100
AcDbEntity
  8
0
100
AcDbLine
 62
7
  6
CONTINUOUS
 10
7.554992236
 20
8.4890776398
 11
7.551242236
 21
8.487328986
  0
LINE
  5
26F
100
AcDbEntity
  8
0
100
AcDbLine
 62
7
  6
CONTINUOUS
 10
12.1356764406
 20
8.4864473304
 11
12.1347092482
 21
8.486370066
  0
LINE
  5
270
100
AcDbEntity
  8
0
100
AcDbLine
 62
7
  6
CONTINUOUS
 10
12.1356763712
 20
8.4864486466
 11
12.1347087398
 21
8.4863793607
  0
LINE
  5
271
100
AcDbEntity
  8
0
100
AcDbLine
 62
7
  6
CONTINUOUS
 10
12.2691256342
 20
8.5069972136
 11
12.2698857488
 21
8.5070121079
  0
LINE
  5
272
100
AcDbEntity
  8
0
100
AcDbLine
 62
7
  6
CONTINUOUS
 10
12.2691256352
 20
8.5069972134
 11
12.2698857392
 21
8.5070121026
  0
LINE
  5
273
100
AcDbEntity
  8
0
100
AcDbLine
 62
7
  6
CONTINUOUS
 10
12.4272403935
 20
8.3340776398
 11
12.1127440786
 21
8.3340776398
  0
LINE
  5
274
100
AcDbEntity
  8
0
100
AcDbLine
 62
7
  6
CONTINUOUS
 10
7.9272403935
 20
8.3340776398
 11
7.6127440786
 21
8.3340776398
  0
LINE
  5
275
100
AcDbEntity
  8
0
100
AcDbLine
 62
7
  6
CONTINUOUS
 10
7.612742236
 20
8.3465776398
 11
7.927242236
 21
8.3465776398
  0
LINE
  5
276
100
AcDbEntity
  8
0
100
AcDbLine
 62
7
  6
CONTINUOUS
 10
12.112742236
 20
8.3465776398
 11
12.427242236
 21
8.3465776398
  0
LINE
  5
277
100
AcDbEntity
  8
0
100
AcDbLine
 62
7
  6
CONTINUOUS
 10
12.484992236
 20
8.4890776398
 11
12.054992236
 21
8.4890776398
  0
LINE
  5
278
100
AcDbEntity
  8
0
100
AcDbLine
 62
7
  6
CONTINUOUS
 10
7.984992236
 20
8.4890776398
 11
7.554992236
 21
8.4890776398
  0
LINE
  5
279
100
AcDbEntity
  8
ALL_FEATURES
100
AcDbLine
 62
7
  6
CONTINUOUS
 10
7.6168889028
 20
8.1539546817
 11
7.6168957919
 21
8.1539584289
  0
LINE
  5
27A
100
AcDbEntity
  8
0
100
AcDbLine
 62
7
  6
CONTINUOUS
 10
7.988742236
 20
8.3752555607
 11
7.927242236
 21
8.3465776398
  0
LINE
  5
27B
100
AcDbEntity
  8
0
100
AcDbLine
 62
7
  6
CONTINUOUS
 10
7.6356764406
 20
8.4864473304
 11
7.6347092482
 21
8.486370066
  0
LINE
  5
27C
100
AcDbEntity
  8
0
100
AcDbLine
 62
7
  6
CONTINUOUS
 10
7.6356763712
 20
8.4864486466
 11
7.6347087398
 21
8.4863793607
  0
LINE
  5
27D
100
AcDbEntity
  8
0
100
AcDbLine
 62
7
  6
CONTINUOUS
 10
7.7691256352
 20
8.5069972134
 11
7.7698857392
 21
8.5070121026
  0
LINE
  5
27E
100
AcDbEntity
  8
0
100
AcDbLine
 62
7
  6
CONTINUOUS
 10
7.7691256342
 20
8.5069972136
 11
7.7698857488
 21
8.5070121079
  0
LINE
  5
27F
100
AcDbEntity
  8
ALL_FEATURES
100
AcDbLine
 62
7
  6
CONTINUOUS
 10
12.484992236
 20
8.5015776398
 11
12.054992236
 21
8.5015776398
  0
LINE
  5
280
100
AcDbEntity
  8
ALL_FEATURES
100
AcDbLine
 62
7
  6
CONTINUOUS
 10
7.984992236
 20
8.5015776398
 11
7.554992236
 21
8.5015776398
  0
LINE
  5
281
100
AcDbEntity
  8
ALL_FEATURES
100
AcDbLine
 62
7
  6
CONTINUOUS
 10
12.3794561422
 20
8.5178276398
 11
12.1605283299
 21
8.5178276398
  0
LINE
  5
282
100
AcDbEntity
  8
ALL_FEATURES
100
AcDbLine
 62
7
  6
CONTINUOUS
 10
7.8794561422
 20
8.5178276398
 11
7.6605283299
 21
8.5178276398
  0
LINE
  5
283
100
AcDbEntity
  8
0
100
AcDbLine
 62
7
  6
CONTINUOUS
 10
7.5714005039
 20
8.5315776398
 11
7.6365612682
 21
8.5315776398
  0
LINE
  5
284
100
AcDbEntity
  8
0
100
AcDbLine
 62
7
  6
CONTINUOUS
 10
7.9034232038
 20
8.5315776398
 11
7.9616633433
 21
8.5315776398
  0
LINE
  5
285
100
AcDbEntity
  8
0
100
AcDbLine
 62
7
  6
CONTINUOUS
 10
12.0714005039
 20
8.5315776398
 11
12.1365612682
 21
8.5315776398
  0
LINE
  5
286
100
AcDbEntity
  8
0
100
AcDbLine
 62
7
  6
CONTINUOUS
 10
12.4034232038
 20
8.5315776398
 11
12.4616633433
 21
8.5315776398
  0
LINE
  5
287
100
AcDbEntity
  8
0
100
AcDbLine
 62
7
  6
CONTINUOUS
 10
7.544992236
 20
8.5815776398
 11
7.606890785
 21
8.5815776398
  0
LINE
  5
288
100
AcDbEntity
  8
0
100
AcDbLine
 62
7
  6
CONTINUOUS
 10
7.9330936871
 20
8.5815776398
 11
7.994992236
 21
8.5815776398
  0
LINE
  5
289
100
AcDbEntity
  8
0
100
AcDbLine
 62
7
  6
CONTINUOUS
 10
12.044992236
 20
8.5815776398
 11
12.106890785
 21
8.5815776398
  0
LINE
  5
28A
100
AcDbEntity
  8
0
100
AcDbLine
 62
7
  6
CONTINUOUS
 10
12.4330936871
 20
8.5815776398
 11
12.494992236
 21
8.5815776398
  0
LINE
  5
28B
100
AcDbEntity
  8
ALL_FEATURES
100
AcDbLine
 62
7
  6
CONTINUOUS
 10
9.457492236
 20
8.6790776398
 11
10.082492236
 21
8.6790776398
  0
LINE
  5
28C
100
AcDbEntity
  8
ALL_FEATURES
100
AcDbLine
 62
7
  6
CONTINUOUS
 10
12.334165334
 20
8.6978276398
 11
12.205819138
 21
8.6978276398
  0
LINE
  5
28D
100
AcDbEntity
  8
ALL_FEATURES
100
AcDbLine
 62
7
  6
CONTINUOUS
 10
7.834165334
 20
8.6978276398
 11
7.705819138
 21
8.6978276398
  0
LINE
  5
28E
100
AcDbEntity
  8
ALL_FEATURES
100
AcDbLine
 62
7
  6
CONTINUOUS
 10
7.729992236
 20
8.7218276398
 11
7.809992236
 21
8.7218276398
  0
LINE
  5
28F
100
AcDbEntity
  8
ALL_FEATURES
100
AcDbLine
 62
7
  6
CONTINUOUS
 10
12.229992236
 20
8.7218276398
 11
12.309992236
 21
8.7218276398
  0
LINE
  5
290
100
AcDbEntity
  8
ALL_FEATURES
100
AcDbLine
 62
7
  6
CONTINUOUS
 10
10.0852198229
 20
8.1990874433
 11
10.2177330298
 21
7.9695678362
  0
LINE
  5
291
100
AcDbEntity
  8
ALL_FEATURES
100
AcDbLine
 62
7
  6
CONTINUOUS
 10
9.3222514422
 20
7.9695678362
 11
9.4547646491
 21
8.1990874433
  0
LINE
  5
292
100
AcDbEntity
  8
ALL_FEATURES
100
AcDbLine
 62
7
  6
CONTINUOUS
 10
7.9230886801
 20
7.9606968506
 11
7.9230955693
 21
7.9607005978
  0
LINE
  5
293
100
AcDbEntity
  8
0
100
AcDbLine
 62
7
  6
CONTINUOUS
 10
7.7203965405
 20
8.7928276398
 11
7.8195879316
 21
8.7928276398
  0
LINE
  5
294
100
AcDbEntity
  8
0
100
AcDbLine
 62
7
  6
CONTINUOUS
 10
12.2203965405
 20
8.7928276398
 11
12.3195879316
 21
8.7928276398
  0
LINE
  5
295
100
AcDbEntity
  8
0
100
AcDbLine
 62
7
  6
CONTINUOUS
 10
7.544992236
 20
8.8915776398
 11
7.606890785
 21
8.8915776398
  0
LINE
  5
296
100
AcDbEntity
  8
0
100
AcDbLine
 62
7
  6
CONTINUOUS
 10
7.9330936871
 20
8.8915776398
 11
7.994992236
 21
8.8915776398
  0
LINE
  5
297
100
AcDbEntity
  8
0
100
AcDbLine
 62
7
  6
CONTINUOUS
 10
12.044992236
 20
8.8915776398
 11
12.106890785
 21
8.8915776398
  0
LINE
  5
298
100
AcDbEntity
  8
0
100
AcDbLine
 62
7
  6
CONTINUOUS
 10
12.4330936871
 20
8.8915776398
 11
12.494992236
 21
8.8915776398
  0
LINE
  5
299
100
AcDbEntity
  8
ALL_FEATURES
100
AcDbLine
 62
7
  6
CONTINUOUS
 10
7.6605283299
 20
8.9553276398
 11
7.8794561422
 21
8.9553276398
  0
LINE
  5
29A
100
AcDbEntity
  8
ALL_FEATURES
100
AcDbLine
 62
7
  6
CONTINUOUS
 10
12.1605283299
 20
8.9553276398
 11
12.3794561422
 21
8.9553276398
  0
LINE
  5
29B
100
AcDbEntity
  8
0
100
AcDbLine
 62
7
  6
CONTINUOUS
 10
7.569992236
 20
9.0040776398
 11
7.969992236
 21
9.0040776398
  0
LINE
  5
29C
100
AcDbEntity
  8
0
100
AcDbLine
 62
7
  6
CONTINUOUS
 10
12.069992236
 20
9.0040776398
 11
12.469992236
 21
9.0040776398
  0
LINE
  5
29D
100
AcDbEntity
  8
ALL_FEATURES
100
AcDbLine
 62
7
  6
CONTINUOUS
 10
10.082492236
 20
6.7015565627
 11
10.082492236
 21
7.5265987168
  0
LINE
  5
29E
100
AcDbEntity
  8
ALL_FEATURES
100
AcDbLine
 62
7
  6
CONTINUOUS
 10
10.082492236
 20
7.8640776398
 11
10.082492236
 21
10.6140776398
  0
LINE
  5
29F
100
AcDbEntity
  8
ALL_FEATURES
100
AcDbLine
 62
7
  6
CONTINUOUS
 10
10.082492236
 20
11.4890776398
 11
10.082492236
 21
12.1140776398
  0
LINE
  5
2A0
100
AcDbEntity
  8
0
100
AcDbLine
 62
7
  6
CONTINUOUS
 10
12.051242236
 20
8.3752555607
 11
12.112742236
 21
8.3465776398
  0
LINE
  5
2A1
100
AcDbEntity
  8
ALL_FEATURES
100
AcDbLine
 62
7
  6
CONTINUOUS
 10
12.1168935813
 20
7.960698053
 11
12.1168889028
 21
7.9607005978
  0
LINE
  5
2A2
100
AcDbEntity
  8
ALL_FEATURES
100
AcDbLine
 62
7
  6
CONTINUOUS
 10
10.519992236
 20
11.4890776398
 11
10.519992236
 21
10.8640776398
  0
LINE
  5
2A3
100
AcDbEntity
  8
0
100
AcDbLine
 62
6
  6
CONTINUOUS
 10
10.519992236
 20
11.4890776398
 11
10.519992236
 21
10.8640776398
  0
LINE
  5
2A4
100
AcDbEntity
  8
0
100
AcDbLine
 62
7
  6
CONTINUOUS
 10
12.484992236
 20
8.4890776398
 11
12.488742236
 21
8.487328986
  0
LINE
  5
2A5
100
AcDbEntity
  8
ALL_FEATURES
100
AcDbLine
 62
7
  6
CONTINUOUS
 10
12.4230955693
 20
8.1539546817
 11
12.4230908908
 21
8.1539572266
  0
LINE
  5
2A6
100
AcDbEntity
  8
0
100
AcDbLine
 62
7
  6
CONTINUOUS
 10
12.0669840441
 20
8.5256292458
 11
12.080522364
 21
8.5178080749
  0
LINE
  5
2A7
100
AcDbEntity
  8
ALL_FEATURES
100
AcDbLine
 62
7
  6
CONTINUOUS
 10
9.3222514422
 20
6.4695678362
 11
9.4547646491
 21
6.6990874433
  0
LINE
  5
2A8
100
AcDbEntity
  8
ALL_FEATURES
100
AcDbLine
 62
7
  6
CONTINUOUS
 10
10.2177330298
 20
7.7585874433
 11
10.0852198229
 21
7.5290678362
  0
LINE
  5
2A9
100
AcDbEntity
  8
0
100
AcDbLine
 62
7
  6
CONTINUOUS
 10
12.4730004279
 20
8.5165260337
 11
12.4594621081
 21
8.5243472046
  0
LINE
  5
2AA
100
AcDbEntity
  8
ALL_FEATURES
100
AcDbLine
 62
7
  6
CONTINUOUS
 10
12.869992236
 20
11.4890776398
 11
12.532492236
 21
10.9409694949
  0
LINE
  5
2AB
100
AcDbEntity
  8
0
100
AcDbLine
 62
7
  6
CONTINUOUS
 10
12.054992236
 20
8.4890776398
 11
12.051242236
 21
8.487328986
  0
LINE
  5
2AC
100
AcDbEntity
  8
ALL_FEATURES
100
AcDbLine
 62
7
  6
CONTINUOUS
 10
8.3614770586
 20
11.4943208977
 11
8.369992236
 21
11.4890776398
  0
LINE
  5
2AD
100
AcDbEntity
  8
ALL_FEATURES
100
AcDbLine
 62
7
  6
CONTINUOUS
 10
12.309992236
 20
8.7218276398
 11
12.3352973062
 21
8.6997432149
  0
LINE
  5
2AE
100
AcDbEntity
  8
ALL_FEATURES
100
AcDbLine
 62
7
  6
CONTINUOUS
 10
10.2177330298
 20
6.2585874433
 11
10.0852198229
 21
6.0290678362
  0
LINE
  5
2AF
100
AcDbEntity
  8
ALL_FEATURES
100
AcDbLine
 62
7
  6
CONTINUOUS
 10
12.229992236
 20
8.7218276398
 11
12.2046871658
 21
8.6997432149
  0
LINE
  5
2B0
100
AcDbEntity
  8
0
100
AcDbLine
 62
7
  6
CONTINUOUS
 10
12.0714009575
 20
8.5315776398
 11
12.0669840441
 21
8.5290260337
  0
LINE
  5
2B1
100
AcDbEntity
  8
0
100
AcDbLine
 62
7
  6
CONTINUOUS
 10
12.080522364
 20
8.5118472046
 11
12.0669840441
 21
8.5040260337
  0
LINE
  5
2B2
100
AcDbEntity
  8
0
100
AcDbLine
 62
7
  6
CONTINUOUS
 10
12.4594621081
 20
8.5303080749
 11
12.4616596243
 21
8.5315776398
  0
LINE
  5
2B3
100
AcDbEntity
  8
0
100
AcDbLine
 62
7
  6
CONTINUOUS
 10
12.4594621081
 20
8.5053080749
 11
12.4730004279
 21
8.5131292458
  0
LINE
  5
2B4
100
AcDbEntity
  8
0
100
AcDbLine
 62
7
  6
CONTINUOUS
 10
12.488742236
 20
8.3752555607
 11
12.427242236
 21
8.3465776398
  0
LINE
  5
2B5
100
AcDbEntity
  8
ALL_FEATURES
100
AcDbLine
 62
7
  6
CONTINUOUS
 10
10.2699881282
 20
10.6140776398
 11
9.2699963439
 21
10.6140776398
  0
LINE
  5
2B6
100
AcDbEntity
  8
0
100
AcDbLine
 62
2
  6
CONTINUOUS
 10
10.2699922357
 20
10.6140776398
 11
9.2699922364
 21
10.6140776398
  0
LINE
  5
2B7
100
AcDbEntity
  8
ALL_FEATURES
100
AcDbLine
 62
7
  6
CONTINUOUS
 10
12.135281132
 20
8.5324041162
 11
12.0258172259
 21
8.7220011633
  0
LINE
  5
2B8
100
AcDbEntity
  8
ALL_FEATURES
100
AcDbLine
 62
7
  6
CONTINUOUS
 10
12.0258172259
 20
8.7511541162
 11
12.135281132
 21
8.9407511633
  0
LINE
  5
2B9
100
AcDbEntity
  8
0
100
AcDbLine
 62
7
  6
CONTINUOUS
 10
12.066867236
 20
8.5038910906
 11
12.0669840441
 21
8.5040260337
  0
LINE
  5
2BA
100
AcDbEntity
  8
ALL_FEATURES
100
AcDbLine
 62
7
  6
CONTINUOUS
 10
12.1168889028
 20
8.1539546817
 11
12.1168957919
 21
8.1539584289
  0
LINE
  5
2BB
100
AcDbEntity
  8
ALL_FEATURES
100
AcDbLine
 62
7
  6
CONTINUOUS
 10
10.519992236
 20
10.8640776398
 11
9.019992236
 21
10.8640776398
  0
LINE
  5
2BC
100
AcDbEntity
  8
0
100
AcDbLine
 62
6
  6
CONTINUOUS
 10
10.519992236
 20
10.8640776398
 11
9.019992236
 21
10.8640776398
  0
LINE
  5
2BD
100
AcDbEntity
  8
ALL_FEATURES
100
AcDbLine
 62
7
  6
CONTINUOUS
 10
7.5287801795
 20
10.9290776398
 11
8.0112042925
 21
10.9290776398
  0
LINE
  5
2BE
100
AcDbEntity
  8
ALL_FEATURES
100
AcDbLine
 62
7
  6
CONTINUOUS
 10
12.0287801795
 20
10.9290776398
 11
12.5112042925
 21
10.9290776398
  0
LINE
  5
2BF
100
AcDbEntity
  8
ALL_FEATURES
100
AcDbLine
 62
7
  6
CONTINUOUS
 10
7.507492236
 20
10.9409694949
 11
8.032492236
 21
10.9409694949
  0
LINE
  5
2C0
100
AcDbEntity
  8
ALL_FEATURES
100
AcDbLine
 62
7
  6
CONTINUOUS
 10
12.007492236
 20
10.9409694949
 11
12.532492236
 21
10.9409694949
  0
LINE
  5
2C1
100
AcDbEntity
  8
0
100
AcDbLine
 62
7
  6
CONTINUOUS
 10
12.044992236
 20
8.5815776398
 11
12.044992236
 21
8.6887890715
  0
LINE
  5
2C2
100
AcDbEntity
  8
0
100
AcDbLine
 62
7
  6
CONTINUOUS
 10
12.044992236
 20
8.784366208
 11
12.044992236
 21
8.8915776398
  0
LINE
  5
2C3
100
AcDbEntity
  8
0
100
AcDbLine
 62
7
  6
CONTINUOUS
 10
12.051242236
 20
8.3752569636
 11
12.051242236
 21
8.4873275832
  0
LINE
  5
2C4
100
AcDbEntity
  8
0
100
AcDbLine
 62
7
  6
CONTINUOUS
 10
12.054992236
 20
8.5015776398
 11
12.054992236
 21
8.4890776398
  0
LINE
  5
2C5
100
AcDbEntity
  8
0
100
AcDbLine
 62
7
  6
CONTINUOUS
 10
12.063742236
 20
8.4747657019
 11
12.063742236
 21
8.3878188449
  0
LINE
  5
2C6
100
AcDbEntity
  8
0
100
AcDbLine
 62
7
  6
CONTINUOUS
 10
12.066867236
 20
8.5288910906
 11
12.066867236
 21
8.5257641889
  0
LINE
  5
2C7
100
AcDbEntity
  8
0
100
AcDbLine
 62
7
  6
CONTINUOUS
 10
12.066867236
 20
8.5038910906
 11
12.066867236
 21
8.5015776398
  0
LINE
  5
2C8
100
AcDbEntity
  8
0
100
AcDbLine
 62
7
  6
CONTINUOUS
 10
12.069992236
 20
8.8915776398
 11
12.069992236
 21
9.0040776398
  0
LINE
  5
2C9
100
AcDbEntity
  8
0
100
AcDbLine
 62
7
  6
CONTINUOUS
 10
12.080397236
 20
8.5179526398
 11
12.080397236
 21
8.5117026398
  0
LINE
  5
2CA
100
AcDbEntity
  8
0
100
AcDbLine
 62
7
  6
CONTINUOUS
 10
12.086242236
 20
8.5315776398
 11
12.086242236
 21
8.5815776398
  0
LINE
  5
2CB
100
AcDbEntity
  8
0
100
AcDbLine
 62
7
  6
CONTINUOUS
 10
12.099992236
 20
9.0040776398
 11
12.099992236
 21
10.9290776398
  0
LINE
  5
2CC
100
AcDbEntity
  8
0
100
AcDbLine
 62
7
  6
CONTINUOUS
 10
12.112742236
 20
8.3465776398
 11
12.112742236
 21
8.3340776398
  0
LINE
  5
2CD
100
AcDbEntity
  8
ALL_FEATURES
100
AcDbLine
 62
7
  6
CONTINUOUS
 10
12.175992236
 20
8.3340776398
 11
12.175992236
 21
8.1783910499
  0
LINE
  5
2CE
100
AcDbEntity
  8
0
100
AcDbLine
 62
7
  6
CONTINUOUS
 10
12.257492236
 20
8.4747657019
 11
12.257492236
 21
8.3878188449
  0
LINE
  5
2CF
100
AcDbEntity
  8
0
100
AcDbLine
 62
7
  6
CONTINUOUS
 10
12.282492236
 20
8.4747657019
 11
12.282492236
 21
8.3878188449
  0
LINE
  5
2D0
100
AcDbEntity
  8
0
100
AcDbLine
 62
7
  6
CONTINUOUS
 10
12.4730004279
 20
8.5131292458
 11
12.473117236
 21
8.5132641889
  0
LINE
  5
2D1
100
AcDbEntity
  8
ALL_FEATURES
100
AcDbLine
 62
7
  6
CONTINUOUS
 10
12.4230886801
 20
7.9606968506
 11
12.4230955693
 21
7.9607005978
  0
LINE
  5
2D2
100
AcDbEntity
  8
ALL_FEATURES
100
AcDbLine
 62
7
  6
CONTINUOUS
 10
12.40470334
 20
8.9407511633
 11
12.5141672462
 21
8.7511541162
  0
LINE
  5
2D3
100
AcDbEntity
  8
ALL_FEATURES
100
AcDbLine
 62
7
  6
CONTINUOUS
 10
12.363992236
 20
8.3340776398
 11
12.363992236
 21
8.1783928043
  0
LINE
  5
2D4
100
AcDbEntity
  8
0
100
AcDbLine
 62
7
  6
CONTINUOUS
 10
12.427242236
 20
8.3465776398
 11
12.427242236
 21
8.3340776398
  0
LINE
  5
2D5
100
AcDbEntity
  8
0
100
AcDbLine
 62
7
  6
CONTINUOUS
 10
12.439992236
 20
9.0040776398
 11
12.439992236
 21
10.9290776398
  0
LINE
  5
2D6
100
AcDbEntity
  8
0
100
AcDbLine
 62
7
  6
CONTINUOUS
 10
12.453742236
 20
8.5315776398
 11
12.453742236
 21
8.5815776398
  0
LINE
  5
2D7
100
AcDbEntity
  8
0
100
AcDbLine
 62
7
  6
CONTINUOUS
 10
12.459587236
 20
8.5015776398
 11
12.459587236
 21
8.5054526398
  0
LINE
  5
2D8
100
AcDbEntity
  8
0
100
AcDbLine
 62
7
  6
CONTINUOUS
 10
12.459587236
 20
8.5242026398
 11
12.459587236
 21
8.5304526398
  0
LINE
  5
2D9
100
AcDbEntity
  8
0
100
AcDbLine
 62
7
  6
CONTINUOUS
 10
12.469992236
 20
8.8915776398
 11
12.469992236
 21
9.0040776398
  0
LINE
  5
2DA
100
AcDbEntity
  8
0
100
AcDbLine
 62
7
  6
CONTINUOUS
 10
12.473117236
 20
8.5163910906
 11
12.473117236
 21
8.5132641889
  0
LINE
  5
2DB
100
AcDbEntity
  8
0
100
AcDbLine
 62
7
  6
CONTINUOUS
 10
12.476242236
 20
8.4747657019
 11
12.476242236
 21
8.3878188449
  0
LINE
  5
2DC
100
AcDbEntity
  8
0
100
AcDbLine
 62
7
  6
CONTINUOUS
 10
12.484992236
 20
8.5015776398
 11
12.484992236
 21
8.4890776398
  0
LINE
  5
2DD
100
AcDbEntity
  8
0
100
AcDbLine
 62
7
  6
CONTINUOUS
 10
12.488742236
 20
8.3752569636
 11
12.488742236
 21
8.4873275832
  0
LINE
  5
2DE
100
AcDbEntity
  8
0
100
AcDbLine
 62
7
  6
CONTINUOUS
 10
12.494992236
 20
8.5815776398
 11
12.494992236
 21
8.6887890715
  0
LINE
  5
2DF
100
AcDbEntity
  8
0
100
AcDbLine
 62
7
  6
CONTINUOUS
 10
12.494992236
 20
8.784366208
 11
12.494992236
 21
8.8915776398
  0
LINE
  5
2E0
100
AcDbEntity
  8
ALL_FEATURES
100
AcDbLine
 62
7
  6
CONTINUOUS
 10
12.5141672462
 20
8.7220011633
 11
12.40470334
 21
8.5324041162
  0
LINE
  5
2E1
100
AcDbEntity
  8
ALL_FEATURES
100
AcDbLine
 62
7
  6
CONTINUOUS
 10
10.519992236
 20
11.4890776398
 11
9.019992236
 21
11.4890776398
  0
LINE
  5
2E2
100
AcDbEntity
  8
0
100
AcDbLine
 62
2
  6
CONTINUOUS
 10
10.519992236
 20
11.4890776398
 11
9.019992236
 21
11.4890776398
  0
LINE
  5
2E3
100
AcDbEntity
  8
ALL_FEATURES
100
AcDbLine
 62
7
  6
CONTINUOUS
 10
7.169992236
 20
11.4890776398
 11
8.369992236
 21
11.4890776398
  0
LINE
  5
2E4
100
AcDbEntity
  8
ALL_FEATURES
100
AcDbLine
 62
7
  6
CONTINUOUS
 10
11.669992236
 20
11.4890776398
 11
12.869992236
 21
11.4890776398
  0
LINE
  5
2E5
100
AcDbEntity
  8
ALL_FEATURES
100
AcDbLine
 62
7
  6
CONTINUOUS
 10
7.1785074134
 20
11.4943208977
 11
8.3614770586
 21
11.4943208977
  0
LINE
  5
2E6
100
AcDbEntity
  8
ALL_FEATURES
100
AcDbLine
 62
7
  6
CONTINUOUS
 10
11.6785074134
 20
11.4943208977
 11
12.8614770586
 21
11.4943208977
  0
LINE
  5
2E7
100
AcDbEntity
  8
ALL_FEATURES
100
AcDbLine
 62
7
  6
CONTINUOUS
 10
11.669992236
 20
11.4890776398
 11
12.007492236
 21
10.9409694949
  0
LINE
  5
2E8
100
AcDbEntity
  8
ALL_FEATURES
100
AcDbLine
 62
7
  6
CONTINUOUS
 10
9.4575062774
 20
12.1140776398
 11
10.0824781947
 21
12.1140776398
  0
LINE
  5
2E9
100
AcDbEntity
  8
ALL_FEATURES
100
AcDbLine
 62
7
  6
CONTINUOUS
 10
12.8614770586
 20
11.4943208977
 11
12.869992236
 21
11.4890776398
  0
ARC
  5
2EA
100
AcDbEntity
  8
0
100
AcDbCircle
 62
7
  6
CONTINUOUS
 10
7.5808449351
 20
1.1559769194
 40
7.5603743194
100
AcDbArc
 50
88.0295696677
 51
88.1824372966
  0
ARC
  5
2EB
100
AcDbEntity
  8
0
100
AcDbCircle
 62
7
  6
CONTINUOUS
 10
7.8022596404
 20
2.8972507367
 40
5.6262861785
100
AcDbArc
 50
91.5165395695
 51
91.6815936328
  0
ARC
  5
2EC
100
AcDbEntity
  8
0
100
AcDbCircle
 62
7
  6
CONTINUOUS
 10
7.7690764886
 20
3.3990551267
 40
5.1318185316
100
AcDbArc
 50
91.4910783745
 51
91.7333205991
  0
ARC
  5
2ED
100
AcDbEntity
  8
ALL_FEATURES
100
AcDbCircle
 62
7
  6
CONTINUOUS
 10
7.7699962717
 20
8.2553277111
 40
0.3327500559
100
AcDbArc
 50
268.3563136647
 51
269.9840353012
  0
ARC
  5
2EE
100
AcDbEntity
  8
ALL_FEATURES
100
AcDbCircle
 62
7
  6
CONTINUOUS
 10
7.4358842819
 20
8.0573276398
 40
0.11
100
AcDbArc
 50
61.4532700444
 51
298.5467299556
  0
ARC
  5
2EF
100
AcDbEntity
  8
ALL_FEATURES
100
AcDbCircle
 62
7
  6
CONTINUOUS
 10
8.1041001901
 20
8.0573276398
 40
0.11
100
AcDbArc
 50
241.4532700444
 51
118.5467299556
  0
ARC
  5
2F0
100
AcDbEntity
  8
ALL_FEATURES
100
AcDbCircle
 62
7
  6
CONTINUOUS
 10
9.769992236
 20
7.8640776398
 40
0.46
100
AcDbArc
 50
286.7425759283
 51
313.2574240717
  0
ARC
  5
2F1
100
AcDbEntity
  8
ALL_FEATURES
100
AcDbCircle
 62
7
  6
CONTINUOUS
 10
9.769992236
 20
7.8640776398
 40
0.46
100
AcDbArc
 50
346.7425759283
 51
13.2574240717
  0
ARC
  5
2F2
100
AcDbEntity
  8
ALL_FEATURES
100
AcDbCircle
 62
7
  6
CONTINUOUS
 10
9.769992236
 20
7.8640776398
 40
0.46
100
AcDbArc
 50
46.7425759283
 51
47.2008670039
  0
ARC
  5
2F3
100
AcDbEntity
  8
ALL_FEATURES
100
AcDbCircle
 62
7
  6
CONTINUOUS
 10
9.769992236
 20
7.8640776398
 40
0.46
100
AcDbArc
 50
132.7991329961
 51
133.2574240717
  0
ARC
  5
2F4
100
AcDbEntity
  8
ALL_FEATURES
100
AcDbCircle
 62
7
  6
CONTINUOUS
 10
9.769992236
 20
7.8640776398
 40
0.46
100
AcDbArc
 50
166.7425759283
 51
193.2574240717
  0
ARC
  5
2F5
100
AcDbEntity
  8
ALL_FEATURES
100
AcDbCircle
 62
7
  6
CONTINUOUS
 10
9.769992236
 20
7.8640776398
 40
0.46
100
AcDbArc
 50
226.7425759283
 51
253.2574240717
  0
ARC
  5
2F6
100
AcDbEntity
  8
ALL_FEATURES
100
AcDbCircle
 62
7
  6
CONTINUOUS
 10
9.769992236
 20
6.3640776398
 40
0.46
100
AcDbArc
 50
286.7425759283
 51
313.2574240717
  0
ARC
  5
2F7
100
AcDbEntity
  8
ALL_FEATURES
100
AcDbCircle
 62
7
  6
CONTINUOUS
 10
9.769992236
 20
6.3640776398
 40
0.46
100
AcDbArc
 50
346.7425759283
 51
13.2574240717
  0
ARC
  5
2F8
100
AcDbEntity
  8
ALL_FEATURES
100
AcDbCircle
 62
7
  6
CONTINUOUS
 10
9.769992236
 20
6.3640776398
 40
0.46
100
AcDbArc
 50
46.7425759283
 51
73.2574240717
  0
ARC
  5
2F9
100
AcDbEntity
  8
ALL_FEATURES
100
AcDbCircle
 62
7
  6
CONTINUOUS
 10
9.769992236
 20
6.3640776398
 40
0.46
100
AcDbArc
 50
106.7425759283
 51
133.2574240717
  0
ARC
  5
2FA
100
AcDbEntity
  8
ALL_FEATURES
100
AcDbCircle
 62
7
  6
CONTINUOUS
 10
9.769992236
 20
6.3640776398
 40
0.46
100
AcDbArc
 50
166.7425759283
 51
193.2574240717
  0
ARC
  5
2FB
100
AcDbEntity
  8
ALL_FEATURES
100
AcDbCircle
 62
7
  6
CONTINUOUS
 10
9.769992236
 20
6.3640776398
 40
0.46
100
AcDbArc
 50
226.7425759283
 51
253.2574240717
  0
ARC
  5
2FC
100
AcDbEntity
  8
ALL_FEATURES
100
AcDbCircle
 62
7
  6
CONTINUOUS
 10
9.769992236
 20
7.8640776398
 40
0.389375
100
AcDbArc
 50
143.3980053813
 51
36.6019946187
  0
CIRCLE
  5
2FD
100
AcDbEntity
  8
ALL_FEATURES
100
AcDbCircle
 62
7
  6
CONTINUOUS
 10
9.769992236
 20
6.3640776398
 40
0.389375
  0
ARC
  5
2FE
100
AcDbEntity
  8
ALL_FEATURES
100
AcDbCircle
 62
7
  6
CONTINUOUS
 10
9.769992236
 20
7.8640776398
 40
0.32
100
AcDbArc
 50
167.6182467414
 51
12.3817532586
  0
CIRCLE
  5
2FF
100
AcDbEntity
  8
ALL_FEATURES
100
AcDbCircle
 62
7
  6
CONTINUOUS
 10
9.769992236
 20
6.3640776398
 40
0.32
  0
CIRCLE
  5
300
100
AcDbEntity
  8
ALL_FEATURES
100
AcDbCircle
 62
7
  6
CONTINUOUS
 10
9.769992236
 20
6.3640776398
 40
0.3125
  0
ARC
  5
301
100
AcDbEntity
  8
ALL_FEATURES
100
AcDbCircle
 62
7
  6
CONTINUOUS
 10
9.769992236
 20
7.8640776398
 40
0.3125
100
AcDbArc
 50
180.0
 51
360.0
  0
CIRCLE
  5
302
100
AcDbEntity
  8
ALL_FEATURES
100
AcDbCircle
 62
7
  6
CONTINUOUS
 10
9.769992236
 20
6.3640776398
 40
0.3108114532
  0
CIRCLE
  5
303
100
AcDbEntity
  8
ALL_FEATURES
100
AcDbCircle
 62
7
  6
CONTINUOUS
 10
9.769992236
 20
6.3640776398
 40
0.2934584133
  0
CIRCLE
  5
304
100
AcDbEntity
  8
ALL_FEATURES
100
AcDbCircle
 62
7
  6
CONTINUOUS
 10
9.769992236
 20
6.3640776398
 40
0.293
  0
ARC
  5
305
100
AcDbEntity
  8
ALL_FEATURES
100
AcDbCircle
 62
7
  6
CONTINUOUS
 10
7.769992236
 20
8.7365776398
 40
0.244609708
100
AcDbArc
 50
356.5836774435
 51
3.4163225565
  0
ARC
  5
306
100
AcDbEntity
  8
ALL_FEATURES
100
AcDbCircle
 62
7
  6
CONTINUOUS
 10
7.769992236
 20
8.7365776398
 40
0.244609708
100
AcDbArc
 50
296.5836774435
 51
303.4163225565
  0
ARC
  5
307
100
AcDbEntity
  8
ALL_FEATURES
100
AcDbCircle
 62
7
  6
CONTINUOUS
 10
7.769992236
 20
8.7365776398
 40
0.244609708
100
AcDbArc
 50
236.5836774435
 51
243.4163225565
  0
ARC
  5
308
100
AcDbEntity
  8
ALL_FEATURES
100
AcDbCircle
 62
7
  6
CONTINUOUS
 10
7.769992236
 20
8.7365776398
 40
0.244609708
100
AcDbArc
 50
176.5836774435
 51
183.4163225565
  0
ARC
  5
309
100
AcDbEntity
  8
ALL_FEATURES
100
AcDbCircle
 62
7
  6
CONTINUOUS
 10
7.769992236
 20
8.7365776398
 40
0.244609708
100
AcDbArc
 50
116.5836774435
 51
123.4163225565
  0
ARC
  5
30A
100
AcDbEntity
  8
ALL_FEATURES
100
AcDbCircle
 62
7
  6
CONTINUOUS
 10
7.769992236
 20
8.7365776398
 40
0.244609708
100
AcDbArc
 50
56.5836774435
 51
63.4163225565
  0
CIRCLE
  5
30B
100
AcDbEntity
  8
ALL_FEATURES
100
AcDbCircle
 62
7
  6
CONTINUOUS
 10
7.769992236
 20
8.7365776398
 40
0.21675
  0
ARC
  5
30C
100
AcDbEntity
  8
ALL_FEATURES
100
AcDbCircle
 62
7
  6
CONTINUOUS
 10
7.7699928725
 20
8.7365779033
 40
0.204330487
100
AcDbArc
 50
157.4951044274
 51
247.5074380271
  0
ARC
  5
30D
100
AcDbEntity
  8
ALL_FEATURES
100
AcDbCircle
 62
7
  6
CONTINUOUS
 10
7.765765184
 20
8.7276984796
 40
0.2040599499
100
AcDbArc
 50
154.4872552865
 51
154.7363865294
  0
ARC
  5
30E
100
AcDbEntity
  8
ALL_FEATURES
100
AcDbCircle
 62
7
  6
CONTINUOUS
 10
7.7606546137
 20
8.7396671053
 40
0.2038483848
100
AcDbArc
 50
250.2657228486
 51
253.6481799064
  0
ARC
  5
30F
100
AcDbEntity
  8
ALL_FEATURES
100
AcDbCircle
 62
7
  6
CONTINUOUS
 10
7.7655508296
 20
8.7278023664
 40
0.2038217521
100
AcDbArc
 50
151.3541825552
 51
154.487657777
  0
ARC
  5
310
100
AcDbEntity
  8
ALL_FEATURES
100
AcDbCircle
 62
7
  6
CONTINUOUS
 10
7.769992236
 20
8.7365776398
 40
0.20375
100
AcDbArc
 50
250.8829283572
 51
154.1196155981
  0
ARC
  5
311
100
AcDbEntity
  8
ALL_FEATURES
100
AcDbCircle
 62
7
  6
CONTINUOUS
 10
7.769438903
 20
8.7368067273
 40
0.2037311188
100
AcDbArc
 50
157.0159363735
 51
157.4949243378
  0
ARC
  5
312
100
AcDbEntity
  8
ALL_FEATURES
100
AcDbCircle
 62
7
  6
CONTINUOUS
 10
7.7821764168
 20
8.7309319555
 40
0.2028464993
100
AcDbArc
 50
243.7446692864
 51
247.1062059139
  0
ARC
  5
313
100
AcDbEntity
  8
ALL_FEATURES
100
AcDbCircle
 62
7
  6
CONTINUOUS
 10
7.7818723818
 20
8.7303403893
 40
0.2021814677
100
AcDbArc
 50
239.8633462161
 51
243.7477796809
  0
CIRCLE
  5
314
100
AcDbEntity
  8
ALL_FEATURES
100
AcDbCircle
 62
7
  6
CONTINUOUS
 10
7.769992236
 20
8.7365776398
 40
0.185
  0
CIRCLE
  5
315
100
AcDbEntity
  8
ALL_FEATURES
100
AcDbCircle
 62
7
  6
CONTINUOUS
 10
7.769992236
 20
8.7365776398
 40
0.16375
  0
CIRCLE
  5
316
100
AcDbEntity
  8
0
100
AcDbCircle
 62
7
  6
CONTINUOUS
 10
7.769992236
 20
8.7365776398
 40
0.15375
  0
CIRCLE
  5
317
100
AcDbEntity
  8
0
100
AcDbCircle
 62
7
  6
CONTINUOUS
 10
7.769992236
 20
8.7365776398
 40
0.105
  0
CIRCLE
  5
318
100
AcDbEntity
  8
0
100
AcDbCircle
 62
7
  6
CONTINUOUS
 10
7.769992236
 20
8.7365776398
 40
0.08
  0
CIRCLE
  5
319
100
AcDbEntity
  8
0
100
AcDbCircle
 62
7
  6
CONTINUOUS
 10
7.769992236
 20
8.7365776398
 40
0.075
  0
ARC
  5
31A
100
AcDbEntity
  8
ALL_FEATURES
100
AcDbCircle
 62
7
  6
CONTINUOUS
 10
7.5287801795
 20
10.9540776398
 40
0.025
100
AcDbArc
 50
211.6228670355
 51
270.0
  0
ARC
  5
31B
100
AcDbEntity
  8
ALL_FEATURES
100
AcDbCircle
 62
7
  6
CONTINUOUS
 10
8.0112042925
 20
10.9540776398
 40
0.025
100
AcDbArc
 50
270.0
 51
328.3771329645
  0
ARC
  5
31C
100
AcDbEntity
  8
0
100
AcDbCircle
 62
7
  6
CONTINUOUS
 10
7.700366327
 20
15.4713358504
 40
6.9719849287
100
AcDbArc
 50
271.4481189981
 51
271.6606450868
  0
ARC
  5
31D
100
AcDbEntity
  8
0
100
AcDbCircle
 62
7
  6
CONTINUOUS
 10
7.9387093071
 20
15.645528367
 40
6.9333923673
100
AcDbArc
 50
268.008627845
 51
268.2148867061
  0
ARC
  5
31E
100
AcDbEntity
  8
0
100
AcDbCircle
 62
7
  6
CONTINUOUS
 10
7.7166022325
 20
14.9078674863
 40
6.3895409964
100
AcDbArc
 50
271.5075146671
 51
271.6472386548
  0
ARC
  5
31F
100
AcDbEntity
  8
ALL_FEATURES
100
AcDbCircle
 62
7
  6
CONTINUOUS
 10
9.269992236
 20
10.8640776398
 40
0.25
100
AcDbArc
 50
180.0
 51
270.0
  0
ARC
  5
320
100
AcDbEntity
  8
0
100
AcDbCircle
 62
6
  6
CONTINUOUS
 10
9.269992236
 20
10.8640776398
 40
0.25
100
AcDbArc
 50
180.0
 51
270.0
  0
ARC
  5
321
100
AcDbEntity
  8
0
100
AcDbCircle
 62
7
  6
CONTINUOUS
 10
12.0808449351
 20
1.1559769212
 40
7.5603743176
100
AcDbArc
 50
88.0295696677
 51
88.1824372967
  0
ARC
  5
322
100
AcDbEntity
  8
0
100
AcDbCircle
 62
7
  6
CONTINUOUS
 10
12.3022596404
 20
2.8972507362
 40
5.6262861789
100
AcDbArc
 50
91.5165395695
 51
91.6815936328
  0
ARC
  5
323
100
AcDbEntity
  8
0
100
AcDbCircle
 62
7
  6
CONTINUOUS
 10
12.2690764886
 20
3.3990551267
 40
5.1318185316
100
AcDbArc
 50
91.4910783745
 51
91.7333205991
  0
ARC
  5
324
100
AcDbEntity
  8
ALL_FEATURES
100
AcDbCircle
 62
7
  6
CONTINUOUS
 10
12.2699962717
 20
8.2553277112
 40
0.3327500559
100
AcDbArc
 50
268.3563136648
 51
269.9840353011
  0
ARC
  5
325
100
AcDbEntity
  8
ALL_FEATURES
100
AcDbCircle
 62
7
  6
CONTINUOUS
 10
11.9358842819
 20
8.0573276398
 40
0.11
100
AcDbArc
 50
61.4532700444
 51
298.5467299556
  0
ARC
  5
326
100
AcDbEntity
  8
ALL_FEATURES
100
AcDbCircle
 62
7
  6
CONTINUOUS
 10
12.6041001901
 20
8.0573276398
 40
0.11
100
AcDbArc
 50
241.4532700444
 51
118.5467299556
  0
ARC
  5
327
100
AcDbEntity
  8
ALL_FEATURES
100
AcDbCircle
 62
7
  6
CONTINUOUS
 10
10.269992236
 20
10.8640776398
 40
0.25
100
AcDbArc
 50
270.0
 51
360.0
  0
ARC
  5
328
100
AcDbEntity
  8
0
100
AcDbCircle
 62
6
  6
CONTINUOUS
 10
10.269992236
 20
10.8640776398
 40
0.25
100
AcDbArc
 50
270.0
 51
360.0
  0
ARC
  5
329
100
AcDbEntity
  8
ALL_FEATURES
100
AcDbCircle
 62
7
  6
CONTINUOUS
 10
12.269992236
 20
8.7365776398
 40
0.244609708
100
AcDbArc
 50
356.5836774435
 51
3.4163225565
  0
ARC
  5
32A
100
AcDbEntity
  8
ALL_FEATURES
100
AcDbCircle
 62
7
  6
CONTINUOUS
 10
12.269992236
 20
8.7365776398
 40
0.244609708
100
AcDbArc
 50
296.5836774435
 51
303.4163225565
  0
ARC
  5
32B
100
AcDbEntity
  8
ALL_FEATURES
100
AcDbCircle
 62
7
  6
CONTINUOUS
 10
12.269992236
 20
8.7365776398
 40
0.244609708
100
AcDbArc
 50
236.5836774435
 51
243.4163225565
  0
ARC
  5
32C
100
AcDbEntity
  8
ALL_FEATURES
100
AcDbCircle
 62
7
  6
CONTINUOUS
 10
12.269992236
 20
8.7365776398
 40
0.244609708
100
AcDbArc
 50
176.5836774435
 51
183.4163225565
  0
ARC
  5
32D
100
AcDbEntity
  8
ALL_FEATURES
100
AcDbCircle
 62
7
  6
CONTINUOUS
 10
12.269992236
 20
8.7365776398
 40
0.244609708
100
AcDbArc
 50
116.5836774435
 51
123.4163225565
  0
ARC
  5
32E
100
AcDbEntity
  8
ALL_FEATURES
100
AcDbCircle
 62
7
  6
CONTINUOUS
 10
12.269992236
 20
8.7365776398
 40
0.244609708
100
AcDbArc
 50
56.5836774435
 51
63.4163225565
  0
CIRCLE
  5
32F
100
AcDbEntity
  8
ALL_FEATURES
100
AcDbCircle
 62
7
  6
CONTINUOUS
 10
12.269992236
 20
8.7365776398
 40
0.21675
  0
ARC
  5
330
100
AcDbEntity
  8
ALL_FEATURES
100
AcDbCircle
 62
7
  6
CONTINUOUS
 10
12.2699928725
 20
8.7365779033
 40
0.204330487
100
AcDbArc
 50
157.4951044274
 51
247.5074380271
  0
ARC
  5
331
100
AcDbEntity
  8
ALL_FEATURES
100
AcDbCircle
 62
7
  6
CONTINUOUS
 10
12.2657651826
 20
8.7276984803
 40
0.2040599483
100
AcDbArc
 50
154.4872552856
 51
154.7363865303
  0
ARC
  5
332
100
AcDbEntity
  8
ALL_FEATURES
100
AcDbCircle
 62
7
  6
CONTINUOUS
 10
12.2606546137
 20
8.7396671053
 40
0.2038483848
100
AcDbArc
 50
250.2657228486
 51
253.6481799064
  0
ARC
  5
333
100
AcDbEntity
  8
ALL_FEATURES
100
AcDbCircle
 62
7
  6
CONTINUOUS
 10
12.2655508296
 20
8.7278023664
 40
0.2038217521
100
AcDbArc
 50
151.3541825552
 51
154.487657777
  0
ARC
  5
334
100
AcDbEntity
  8
ALL_FEATURES
100
AcDbCircle
 62
7
  6
CONTINUOUS
 10
12.269992236
 20
8.7365776398
 40
0.20375
100
AcDbArc
 50
250.8829283572
 51
154.1196155981
  0
ARC
  5
335
100
AcDbEntity
  8
ALL_FEATURES
100
AcDbCircle
 62
7
  6
CONTINUOUS
 10
12.2694389029
 20
8.7368067274
 40
0.2037311187
100
AcDbArc
 50
157.0159363735
 51
157.494924338
  0
ARC
  5
336
100
AcDbEntity
  8
ALL_FEATURES
100
AcDbCircle
 62
7
  6
CONTINUOUS
 10
12.2821764168
 20
8.7309319555
 40
0.2028464993
100
AcDbArc
 50
243.7446692864
 51
247.1062059139
  0
ARC
  5
337
100
AcDbEntity
  8
ALL_FEATURES
100
AcDbCircle
 62
7
  6
CONTINUOUS
 10
12.2818723818
 20
8.7303403893
 40
0.2021814677
100
AcDbArc
 50
239.8633462161
 51
243.7477796809
  0
CIRCLE
  5
338
100
AcDbEntity
  8
ALL_FEATURES
100
AcDbCircle
 62
7
  6
CONTINUOUS
 10
12.269992236
 20
8.7365776398
 40
0.185
  0
CIRCLE
  5
339
100
AcDbEntity
  8
ALL_FEATURES
100
AcDbCircle
 62
7
  6
CONTINUOUS
 10
12.269992236
 20
8.7365776398
 40
0.16375
  0
CIRCLE
  5
33A
100
AcDbEntity
  8
0
100
AcDbCircle
 62
7
  6
CONTINUOUS
 10
12.269992236
 20
8.7365776398
 40
0.15375
  0
CIRCLE
  5
33B
100
AcDbEntity
  8
0
100
AcDbCircle
 62
7
  6
CONTINUOUS
 10
12.269992236
 20
8.7365776398
 40
0.105
  0
CIRCLE
  5
33C
100
AcDbEntity
  8
0
100
AcDbCircle
 62
7
  6
CONTINUOUS
 10
12.269992236
 20
8.7365776398
 40
0.08
  0
CIRCLE
  5
33D
100
AcDbEntity
  8
0
100
AcDbCircle
 62
7
  6
CONTINUOUS
 10
12.269992236
 20
8.7365776398
 40
0.075
  0
ARC
  5
33E
100
AcDbEntity
  8
ALL_FEATURES
100
AcDbCircle
 62
7
  6
CONTINUOUS
 10
12.0287801795
 20
10.9540776398
 40
0.025
100
AcDbArc
 50
211.6228670355
 51
270.0
  0
ARC
  5
33F
100
AcDbEntity
  8
ALL_FEATURES
100
AcDbCircle
 62
7
  6
CONTINUOUS
 10
12.5112042925
 20
10.9540776398
 40
0.025
100
AcDbArc
 50
270.0
 51
328.3771329645
  0
ARC
  5
340
100
AcDbEntity
  8
0
100
AcDbCircle
 62
7
  6
CONTINUOUS
 10
12.200366327
 20
15.4713358492
 40
6.9719849275
100
AcDbArc
 50
271.4481189981
 51
271.6606450868
  0
ARC
  5
341
100
AcDbEntity
  8
0
100
AcDbCircle
 62
7
  6
CONTINUOUS
 10
12.4387093071
 20
15.645528367
 40
6.9333923674
100
AcDbArc
 50
268.008627845
 51
268.2148867061
  0
ARC
  5
342
100
AcDbEntity
  8
0
100
AcDbCircle
 62
7
  6
CONTINUOUS
 10
12.2166022325
 20
14.9078674856
 40
6.3895409957
100
AcDbArc
 50
271.5075146671
 51
271.6472386548
  0
SPLINE
  5
343
100
AcDbEntity
  8
0
100
AcDbSpline
 62
7
  6
CONTINUOUS
 70
0
 71
3
 72
19
 73
15
 74
0
 42
0.0000001
 43
0.0000001
 44
0.0000000001
 40
0.0
 40
0.0
 40
0.0
 40
0.0
 40
0.1253890349
 40
0.2504632666
 40
0.3129078904
 40
0.3753017952
 40
0.4376600599
 40
0.500000007
 40
0.5623399545
 40
0.624698218
 40
0.6870921227
 40
0.7495367448
 40
0.8746109698
 40
1.0
 40
1.0
 40
1.0
 40
1.0
 10
12.476242236
 20
8.3878188449
 30
0.0
 10
12.4682923299
 20
8.3858699254
 30
0.0
 10
12.4523216415
 20
8.3823342322
 30
0.0
 10
12.4321576901
 20
8.3789939741
 30
0.0
 10
12.4159544578
 20
8.3770741115
 30
0.0
 10
12.4037767466
 20
8.3760303235
 30
0.0
 10
12.3915775736
 20
8.3753968805
 30
0.0
 10
12.3793672346
 20
8.3751851794
 30
0.0
 10
12.3671568957
 20
8.3753968802
 30
0.0
 10
12.3549577228
 20
8.3760303242
 30
0.0
 10
12.3427800117
 20
8.3770741112
 30
0.0
 10
12.3265767802
 20
8.378993975
 30
0.0
 10
12.3064128295
 20
8.3823342322
 30
0.0
 10
12.2904421418
 20
8.3858699255
 30
0.0
 10
12.282492236
 20
8.3878188449
 30
0.0
  0
SPLINE
  5
344
100
AcDbEntity
  8
0
100
AcDbSpline
 62
7
  6
CONTINUOUS
 70
0
 71
3
 72
14
 73
10
 74
0
 42
0.0000001
 43
0.0000001
 44
0.0000000001
 40
0.0
 40
0.0
 40
0.0
 40
0.0
 40
0.2508077316
 40
0.3759339191
 40
0.5008965829
 40
0.625732644
 40
0.7504905649
 40
0.8752271561
 40
1.0
 40
1.0
 40
1.0
 40
1.0
 10
12.257492236
 20
8.4747657019
 30
0.0
 10
12.2475148451
 20
8.4772116593
 30
0.0
 10
12.2324484866
 20
8.480455852
 30
0.0
 10
12.2121891364
 20
8.4837154151
 30
0.0
 10
12.1969414594
 20
8.4855756287
 30
0.0
 10
12.1816454345
 20
8.4868115285
 30
0.0
 10
12.1663194475
 20
8.4873940631
 30
0.0
 10
12.1509854119
 20
8.4873084138
 30
0.0
 10
12.1407743705
 20
8.4868068629
 30
0.0
 10
12.1356763712
 20
8.4864486466
 30
0.0
  0
SPLINE
  5
345
100
AcDbEntity
  8
0
100
AcDbSpline
 62
7
  6
CONTINUOUS
 70
0
 71
3
 72
10
 73
6
 74
0
 42
0.0000001
 43
0.0000001
 44
0.0000000001
 40
0.0
 40
0.0
 40
0.0
 40
0.0
 40
0.249433059
 40
0.4992080408
 40
1.0
 40
1.0
 40
1.0
 40
1.0
 10
12.1347087398
 20
8.4863793607
 30
0.0
 10
12.1287395563
 20
8.4859439664
 30
0.0
 10
12.1168125063
 20
8.484777054
 30
0.0
 10
12.0930596485
 20
8.4813377866
 30
0.0
 10
12.0754129486
 20
8.4776267771
 30
0.0
 10
12.063742236
 20
8.4747657019
 30
0.0
  0
SPLINE
  5
346
100
AcDbEntity
  8
0
100
AcDbSpline
 62
7
  6
CONTINUOUS
 70
0
 71
3
 72
19
 73
15
 74
0
 42
0.0000001
 43
0.0000001
 44
0.0000000001
 40
0.0
 40
0.0
 40
0.0
 40
0.0
 40
0.1253890349
 40
0.2504632666
 40
0.3129078904
 40
0.3753017952
 40
0.4376600599
 40
0.500000007
 40
0.5623399545
 40
0.624698218
 40
0.6870921227
 40
0.7495367448
 40
0.8746109698
 40
1.0
 40
1.0
 40
1.0
 40
1.0
 10
12.257492236
 20
8.3878188449
 30
0.0
 10
12.2495423299
 20
8.3858699254
 30
0.0
 10
12.2335716415
 20
8.3823342322
 30
0.0
 10
12.2134076901
 20
8.3789939741
 30
0.0
 10
12.1972044578
 20
8.3770741115
 30
0.0
 10
12.1850267466
 20
8.3760303235
 30
0.0
 10
12.1728275736
 20
8.3753968805
 30
0.0
 10
12.1606172346
 20
8.3751851794
 30
0.0
 10
12.1484068957
 20
8.3753968802
 30
0.0
 10
12.1362077228
 20
8.3760303242
 30
0.0
 10
12.1240300117
 20
8.3770741112
 30
0.0
 10
12.1078267802
 20
8.378993975
 30
0.0
 10
12.0876628295
 20
8.3823342322
 30
0.0
 10
12.0716921418
 20
8.3858699255
 30
0.0
 10
12.063742236
 20
8.3878188449
 30
0.0
  0
SPLINE
  5
347
100
AcDbEntity
  8
0
100
AcDbSpline
 62
7
  6
CONTINUOUS
 70
0
 71
3
 72
11
 73
7
 74
0
 42
0.0000001
 43
0.0000001
 44
0.0000000001
 40
0.0
 40
0.0
 40
0.0
 40
0.0
 40
0.2607426732
 40
0.5170780309
 40
0.7647332371
 40
1.0
 40
1.0
 40
1.0
 40
1.0
 10
12.269992236
 20
8.3892323071
 30
0.0
 10
12.2688964881
 20
8.3892323071
 30
0.0
 10
12.2667230377
 20
8.3891724653
 30
0.0
 10
12.2635187401
 20
8.3889053113
 30
0.0
 10
12.2604414408
 20
8.3884664431
 30
0.0
 10
12.2584524898
 20
8.3880542511
 30
0.0
 10
12.257492236
 20
8.3878188449
 30
0.0
  0
SPLINE
  5
348
100
AcDbEntity
  8
0
100
AcDbSpline
 62
7
  6
CONTINUOUS
 70
0
 71
3
 72
19
 73
15
 74
0
 42
0.0000001
 43
0.0000001
 44
0.0000000001
 40
0.0
 40
0.0
 40
0.0
 40
0.0
 40
0.1253890349
 40
0.2504632666
 40
0.3129078904
 40
0.3753017952
 40
0.4376600599
 40
0.500000007
 40
0.5623399545
 40
0.624698218
 40
0.6870921227
 40
0.7495367448
 40
0.8746109698
 40
1.0
 40
1.0
 40
1.0
 40
1.0
 10
12.476242236
 20
8.4747657019
 30
0.0
 10
12.4682923299
 20
8.4767146214
 30
0.0
 10
12.4523216415
 20
8.4802503145
 30
0.0
 10
12.4321576901
 20
8.4835905727
 30
0.0
 10
12.4159544578
 20
8.4855104352
 30
0.0
 10
12.4037767466
 20
8.4865542232
 30
0.0
 10
12.3915775736
 20
8.4871876662
 30
0.0
 10
12.3793672346
 20
8.4873993674
 30
0.0
 10
12.3671568957
 20
8.4871876666
 30
0.0
 10
12.3549577228
 20
8.4865542225
 30
0.0
 10
12.3427800117
 20
8.4855104356
 30
0.0
 10
12.3265767802
 20
8.4835905717
 30
0.0
 10
12.3064128295
 20
8.4802503145
 30
0.0
 10
12.2904421418
 20
8.4767146213
 30
0.0
 10
12.282492236
 20
8.4747657019
 30
0.0
  0
SPLINE
  5
349
100
AcDbEntity
  8
0
100
AcDbSpline
 62
7
  6
CONTINUOUS
 70
0
 71
3
 72
20
 73
16
 74
0
 42
0.0000001
 43
0.0000001
 44
0.0000000001
 40
0.0
 40
0.0
 40
0.0
 40
0.0
 40
0.2082248971
 40
0.3967410367
 40
0.5615590763
 40
0.6341703988
 40
0.6998721484
 40
0.7585001405
 40
0.8099609127
 40
0.8543504386
 40
0.892048222
 40
0.9237664401
 40
0.9508146982
 40
0.9753215329
 40
1.0
 40
1.0
 40
1.0
 40
1.0
 10
12.063742236
 20
8.3878188449
 30
0.0
 10
12.0628486276
 20
8.388037913
 30
0.0
 10
12.0611386133
 20
8.388426361
 30
0.0
 10
12.0586973506
 20
8.3888745351
 30
0.0
 10
12.0568295209
 20
8.3891171081
 30
0.0
 10
12.0554933122
 20
8.3892146883
 30
0.0
 10
12.0546231148
 20
8.3892395908
 30
0.0
 10
12.0538461439
 20
8.3892197778
 30
0.0
 10
12.0531659147
 20
8.3891552581
 30
0.0
 10
12.0525849027
 20
8.3890461799
 30
0.0
 10
12.0521041347
 20
8.3888930248
 30
0.0
 10
12.0517235761
 20
8.3886947031
 30
0.0
 10
12.0514446348
 20
8.3884468886
 30
0.0
 10
12.0512753445
 20
8.3881477543
 30
0.0
 10
12.051242236
 20
8.3879278899
 30
0.0
 10
12.051242236
 20
8.3878188449
 30
0.0
  0
SPLINE
  5
34A
100
AcDbEntity
  8
0
100
AcDbSpline
 62
7
  6
CONTINUOUS
 70
0
 71
3
 72
20
 73
16
 74
0
 42
0.0000001
 43
0.0000001
 44
0.0000000001
 40
0.0
 40
0.0
 40
0.0
 40
0.0
 40
0.0246784671
 40
0.0491853018
 40
0.0762335599
 40
0.107951778
 40
0.1456495614
 40
0.1900390873
 40
0.2414998595
 40
0.3001278516
 40
0.3658296012
 40
0.4384409237
 40
0.6032589633
 40
0.7917751029
 40
1.0
 40
1.0
 40
1.0
 40
1.0
 10
12.051242236
 20
8.4747657019
 30
0.0
 10
12.051242236
 20
8.4746566569
 30
0.0
 10
12.0512753445
 20
8.4744367924
 30
0.0
 10
12.0514446348
 20
8.4741376582
 30
0.0
 10
12.0517235761
 20
8.4738898437
 30
0.0
 10
12.0521041347
 20
8.4736915219
 30
0.0
 10
12.0525849027
 20
8.4735383668
 30
0.0
 10
12.0531659147
 20
8.4734292887
 30
0.0
 10
12.0538461439
 20
8.473364769
 30
0.0
 10
12.0546231148
 20
8.473344956
 30
0.0
 10
12.0554933122
 20
8.4733698585
 30
0.0
 10
12.0568295209
 20
8.4734674387
 30
0.0
 10
12.0586973506
 20
8.4737100116
 30
0.0
 10
12.0611386133
 20
8.4741581858
 30
0.0
 10
12.0628486276
 20
8.4745466338
 30
0.0
 10
12.063742236
 20
8.4747657019
 30
0.0
  0
SPLINE
  5
34B
100
AcDbEntity
  8
0
100
AcDbSpline
 62
7
  6
CONTINUOUS
 70
0
 71
3
 72
11
 73
7
 74
0
 42
0.0000001
 43
0.0000001
 44
0.0000000001
 40
0.0
 40
0.0
 40
0.0
 40
0.0
 40
0.2352667629
 40
0.4829219691
 40
0.7392573268
 40
1.0
 40
1.0
 40
1.0
 40
1.0
 10
12.257492236
 20
8.4747657019
 30
0.0
 10
12.2584524898
 20
8.4745302957
 30
0.0
 10
12.2604414408
 20
8.4741181037
 30
0.0
 10
12.2635187401
 20
8.4736792354
 30
0.0
 10
12.2667230377
 20
8.4734120815
 30
0.0
 10
12.2688964881
 20
8.4733522397
 30
0.0
 10
12.269992236
 20
8.4733522397
 30
0.0
  0
SPLINE
  5
34C
100
AcDbEntity
  8
0
100
AcDbSpline
 62
7
  6
CONTINUOUS
 70
0
 71
3
 72
20
 73
16
 74
0
 42
0.0000001
 43
0.0000001
 44
0.0000000001
 40
0.0
 40
0.0
 40
0.0
 40
0.0
 40
0.0246785706
 40
0.049185914
 40
0.0762351115
 40
0.1079549515
 40
0.1456554835
 40
0.190047157
 40
0.2415085658
 40
0.3001388534
 40
0.3658426235
 40
0.438453345
 40
0.6032673705
 40
0.7917770504
 40
1.0
 40
1.0
 40
1.0
 40
1.0
 10
12.488742236
 20
8.3878188449
 30
0.0
 10
12.488742236
 20
8.3879278903
 30
0.0
 10
12.4887091243
 20
8.3881477576
 30
0.0
 10
12.4885398238
 20
8.3884468936
 30
0.0
 10
12.4882608719
 20
8.3886947158
 30
0.0
 10
12.4878802905
 20
8.3888930461
 30
0.0
 10
12.4873994897
 20
8.3890461933
 30
0.0
 10
12.4868184535
 20
8.3891552701
 30
0.0
 10
12.4861382022
 20
8.3892197947
 30
0.0
 10
12.4853612089
 20
8.3892395891
 30
0.0
 10
12.4844909962
 20
8.3892146729
 30
0.0
 10
12.4831547991
 20
8.3891170969
 30
0.0
 10
12.4812870204
 20
8.3888745153
 30
0.0
 10
12.4788458125
 20
8.3884263543
 30
0.0
 10
12.4771358357
 20
8.3880379108
 30
0.0
 10
12.476242236
 20
8.3878188449
 30
0.0
  0
SPLINE
  5
34D
100
AcDbEntity
  8
0
100
AcDbSpline
 62
7
  6
CONTINUOUS
 70
0
 71
3
 72
20
 73
16
 74
0
 42
0.0000001
 43
0.0000001
 44
0.0000000001
 40
0.0
 40
0.0
 40
0.0
 40
0.0
 40
0.2082229496
 40
0.3967326295
 40
0.561546655
 40
0.6341573765
 40
0.6998611466
 40
0.7584914342
 40
0.809952843
 40
0.8543445165
 40
0.8920450485
 40
0.9237648885
 40
0.950814086
 40
0.9753214294
 40
1.0
 40
1.0
 40
1.0
 40
1.0
 10
12.476242236
 20
8.4747657019
 30
0.0
 10
12.4771358357
 20
8.4745466359
 30
0.0
 10
12.4788458125
 20
8.4741581925
 30
0.0
 10
12.4812870204
 20
8.4737100315
 30
0.0
 10
12.4831547991
 20
8.4734674498
 30
0.0
 10
12.4844909962
 20
8.4733698739
 30
0.0
 10
12.4853612089
 20
8.4733449576
 30
0.0
 10
12.4861382022
 20
8.473364752
 30
0.0
 10
12.4868184535
 20
8.4734292766
 30
0.0
 10
12.4873994897
 20
8.4735383534
 30
0.0
 10
12.4878802905
 20
8.4736915007
 30
0.0
 10
12.4882608719
 20
8.473889831
 30
0.0
 10
12.4885398238
 20
8.4741376531
 30
0.0
 10
12.4887091243
 20
8.4744367892
 30
0.0
 10
12.488742236
 20
8.4746566564
 30
0.0
 10
12.488742236
 20
8.4747657019
 30
0.0
  0
SPLINE
  5
34E
100
AcDbEntity
  8
0
100
AcDbSpline
 62
7
  6
CONTINUOUS
 70
0
 71
3
 72
11
 73
7
 74
0
 42
0.0000001
 43
0.0000001
 44
0.0000000001
 40
0.0
 40
0.0
 40
0.0
 40
0.0
 40
0.2607413459
 40
0.5170768156
 40
0.7647335694
 40
1.0
 40
1.0
 40
1.0
 40
1.0
 10
12.269992236
 20
8.4733522397
 30
0.0
 10
12.2710879784
 20
8.4733522397
 30
0.0
 10
12.2732614239
 20
8.4734120782
 30
0.0
 10
12.2764657224
 20
8.4736792369
 30
0.0
 10
12.2795430279
 20
8.4741181013
 30
0.0
 10
12.2815319836
 20
8.474530296
 30
0.0
 10
12.282492236
 20
8.4747657019
 30
0.0
  0
SPLINE
  5
34F
100
AcDbEntity
  8
0
100
AcDbSpline
 62
7
  6
CONTINUOUS
 70
0
 71
3
 72
11
 73
7
 74
0
 42
0.0000001
 43
0.0000001
 44
0.0000000001
 40
0.0
 40
0.0
 40
0.0
 40
0.0
 40
0.2352664306
 40
0.4829231844
 40
0.7392586541
 40
1.0
 40
1.0
 40
1.0
 40
1.0
 10
12.282492236
 20
8.3878188449
 30
0.0
 10
12.2815319836
 20
8.3880542507
 30
0.0
 10
12.2795430279
 20
8.3884664454
 30
0.0
 10
12.2764657224
 20
8.3889053099
 30
0.0
 10
12.2732614239
 20
8.3891724686
 30
0.0
 10
12.2710879784
 20
8.3892323071
 30
0.0
 10
12.269992236
 20
8.3892323071
 30
0.0
  0
SPLINE
  5
350
100
AcDbEntity
  8
0
100
AcDbSpline
 62
7
  6
CONTINUOUS
 70
0
 71
3
 72
19
 73
15
 74
0
 42
0.0000001
 43
0.0000001
 44
0.0000000001
 40
0.0
 40
0.0
 40
0.0
 40
0.0
 40
0.1253890349
 40
0.2504632666
 40
0.3129078904
 40
0.3753017952
 40
0.4376600599
 40
0.500000007
 40
0.5623399545
 40
0.624698218
 40
0.6870921227
 40
0.7495367448
 40
0.8746109698
 40
1.0
 40
1.0
 40
1.0
 40
1.0
 10
7.976242236
 20
8.3878188449
 30
0.0
 10
7.9682923299
 20
8.3858699254
 30
0.0
 10
7.9523216415
 20
8.3823342322
 30
0.0
 10
7.9321576901
 20
8.3789939741
 30
0.0
 10
7.9159544578
 20
8.3770741115
 30
0.0
 10
7.9037767466
 20
8.3760303235
 30
0.0
 10
7.8915775736
 20
8.3753968805
 30
0.0
 10
7.8793672346
 20
8.3751851794
 30
0.0
 10
7.8671568957
 20
8.3753968802
 30
0.0
 10
7.8549577228
 20
8.3760303242
 30
0.0
 10
7.8427800117
 20
8.3770741112
 30
0.0
 10
7.8265767802
 20
8.378993975
 30
0.0
 10
7.8064128295
 20
8.3823342322
 30
0.0
 10
7.7904421418
 20
8.3858699255
 30
0.0
 10
7.782492236
 20
8.3878188449
 30
0.0
  0
SPLINE
  5
351
100
AcDbEntity
  8
0
100
AcDbSpline
 62
7
  6
CONTINUOUS
 70
0
 71
3
 72
14
 73
10
 74
0
 42
0.0000001
 43
0.0000001
 44
0.0000000001
 40
0.0
 40
0.0
 40
0.0
 40
0.0
 40
0.2508077316
 40
0.3759339191
 40
0.5008965829
 40
0.625732644
 40
0.7504905649
 40
0.8752271561
 40
1.0
 40
1.0
 40
1.0
 40
1.0
 10
7.757492236
 20
8.4747657019
 30
0.0
 10
7.7475148451
 20
8.4772116593
 30
0.0
 10
7.7324484866
 20
8.480455852
 30
0.0
 10
7.7121891364
 20
8.4837154151
 30
0.0
 10
7.6969414594
 20
8.4855756287
 30
0.0
 10
7.6816454345
 20
8.4868115285
 30
0.0
 10
7.6663194475
 20
8.4873940631
 30
0.0
 10
7.6509854119
 20
8.4873084138
 30
0.0
 10
7.6407743705
 20
8.4868068629
 30
0.0
 10
7.6356763712
 20
8.4864486466
 30
0.0
  0
SPLINE
  5
352
100
AcDbEntity
  8
0
100
AcDbSpline
 62
7
  6
CONTINUOUS
 70
0
 71
3
 72
10
 73
6
 74
0
 42
0.0000001
 43
0.0000001
 44
0.0000000001
 40
0.0
 40
0.0
 40
0.0
 40
0.0
 40
0.249433059
 40
0.4992080408
 40
1.0
 40
1.0
 40
1.0
 40
1.0
 10
7.6347087398
 20
8.4863793607
 30
0.0
 10
7.6287395563
 20
8.4859439664
 30
0.0
 10
7.6168125063
 20
8.484777054
 30
0.0
 10
7.5930596485
 20
8.4813377866
 30
0.0
 10
7.5754129486
 20
8.4776267771
 30
0.0
 10
7.563742236
 20
8.4747657019
 30
0.0
  0
SPLINE
  5
353
100
AcDbEntity
  8
0
100
AcDbSpline
 62
7
  6
CONTINUOUS
 70
0
 71
3
 72
19
 73
15
 74
0
 42
0.0000001
 43
0.0000001
 44
0.0000000001
 40
0.0
 40
0.0
 40
0.0
 40
0.0
 40
0.1253890349
 40
0.2504632666
 40
0.3129078904
 40
0.3753017952
 40
0.4376600599
 40
0.500000007
 40
0.5623399545
 40
0.624698218
 40
0.6870921227
 40
0.7495367448
 40
0.8746109698
 40
1.0
 40
1.0
 40
1.0
 40
1.0
 10
7.757492236
 20
8.3878188449
 30
0.0
 10
7.7495423299
 20
8.3858699254
 30
0.0
 10
7.7335716415
 20
8.3823342322
 30
0.0
 10
7.7134076901
 20
8.3789939741
 30
0.0
 10
7.6972044578
 20
8.3770741115
 30
0.0
 10
7.6850267466
 20
8.3760303235
 30
0.0
 10
7.6728275736
 20
8.3753968805
 30
0.0
 10
7.6606172346
 20
8.3751851794
 30
0.0
 10
7.6484068957
 20
8.3753968802
 30
0.0
 10
7.6362077228
 20
8.3760303242
 30
0.0
 10
7.6240300117
 20
8.3770741112
 30
0.0
 10
7.6078267802
 20
8.378993975
 30
0.0
 10
7.5876628295
 20
8.3823342322
 30
0.0
 10
7.5716921418
 20
8.3858699255
 30
0.0
 10
7.563742236
 20
8.3878188449
 30
0.0
  0
SPLINE
  5
354
100
AcDbEntity
  8
0
100
AcDbSpline
 62
7
  6
CONTINUOUS
 70
0
 71
3
 72
11
 73
7
 74
0
 42
0.0000001
 43
0.0000001
 44
0.0000000001
 40
0.0
 40
0.0
 40
0.0
 40
0.0
 40
0.2607426732
 40
0.5170780309
 40
0.7647332371
 40
1.0
 40
1.0
 40
1.0
 40
1.0
 10
7.769992236
 20
8.3892323071
 30
0.0
 10
7.7688964881
 20
8.3892323071
 30
0.0
 10
7.7667230377
 20
8.3891724653
 30
0.0
 10
7.7635187401
 20
8.3889053113
 30
0.0
 10
7.7604414408
 20
8.3884664431
 30
0.0
 10
7.7584524898
 20
8.3880542511
 30
0.0
 10
7.757492236
 20
8.3878188449
 30
0.0
  0
SPLINE
  5
355
100
AcDbEntity
  8
0
100
AcDbSpline
 62
7
  6
CONTINUOUS
 70
0
 71
3
 72
19
 73
15
 74
0
 42
0.0000001
 43
0.0000001
 44
0.0000000001
 40
0.0
 40
0.0
 40
0.0
 40
0.0
 40
0.1253890349
 40
0.2504632666
 40
0.3129078904
 40
0.3753017952
 40
0.4376600599
 40
0.500000007
 40
0.5623399545
 40
0.624698218
 40
0.6870921227
 40
0.7495367448
 40
0.8746109698
 40
1.0
 40
1.0
 40
1.0
 40
1.0
 10
7.976242236
 20
8.4747657019
 30
0.0
 10
7.9682923299
 20
8.4767146214
 30
0.0
 10
7.9523216415
 20
8.4802503145
 30
0.0
 10
7.9321576901
 20
8.4835905727
 30
0.0
 10
7.9159544578
 20
8.4855104352
 30
0.0
 10
7.9037767466
 20
8.4865542232
 30
0.0
 10
7.8915775736
 20
8.4871876662
 30
0.0
 10
7.8793672346
 20
8.4873993674
 30
0.0
 10
7.8671568957
 20
8.4871876666
 30
0.0
 10
7.8549577228
 20
8.4865542225
 30
0.0
 10
7.8427800117
 20
8.4855104356
 30
0.0
 10
7.8265767802
 20
8.4835905717
 30
0.0
 10
7.8064128295
 20
8.4802503145
 30
0.0
 10
7.7904421418
 20
8.4767146213
 30
0.0
 10
7.782492236
 20
8.4747657019
 30
0.0
  0
SPLINE
  5
356
100
AcDbEntity
  8
0
100
AcDbSpline
 62
7
  6
CONTINUOUS
 70
0
 71
3
 72
20
 73
16
 74
0
 42
0.0000001
 43
0.0000001
 44
0.0000000001
 40
0.0
 40
0.0
 40
0.0
 40
0.0
 40
0.2082248971
 40
0.3967410367
 40
0.5615590763
 40
0.6341703988
 40
0.6998721484
 40
0.7585001405
 40
0.8099609127
 40
0.8543504386
 40
0.892048222
 40
0.9237664401
 40
0.9508146982
 40
0.9753215329
 40
1.0
 40
1.0
 40
1.0
 40
1.0
 10
7.563742236
 20
8.3878188449
 30
0.0
 10
7.5628486276
 20
8.388037913
 30
0.0
 10
7.5611386133
 20
8.388426361
 30
0.0
 10
7.5586973506
 20
8.3888745351
 30
0.0
 10
7.5568295209
 20
8.3891171081
 30
0.0
 10
7.5554933122
 20
8.3892146883
 30
0.0
 10
7.5546231148
 20
8.3892395908
 30
0.0
 10
7.5538461439
 20
8.3892197778
 30
0.0
 10
7.5531659147
 20
8.3891552581
 30
0.0
 10
7.5525849027
 20
8.3890461799
 30
0.0
 10
7.5521041347
 20
8.3888930248
 30
0.0
 10
7.5517235761
 20
8.3886947031
 30
0.0
 10
7.5514446348
 20
8.3884468886
 30
0.0
 10
7.5512753445
 20
8.3881477543
 30
0.0
 10
7.551242236
 20
8.3879278899
 30
0.0
 10
7.551242236
 20
8.3878188449
 30
0.0
  0
SPLINE
  5
357
100
AcDbEntity
  8
0
100
AcDbSpline
 62
7
  6
CONTINUOUS
 70
0
 71
3
 72
20
 73
16
 74
0
 42
0.0000001
 43
0.0000001
 44
0.0000000001
 40
0.0
 40
0.0
 40
0.0
 40
0.0
 40
0.0246784671
 40
0.0491853018
 40
0.0762335599
 40
0.107951778
 40
0.1456495614
 40
0.1900390873
 40
0.2414998595
 40
0.3001278516
 40
0.3658296012
 40
0.4384409237
 40
0.6032589633
 40
0.7917751029
 40
1.0
 40
1.0
 40
1.0
 40
1.0
 10
7.551242236
 20
8.4747657019
 30
0.0
 10
7.551242236
 20
8.4746566569
 30
0.0
 10
7.5512753445
 20
8.4744367924
 30
0.0
 10
7.5514446348
 20
8.4741376582
 30
0.0
 10
7.5517235761
 20
8.4738898437
 30
0.0
 10
7.5521041347
 20
8.4736915219
 30
0.0
 10
7.5525849027
 20
8.4735383668
 30
0.0
 10
7.5531659147
 20
8.4734292887
 30
0.0
 10
7.5538461439
 20
8.473364769
 30
0.0
 10
7.5546231148
 20
8.473344956
 30
0.0
 10
7.5554933122
 20
8.4733698585
 30
0.0
 10
7.5568295209
 20
8.4734674387
 30
0.0
 10
7.5586973506
 20
8.4737100116
 30
0.0
 10
7.5611386133
 20
8.4741581858
 30
0.0
 10
7.5628486276
 20
8.4745466338
 30
0.0
 10
7.563742236
 20
8.4747657019
 30
0.0
  0
SPLINE
  5
358
100
AcDbEntity
  8
0
100
AcDbSpline
 62
7
  6
CONTINUOUS
 70
0
 71
3
 72
11
 73
7
 74
0
 42
0.0000001
 43
0.0000001
 44
0.0000000001
 40
0.0
 40
0.0
 40
0.0
 40
0.0
 40
0.2352667629
 40
0.4829219691
 40
0.7392573268
 40
1.0
 40
1.0
 40
1.0
 40
1.0
 10
7.757492236
 20
8.4747657019
 30
0.0
 10
7.7584524898
 20
8.4745302957
 30
0.0
 10
7.7604414408
 20
8.4741181037
 30
0.0
 10
7.7635187401
 20
8.4736792354
 30
0.0
 10
7.7667230377
 20
8.4734120815
 30
0.0
 10
7.7688964881
 20
8.4733522397
 30
0.0
 10
7.769992236
 20
8.4733522397
 30
0.0
  0
SPLINE
  5
359
100
AcDbEntity
  8
0
100
AcDbSpline
 62
7
  6
CONTINUOUS
 70
0
 71
3
 72
20
 73
16
 74
0
 42
0.0000001
 43
0.0000001
 44
0.0000000001
 40
0.0
 40
0.0
 40
0.0
 40
0.0
 40
0.0246785706
 40
0.049185914
 40
0.0762351115
 40
0.1079549515
 40
0.1456554835
 40
0.190047157
 40
0.2415085658
 40
0.3001388534
 40
0.3658426235
 40
0.438453345
 40
0.6032673705
 40
0.7917770504
 40
1.0
 40
1.0
 40
1.0
 40
1.0
 10
7.988742236
 20
8.3878188449
 30
0.0
 10
7.988742236
 20
8.3879278903
 30
0.0
 10
7.9887091243
 20
8.3881477576
 30
0.0
 10
7.9885398238
 20
8.3884468936
 30
0.0
 10
7.9882608719
 20
8.3886947158
 30
0.0
 10
7.9878802905
 20
8.3888930461
 30
0.0
 10
7.9873994897
 20
8.3890461933
 30
0.0
 10
7.9868184535
 20
8.3891552701
 30
0.0
 10
7.9861382022
 20
8.3892197947
 30
0.0
 10
7.9853612089
 20
8.3892395891
 30
0.0
 10
7.9844909962
 20
8.3892146729
 30
0.0
 10
7.9831547991
 20
8.3891170969
 30
0.0
 10
7.9812870204
 20
8.3888745153
 30
0.0
 10
7.9788458125
 20
8.3884263543
 30
0.0
 10
7.9771358357
 20
8.3880379108
 30
0.0
 10
7.976242236
 20
8.3878188449
 30
0.0
  0
SPLINE
  5
35A
100
AcDbEntity
  8
0
100
AcDbSpline
 62
7
  6
CONTINUOUS
 70
0
 71
3
 72
20
 73
16
 74
0
 42
0.0000001
 43
0.0000001
 44
0.0000000001
 40
0.0
 40
0.0
 40
0.0
 40
0.0
 40
0.2082229496
 40
0.3967326295
 40
0.561546655
 40
0.6341573765
 40
0.6998611466
 40
0.7584914342
 40
0.809952843
 40
0.8543445165
 40
0.8920450485
 40
0.9237648885
 40
0.950814086
 40
0.9753214294
 40
1.0
 40
1.0
 40
1.0
 40
1.0
 10
7.976242236
 20
8.4747657019
 30
0.0
 10
7.9771358357
 20
8.4745466359
 30
0.0
 10
7.9788458125
 20
8.4741581925
 30
0.0
 10
7.9812870204
 20
8.4737100315
 30
0.0
 10
7.9831547991
 20
8.4734674498
 30
0.0
 10
7.9844909962
 20
8.4733698739
 30
0.0
 10
7.9853612089
 20
8.4733449576
 30
0.0
 10
7.9861382022
 20
8.473364752
 30
0.0
 10
7.9868184535
 20
8.4734292766
 30
0.0
 10
7.9873994897
 20
8.4735383534
 30
0.0
 10
7.9878802905
 20
8.4736915007
 30
0.0
 10
7.9882608719
 20
8.473889831
 30
0.0
 10
7.9885398238
 20
8.4741376531
 30
0.0
 10
7.9887091243
 20
8.4744367892
 30
0.0
 10
7.988742236
 20
8.4746566564
 30
0.0
 10
7.988742236
 20
8.4747657019
 30
0.0
  0
SPLINE
  5
35B
100
AcDbEntity
  8
0
100
AcDbSpline
 62
7
  6
CONTINUOUS
 70
0
 71
3
 72
11
 73
7
 74
0
 42
0.0000001
 43
0.0000001
 44
0.0000000001
 40
0.0
 40
0.0
 40
0.0
 40
0.0
 40
0.2607413459
 40
0.5170768156
 40
0.7647335694
 40
1.0
 40
1.0
 40
1.0
 40
1.0
 10
7.769992236
 20
8.4733522397
 30
0.0
 10
7.7710879784
 20
8.4733522397
 30
0.0
 10
7.7732614239
 20
8.4734120782
 30
0.0
 10
7.7764657224
 20
8.4736792369
 30
0.0
 10
7.7795430279
 20
8.4741181013
 30
0.0
 10
7.7815319836
 20
8.474530296
 30
0.0
 10
7.782492236
 20
8.4747657019
 30
0.0
  0
SPLINE
  5
35C
100
AcDbEntity
  8
0
100
AcDbSpline
 62
7
  6
CONTINUOUS
 70
0
 71
3
 72
11
 73
7
 74
0
 42
0.0000001
 43
0.0000001
 44
0.0000000001
 40
0.0
 40
0.0
 40
0.0
 40
0.0
 40
0.2352664306
 40
0.4829231844
 40
0.7392586541
 40
1.0
 40
1.0
 40
1.0
 40
1.0
 10
7.782492236
 20
8.3878188449
 30
0.0
 10
7.7815319836
 20
8.3880542507
 30
0.0
 10
7.7795430279
 20
8.3884664454
 30
0.0
 10
7.7764657224
 20
8.3889053099
 30
0.0
 10
7.7732614239
 20
8.3891724686
 30
0.0
 10
7.7710879784
 20
8.3892323071
 30
0.0
 10
7.769992236
 20
8.3892323071
 30
0.0
  0
SPLINE
  5
35D
100
AcDbEntity
  8
ALL_FEATURES
100
AcDbSpline
 62
7
  6
CONTINUOUS
 70
0
 71
3
 72
14
 73
10
 74
0
 42
0.0000001
 43
0.0000001
 44
0.0000000001
 40
0.0
 40
0.0
 40
0.0
 40
0.0
 40
0.105858633
 40
0.218370607
 40
0.3370320183
 40
0.4612605709
 40
0.5903777637
 40
0.7236737615
 40
1.0
 40
1.0
 40
1.0
 40
1.0
 10
12.1879678494
 20
7.9354087332
 30
0.0
 10
12.1898897397
 20
7.9354087332
 30
0.0
 10
12.1938551343
 20
7.9355515378
 30
0.0
 10
12.1999484224
 20
7.9361430439
 30
0.0
 10
12.2063310909
 20
7.9371077081
 30
0.0
 10
12.212956818
 20
7.9384280412
 30
0.0
 10
12.2197806508
 20
7.9400818356
 30
0.0
 10
12.2291984288
 20
7.9427281555
 30
0.0
 10
12.2362580464
 20
7.9450831952
 30
0.0
 10
12.2409780006
 20
7.9467832081
 30
0.0
  0
SPLINE
  5
35E
100
AcDbEntity
  8
0
100
AcDbSpline
 62
7
  6
CONTINUOUS
 70
0
 71
3
 72
15
 73
11
 74
0
 42
0.0000001
 43
0.0000001
 44
0.0000000001
 40
0.0
 40
0.0
 40
0.0
 40
0.0
 40
0.1519643445
 40
0.2990041388
 40
0.4395468838
 40
0.5721148601
 40
0.6953349835
 40
0.8081044507
 40
0.909716964
 40
1.0
 40
1.0
 40
1.0
 40
1.0
 10
12.2453202964
 20
8.174411946
 30
0.0
 10
12.2423240313
 20
8.1752887336
 30
0.0
 10
12.2364053018
 20
8.1769361782
 30
0.0
 10
12.2276271085
 20
8.1790623162
 30
0.0
 10
12.2191578213
 20
8.1807432985
 30
0.0
 10
12.2110972837
 20
8.1819225256
 30
0.0
 10
12.2035468272
 20
8.1825580056
 30
0.0
 10
12.1966035661
 20
8.1826262191
 30
0.0
 10
12.1903555758
 20
8.1821242441
 30
0.0
 10
12.186472527
 20
8.1813769668
 30
0.0
 10
12.1846810944
 20
8.1808964754
 30
0.0
  0
SPLINE
  5
35F
100
AcDbEntity
  8
ALL_FEATURES
100
AcDbSpline
 62
7
  6
CONTINUOUS
 70
0
 71
3
 72
15
 73
11
 74
0
 42
0.0000001
 43
0.0000001
 44
0.0000000001
 40
0.0
 40
0.0
 40
0.0
 40
0.0
 40
0.1515907421
 40
0.2983805588
 40
0.4388059591
 40
0.571310838
 40
0.6944750047
 40
0.8072258963
 40
0.9090212557
 40
1.0
 40
1.0
 40
1.0
 40
1.0
 10
12.2990062545
 20
7.9467832845
 30
0.0
 10
12.3023977501
 20
7.94556175
 30
0.0
 10
12.3091154953
 20
7.9432716293
 30
0.0
 10
12.3191282301
 20
7.9403217783
 30
0.0
 10
12.3288372756
 20
7.9379868338
 30
0.0
 10
12.3381184709
 20
7.9363415465
 30
0.0
 10
12.3468423727
 20
7.9354430839
 30
0.0
 10
12.3548851333
 20
7.9353257707
 30
0.0
 10
12.3621345859
 20
7.935996032
 30
0.0
 10
12.3666246594
 20
7.9370107774
 30
0.0
 10
12.3686878658
 20
7.9376616686
 30
0.0
  0
SPLINE
  5
360
100
AcDbEntity
  8
ALL_FEATURES
100
AcDbSpline
 62
7
  6
CONTINUOUS
 70
0
 71
3
 72
11
 73
7
 74
0
 42
0.0000001
 43
0.0000001
 44
0.0000000001
 40
0.0
 40
0.0
 40
0.0
 40
0.0
 40
0.2107610901
 40
0.4460678963
 40
0.7085222187
 40
1.0
 40
1.0
 40
1.0
 40
1.0
 10
12.354295582
 20
7.9354500254
 30
0.0
 10
12.3537350234
 20
7.9349649307
 30
0.0
 10
12.3524576304
 20
7.9340412598
 30
0.0
 10
12.350248318
 20
7.9328747984
 30
0.0
 10
12.3476533462
 20
7.9318736763
 30
0.0
 10
12.3457718212
 20
7.931355852
 30
0.0
 10
12.3447732563
 20
7.9311236063
 30
0.0
  0
SPLINE
  5
361
100
AcDbEntity
  8
ALL_FEATURES
100
AcDbSpline
 62
7
  6
CONTINUOUS
 70
0
 71
3
 72
15
 73
11
 74
0
 42
0.0000001
 43
0.0000001
 44
0.0000000001
 40
0.0
 40
0.0
 40
0.0
 40
0.0
 40
0.1234183598
 40
0.2481562281
 40
0.37381973
 40
0.500001386
 40
0.6261825308
 40
0.7518446051
 40
0.8765812786
 40
1.0
 40
1.0
 40
1.0
 40
1.0
 10
12.2409780006
 20
7.9467832081
 30
0.0
 10
12.2432713267
 20
7.9476092084
 30
0.0
 10
12.2479464185
 20
7.9490995062
 30
0.0
 10
12.2551478672
 20
7.9507651377
 30
0.0
 10
12.2625234076
 20
7.9518005264
 30
0.0
 10
12.2699921959
 20
7.9521524133
 30
0.0
 10
12.2774609541
 20
7.9518005353
 30
0.0
 10
12.2848364432
 20
7.950765219
 30
0.0
 10
12.2920378427
 20
7.9490995689
 30
0.0
 10
12.2967129217
 20
7.9476092875
 30
0.0
 10
12.2990062545
 20
7.9467832845
 30
0.0
  0
SPLINE
  5
362
100
AcDbEntity
  8
0
100
AcDbSpline
 62
7
  6
CONTINUOUS
 70
0
 71
3
 72
15
 73
11
 74
0
 42
0.0000001
 43
0.0000001
 44
0.0000000001
 40
0.0
 40
0.0
 40
0.0
 40
0.0
 40
0.1234186257
 40
0.248168316
 40
0.3738444208
 40
0.5000150316
 40
0.6261853081
 40
0.7518615726
 40
0.8765955253
 40
1.0
 40
1.0
 40
1.0
 40
1.0
 10
12.2946642562
 20
8.1744119432
 30
0.0
 10
12.2926888256
 20
8.1738338795
 30
0.0
 10
12.2886779858
 20
8.1727987076
 30
0.0
 10
12.282543995
 20
8.1716555317
 30
0.0
 10
12.2762972386
 20
8.1709517473
 30
0.0
 10
12.2699915264
 20
8.1707139646
 30
0.0
 10
12.2636858135
 20
8.1709518312
 30
0.0
 10
12.2574393358
 20
8.1716557123
 30
0.0
 10
12.2513058428
 20
8.1727988478
 30
0.0
 10
12.2472955004
 20
8.1738339483
 30
0.0
 10
12.2453202964
 20
8.174411946
 30
0.0
  0
SPLINE
  5
363
100
AcDbEntity
  8
ALL_FEATURES
100
AcDbSpline
 62
7
  6
CONTINUOUS
 70
0
 71
3
 72
13
 73
9
 74
0
 42
0.0000001
 43
0.0000001
 44
0.0000000001
 40
0.0
 40
0.0
 40
0.0
 40
0.0
 40
0.2166462597
 40
0.3369283623
 40
0.4630313481
 40
0.7271468123
 40
0.8629514529
 40
1.0
 40
1.0
 40
1.0
 40
1.0
 10
12.1168880536
 20
7.9607006984
 30
0.0
 10
12.1126583554
 20
7.9630009769
 30
0.0
 10
12.1058256451
 20
7.9661265395
 30
0.0
 10
12.096118633
 20
7.96955482
 30
0.0
 10
12.0851988449
 20
7.9726565469
 30
0.0
 10
12.0736695579
 20
7.974794267
 30
0.0
 10
12.0617813009
 20
7.9758896225
 30
0.0
 10
12.0557154937
 20
7.9760776398
 30
0.0
 10
12.052669737
 20
7.9760776398
 30
0.0
  0
SPLINE
  5
364
100
AcDbEntity
  8
ALL_FEATURES
100
AcDbSpline
 62
7
  6
CONTINUOUS
 70
0
 71
3
 72
16
 73
12
 74
0
 42
0.0000001
 43
0.0000001
 44
0.0000000001
 40
0.0
 40
0.0
 40
0.0
 40
0.0
 40
0.1370335261
 40
0.2727912139
 40
0.3399414122
 40
0.406456891
 40
0.5369692258
 40
0.6630433665
 40
0.7832964735
 40
0.8961842027
 40
1.0
 40
1.0
 40
1.0
 40
1.0
 10
12.052669737
 20
8.1385776398
 30
0.0
 10
12.0557159081
 20
8.1385776398
 30
0.0
 10
12.0617814006
 20
8.1387653201
 30
0.0
 10
12.0693110105
 20
8.1394597259
 30
0.0
 10
12.07524389
 20
8.1402849074
 30
0.0
 10
12.0810331303
 20
8.1412751473
 30
0.0
 10
12.0880544145
 20
8.1428106745
 30
0.0
 10
12.0961180032
 20
8.1450998091
 30
0.0
 10
12.1036521345
 20
8.1477613484
 30
0.0
 10
12.1105513087
 20
8.150689904
 30
0.0
 10
12.1148603281
 20
8.1528520298
 30
0.0
 10
12.1168876625
 20
8.1539546077
 30
0.0
  0
SPLINE
  5
365
100
AcDbEntity
  8
ALL_FEATURES
100
AcDbSpline
 62
7
  6
CONTINUOUS
 70
0
 71
3
 72
13
 73
9
 74
0
 42
0.0000001
 43
0.0000001
 44
0.0000000001
 40
0.0
 40
0.0
 40
0.0
 40
0.0
 40
0.2166463015
 40
0.3369284096
 40
0.4630313936
 40
0.7271468397
 40
0.8629514672
 40
1.0
 40
1.0
 40
1.0
 40
1.0
 10
11.9884514436
 20
8.1539545684
 30
0.0
 10
11.9926811416
 20
8.1516542915
 30
0.0
 10
11.9995138508
 20
8.1485287312
 30
0.0
 10
12.0092208606
 20
8.1451004533
 30
0.0
 10
12.0201406444
 20
8.1419987293
 30
0.0
 10
12.0316699263
 20
8.1398610113
 30
0.0
 10
12.0435581777
 20
8.1387656568
 30
0.0
 10
12.0496239818
 20
8.1385776398
 30
0.0
 10
12.052669737
 20
8.1385776398
 30
0.0
  0
SPLINE
  5
366
100
AcDbEntity
  8
ALL_FEATURES
100
AcDbSpline
 62
7
  6
CONTINUOUS
 70
0
 71
3
 72
16
 73
12
 74
0
 42
0.0000001
 43
0.0000001
 44
0.0000000001
 40
0.0
 40
0.0
 40
0.0
 40
0.0
 40
0.1370335261
 40
0.2727912139
 40
0.3399414122
 40
0.406456891
 40
0.5369692258
 40
0.6630433665
 40
0.7832964735
 40
0.8961842027
 40
1.0
 40
1.0
 40
1.0
 40
1.0
 10
12.052669737
 20
7.9760776398
 30
0.0
 10
12.0496235659
 20
7.9760776398
 30
0.0
 10
12.0435580734
 20
7.9758899594
 30
0.0
 10
12.0360284635
 20
7.9751955536
 30
0.0
 10
12.030095584
 20
7.9743703721
 30
0.0
 10
12.0243063437
 20
7.9733801322
 30
0.0
 10
12.0172850595
 20
7.971844605
 30
0.0
 10
12.0092214708
 20
7.9695554704
 30
0.0
 10
12.0016873395
 20
7.9668939311
 30
0.0
 10
11.9947881653
 20
7.9639653755
 30
0.0
 10
11.9904791459
 20
7.9618032497
 30
0.0
 10
11.9884518115
 20
7.9607006718
 30
0.0
  0
SPLINE
  5
367
100
AcDbEntity
  8
ALL_FEATURES
100
AcDbSpline
 62
7
  6
CONTINUOUS
 70
0
 71
3
 72
13
 73
9
 74
0
 42
0.0000001
 43
0.0000001
 44
0.0000000001
 40
0.0
 40
0.0
 40
0.0
 40
0.0
 40
0.2166463016
 40
0.3369284096
 40
0.4630313936
 40
0.7271468397
 40
0.8629514672
 40
1.0
 40
1.0
 40
1.0
 40
1.0
 10
12.5515330284
 20
7.9607007111
 30
0.0
 10
12.5473033305
 20
7.963000988
 30
0.0
 10
12.5404706213
 20
7.9661265483
 30
0.0
 10
12.5307636115
 20
7.9695548262
 30
0.0
 10
12.5198438276
 20
7.9726565502
 30
0.0
 10
12.5083145458
 20
7.9747942682
 30
0.0
 10
12.4964262944
 20
7.9758896227
 30
0.0
 10
12.4903604902
 20
7.9760776398
 30
0.0
 10
12.4873147351
 20
7.9760776398
 30
0.0
  0
SPLINE
  5
368
100
AcDbEntity
  8
ALL_FEATURES
100
AcDbSpline
 62
7
  6
CONTINUOUS
 70
0
 71
3
 72
16
 73
12
 74
0
 42
0.0000001
 43
0.0000001
 44
0.0000000001
 40
0.0
 40
0.0
 40
0.0
 40
0.0
 40
0.1370335261
 40
0.2727912139
 40
0.3399414122
 40
0.406456891
 40
0.5369692258
 40
0.6630433665
 40
0.7832964735
 40
0.8961842027
 40
1.0
 40
1.0
 40
1.0
 40
1.0
 10
12.4873147351
 20
8.1385776398
 30
0.0
 10
12.4903609062
 20
8.1385776398
 30
0.0
 10
12.4964263987
 20
8.1387653201
 30
0.0
 10
12.5039560086
 20
8.1394597259
 30
0.0
 10
12.5098888881
 20
8.1402849074
 30
0.0
 10
12.5156781283
 20
8.1412751473
 30
0.0
 10
12.5226994125
 20
8.1428106745
 30
0.0
 10
12.5307630012
 20
8.1450998091
 30
0.0
 10
12.5382971325
 20
8.1477613484
 30
0.0
 10
12.5451963068
 20
8.150689904
 30
0.0
 10
12.5495053262
 20
8.1528520298
 30
0.0
 10
12.5515326605
 20
8.1539546077
 30
0.0
  0
SPLINE
  5
369
100
AcDbEntity
  8
0
100
AcDbSpline
 62
7
  6
CONTINUOUS
 70
0
 71
3
 72
15
 73
11
 74
0
 42
0.0000001
 43
0.0000001
 44
0.0000000001
 40
0.0
 40
0.0
 40
0.0
 40
0.0
 40
0.0902886101
 40
0.1919057747
 40
0.3046800166
 40
0.4279094476
 40
0.5604866715
 40
0.7010257806
 40
0.8480530343
 40
1.0
 40
1.0
 40
1.0
 40
1.0
 10
12.3553029248
 20
8.1808964688
 30
0.0
 10
12.3535113748
 20
8.1813769039
 30
0.0
 10
12.3496281819
 20
8.1821243209
 30
0.0
 10
12.3433799249
 20
8.1826262845
 30
0.0
 10
12.3364363381
 20
8.1825580501
 30
0.0
 10
12.3288854823
 20
8.1819223185
 30
0.0
 10
12.320824734
 20
8.1807429159
 30
0.0
 10
12.312355663
 20
8.1790619517
 30
0.0
 10
12.3035782354
 20
8.1769359042
 30
0.0
 10
12.2976601535
 20
8.1752886226
 30
0.0
 10
12.2946642562
 20
8.1744119432
 30
0.0
  0
SPLINE
  5
36A
100
AcDbEntity
  8
ALL_FEATURES
100
AcDbSpline
 62
7
  6
CONTINUOUS
 70
0
 71
3
 72
10
 73
6
 74
0
 42
0.0000001
 43
0.0000001
 44
0.0000000001
 40
0.0
 40
0.0
 40
0.0
 40
0.0
 40
0.2460155737
 40
0.4951734242
 40
1.0
 40
1.0
 40
1.0
 40
1.0
 10
12.4230955693
 20
8.1539546817
 30
0.0
 10
12.4178303132
 20
8.1568190452
 30
0.0
 10
12.4070521695
 20
8.162260499
 30
0.0
 10
12.3846786633
 20
8.171929064
 30
0.0
 10
12.3671834803
 20
8.1777103301
 30
0.0
 10
12.3553035703
 20
8.1808961383
 30
0.0
  0
SPLINE
  5
36B
100
AcDbEntity
  8
ALL_FEATURES
100
AcDbSpline
 62
7
  6
CONTINUOUS
 70
0
 71
3
 72
10
 73
6
 74
0
 42
0.0000001
 43
0.0000001
 44
0.0000000001
 40
0.0
 40
0.0
 40
0.0
 40
0.0
 40
0.5042838966
 40
0.7534949552
 40
1.0
 40
1.0
 40
1.0
 40
1.0
 10
12.3686872775
 20
7.9376613754
 30
0.0
 10
12.3781716497
 20
7.9406525938
 30
0.0
 10
12.3921466822
 20
7.9457902664
 30
0.0
 10
12.4101195924
 20
7.9539190495
 30
0.0
 10
12.4188252888
 20
7.9583775132
 30
0.0
 10
12.4230955693
 20
7.9607005978
 30
0.0
  0
SPLINE
  5
36C
100
AcDbEntity
  8
ALL_FEATURES
100
AcDbSpline
 62
7
  6
CONTINUOUS
 70
0
 71
3
 72
10
 73
6
 74
0
 42
0.0000001
 43
0.0000001
 44
0.0000000001
 40
0.0
 40
0.0
 40
0.0
 40
0.0
 40
0.2507452057
 40
0.5013309566
 40
1.0
 40
1.0
 40
1.0
 40
1.0
 10
12.2700768978
 20
7.9225776506
 30
0.0
 10
12.2763722756
 20
7.9225792577
 30
0.0
 10
12.288962611
 20
7.922940672
 30
0.0
 10
12.3139859917
 20
7.9250821492
 30
0.0
 10
12.332577604
 20
7.9282875992
 30
0.0
 10
12.3447721158
 20
7.9311234942
 30
0.0
  0
SPLINE
  5
36D
100
AcDbEntity
  8
ALL_FEATURES
100
AcDbSpline
 62
7
  6
CONTINUOUS
 70
0
 71
3
 72
13
 73
9
 74
0
 42
0.0000001
 43
0.0000001
 44
0.0000000001
 40
0.0
 40
0.0
 40
0.0
 40
0.0
 40
0.2166462597
 40
0.3369283623
 40
0.4630313481
 40
0.7271468123
 40
0.8629514529
 40
1.0
 40
1.0
 40
1.0
 40
1.0
 10
12.4230964185
 20
8.1539545811
 30
0.0
 10
12.4273261166
 20
8.1516543026
 30
0.0
 10
12.434158827
 20
8.14852874
 30
0.0
 10
12.4438658391
 20
8.1451004595
 30
0.0
 10
12.4547856271
 20
8.1419987326
 30
0.0
 10
12.4663149141
 20
8.1398610125
 30
0.0
 10
12.4782031712
 20
8.138765657
 30
0.0
 10
12.4842689784
 20
8.1385776398
 30
0.0
 10
12.4873147351
 20
8.1385776398
 30
0.0
  0
SPLINE
  5
36E
100
AcDbEntity
  8
ALL_FEATURES
100
AcDbSpline
 62
7
  6
CONTINUOUS
 70
0
 71
3
 72
16
 73
12
 74
0
 42
0.0000001
 43
0.0000001
 44
0.0000000001
 40
0.0
 40
0.0
 40
0.0
 40
0.0
 40
0.1370335261
 40
0.2727912139
 40
0.3399414122
 40
0.406456891
 40
0.5369692258
 40
0.6630433665
 40
0.7832964735
 40
0.8961842027
 40
1.0
 40
1.0
 40
1.0
 40
1.0
 10
12.4873147351
 20
7.9760776398
 30
0.0
 10
12.4842685639
 20
7.9760776398
 30
0.0
 10
12.4782030714
 20
7.9758899594
 30
0.0
 10
12.4706734615
 20
7.9751955536
 30
0.0
 10
12.464740582
 20
7.9743703721
 30
0.0
 10
12.4589513418
 20
7.9733801322
 30
0.0
 10
12.4519300576
 20
7.971844605
 30
0.0
 10
12.4438664689
 20
7.9695554704
 30
0.0
 10
12.4363323376
 20
7.9668939311
 30
0.0
 10
12.4294331633
 20
7.9639653755
 30
0.0
 10
12.4251241439
 20
7.9618032497
 30
0.0
 10
12.4230968096
 20
7.9607006718
 30
0.0
  0
SPLINE
  5
36F
100
AcDbEntity
  8
ALL_FEATURES
100
AcDbSpline
 62
7
  6
CONTINUOUS
 70
0
 71
3
 72
10
 73
6
 74
0
 42
0.0000001
 43
0.0000001
 44
0.0000000001
 40
0.0
 40
0.0
 40
0.0
 40
0.0
 40
0.2460114174
 40
0.4951817938
 40
1.0
 40
1.0
 40
1.0
 40
1.0
 10
12.1168889028
 20
8.1539546817
 30
0.0
 10
12.12215405
 20
8.156818986
 30
0.0
 10
12.1329323511
 20
8.1622604752
 30
0.0
 10
12.155305734
 20
8.1719291033
 30
0.0
 10
12.1728009768
 20
8.177710266
 30
0.0
 10
12.1846806117
 20
8.1808961333
 30
0.0
  0
SPLINE
  5
370
100
AcDbEntity
  8
ALL_FEATURES
100
AcDbSpline
 62
7
  6
CONTINUOUS
 70
0
 71
3
 72
11
 73
7
 74
0
 42
0.0000001
 43
0.0000001
 44
0.0000000001
 40
0.0
 40
0.0
 40
0.0
 40
0.0
 40
0.2254140386
 40
0.4669269932
 40
0.725138763
 40
1.0
 40
1.0
 40
1.0
 40
1.0
 10
12.1712962731
 20
7.9376617676
 30
0.0
 10
12.1725060942
 20
7.9372800843
 30
0.0
 10
12.1750520746
 20
7.9366125098
 30
0.0
 10
12.1790770588
 20
7.9359145122
 30
0.0
 10
12.1834198564
 20
7.9354960479
 30
0.0
 10
12.1864209656
 20
7.9354087332
 30
0.0
 10
12.1879678494
 20
7.9354087332
 30
0.0
  0
SPLINE
  5
371
100
AcDbEntity
  8
ALL_FEATURES
100
AcDbSpline
 62
7
  6
CONTINUOUS
 70
0
 71
3
 72
10
 73
6
 74
0
 42
0.0000001
 43
0.0000001
 44
0.0000000001
 40
0.0
 40
0.0
 40
0.0
 40
0.0
 40
0.5042873901
 40
0.7534980573
 40
1.0
 40
1.0
 40
1.0
 40
1.0
 10
12.1712972535
 20
7.9376613641
 30
0.0
 10
12.1618128294
 20
7.9406526794
 30
0.0
 10
12.1478377004
 20
7.9457902977
 30
0.0
 10
12.1298647818
 20
7.9539191137
 30
0.0
 10
12.1211591337
 20
7.9583775401
 30
0.0
 10
12.1168889028
 20
7.9607005978
 30
0.0
  0
SPLINE
  5
372
100
AcDbEntity
  8
ALL_FEATURES
100
AcDbSpline
 62
7
  6
CONTINUOUS
 70
0
 71
3
 72
11
 73
7
 74
0
 42
0.0000001
 43
0.0000001
 44
0.0000000001
 40
0.0
 40
0.0
 40
0.0
 40
0.0
 40
0.2833866531
 40
0.543749486
 40
0.782129008
 40
1.0
 40
1.0
 40
1.0
 40
1.0
 10
12.1952112272
 20
7.9311235549
 30
0.0
 10
12.1943882445
 20
7.9313149865
 30
0.0
 10
12.192820535
 20
7.9317348502
 30
0.0
 10
12.1906199816
 20
7.9325150608
 30
0.0
 10
12.1886760878
 20
7.9334094339
 30
0.0
 10
12.187503196
 20
7.9341053352
 30
0.0
 10
12.1869663767
 20
7.9344711474
 30
0.0
  0
LINE
  5
373
100
AcDbEntity
  8
ALL_FEATURES
100
AcDbLine
 62
7
  6
CONTINUOUS
 10
12.1869663767
 20
7.9344711474
 11
12.1856923915
 21
7.9354469842
  0
SPLINE
  5
374
100
AcDbEntity
  8
ALL_FEATURES
100
AcDbSpline
 62
7
  6
CONTINUOUS
 70
0
 71
3
 72
9
 73
5
 74
0
 42
0.0000001
 43
0.0000001
 44
0.0000000001
 40
0.0
 40
0.0
 40
0.0
 40
0.0
 40
0.5011957438
 40
1.0
 40
1.0
 40
1.0
 40
1.0
 10
12.2604517344
 20
7.9227145703
 30
0.0
 10
12.24945311
 20
7.9230301685
 30
0.0
 10
12.2275259372
 20
7.9247493231
 30
0.0
 10
12.2058780843
 20
7.9286431387
 30
0.0
 10
12.1952120435
 20
7.9311235196
 30
0.0
  0
SPLINE
  5
375
100
AcDbEntity
  8
ALL_FEATURES
100
AcDbSpline
 62
7
  6
CONTINUOUS
 70
0
 71
3
 72
13
 73
9
 74
0
 42
0.0000001
 43
0.0000001
 44
0.0000000001
 40
0.0
 40
0.0
 40
0.0
 40
0.0
 40
0.2764374665
 40
0.538642448
 40
0.6627801888
 40
0.7814200587
 40
0.8940076295
 40
1.0
 40
1.0
 40
1.0
 40
1.0
 10
12.2485995138
 20
7.9359476031
 30
0.0
 10
12.2449288699
 20
7.9350421436
 30
0.0
 10
12.2377497509
 20
7.9333832092
 30
0.0
 10
12.2288346102
 20
7.9317208756
 30
0.0
 10
12.2219951599
 20
7.9307544494
 30
0.0
 10
12.2171618126
 20
7.9302349664
 30
0.0
 10
12.2125596916
 20
7.9299166562
 30
0.0
 10
12.2095699879
 20
7.9298397635
 30
0.0
 10
12.2081203927
 20
7.9298397635
 30
0.0
  0
SPLINE
  5
376
100
AcDbEntity
  8
ALL_FEATURES
100
AcDbSpline
 62
7
  6
CONTINUOUS
 70
0
 71
3
 72
11
 73
7
 74
0
 42
0.0000001
 43
0.0000001
 44
0.0000000001
 40
0.0
 40
0.0
 40
0.0
 40
0.0
 40
0.276899702
 40
0.5361368031
 40
0.7771869872
 40
1.0
 40
1.0
 40
1.0
 40
1.0
 10
12.2081203927
 20
7.9298397635
 30
0.0
 10
12.2069206158
 20
7.9298397635
 30
0.0
 10
12.2045971536
 20
7.9298893261
 30
0.0
 10
12.2012365595
 20
7.9301273166
 30
0.0
 10
12.198126902
 20
7.9305238747
 30
0.0
 10
12.1961515487
 20
7.9309048294
 30
0.0
 10
12.1952112272
 20
7.9311235549
 30
0.0
  0
SPLINE
  5
377
100
AcDbEntity
  8
ALL_FEATURES
100
AcDbSpline
 62
7
  6
CONTINUOUS
 70
0
 71
3
 72
19
 73
15
 74
0
 42
0.0000001
 43
0.0000001
 44
0.0000000001
 40
0.0
 40
0.0
 40
0.0
 40
0.0
 40
0.0537664638
 40
0.1078543848
 40
0.1625442097
 40
0.2181208215
 40
0.2748246946
 40
0.3328574414
 40
0.3923789757
 40
0.4535031704
 40
0.5807000692
 40
0.7146153001
 40
0.8547138105
 40
1.0
 40
1.0
 40
1.0
 40
1.0
 10
12.3968124246
 20
7.9537979695
 30
0.0
 10
12.3949467504
 20
7.9537979695
 30
0.0
 10
12.3912011387
 20
7.9540011373
 30
0.0
 10
12.3856245515
 20
7.9549117117
 30
0.0
 10
12.3801145481
 20
7.956423218
 30
0.0
 10
12.3747050728
 20
7.9585255581
 30
0.0
 10
12.369427476
 20
7.9612056514
 30
0.0
 10
12.3643126882
 20
7.9644468631
 30
0.0
 10
12.3593900786
 20
7.9682298327
 30
0.0
 10
12.353038359
 20
7.9740409377
 30
0.0
 10
12.345747462
 20
7.9825832061
 30
0.0
 10
12.3383194391
 20
7.9944086388
 30
0.0
 10
12.3322515941
 20
8.0076739076
 30
0.0
 10
12.3292470331
 20
8.017137928
 30
0.0
 10
12.3279943768
 20
8.0220211929
 30
0.0
  0
SPLINE
  5
378
100
AcDbEntity
  8
ALL_FEATURES
100
AcDbSpline
 62
7
  6
CONTINUOUS
 70
0
 71
3
 72
11
 73
7
 74
0
 42
0.0000001
 43
0.0000001
 44
0.0000000001
 40
0.0
 40
0.0
 40
0.0
 40
0.0
 40
0.2450693088
 40
0.492197791
 40
0.7432644464
 40
1.0
 40
1.0
 40
1.0
 40
1.0
 10
12.3968124246
 20
7.9537979695
 30
0.0
 10
12.3990535738
 20
7.9537979695
 30
0.0
 10
12.4035600406
 20
7.9540918005
 30
0.0
 10
12.4102467414
 20
7.9554075424
 30
0.0
 10
12.4168158386
 20
7.9575861563
 30
0.0
 10
12.4210261406
 20
7.9595751362
 30
0.0
 10
12.4230886744
 20
7.9606968718
 30
0.0
  0
SPLINE
  5
379
100
AcDbEntity
  8
ALL_FEATURES
100
AcDbSpline
 62
7
  6
CONTINUOUS
 70
0
 71
3
 72
20
 73
16
 74
0
 42
0.0000001
 43
0.0000001
 44
0.0000000001
 40
0.0
 40
0.0
 40
0.0
 40
0.0
 40
0.0537588922
 40
0.1078445133
 40
0.1625295679
 40
0.2180999324
 40
0.2747986276
 40
0.3328261802
 40
0.3923419402
 40
0.4534602223
 40
0.5162508109
 40
0.580739549
 40
0.7146428024
 40
0.854727002
 40
1.0
 40
1.0
 40
1.0
 40
1.0
 10
12.1431720474
 20
7.9537979695
 30
0.0
 10
12.1450376348
 20
7.9537979695
 30
0.0
 10
12.1487832494
 20
7.9540012233
 30
0.0
 10
12.1543598777
 20
7.9549116659
 30
0.0
 10
12.159869964
 20
7.9564231906
 30
0.0
 10
12.1652793682
 20
7.9585256608
 30
0.0
 10
12.1705570172
 20
7.9612055766
 30
0.0
 10
12.1756718009
 20
7.9644469207
 30
0.0
 10
12.1805942428
 20
7.9682297683
 30
0.0
 10
12.1852961372
 20
7.9725313419
 30
0.0
 10
12.1897504595
 20
7.9773266869
 30
0.0
 10
12.1953950081
 20
7.9844278233
 30
0.0
 10
12.2016660073
 20
7.9944099401
 30
0.0
 10
12.2077325958
 20
8.0076735136
 30
0.0
 10
12.2107374346
 20
8.017137911
 30
0.0
 10
12.2119900953
 20
8.0220211929
 30
0.0
  0
SPLINE
  5
37A
100
AcDbEntity
  8
ALL_FEATURES
100
AcDbSpline
 62
7
  6
CONTINUOUS
 70
0
 71
3
 72
20
 73
16
 74
0
 42
0.0000001
 43
0.0000001
 44
0.0000000001
 40
0.0
 40
0.0
 40
0.0
 40
0.0
 40
0.1452729979
 40
0.2853571975
 40
0.419260451
 40
0.483749189
 40
0.5465397776
 40
0.6076580598
 40
0.6671738197
 40
0.7252013724
 40
0.7819000676
 40
0.8374704321
 40
0.8921554867
 40
0.9462411078
 40
1.0
 40
1.0
 40
1.0
 40
1.0
 10
12.2119900953
 20
8.0926340866
 30
0.0
 10
12.2107374346
 20
8.0975173685
 30
0.0
 10
12.2077325958
 20
8.1069817659
 30
0.0
 10
12.2016660073
 20
8.1202453394
 30
0.0
 10
12.1953950081
 20
8.1302274562
 30
0.0
 10
12.1897504595
 20
8.1373285926
 30
0.0
 10
12.1852961372
 20
8.1421239376
 30
0.0
 10
12.1805942428
 20
8.1464255112
 30
0.0
 10
12.1756718009
 20
8.1502083588
 30
0.0
 10
12.1705570172
 20
8.1534497029
 30
0.0
 10
12.1652793682
 20
8.1561296187
 30
0.0
 10
12.159869964
 20
8.1582320889
 30
0.0
 10
12.1543598777
 20
8.1597436136
 30
0.0
 10
12.1487832494
 20
8.1606540562
 30
0.0
 10
12.1450376348
 20
8.16085731
 30
0.0
 10
12.1431720474
 20
8.16085731
 30
0.0
  0
SPLINE
  5
37B
100
AcDbEntity
  8
ALL_FEATURES
100
AcDbSpline
 62
7
  6
CONTINUOUS
 70
0
 71
3
 72
13
 73
9
 74
0
 42
0.0000001
 43
0.0000001
 44
0.0000000001
 40
0.0
 40
0.0
 40
0.0
 40
0.0
 40
0.2481017741
 40
0.3738067996
 40
0.4999992553
 40
0.6261921462
 40
0.7518983938
 40
1.0
 40
1.0
 40
1.0
 40
1.0
 10
12.2913850099
 20
7.9359475918
 30
0.0
 10
12.2879162706
 20
7.9368032462
 30
0.0
 10
12.2826095347
 20
7.9377980554
 30
0.0
 10
12.2754379565
 20
7.9384751403
 30
0.0
 10
12.2699922888
 20
7.9386466559
 30
0.0
 10
12.2645466034
 20
7.9384751427
 30
0.0
 10
12.2573750037
 20
7.9377980582
 30
0.0
 10
12.2520682508
 20
7.9368032569
 30
0.0
 10
12.2485995138
 20
7.9359476031
 30
0.0
  0
SPLINE
  5
37C
100
AcDbEntity
  8
ALL_FEATURES
100
AcDbSpline
 62
7
  6
CONTINUOUS
 70
0
 71
3
 72
15
 73
11
 74
0
 42
0.0000001
 43
0.0000001
 44
0.0000000001
 40
0.0
 40
0.0
 40
0.0
 40
0.0
 40
0.1596565092
 40
0.3069392317
 40
0.4427262188
 40
0.5681612147
 40
0.6846743284
 40
0.7940190777
 40
0.8983094177
 40
1.0
 40
1.0
 40
1.0
 40
1.0
 10
12.2913847658
 20
7.9359476464
 30
0.0
 10
12.2905108741
 20
7.934877759
 30
0.0
 10
12.2887732816
 20
7.9328666347
 30
0.0
 10
12.2860767918
 20
7.9301411441
 30
0.0
 10
12.2833963261
 20
7.92783045
 30
0.0
 10
12.2807277853
 20
7.9259337654
 30
0.0
 10
12.2780665936
 20
7.9244506886
 30
0.0
 10
12.275407442
 20
7.923383246
 30
0.0
 10
12.2727473772
 20
7.9227347954
 30
0.0
 10
12.2709629716
 20
7.9225830794
 30
0.0
 10
12.2700831083
 20
7.9225779276
 30
0.0
  0
SPLINE
  5
37D
100
AcDbEntity
  8
ALL_FEATURES
100
AcDbSpline
 62
7
  6
CONTINUOUS
 70
0
 71
3
 72
15
 73
11
 74
0
 42
0.0000001
 43
0.0000001
 44
0.0000000001
 40
0.0
 40
0.0
 40
0.0
 40
0.0
 40
0.1596769999
 40
0.3069722399
 40
0.4427690673
 40
0.568217704
 40
0.6847487004
 40
0.7940891572
 40
0.8983355376
 40
1.0
 40
1.0
 40
1.0
 40
1.0
 10
12.2485997393
 20
7.9359476545
 30
0.0
 10
12.2494738468
 20
7.9348776306
 30
0.0
 10
12.2512117333
 20
7.9328662235
 30
0.0
 10
12.2539085597
 20
7.9301402895
 30
0.0
 10
12.256589426
 20
7.9278293205
 30
0.0
 10
12.2592585515
 20
7.925932555
 30
0.0
 10
12.26192032
 20
7.924449731
 30
0.0
 10
12.2645794133
 20
7.9233825409
 30
0.0
 10
12.2672389748
 20
7.922734172
 30
0.0
 10
12.2690229082
 20
7.9225828597
 30
0.0
 10
12.2699025879
 20
7.922577906
 30
0.0
  0
SPLINE
  5
37E
100
AcDbEntity
  8
ALL_FEATURES
100
AcDbSpline
 62
7
  6
CONTINUOUS
 70
0
 71
3
 72
15
 73
11
 74
0
 42
0.0000001
 43
0.0000001
 44
0.0000000001
 40
0.0
 40
0.0
 40
0.0
 40
0.0
 40
0.160715834
 40
0.3105694946
 40
0.4497646967
 40
0.578718437
 40
0.6978441223
 40
0.8075339542
 40
0.9081520195
 40
1.0
 40
1.0
 40
1.0
 40
1.0
 10
12.2119900953
 20
8.0220211929
 30
0.0
 10
12.2128562348
 20
8.0177700298
 30
0.0
 10
12.2147905247
 20
8.0096063607
 30
0.0
 10
12.2182137063
 20
7.9979531743
 30
0.0
 10
12.2218721948
 20
7.9872753383
 30
0.0
 10
12.2256447068
 20
7.9775227044
 30
0.0
 10
12.2294594695
 20
7.9686477671
 30
0.0
 10
12.2332723408
 20
7.9606111828
 30
0.0
 10
12.237059123
 20
7.9533843884
 30
0.0
 10
12.2396736214
 20
7.9488917891
 30
0.0
 10
12.2409780158
 20
7.9467832132
 30
0.0
  0
SPLINE
  5
37F
100
AcDbEntity
  8
ALL_FEATURES
100
AcDbSpline
 62
7
  6
CONTINUOUS
 70
0
 71
3
 72
11
 73
7
 74
0
 42
0.0000001
 43
0.0000001
 44
0.0000000001
 40
0.0
 40
0.0
 40
0.0
 40
0.0
 40
0.2567357256
 40
0.5077983473
 40
0.7549388824
 40
1.0
 40
1.0
 40
1.0
 40
1.0
 10
12.1168957919
 20
8.153958429
 30
0.0
 10
12.1189583442
 20
8.1550801321
 30
0.0
 10
12.1231686001
 20
8.1570691109
 30
0.0
 10
12.1297377644
 20
8.1592477741
 30
0.0
 10
12.1364244822
 20
8.1605633954
 30
0.0
 10
12.140930974
 20
8.16085731
 30
0.0
 10
12.1431720474
 20
8.16085731
 30
0.0
  0
SPLINE
  5
380
100
AcDbEntity
  8
ALL_FEATURES
100
AcDbSpline
 62
7
  6
CONTINUOUS
 70
0
 71
3
 72
15
 73
11
 74
0
 42
0.0000001
 43
0.0000001
 44
0.0000000001
 40
0.0
 40
0.0
 40
0.0
 40
0.0
 40
0.1211783746
 40
0.2456335574
 40
0.3722606961
 40
0.5000000215
 40
0.6277393438
 40
0.754366474
 40
0.8788216431
 40
1.0
 40
1.0
 40
1.0
 40
1.0
 10
12.2119900756
 20
8.0220212092
 30
0.0
 10
12.2166418044
 20
8.0227000449
 30
0.0
 10
12.2260996411
 20
8.0238860902
 30
0.0
 10
12.2404887796
 20
8.0251493587
 30
0.0
 10
12.2551680684
 20
8.0259121901
 30
0.0
 10
12.2699922326
 20
8.0261674626
 30
0.0
 10
12.2848163965
 20
8.0259121867
 30
0.0
 10
12.2994956841
 20
8.0251493522
 30
0.0
 10
12.3138848208
 20
8.0238860813
 30
0.0
 10
12.3233426561
 20
8.0227000351
 30
0.0
 10
12.3279943842
 20
8.0220211991
 30
0.0
  0
SPLINE
  5
381
100
AcDbEntity
  8
ALL_FEATURES
100
AcDbSpline
 62
7
  6
CONTINUOUS
 70
0
 71
3
 72
15
 73
11
 74
0
 42
0.0000001
 43
0.0000001
 44
0.0000000001
 40
0.0
 40
0.0
 40
0.0
 40
0.0
 40
0.160710959
 40
0.3105582188
 40
0.4497570189
 40
0.5787087597
 40
0.6978377945
 40
0.8075286422
 40
0.9081443155
 40
1.0
 40
1.0
 40
1.0
 40
1.0
 10
12.3279943768
 20
8.0220211929
 30
0.0
 10
12.327127495
 20
8.0177703111
 30
0.0
 10
12.3251955442
 20
8.0096064067
 30
0.0
 10
12.3217699582
 20
7.9979540733
 30
0.0
 10
12.3181121149
 20
7.9872761927
 30
0.0
 10
12.3143401907
 20
7.9775231654
 30
0.0
 10
12.3105258795
 20
7.968647956
 30
0.0
 10
12.3067131731
 20
7.9606112138
 30
0.0
 10
12.3029255637
 20
7.9533846351
 30
0.0
 10
12.3003106253
 20
7.9488921426
 30
0.0
 10
12.299006325
 20
7.9467832612
 30
0.0
  0
SPLINE
  5
382
100
AcDbEntity
  8
ALL_FEATURES
100
AcDbSpline
 62
7
  6
CONTINUOUS
 70
0
 71
3
 72
19
 73
15
 74
0
 42
0.0000001
 43
0.0000001
 44
0.0000000001
 40
0.0
 40
0.0
 40
0.0
 40
0.0
 40
0.1452861897
 40
0.2853847
 40
0.4192999309
 40
0.5464968297
 40
0.6076210244
 40
0.6671425587
 40
0.7251753055
 40
0.7818791785
 40
0.8374557903
 40
0.8921456152
 40
0.9462335362
 40
1.0
 40
1.0
 40
1.0
 40
1.0
 10
12.3279943768
 20
8.0926340866
 30
0.0
 10
12.3292470331
 20
8.0975173515
 30
0.0
 10
12.3322515941
 20
8.1069813719
 30
0.0
 10
12.3383194391
 20
8.1202466407
 30
0.0
 10
12.345747462
 20
8.1320720734
 30
0.0
 10
12.353038359
 20
8.1406143418
 30
0.0
 10
12.3593900786
 20
8.1464254468
 30
0.0
 10
12.3643126882
 20
8.1502084164
 30
0.0
 10
12.369427476
 20
8.1534496281
 30
0.0
 10
12.3747050728
 20
8.1561297214
 30
0.0
 10
12.3801145481
 20
8.1582320615
 30
0.0
 10
12.3856245515
 20
8.1597435678
 30
0.0
 10
12.3912011387
 20
8.1606541422
 30
0.0
 10
12.3949467504
 20
8.16085731
 30
0.0
 10
12.3968124246
 20
8.16085731
 30
0.0
  0
SPLINE
  5
383
100
AcDbEntity
  8
ALL_FEATURES
100
AcDbSpline
 62
7
  6
CONTINUOUS
 70
0
 71
3
 72
21
 73
17
 74
0
 42
0.0000001
 43
0.0000001
 44
0.0000000001
 40
0.0
 40
0.0
 40
0.0
 40
0.0
 40
0.1180893092
 40
0.240062953
 40
0.3030496318
 40
0.3675245924
 40
0.4333365446
 40
0.4666099501
 40
0.4999998214
 40
0.5333896189
 40
0.5666629844
 40
0.6324746463
 40
0.6969495887
 40
0.759936523
 40
0.8819105308
 40
1.0
 40
1.0
 40
1.0
 40
1.0
 10
12.2119900953
 20
8.0926340866
 30
0.0
 10
12.2103338324
 20
8.0901339822
 30
0.0
 10
12.2071311783
 20
8.0849395734
 30
0.0
 10
12.2037208662
 20
8.0780181063
 30
0.0
 10
12.201531874
 20
8.0720671774
 30
0.0
 10
12.2002341931
 20
8.0673264211
 30
0.0
 10
12.1995400541
 20
8.0632225097
 30
0.0
 10
12.1992528165
 20
8.059868964
 30
0.0
 10
12.1991808292
 20
8.0573276555
 30
0.0
 10
12.199252813
 20
8.054786348
 30
0.0
 10
12.1995400481
 20
8.0514328123
 30
0.0
 10
12.2002341804
 20
8.0473289096
 30
0.0
 10
12.2015318419
 20
8.042588148
 30
0.0
 10
12.2037208834
 20
8.0366372215
 30
0.0
 10
12.2071311519
 20
8.029715712
 30
0.0
 10
12.2103338472
 20
8.024521312
 30
0.0
 10
12.2119900953
 20
8.0220211929
 30
0.0
  0
SPLINE
  5
384
100
AcDbEntity
  8
ALL_FEATURES
100
AcDbSpline
 62
7
  6
CONTINUOUS
 70
0
 71
3
 72
15
 73
11
 74
0
 42
0.0000001
 43
0.0000001
 44
0.0000000001
 40
0.0
 40
0.0
 40
0.0
 40
0.0
 40
0.1211783787
 40
0.2456335546
 40
0.3722606807
 40
0.4999999926
 40
0.6277393055
 40
0.7543664349
 40
0.8788216156
 40
1.0
 40
1.0
 40
1.0
 40
1.0
 10
12.2119900996
 20
8.0926340902
 30
0.0
 10
12.2166418272
 20
8.0919552539
 30
0.0
 10
12.2260996611
 20
8.0907692073
 30
0.0
 10
12.2404887949
 20
8.0895059367
 30
0.0
 10
12.2551680784
 20
8.0887431032
 30
0.0
 10
12.2699922373
 20
8.0884878285
 30
0.0
 10
12.2848163963
 20
8.0887431024
 30
0.0
 10
12.2994956801
 20
8.0895059352
 30
0.0
 10
12.3138848146
 20
8.0907692049
 30
0.0
 10
12.3233426489
 20
8.0919552507
 30
0.0
 10
12.3279943769
 20
8.0926340866
 30
0.0
  0
SPLINE
  5
385
100
AcDbEntity
  8
ALL_FEATURES
100
AcDbSpline
 62
7
  6
CONTINUOUS
 70
0
 71
3
 72
27
 73
23
 74
0
 42
0.0000001
 43
0.0000001
 44
0.0000000001
 40
0.0
 40
0.0
 40
0.0
 40
0.0
 40
0.0263433479
 40
0.0533413754
 40
0.0810493965
 40
0.1095024277
 40
0.1686521556
 40
0.2307613664
 40
0.2955165439
 40
0.3624162265
 40
0.4308207471
 40
0.5
 40
0.5691792529
 40
0.6375837735
 40
0.7044834561
 40
0.7692386336
 40
0.8313478444
 40
0.8904975723
 40
0.9189506035
 40
0.9466586246
 40
0.9736566521
 40
1.0
 40
1.0
 40
1.0
 40
1.0
 10
11.9884505685
 20
7.9607006078
 30
0.0
 10
11.9901832031
 20
7.9616431387
 30
0.0
 10
11.9936022665
 20
7.963720285
 30
0.0
 10
11.9984906727
 20
7.9673282713
 30
0.0
 10
12.0031720418
 20
7.9714448231
 30
0.0
 10
12.0091784042
 20
7.9776577109
 30
0.0
 10
12.0160066288
 20
7.9866031351
 30
0.0
 10
12.0228701286
 20
7.9987663636
 30
0.0
 10
12.0283689247
 20
8.0122304291
 30
0.0
 10
12.0323835318
 20
8.026694774
 30
0.0
 10
12.0348278012
 20
8.041839257
 30
0.0
 10
12.035648503
 20
8.0573276398
 30
0.0
 10
12.0348278012
 20
8.0728160225
 30
0.0
 10
12.0323835318
 20
8.0879605055
 30
0.0
 10
12.0283689247
 20
8.1024248504
 30
0.0
 10
12.0228701286
 20
8.1158889159
 30
0.0
 10
12.0160066288
 20
8.1280521444
 30
0.0
 10
12.0091784042
 20
8.1369975686
 30
0.0
 10
12.0031720418
 20
8.1432104564
 30
0.0
 10
11.9984906727
 20
8.1473270082
 30
0.0
 10
11.9936022665
 20
8.1509349945
 30
0.0
 10
11.9901832031
 20
8.1530121408
 30
0.0
 10
11.9884505685
 20
8.1539546717
 30
0.0
  0
SPLINE
  5
386
100
AcDbEntity
  8
ALL_FEATURES
100
AcDbSpline
 62
7
  6
CONTINUOUS
 70
0
 71
3
 72
21
 73
17
 74
0
 42
0.0000001
 43
0.0000001
 44
0.0000000001
 40
0.0
 40
0.0
 40
0.0
 40
0.0
 40
0.1180889939
 40
0.2400598358
 40
0.3030467354
 40
0.3675229937
 40
0.4333361778
 40
0.466609873
 40
0.4999998239
 40
0.5333896975
 40
0.5666633462
 40
0.6324762336
 40
0.6969524828
 40
0.7599396877
 40
0.881910858
 40
1.0
 40
1.0
 40
1.0
 40
1.0
 10
12.3279943768
 20
8.0926340866
 30
0.0
 10
12.3296488496
 20
8.0901327454
 30
0.0
 10
12.3328543255
 20
8.084940246
 30
0.0
 10
12.3362658316
 20
8.0780190906
 30
0.0
 10
12.3384547388
 20
8.072068042
 30
0.0
 10
12.3397516061
 20
8.0673268803
 30
0.0
 10
12.3404449087
 20
8.0632226925
 30
0.0
 10
12.3407317259
 20
8.0598690172
 30
0.0
 10
12.3408036112
 20
8.0573276553
 30
0.0
 10
12.3407317313
 20
8.0547862944
 30
0.0
 10
12.3404449096
 20
8.0514326299
 30
0.0
 10
12.3397516003
 20
8.0473284532
 30
0.0
 10
12.3384547574
 20
8.0425872851
 30
0.0
 10
12.33626585
 20
8.0366362192
 30
0.0
 10
12.3328543453
 20
8.02971504
 30
0.0
 10
12.3296488446
 20
8.0245225419
 30
0.0
 10
12.3279943768
 20
8.0220211929
 30
0.0
  0
SPLINE
  5
387
100
AcDbEntity
  8
0
100
AcDbSpline
 62
7
  6
CONTINUOUS
 70
0
 71
3
 72
18
 73
14
 74
0
 42
0.0000001
 43
0.0000001
 44
0.0000000001
 40
0.0
 40
0.0
 40
0.0
 40
0.0
 40
0.0863786032
 40
0.1333193294
 40
0.1828305696
 40
0.2897958998
 40
0.4077589035
 40
0.5372148004
 40
0.6064300257
 40
0.6787314286
 40
0.7541898739
 40
0.8328742323
 40
1.0
 40
1.0
 40
1.0
 40
1.0
 10
12.2946642448
 20
8.1744120058
 30
0.0
 10
12.2961546456
 20
8.1723332578
 30
0.0
 10
12.2983313287
 20
8.1690351493
 30
0.0
 10
12.3011148236
 20
8.1643912279
 30
0.0
 10
12.3040699907
 20
8.1591415319
 30
0.0
 10
12.3077813311
 20
8.1519081024
 30
0.0
 10
12.3121558344
 20
8.1423661608
 30
0.0
 10
12.3157038678
 20
8.1336839553
 30
0.0
 10
12.3185021573
 20
8.126163151
 30
0.0
 10
12.3206058191
 20
8.1200916443
 30
0.0
 10
12.3226454482
 20
8.1137030712
 30
0.0
 10
12.3252967041
 20
8.1045659948
 30
0.0
 10
12.3270054628
 20
8.0974831755
 30
0.0
 10
12.3279943768
 20
8.0926340866
 30
0.0
  0
SPLINE
  5
388
100
AcDbEntity
  8
0
100
AcDbSpline
 62
7
  6
CONTINUOUS
 70
0
 71
3
 72
16
 73
12
 74
0
 42
0.0000001
 43
0.0000001
 44
0.0000000001
 40
0.0
 40
0.0
 40
0.0
 40
0.0
 40
0.0863803884
 40
0.133322587
 40
0.1828351782
 40
0.2898030419
 40
0.4077686279
 40
0.5372272878
 40
0.6787382617
 40
0.8328713915
 40
1.0
 40
1.0
 40
1.0
 40
1.0
 10
12.2453203039
 20
8.174411987
 30
0.0
 10
12.2438300253
 20
8.1723331582
 30
0.0
 10
12.2416532894
 20
8.1690350883
 30
0.0
 10
12.2388696378
 20
8.1643912443
 30
0.0
 10
12.2359143528
 20
8.1591415872
 30
0.0
 10
12.2322029154
 20
8.1519082274
 30
0.0
 10
12.2278279959
 20
8.1423663713
 30
0.0
 10
12.2234707957
 20
8.1317019464
 30
0.0
 10
12.2192148054
 20
8.1198508115
 30
0.0
 10
12.2152142027
 20
8.1067385509
 30
0.0
 10
12.2129781182
 20
8.0974833276
 30
0.0
 10
12.2119900953
 20
8.0926340866
 30
0.0
  0
SPLINE
  5
389
100
AcDbEntity
  8
ALL_FEATURES
100
AcDbSpline
 62
7
  6
CONTINUOUS
 70
0
 71
3
 72
27
 73
23
 74
0
 42
0.0000001
 43
0.0000001
 44
0.0000000001
 40
0.0
 40
0.0
 40
0.0
 40
0.0
 40
0.0263431207
 40
0.0533413303
 40
0.0810492862
 40
0.1095022927
 40
0.1686520507
 40
0.2307613134
 40
0.295516503
 40
0.362416217
 40
0.4308207382
 40
0.5
 40
0.5691792618
 40
0.637583783
 40
0.704483497
 40
0.7692386866
 40
0.8313479493
 40
0.8904977073
 40
0.9189507138
 40
0.9466586697
 40
0.9736568793
 40
1.0
 40
1.0
 40
1.0
 40
1.0
 10
12.551533906
 20
7.9607006168
 30
0.0
 10
12.5498013158
 20
7.9616431942
 30
0.0
 10
12.5463821457
 20
7.9637201564
 30
0.0
 10
12.5414938688
 20
7.9673283181
 30
0.0
 10
12.5368124227
 20
7.9714447816
 30
0.0
 10
12.5308060498
 20
7.9776576624
 30
0.0
 10
12.5239778283
 20
7.986603095
 30
0.0
 10
12.5171143538
 20
7.9987663472
 30
0.0
 10
12.5116155357
 20
8.0122304134
 30
0.0
 10
12.5076009703
 20
8.0266947759
 30
0.0
 10
12.5051566661
 20
8.0418392543
 30
0.0
 10
12.5043358997
 20
8.0573276398
 30
0.0
 10
12.5051566661
 20
8.0728160252
 30
0.0
 10
12.5076009703
 20
8.0879605036
 30
0.0
 10
12.5116155357
 20
8.1024248661
 30
0.0
 10
12.5171143538
 20
8.1158889323
 30
0.0
 10
12.5239778283
 20
8.1280521845
 30
0.0
 10
12.5308060498
 20
8.1369976171
 30
0.0
 10
12.5368124227
 20
8.1432104979
 30
0.0
 10
12.5414938688
 20
8.1473269614
 30
0.0
 10
12.5463821457
 20
8.1509351231
 30
0.0
 10
12.5498013158
 20
8.1530120853
 30
0.0
 10
12.551533906
 20
8.1539546627
 30
0.0
  0
SPLINE
  5
38A
100
AcDbEntity
  8
ALL_FEATURES
100
AcDbSpline
 62
7
  6
CONTINUOUS
 70
0
 71
3
 72
15
 73
11
 74
0
 42
0.0000001
 43
0.0000001
 44
0.0000000001
 40
0.0
 40
0.0
 40
0.0
 40
0.0
 40
0.0898167449
 40
0.1913014611
 40
0.3040792626
 40
0.4273495561
 40
0.5599813063
 40
0.7006103758
 40
0.8478060361
 40
1.0
 40
1.0
 40
1.0
 40
1.0
 10
12.3447732563
 20
7.9311236063
 30
0.0
 10
12.3431978681
 20
7.9307572034
 30
0.0
 10
12.3397920891
 20
7.930188348
 30
0.0
 10
12.3343238673
 20
7.9298022191
 30
0.0
 10
12.3282404547
 20
7.929845374
 30
0.0
 10
12.3216143038
 20
7.9303167506
 30
0.0
 10
12.3145254442
 20
7.9311989396
 30
0.0
 10
12.3070575782
 20
7.9324600447
 30
0.0
 10
12.2992947359
 20
7.9340561585
 30
0.0
 10
12.2940459826
 20
7.935291194
 30
0.0
 10
12.2913850099
 20
7.9359475918
 30
0.0
  0
SPLINE
  5
38B
100
AcDbEntity
  8
ALL_FEATURES
100
AcDbSpline
 62
7
  6
CONTINUOUS
 70
0
 71
3
 72
11
 73
7
 74
0
 42
0.0000001
 43
0.0000001
 44
0.0000000001
 40
0.0
 40
0.0
 40
0.0
 40
0.0
 40
0.2567366361
 40
0.5078034861
 40
0.7549314976
 40
1.0
 40
1.0
 40
1.0
 40
1.0
 10
12.423090885
 20
8.1539572054
 30
0.0
 10
12.4210281992
 20
8.1550791319
 30
0.0
 10
12.4168175726
 20
8.1570684546
 30
0.0
 10
12.4102479242
 20
8.1592474516
 30
0.0
 10
12.4035606403
 20
8.1605634268
 30
0.0
 10
12.3990537716
 20
8.16085731
 30
0.0
 10
12.3968124246
 20
8.16085731
 30
0.0
  0
SPLINE
  5
38C
100
AcDbEntity
  8
ALL_FEATURES
100
AcDbSpline
 62
7
  6
CONTINUOUS
 70
0
 71
3
 72
11
 73
7
 74
0
 42
0.0000001
 43
0.0000001
 44
0.0000000001
 40
0.0
 40
0.0
 40
0.0
 40
0.0
 40
0.2450603127
 40
0.4922003758
 40
0.7432631907
 40
1.0
 40
1.0
 40
1.0
 40
1.0
 10
12.1431720474
 20
7.9537979695
 30
0.0
 10
12.1409307762
 20
7.9537979695
 30
0.0
 10
12.1364238825
 20
7.9540919364
 30
0.0
 10
12.1297365817
 20
7.9554077909
 30
0.0
 10
12.1231668662
 20
7.9575868374
 30
0.0
 10
12.1189562855
 20
7.9595761586
 30
0.0
 10
12.1168935812
 20
7.9606980528
 30
0.0
  0
SPLINE
  5
38D
100
AcDbEntity
  8
ALL_FEATURES
100
AcDbSpline
 62
7
  6
CONTINUOUS
 70
0
 71
3
 72
14
 73
10
 74
0
 42
0.0000001
 43
0.0000001
 44
0.0000000001
 40
0.0
 40
0.0
 40
0.0
 40
0.0
 40
0.105858633
 40
0.218370607
 40
0.3370320183
 40
0.4612605709
 40
0.5903777637
 40
0.7236737615
 40
1.0
 40
1.0
 40
1.0
 40
1.0
 10
7.6879678494
 20
7.9354087332
 30
0.0
 10
7.6898897397
 20
7.9354087332
 30
0.0
 10
7.6938551343
 20
7.9355515378
 30
0.0
 10
7.6999484224
 20
7.9361430439
 30
0.0
 10
7.7063310909
 20
7.9371077081
 30
0.0
 10
7.712956818
 20
7.9384280412
 30
0.0
 10
7.7197806508
 20
7.9400818356
 30
0.0
 10
7.7291984288
 20
7.9427281555
 30
0.0
 10
7.7362580464
 20
7.9450831952
 30
0.0
 10
7.7409780006
 20
7.9467832081
 30
0.0
  0
SPLINE
  5
38E
100
AcDbEntity
  8
0
100
AcDbSpline
 62
7
  6
CONTINUOUS
 70
0
 71
3
 72
15
 73
11
 74
0
 42
0.0000001
 43
0.0000001
 44
0.0000000001
 40
0.0
 40
0.0
 40
0.0
 40
0.0
 40
0.1519643445
 40
0.2990041388
 40
0.4395468838
 40
0.5721148601
 40
0.6953349835
 40
0.8081044507
 40
0.909716964
 40
1.0
 40
1.0
 40
1.0
 40
1.0
 10
7.7453202964
 20
8.174411946
 30
0.0
 10
7.7423240313
 20
8.1752887336
 30
0.0
 10
7.7364053018
 20
8.1769361782
 30
0.0
 10
7.7276271085
 20
8.1790623162
 30
0.0
 10
7.7191578213
 20
8.1807432985
 30
0.0
 10
7.7110972837
 20
8.1819225256
 30
0.0
 10
7.7035468272
 20
8.1825580056
 30
0.0
 10
7.6966035661
 20
8.1826262191
 30
0.0
 10
7.6903555758
 20
8.1821242441
 30
0.0
 10
7.686472527
 20
8.1813769668
 30
0.0
 10
7.6846810944
 20
8.1808964754
 30
0.0
  0
SPLINE
  5
38F
100
AcDbEntity
  8
ALL_FEATURES
100
AcDbSpline
 62
7
  6
CONTINUOUS
 70
0
 71
3
 72
15
 73
11
 74
0
 42
0.0000001
 43
0.0000001
 44
0.0000000001
 40
0.0
 40
0.0
 40
0.0
 40
0.0
 40
0.1515907421
 40
0.2983805588
 40
0.4388059591
 40
0.571310838
 40
0.6944750047
 40
0.8072258963
 40
0.9090212557
 40
1.0
 40
1.0
 40
1.0
 40
1.0
 10
7.7990062545
 20
7.9467832845
 30
0.0
 10
7.8023977501
 20
7.94556175
 30
0.0
 10
7.8091154953
 20
7.9432716293
 30
0.0
 10
7.8191282301
 20
7.9403217783
 30
0.0
 10
7.8288372756
 20
7.9379868338
 30
0.0
 10
7.8381184709
 20
7.9363415465
 30
0.0
 10
7.8468423727
 20
7.9354430839
 30
0.0
 10
7.8548851333
 20
7.9353257707
 30
0.0
 10
7.8621345859
 20
7.935996032
 30
0.0
 10
7.8666246594
 20
7.9370107774
 30
0.0
 10
7.8686878658
 20
7.9376616686
 30
0.0
  0
SPLINE
  5
390
100
AcDbEntity
  8
ALL_FEATURES
100
AcDbSpline
 62
7
  6
CONTINUOUS
 70
0
 71
3
 72
11
 73
7
 74
0
 42
0.0000001
 43
0.0000001
 44
0.0000000001
 40
0.0
 40
0.0
 40
0.0
 40
0.0
 40
0.2107610901
 40
0.4460678963
 40
0.7085222187
 40
1.0
 40
1.0
 40
1.0
 40
1.0
 10
7.854295582
 20
7.9354500254
 30
0.0
 10
7.8537350234
 20
7.9349649307
 30
0.0
 10
7.8524576304
 20
7.9340412598
 30
0.0
 10
7.850248318
 20
7.9328747984
 30
0.0
 10
7.8476533462
 20
7.9318736763
 30
0.0
 10
7.8457718212
 20
7.931355852
 30
0.0
 10
7.8447732563
 20
7.9311236063
 30
0.0
  0
SPLINE
  5
391
100
AcDbEntity
  8
ALL_FEATURES
100
AcDbSpline
 62
7
  6
CONTINUOUS
 70
0
 71
3
 72
15
 73
11
 74
0
 42
0.0000001
 43
0.0000001
 44
0.0000000001
 40
0.0
 40
0.0
 40
0.0
 40
0.0
 40
0.1234183598
 40
0.2481562281
 40
0.37381973
 40
0.500001386
 40
0.6261825308
 40
0.7518446051
 40
0.8765812786
 40
1.0
 40
1.0
 40
1.0
 40
1.0
 10
7.7409780006
 20
7.9467832081
 30
0.0
 10
7.7432713267
 20
7.9476092084
 30
0.0
 10
7.7479464185
 20
7.9490995062
 30
0.0
 10
7.7551478672
 20
7.9507651377
 30
0.0
 10
7.7625234076
 20
7.9518005264
 30
0.0
 10
7.7699921959
 20
7.9521524133
 30
0.0
 10
7.7774609541
 20
7.9518005353
 30
0.0
 10
7.7848364432
 20
7.950765219
 30
0.0
 10
7.7920378427
 20
7.9490995689
 30
0.0
 10
7.7967129217
 20
7.9476092875
 30
0.0
 10
7.7990062545
 20
7.9467832845
 30
0.0
  0
SPLINE
  5
392
100
AcDbEntity
  8
0
100
AcDbSpline
 62
7
  6
CONTINUOUS
 70
0
 71
3
 72
15
 73
11
 74
0
 42
0.0000001
 43
0.0000001
 44
0.0000000001
 40
0.0
 40
0.0
 40
0.0
 40
0.0
 40
0.1234186257
 40
0.248168316
 40
0.3738444208
 40
0.5000150316
 40
0.6261853081
 40
0.7518615726
 40
0.8765955253
 40
1.0
 40
1.0
 40
1.0
 40
1.0
 10
7.7946642562
 20
8.1744119432
 30
0.0
 10
7.7926888256
 20
8.1738338795
 30
0.0
 10
7.7886779858
 20
8.1727987076
 30
0.0
 10
7.782543995
 20
8.1716555317
 30
0.0
 10
7.7762972386
 20
8.1709517473
 30
0.0
 10
7.7699915264
 20
8.1707139646
 30
0.0
 10
7.7636858135
 20
8.1709518312
 30
0.0
 10
7.7574393358
 20
8.1716557123
 30
0.0
 10
7.7513058428
 20
8.1727988478
 30
0.0
 10
7.7472955004
 20
8.1738339483
 30
0.0
 10
7.7453202964
 20
8.174411946
 30
0.0
  0
SPLINE
  5
393
100
AcDbEntity
  8
ALL_FEATURES
100
AcDbSpline
 62
7
  6
CONTINUOUS
 70
0
 71
3
 72
13
 73
9
 74
0
 42
0.0000001
 43
0.0000001
 44
0.0000000001
 40
0.0
 40
0.0
 40
0.0
 40
0.0
 40
0.2166462597
 40
0.3369283623
 40
0.4630313481
 40
0.7271468123
 40
0.8629514529
 40
1.0
 40
1.0
 40
1.0
 40
1.0
 10
7.6168880536
 20
7.9607006984
 30
0.0
 10
7.6126583554
 20
7.9630009769
 30
0.0
 10
7.6058256451
 20
7.9661265395
 30
0.0
 10
7.596118633
 20
7.96955482
 30
0.0
 10
7.5851988449
 20
7.9726565469
 30
0.0
 10
7.5736695579
 20
7.974794267
 30
0.0
 10
7.5617813009
 20
7.9758896225
 30
0.0
 10
7.5557154937
 20
7.9760776398
 30
0.0
 10
7.552669737
 20
7.9760776398
 30
0.0
  0
SPLINE
  5
394
100
AcDbEntity
  8
ALL_FEATURES
100
AcDbSpline
 62
7
  6
CONTINUOUS
 70
0
 71
3
 72
16
 73
12
 74
0
 42
0.0000001
 43
0.0000001
 44
0.0000000001
 40
0.0
 40
0.0
 40
0.0
 40
0.0
 40
0.1370335261
 40
0.2727912139
 40
0.3399414122
 40
0.406456891
 40
0.5369692258
 40
0.6630433665
 40
0.7832964735
 40
0.8961842027
 40
1.0
 40
1.0
 40
1.0
 40
1.0
 10
7.552669737
 20
8.1385776398
 30
0.0
 10
7.5557159081
 20
8.1385776398
 30
0.0
 10
7.5617814006
 20
8.1387653201
 30
0.0
 10
7.5693110105
 20
8.1394597259
 30
0.0
 10
7.57524389
 20
8.1402849074
 30
0.0
 10
7.5810331303
 20
8.1412751473
 30
0.0
 10
7.5880544145
 20
8.1428106745
 30
0.0
 10
7.5961180032
 20
8.1450998091
 30
0.0
 10
7.6036521345
 20
8.1477613484
 30
0.0
 10
7.6105513087
 20
8.150689904
 30
0.0
 10
7.6148603281
 20
8.1528520298
 30
0.0
 10
7.6168876625
 20
8.1539546077
 30
0.0
  0
SPLINE
  5
395
100
AcDbEntity
  8
ALL_FEATURES
100
AcDbSpline
 62
7
  6
CONTINUOUS
 70
0
 71
3
 72
13
 73
9
 74
0
 42
0.0000001
 43
0.0000001
 44
0.0000000001
 40
0.0
 40
0.0
 40
0.0
 40
0.0
 40
0.2166463015
 40
0.3369284096
 40
0.4630313936
 40
0.7271468397
 40
0.8629514672
 40
1.0
 40
1.0
 40
1.0
 40
1.0
 10
7.4884514436
 20
8.1539545684
 30
0.0
 10
7.4926811416
 20
8.1516542915
 30
0.0
 10
7.4995138508
 20
8.1485287312
 30
0.0
 10
7.5092208606
 20
8.1451004533
 30
0.0
 10
7.5201406444
 20
8.1419987293
 30
0.0
 10
7.5316699263
 20
8.1398610113
 30
0.0
 10
7.5435581777
 20
8.1387656568
 30
0.0
 10
7.5496239818
 20
8.1385776398
 30
0.0
 10
7.552669737
 20
8.1385776398
 30
0.0
  0
SPLINE
  5
396
100
AcDbEntity
  8
ALL_FEATURES
100
AcDbSpline
 62
7
  6
CONTINUOUS
 70
0
 71
3
 72
16
 73
12
 74
0
 42
0.0000001
 43
0.0000001
 44
0.0000000001
 40
0.0
 40
0.0
 40
0.0
 40
0.0
 40
0.1370335261
 40
0.2727912139
 40
0.3399414122
 40
0.406456891
 40
0.5369692258
 40
0.6630433665
 40
0.7832964735
 40
0.8961842027
 40
1.0
 40
1.0
 40
1.0
 40
1.0
 10
7.552669737
 20
7.9760776398
 30
0.0
 10
7.5496235659
 20
7.9760776398
 30
0.0
 10
7.5435580734
 20
7.9758899594
 30
0.0
 10
7.5360284635
 20
7.9751955536
 30
0.0
 10
7.530095584
 20
7.9743703721
 30
0.0
 10
7.5243063437
 20
7.9733801322
 30
0.0
 10
7.5172850595
 20
7.971844605
 30
0.0
 10
7.5092214708
 20
7.9695554704
 30
0.0
 10
7.5016873395
 20
7.9668939311
 30
0.0
 10
7.4947881653
 20
7.9639653755
 30
0.0
 10
7.4904791459
 20
7.9618032497
 30
0.0
 10
7.4884518115
 20
7.9607006718
 30
0.0
  0
SPLINE
  5
397
100
AcDbEntity
  8
ALL_FEATURES
100
AcDbSpline
 62
7
  6
CONTINUOUS
 70
0
 71
3
 72
13
 73
9
 74
0
 42
0.0000001
 43
0.0000001
 44
0.0000000001
 40
0.0
 40
0.0
 40
0.0
 40
0.0
 40
0.2166463016
 40
0.3369284096
 40
0.4630313936
 40
0.7271468397
 40
0.8629514672
 40
1.0
 40
1.0
 40
1.0
 40
1.0
 10
8.0515330284
 20
7.9607007111
 30
0.0
 10
8.0473033305
 20
7.963000988
 30
0.0
 10
8.0404706213
 20
7.9661265483
 30
0.0
 10
8.0307636115
 20
7.9695548262
 30
0.0
 10
8.0198438276
 20
7.9726565502
 30
0.0
 10
8.0083145458
 20
7.9747942682
 30
0.0
 10
7.9964262944
 20
7.9758896227
 30
0.0
 10
7.9903604902
 20
7.9760776398
 30
0.0
 10
7.9873147351
 20
7.9760776398
 30
0.0
  0
SPLINE
  5
398
100
AcDbEntity
  8
ALL_FEATURES
100
AcDbSpline
 62
7
  6
CONTINUOUS
 70
0
 71
3
 72
16
 73
12
 74
0
 42
0.0000001
 43
0.0000001
 44
0.0000000001
 40
0.0
 40
0.0
 40
0.0
 40
0.0
 40
0.1370335261
 40
0.2727912139
 40
0.3399414122
 40
0.406456891
 40
0.5369692258
 40
0.6630433665
 40
0.7832964735
 40
0.8961842027
 40
1.0
 40
1.0
 40
1.0
 40
1.0
 10
7.9873147351
 20
8.1385776398
 30
0.0
 10
7.9903609062
 20
8.1385776398
 30
0.0
 10
7.9964263987
 20
8.1387653201
 30
0.0
 10
8.0039560086
 20
8.1394597259
 30
0.0
 10
8.0098888881
 20
8.1402849074
 30
0.0
 10
8.0156781283
 20
8.1412751473
 30
0.0
 10
8.0226994125
 20
8.1428106745
 30
0.0
 10
8.0307630012
 20
8.1450998091
 30
0.0
 10
8.0382971325
 20
8.1477613484
 30
0.0
 10
8.0451963068
 20
8.150689904
 30
0.0
 10
8.0495053262
 20
8.1528520298
 30
0.0
 10
8.0515326605
 20
8.1539546077
 30
0.0
  0
SPLINE
  5
399
100
AcDbEntity
  8
0
100
AcDbSpline
 62
7
  6
CONTINUOUS
 70
0
 71
3
 72
15
 73
11
 74
0
 42
0.0000001
 43
0.0000001
 44
0.0000000001
 40
0.0
 40
0.0
 40
0.0
 40
0.0
 40
0.0902886101
 40
0.1919057747
 40
0.3046800166
 40
0.4279094476
 40
0.5604866715
 40
0.7010257806
 40
0.8480530343
 40
1.0
 40
1.0
 40
1.0
 40
1.0
 10
7.8553029248
 20
8.1808964688
 30
0.0
 10
7.8535113748
 20
8.1813769039
 30
0.0
 10
7.8496281819
 20
8.1821243209
 30
0.0
 10
7.8433799249
 20
8.1826262845
 30
0.0
 10
7.8364363381
 20
8.1825580501
 30
0.0
 10
7.8288854823
 20
8.1819223185
 30
0.0
 10
7.820824734
 20
8.1807429159
 30
0.0
 10
7.812355663
 20
8.1790619517
 30
0.0
 10
7.8035782354
 20
8.1769359042
 30
0.0
 10
7.7976601535
 20
8.1752886226
 30
0.0
 10
7.7946642562
 20
8.1744119432
 30
0.0
  0
SPLINE
  5
39A
100
AcDbEntity
  8
ALL_FEATURES
100
AcDbSpline
 62
7
  6
CONTINUOUS
 70
0
 71
3
 72
10
 73
6
 74
0
 42
0.0000001
 43
0.0000001
 44
0.0000000001
 40
0.0
 40
0.0
 40
0.0
 40
0.0
 40
0.2460155737
 40
0.4951734242
 40
1.0
 40
1.0
 40
1.0
 40
1.0
 10
7.9230955693
 20
8.1539546817
 30
0.0
 10
7.9178303132
 20
8.1568190452
 30
0.0
 10
7.9070521695
 20
8.162260499
 30
0.0
 10
7.8846786633
 20
8.171929064
 30
0.0
 10
7.8671834803
 20
8.1777103301
 30
0.0
 10
7.8553035703
 20
8.1808961383
 30
0.0
  0
SPLINE
  5
39B
100
AcDbEntity
  8
ALL_FEATURES
100
AcDbSpline
 62
7
  6
CONTINUOUS
 70
0
 71
3
 72
10
 73
6
 74
0
 42
0.0000001
 43
0.0000001
 44
0.0000000001
 40
0.0
 40
0.0
 40
0.0
 40
0.0
 40
0.5042838966
 40
0.7534949552
 40
1.0
 40
1.0
 40
1.0
 40
1.0
 10
7.8686872775
 20
7.9376613754
 30
0.0
 10
7.8781716497
 20
7.9406525938
 30
0.0
 10
7.8921466822
 20
7.9457902664
 30
0.0
 10
7.9101195924
 20
7.9539190495
 30
0.0
 10
7.9188252888
 20
7.9583775132
 30
0.0
 10
7.9230955693
 20
7.9607005978
 30
0.0
  0
SPLINE
  5
39C
100
AcDbEntity
  8
ALL_FEATURES
100
AcDbSpline
 62
7
  6
CONTINUOUS
 70
0
 71
3
 72
10
 73
6
 74
0
 42
0.0000001
 43
0.0000001
 44
0.0000000001
 40
0.0
 40
0.0
 40
0.0
 40
0.0
 40
0.2507452057
 40
0.5013309566
 40
1.0
 40
1.0
 40
1.0
 40
1.0
 10
7.7700768978
 20
7.9225776506
 30
0.0
 10
7.7763722756
 20
7.9225792577
 30
0.0
 10
7.788962611
 20
7.922940672
 30
0.0
 10
7.8139859917
 20
7.9250821492
 30
0.0
 10
7.832577604
 20
7.9282875992
 30
0.0
 10
7.8447721158
 20
7.9311234942
 30
0.0
  0
SPLINE
  5
39D
100
AcDbEntity
  8
ALL_FEATURES
100
AcDbSpline
 62
7
  6
CONTINUOUS
 70
0
 71
3
 72
13
 73
9
 74
0
 42
0.0000001
 43
0.0000001
 44
0.0000000001
 40
0.0
 40
0.0
 40
0.0
 40
0.0
 40
0.2166462597
 40
0.3369283623
 40
0.4630313481
 40
0.7271468123
 40
0.8629514529
 40
1.0
 40
1.0
 40
1.0
 40
1.0
 10
7.9230964185
 20
8.1539545811
 30
0.0
 10
7.9273261166
 20
8.1516543026
 30
0.0
 10
7.934158827
 20
8.14852874
 30
0.0
 10
7.9438658391
 20
8.1451004595
 30
0.0
 10
7.9547856271
 20
8.1419987326
 30
0.0
 10
7.9663149141
 20
8.1398610125
 30
0.0
 10
7.9782031712
 20
8.138765657
 30
0.0
 10
7.9842689784
 20
8.1385776398
 30
0.0
 10
7.9873147351
 20
8.1385776398
 30
0.0
  0
SPLINE
  5
39E
100
AcDbEntity
  8
ALL_FEATURES
100
AcDbSpline
 62
7
  6
CONTINUOUS
 70
0
 71
3
 72
16
 73
12
 74
0
 42
0.0000001
 43
0.0000001
 44
0.0000000001
 40
0.0
 40
0.0
 40
0.0
 40
0.0
 40
0.1370335261
 40
0.2727912139
 40
0.3399414122
 40
0.406456891
 40
0.5369692258
 40
0.6630433665
 40
0.7832964735
 40
0.8961842027
 40
1.0
 40
1.0
 40
1.0
 40
1.0
 10
7.9873147351
 20
7.9760776398
 30
0.0
 10
7.9842685639
 20
7.9760776398
 30
0.0
 10
7.9782030714
 20
7.9758899594
 30
0.0
 10
7.9706734615
 20
7.9751955536
 30
0.0
 10
7.964740582
 20
7.9743703721
 30
0.0
 10
7.9589513418
 20
7.9733801322
 30
0.0
 10
7.9519300576
 20
7.971844605
 30
0.0
 10
7.9438664689
 20
7.9695554704
 30
0.0
 10
7.9363323376
 20
7.9668939311
 30
0.0
 10
7.9294331633
 20
7.9639653755
 30
0.0
 10
7.9251241439
 20
7.9618032497
 30
0.0
 10
7.9230968096
 20
7.9607006718
 30
0.0
  0
SPLINE
  5
39F
100
AcDbEntity
  8
ALL_FEATURES
100
AcDbSpline
 62
7
  6
CONTINUOUS
 70
0
 71
3
 72
10
 73
6
 74
0
 42
0.0000001
 43
0.0000001
 44
0.0000000001
 40
0.0
 40
0.0
 40
0.0
 40
0.0
 40
0.2460114174
 40
0.4951817938
 40
1.0
 40
1.0
 40
1.0
 40
1.0
 10
7.6168889028
 20
8.1539546817
 30
0.0
 10
7.62215405
 20
8.156818986
 30
0.0
 10
7.6329323511
 20
8.1622604752
 30
0.0
 10
7.655305734
 20
8.1719291033
 30
0.0
 10
7.6728009768
 20
8.177710266
 30
0.0
 10
7.6846806117
 20
8.1808961333
 30
0.0
  0
SPLINE
  5
3A0
100
AcDbEntity
  8
ALL_FEATURES
100
AcDbSpline
 62
7
  6
CONTINUOUS
 70
0
 71
3
 72
11
 73
7
 74
0
 42
0.0000001
 43
0.0000001
 44
0.0000000001
 40
0.0
 40
0.0
 40
0.0
 40
0.0
 40
0.2254140386
 40
0.4669269932
 40
0.725138763
 40
1.0
 40
1.0
 40
1.0
 40
1.0
 10
7.6712962731
 20
7.9376617676
 30
0.0
 10
7.6725060942
 20
7.9372800843
 30
0.0
 10
7.6750520746
 20
7.9366125098
 30
0.0
 10
7.6790770588
 20
7.9359145122
 30
0.0
 10
7.6834198564
 20
7.9354960479
 30
0.0
 10
7.6864209656
 20
7.9354087332
 30
0.0
 10
7.6879678494
 20
7.9354087332
 30
0.0
  0
SPLINE
  5
3A1
100
AcDbEntity
  8
ALL_FEATURES
100
AcDbSpline
 62
7
  6
CONTINUOUS
 70
0
 71
3
 72
10
 73
6
 74
0
 42
0.0000001
 43
0.0000001
 44
0.0000000001
 40
0.0
 40
0.0
 40
0.0
 40
0.0
 40
0.5042873901
 40
0.7534980573
 40
1.0
 40
1.0
 40
1.0
 40
1.0
 10
7.6712972535
 20
7.9376613641
 30
0.0
 10
7.6618128294
 20
7.9406526794
 30
0.0
 10
7.6478377004
 20
7.9457902977
 30
0.0
 10
7.6298647818
 20
7.9539191137
 30
0.0
 10
7.6211591337
 20
7.9583775401
 30
0.0
 10
7.6168889028
 20
7.9607005978
 30
0.0
  0
SPLINE
  5
3A2
100
AcDbEntity
  8
ALL_FEATURES
100
AcDbSpline
 62
7
  6
CONTINUOUS
 70
0
 71
3
 72
11
 73
7
 74
0
 42
0.0000001
 43
0.0000001
 44
0.0000000001
 40
0.0
 40
0.0
 40
0.0
 40
0.0
 40
0.2833866531
 40
0.543749486
 40
0.782129008
 40
1.0
 40
1.0
 40
1.0
 40
1.0
 10
7.6952112272
 20
7.9311235549
 30
0.0
 10
7.6943882445
 20
7.9313149865
 30
0.0
 10
7.692820535
 20
7.9317348502
 30
0.0
 10
7.6906199816
 20
7.9325150608
 30
0.0
 10
7.6886760878
 20
7.9334094339
 30
0.0
 10
7.687503196
 20
7.9341053352
 30
0.0
 10
7.6869663767
 20
7.9344711474
 30
0.0
  0
LINE
  5
3A3
100
AcDbEntity
  8
ALL_FEATURES
100
AcDbLine
 62
7
  6
CONTINUOUS
 10
7.6869663767
 20
7.9344711474
 11
7.6856923915
 21
7.9354469842
  0
SPLINE
  5
3A4
100
AcDbEntity
  8
ALL_FEATURES
100
AcDbSpline
 62
7
  6
CONTINUOUS
 70
0
 71
3
 72
9
 73
5
 74
0
 42
0.0000001
 43
0.0000001
 44
0.0000000001
 40
0.0
 40
0.0
 40
0.0
 40
0.0
 40
0.5011957438
 40
1.0
 40
1.0
 40
1.0
 40
1.0
 10
7.7604517344
 20
7.9227145703
 30
0.0
 10
7.74945311
 20
7.9230301685
 30
0.0
 10
7.7275259372
 20
7.9247493231
 30
0.0
 10
7.7058780843
 20
7.9286431387
 30
0.0
 10
7.6952120435
 20
7.9311235196
 30
0.0
  0
SPLINE
  5
3A5
100
AcDbEntity
  8
ALL_FEATURES
100
AcDbSpline
 62
7
  6
CONTINUOUS
 70
0
 71
3
 72
13
 73
9
 74
0
 42
0.0000001
 43
0.0000001
 44
0.0000000001
 40
0.0
 40
0.0
 40
0.0
 40
0.0
 40
0.2764374665
 40
0.538642448
 40
0.6627801888
 40
0.7814200587
 40
0.8940076295
 40
1.0
 40
1.0
 40
1.0
 40
1.0
 10
7.7485995138
 20
7.9359476031
 30
0.0
 10
7.7449288699
 20
7.9350421436
 30
0.0
 10
7.7377497509
 20
7.9333832092
 30
0.0
 10
7.7288346102
 20
7.9317208756
 30
0.0
 10
7.7219951599
 20
7.9307544494
 30
0.0
 10
7.7171618126
 20
7.9302349664
 30
0.0
 10
7.7125596916
 20
7.9299166562
 30
0.0
 10
7.7095699879
 20
7.9298397635
 30
0.0
 10
7.7081203927
 20
7.9298397635
 30
0.0
  0
SPLINE
  5
3A6
100
AcDbEntity
  8
ALL_FEATURES
100
AcDbSpline
 62
7
  6
CONTINUOUS
 70
0
 71
3
 72
11
 73
7
 74
0
 42
0.0000001
 43
0.0000001
 44
0.0000000001
 40
0.0
 40
0.0
 40
0.0
 40
0.0
 40
0.276899702
 40
0.5361368031
 40
0.7771869872
 40
1.0
 40
1.0
 40
1.0
 40
1.0
 10
7.7081203927
 20
7.9298397635
 30
0.0
 10
7.7069206158
 20
7.9298397635
 30
0.0
 10
7.7045971536
 20
7.9298893261
 30
0.0
 10
7.7012365595
 20
7.9301273166
 30
0.0
 10
7.698126902
 20
7.9305238747
 30
0.0
 10
7.6961515487
 20
7.9309048294
 30
0.0
 10
7.6952112272
 20
7.9311235549
 30
0.0
  0
SPLINE
  5
3A7
100
AcDbEntity
  8
ALL_FEATURES
100
AcDbSpline
 62
7
  6
CONTINUOUS
 70
0
 71
3
 72
19
 73
15
 74
0
 42
0.0000001
 43
0.0000001
 44
0.0000000001
 40
0.0
 40
0.0
 40
0.0
 40
0.0
 40
0.0537664638
 40
0.1078543848
 40
0.1625442097
 40
0.2181208215
 40
0.2748246946
 40
0.3328574414
 40
0.3923789757
 40
0.4535031704
 40
0.5807000692
 40
0.7146153001
 40
0.8547138105
 40
1.0
 40
1.0
 40
1.0
 40
1.0
 10
7.8968124246
 20
7.9537979695
 30
0.0
 10
7.8949467504
 20
7.9537979695
 30
0.0
 10
7.8912011387
 20
7.9540011373
 30
0.0
 10
7.8856245515
 20
7.9549117117
 30
0.0
 10
7.8801145481
 20
7.956423218
 30
0.0
 10
7.8747050728
 20
7.9585255581
 30
0.0
 10
7.869427476
 20
7.9612056514
 30
0.0
 10
7.8643126882
 20
7.9644468631
 30
0.0
 10
7.8593900786
 20
7.9682298327
 30
0.0
 10
7.853038359
 20
7.9740409377
 30
0.0
 10
7.845747462
 20
7.9825832061
 30
0.0
 10
7.8383194391
 20
7.9944086388
 30
0.0
 10
7.8322515941
 20
8.0076739076
 30
0.0
 10
7.8292470331
 20
8.017137928
 30
0.0
 10
7.8279943768
 20
8.0220211929
 30
0.0
  0
SPLINE
  5
3A8
100
AcDbEntity
  8
ALL_FEATURES
100
AcDbSpline
 62
7
  6
CONTINUOUS
 70
0
 71
3
 72
11
 73
7
 74
0
 42
0.0000001
 43
0.0000001
 44
0.0000000001
 40
0.0
 40
0.0
 40
0.0
 40
0.0
 40
0.2450693088
 40
0.492197791
 40
0.7432644464
 40
1.0
 40
1.0
 40
1.0
 40
1.0
 10
7.8968124246
 20
7.9537979695
 30
0.0
 10
7.8990535738
 20
7.9537979695
 30
0.0
 10
7.9035600406
 20
7.9540918005
 30
0.0
 10
7.9102467414
 20
7.9554075424
 30
0.0
 10
7.9168158386
 20
7.9575861563
 30
0.0
 10
7.9210261406
 20
7.9595751362
 30
0.0
 10
7.9230886744
 20
7.9606968718
 30
0.0
  0
SPLINE
  5
3A9
100
AcDbEntity
  8
ALL_FEATURES
100
AcDbSpline
 62
7
  6
CONTINUOUS
 70
0
 71
3
 72
20
 73
16
 74
0
 42
0.0000001
 43
0.0000001
 44
0.0000000001
 40
0.0
 40
0.0
 40
0.0
 40
0.0
 40
0.0537588922
 40
0.1078445133
 40
0.1625295679
 40
0.2180999324
 40
0.2747986276
 40
0.3328261802
 40
0.3923419402
 40
0.4534602223
 40
0.5162508109
 40
0.580739549
 40
0.7146428024
 40
0.854727002
 40
1.0
 40
1.0
 40
1.0
 40
1.0
 10
7.6431720474
 20
7.9537979695
 30
0.0
 10
7.6450376348
 20
7.9537979695
 30
0.0
 10
7.6487832494
 20
7.9540012233
 30
0.0
 10
7.6543598777
 20
7.9549116659
 30
0.0
 10
7.659869964
 20
7.9564231906
 30
0.0
 10
7.6652793682
 20
7.9585256608
 30
0.0
 10
7.6705570172
 20
7.9612055766
 30
0.0
 10
7.6756718009
 20
7.9644469207
 30
0.0
 10
7.6805942428
 20
7.9682297683
 30
0.0
 10
7.6852961372
 20
7.9725313419
 30
0.0
 10
7.6897504595
 20
7.9773266869
 30
0.0
 10
7.6953950081
 20
7.9844278233
 30
0.0
 10
7.7016660073
 20
7.9944099401
 30
0.0
 10
7.7077325958
 20
8.0076735136
 30
0.0
 10
7.7107374346
 20
8.017137911
 30
0.0
 10
7.7119900953
 20
8.0220211929
 30
0.0
  0
SPLINE
  5
3AA
100
AcDbEntity
  8
ALL_FEATURES
100
AcDbSpline
 62
7
  6
CONTINUOUS
 70
0
 71
3
 72
20
 73
16
 74
0
 42
0.0000001
 43
0.0000001
 44
0.0000000001
 40
0.0
 40
0.0
 40
0.0
 40
0.0
 40
0.1452729979
 40
0.2853571975
 40
0.419260451
 40
0.483749189
 40
0.5465397776
 40
0.6076580598
 40
0.6671738197
 40
0.7252013724
 40
0.7819000676
 40
0.8374704321
 40
0.8921554867
 40
0.9462411078
 40
1.0
 40
1.0
 40
1.0
 40
1.0
 10
7.7119900953
 20
8.0926340866
 30
0.0
 10
7.7107374346
 20
8.0975173685
 30
0.0
 10
7.7077325958
 20
8.1069817659
 30
0.0
 10
7.7016660073
 20
8.1202453394
 30
0.0
 10
7.6953950081
 20
8.1302274562
 30
0.0
 10
7.6897504595
 20
8.1373285926
 30
0.0
 10
7.6852961372
 20
8.1421239376
 30
0.0
 10
7.6805942428
 20
8.1464255112
 30
0.0
 10
7.6756718009
 20
8.1502083588
 30
0.0
 10
7.6705570172
 20
8.1534497029
 30
0.0
 10
7.6652793682
 20
8.1561296187
 30
0.0
 10
7.659869964
 20
8.1582320889
 30
0.0
 10
7.6543598777
 20
8.1597436136
 30
0.0
 10
7.6487832494
 20
8.1606540562
 30
0.0
 10
7.6450376348
 20
8.16085731
 30
0.0
 10
7.6431720474
 20
8.16085731
 30
0.0
  0
SPLINE
  5
3AB
100
AcDbEntity
  8
ALL_FEATURES
100
AcDbSpline
 62
7
  6
CONTINUOUS
 70
0
 71
3
 72
13
 73
9
 74
0
 42
0.0000001
 43
0.0000001
 44
0.0000000001
 40
0.0
 40
0.0
 40
0.0
 40
0.0
 40
0.2481017741
 40
0.3738067996
 40
0.4999992553
 40
0.6261921462
 40
0.7518983938
 40
1.0
 40
1.0
 40
1.0
 40
1.0
 10
7.7913850099
 20
7.9359475918
 30
0.0
 10
7.7879162706
 20
7.9368032462
 30
0.0
 10
7.7826095347
 20
7.9377980554
 30
0.0
 10
7.7754379565
 20
7.9384751403
 30
0.0
 10
7.7699922888
 20
7.9386466559
 30
0.0
 10
7.7645466034
 20
7.9384751427
 30
0.0
 10
7.7573750037
 20
7.9377980582
 30
0.0
 10
7.7520682508
 20
7.9368032569
 30
0.0
 10
7.7485995138
 20
7.9359476031
 30
0.0
  0
SPLINE
  5
3AC
100
AcDbEntity
  8
ALL_FEATURES
100
AcDbSpline
 62
7
  6
CONTINUOUS
 70
0
 71
3
 72
15
 73
11
 74
0
 42
0.0000001
 43
0.0000001
 44
0.0000000001
 40
0.0
 40
0.0
 40
0.0
 40
0.0
 40
0.1596565092
 40
0.3069392317
 40
0.4427262188
 40
0.5681612147
 40
0.6846743284
 40
0.7940190777
 40
0.8983094177
 40
1.0
 40
1.0
 40
1.0
 40
1.0
 10
7.7913847658
 20
7.9359476464
 30
0.0
 10
7.7905108741
 20
7.934877759
 30
0.0
 10
7.7887732816
 20
7.9328666347
 30
0.0
 10
7.7860767918
 20
7.9301411441
 30
0.0
 10
7.7833963261
 20
7.92783045
 30
0.0
 10
7.7807277853
 20
7.9259337654
 30
0.0
 10
7.7780665936
 20
7.9244506886
 30
0.0
 10
7.775407442
 20
7.923383246
 30
0.0
 10
7.7727473772
 20
7.9227347954
 30
0.0
 10
7.7709629716
 20
7.9225830794
 30
0.0
 10
7.7700831083
 20
7.9225779276
 30
0.0
  0
SPLINE
  5
3AD
100
AcDbEntity
  8
ALL_FEATURES
100
AcDbSpline
 62
7
  6
CONTINUOUS
 70
0
 71
3
 72
15
 73
11
 74
0
 42
0.0000001
 43
0.0000001
 44
0.0000000001
 40
0.0
 40
0.0
 40
0.0
 40
0.0
 40
0.1596769999
 40
0.3069722399
 40
0.4427690673
 40
0.568217704
 40
0.6847487004
 40
0.7940891572
 40
0.8983355376
 40
1.0
 40
1.0
 40
1.0
 40
1.0
 10
7.7485997393
 20
7.9359476545
 30
0.0
 10
7.7494738468
 20
7.9348776306
 30
0.0
 10
7.7512117333
 20
7.9328662235
 30
0.0
 10
7.7539085597
 20
7.9301402895
 30
0.0
 10
7.756589426
 20
7.9278293205
 30
0.0
 10
7.7592585515
 20
7.925932555
 30
0.0
 10
7.76192032
 20
7.924449731
 30
0.0
 10
7.7645794133
 20
7.9233825409
 30
0.0
 10
7.7672389748
 20
7.922734172
 30
0.0
 10
7.7690229082
 20
7.9225828597
 30
0.0
 10
7.7699025879
 20
7.922577906
 30
0.0
  0
SPLINE
  5
3AE
100
AcDbEntity
  8
ALL_FEATURES
100
AcDbSpline
 62
7
  6
CONTINUOUS
 70
0
 71
3
 72
15
 73
11
 74
0
 42
0.0000001
 43
0.0000001
 44
0.0000000001
 40
0.0
 40
0.0
 40
0.0
 40
0.0
 40
0.160715834
 40
0.3105694946
 40
0.4497646967
 40
0.578718437
 40
0.6978441223
 40
0.8075339542
 40
0.9081520195
 40
1.0
 40
1.0
 40
1.0
 40
1.0
 10
7.7119900953
 20
8.0220211929
 30
0.0
 10
7.7128562348
 20
8.0177700298
 30
0.0
 10
7.7147905247
 20
8.0096063607
 30
0.0
 10
7.7182137063
 20
7.9979531743
 30
0.0
 10
7.7218721948
 20
7.9872753383
 30
0.0
 10
7.7256447068
 20
7.9775227044
 30
0.0
 10
7.7294594695
 20
7.9686477671
 30
0.0
 10
7.7332723408
 20
7.9606111828
 30
0.0
 10
7.737059123
 20
7.9533843884
 30
0.0
 10
7.7396736214
 20
7.9488917891
 30
0.0
 10
7.7409780158
 20
7.9467832132
 30
0.0
  0
SPLINE
  5
3AF
100
AcDbEntity
  8
ALL_FEATURES
100
AcDbSpline
 62
7
  6
CONTINUOUS
 70
0
 71
3
 72
11
 73
7
 74
0
 42
0.0000001
 43
0.0000001
 44
0.0000000001
 40
0.0
 40
0.0
 40
0.0
 40
0.0
 40
0.2567357256
 40
0.5077983473
 40
0.7549388824
 40
1.0
 40
1.0
 40
1.0
 40
1.0
 10
7.6168957919
 20
8.153958429
 30
0.0
 10
7.6189583442
 20
8.1550801321
 30
0.0
 10
7.6231686001
 20
8.1570691109
 30
0.0
 10
7.6297377644
 20
8.1592477741
 30
0.0
 10
7.6364244822
 20
8.1605633954
 30
0.0
 10
7.640930974
 20
8.16085731
 30
0.0
 10
7.6431720474
 20
8.16085731
 30
0.0
  0
SPLINE
  5
3B0
100
AcDbEntity
  8
ALL_FEATURES
100
AcDbSpline
 62
7
  6
CONTINUOUS
 70
0
 71
3
 72
15
 73
11
 74
0
 42
0.0000001
 43
0.0000001
 44
0.0000000001
 40
0.0
 40
0.0
 40
0.0
 40
0.0
 40
0.1211783746
 40
0.2456335574
 40
0.3722606961
 40
0.5000000215
 40
0.6277393438
 40
0.754366474
 40
0.8788216431
 40
1.0
 40
1.0
 40
1.0
 40
1.0
 10
7.7119900756
 20
8.0220212092
 30
0.0
 10
7.7166418044
 20
8.0227000449
 30
0.0
 10
7.7260996411
 20
8.0238860902
 30
0.0
 10
7.7404887796
 20
8.0251493587
 30
0.0
 10
7.7551680684
 20
8.0259121901
 30
0.0
 10
7.7699922326
 20
8.0261674626
 30
0.0
 10
7.7848163965
 20
8.0259121867
 30
0.0
 10
7.7994956841
 20
8.0251493522
 30
0.0
 10
7.8138848208
 20
8.0238860813
 30
0.0
 10
7.8233426561
 20
8.0227000351
 30
0.0
 10
7.8279943842
 20
8.0220211991
 30
0.0
  0
SPLINE
  5
3B1
100
AcDbEntity
  8
ALL_FEATURES
100
AcDbSpline
 62
7
  6
CONTINUOUS
 70
0
 71
3
 72
15
 73
11
 74
0
 42
0.0000001
 43
0.0000001
 44
0.0000000001
 40
0.0
 40
0.0
 40
0.0
 40
0.0
 40
0.160710959
 40
0.3105582188
 40
0.4497570189
 40
0.5787087597
 40
0.6978377945
 40
0.8075286422
 40
0.9081443155
 40
1.0
 40
1.0
 40
1.0
 40
1.0
 10
7.8279943768
 20
8.0220211929
 30
0.0
 10
7.827127495
 20
8.0177703111
 30
0.0
 10
7.8251955442
 20
8.0096064067
 30
0.0
 10
7.8217699582
 20
7.9979540733
 30
0.0
 10
7.8181121149
 20
7.9872761927
 30
0.0
 10
7.8143401907
 20
7.9775231654
 30
0.0
 10
7.8105258795
 20
7.968647956
 30
0.0
 10
7.8067131731
 20
7.9606112138
 30
0.0
 10
7.8029255637
 20
7.9533846351
 30
0.0
 10
7.8003106253
 20
7.9488921426
 30
0.0
 10
7.799006325
 20
7.9467832612
 30
0.0
  0
SPLINE
  5
3B2
100
AcDbEntity
  8
ALL_FEATURES
100
AcDbSpline
 62
7
  6
CONTINUOUS
 70
0
 71
3
 72
19
 73
15
 74
0
 42
0.0000001
 43
0.0000001
 44
0.0000000001
 40
0.0
 40
0.0
 40
0.0
 40
0.0
 40
0.1452861897
 40
0.2853847
 40
0.4192999309
 40
0.5464968297
 40
0.6076210244
 40
0.6671425587
 40
0.7251753055
 40
0.7818791785
 40
0.8374557903
 40
0.8921456152
 40
0.9462335362
 40
1.0
 40
1.0
 40
1.0
 40
1.0
 10
7.8279943768
 20
8.0926340866
 30
0.0
 10
7.8292470331
 20
8.0975173515
 30
0.0
 10
7.8322515941
 20
8.1069813719
 30
0.0
 10
7.8383194391
 20
8.1202466407
 30
0.0
 10
7.845747462
 20
8.1320720734
 30
0.0
 10
7.853038359
 20
8.1406143418
 30
0.0
 10
7.8593900786
 20
8.1464254468
 30
0.0
 10
7.8643126882
 20
8.1502084164
 30
0.0
 10
7.869427476
 20
8.1534496281
 30
0.0
 10
7.8747050728
 20
8.1561297214
 30
0.0
 10
7.8801145481
 20
8.1582320615
 30
0.0
 10
7.8856245515
 20
8.1597435678
 30
0.0
 10
7.8912011387
 20
8.1606541422
 30
0.0
 10
7.8949467504
 20
8.16085731
 30
0.0
 10
7.8968124246
 20
8.16085731
 30
0.0
  0
SPLINE
  5
3B3
100
AcDbEntity
  8
ALL_FEATURES
100
AcDbSpline
 62
7
  6
CONTINUOUS
 70
0
 71
3
 72
21
 73
17
 74
0
 42
0.0000001
 43
0.0000001
 44
0.0000000001
 40
0.0
 40
0.0
 40
0.0
 40
0.0
 40
0.1180893092
 40
0.240062953
 40
0.3030496318
 40
0.3675245924
 40
0.4333365446
 40
0.4666099501
 40
0.4999998214
 40
0.5333896189
 40
0.5666629844
 40
0.6324746463
 40
0.6969495887
 40
0.759936523
 40
0.8819105308
 40
1.0
 40
1.0
 40
1.0
 40
1.0
 10
7.7119900953
 20
8.0926340866
 30
0.0
 10
7.7103338324
 20
8.0901339822
 30
0.0
 10
7.7071311783
 20
8.0849395734
 30
0.0
 10
7.7037208662
 20
8.0780181063
 30
0.0
 10
7.701531874
 20
8.0720671774
 30
0.0
 10
7.7002341931
 20
8.0673264211
 30
0.0
 10
7.6995400541
 20
8.0632225097
 30
0.0
 10
7.6992528165
 20
8.059868964
 30
0.0
 10
7.6991808292
 20
8.0573276555
 30
0.0
 10
7.699252813
 20
8.054786348
 30
0.0
 10
7.6995400481
 20
8.0514328123
 30
0.0
 10
7.7002341804
 20
8.0473289096
 30
0.0
 10
7.7015318419
 20
8.042588148
 30
0.0
 10
7.7037208834
 20
8.0366372215
 30
0.0
 10
7.7071311519
 20
8.029715712
 30
0.0
 10
7.7103338472
 20
8.024521312
 30
0.0
 10
7.7119900953
 20
8.0220211929
 30
0.0
  0
SPLINE
  5
3B4
100
AcDbEntity
  8
ALL_FEATURES
100
AcDbSpline
 62
7
  6
CONTINUOUS
 70
0
 71
3
 72
15
 73
11
 74
0
 42
0.0000001
 43
0.0000001
 44
0.0000000001
 40
0.0
 40
0.0
 40
0.0
 40
0.0
 40
0.1211783787
 40
0.2456335546
 40
0.3722606807
 40
0.4999999926
 40
0.6277393055
 40
0.7543664349
 40
0.8788216156
 40
1.0
 40
1.0
 40
1.0
 40
1.0
 10
7.7119900996
 20
8.0926340902
 30
0.0
 10
7.7166418272
 20
8.0919552539
 30
0.0
 10
7.7260996611
 20
8.0907692073
 30
0.0
 10
7.7404887949
 20
8.0895059367
 30
0.0
 10
7.7551680784
 20
8.0887431032
 30
0.0
 10
7.7699922373
 20
8.0884878285
 30
0.0
 10
7.7848163963
 20
8.0887431024
 30
0.0
 10
7.7994956801
 20
8.0895059352
 30
0.0
 10
7.8138848146
 20
8.0907692049
 30
0.0
 10
7.8233426489
 20
8.0919552507
 30
0.0
 10
7.8279943769
 20
8.0926340866
 30
0.0
  0
SPLINE
  5
3B5
100
AcDbEntity
  8
ALL_FEATURES
100
AcDbSpline
 62
7
  6
CONTINUOUS
 70
0
 71
3
 72
27
 73
23
 74
0
 42
0.0000001
 43
0.0000001
 44
0.0000000001
 40
0.0
 40
0.0
 40
0.0
 40
0.0
 40
0.0263433479
 40
0.0533413754
 40
0.0810493965
 40
0.1095024277
 40
0.1686521556
 40
0.2307613664
 40
0.2955165439
 40
0.3624162265
 40
0.4308207471
 40
0.5
 40
0.5691792529
 40
0.6375837735
 40
0.7044834561
 40
0.7692386336
 40
0.8313478444
 40
0.8904975723
 40
0.9189506035
 40
0.9466586246
 40
0.9736566521
 40
1.0
 40
1.0
 40
1.0
 40
1.0
 10
7.4884505685
 20
7.9607006078
 30
0.0
 10
7.4901832031
 20
7.9616431387
 30
0.0
 10
7.4936022665
 20
7.963720285
 30
0.0
 10
7.4984906727
 20
7.9673282713
 30
0.0
 10
7.5031720418
 20
7.9714448231
 30
0.0
 10
7.5091784042
 20
7.9776577109
 30
0.0
 10
7.5160066288
 20
7.9866031351
 30
0.0
 10
7.5228701286
 20
7.9987663636
 30
0.0
 10
7.5283689247
 20
8.0122304291
 30
0.0
 10
7.5323835318
 20
8.026694774
 30
0.0
 10
7.5348278012
 20
8.041839257
 30
0.0
 10
7.535648503
 20
8.0573276398
 30
0.0
 10
7.5348278012
 20
8.0728160225
 30
0.0
 10
7.5323835318
 20
8.0879605055
 30
0.0
 10
7.5283689247
 20
8.1024248504
 30
0.0
 10
7.5228701286
 20
8.1158889159
 30
0.0
 10
7.5160066288
 20
8.1280521444
 30
0.0
 10
7.5091784042
 20
8.1369975686
 30
0.0
 10
7.5031720418
 20
8.1432104564
 30
0.0
 10
7.4984906727
 20
8.1473270082
 30
0.0
 10
7.4936022665
 20
8.1509349945
 30
0.0
 10
7.4901832031
 20
8.1530121408
 30
0.0
 10
7.4884505685
 20
8.1539546717
 30
0.0
  0
SPLINE
  5
3B6
100
AcDbEntity
  8
ALL_FEATURES
100
AcDbSpline
 62
7
  6
CONTINUOUS
 70
0
 71
3
 72
21
 73
17
 74
0
 42
0.0000001
 43
0.0000001
 44
0.0000000001
 40
0.0
 40
0.0
 40
0.0
 40
0.0
 40
0.1180889939
 40
0.2400598358
 40
0.3030467354
 40
0.3675229937
 40
0.4333361778
 40
0.466609873
 40
0.4999998239
 40
0.5333896975
 40
0.5666633462
 40
0.6324762336
 40
0.6969524828
 40
0.7599396877
 40
0.881910858
 40
1.0
 40
1.0
 40
1.0
 40
1.0
 10
7.8279943768
 20
8.0926340866
 30
0.0
 10
7.8296488496
 20
8.0901327454
 30
0.0
 10
7.8328543255
 20
8.084940246
 30
0.0
 10
7.8362658316
 20
8.0780190906
 30
0.0
 10
7.8384547388
 20
8.072068042
 30
0.0
 10
7.8397516061
 20
8.0673268803
 30
0.0
 10
7.8404449087
 20
8.0632226925
 30
0.0
 10
7.8407317259
 20
8.0598690172
 30
0.0
 10
7.8408036112
 20
8.0573276553
 30
0.0
 10
7.8407317313
 20
8.0547862944
 30
0.0
 10
7.8404449096
 20
8.0514326299
 30
0.0
 10
7.8397516003
 20
8.0473284532
 30
0.0
 10
7.8384547574
 20
8.0425872851
 30
0.0
 10
7.83626585
 20
8.0366362192
 30
0.0
 10
7.8328543453
 20
8.02971504
 30
0.0
 10
7.8296488446
 20
8.0245225419
 30
0.0
 10
7.8279943768
 20
8.0220211929
 30
0.0
  0
SPLINE
  5
3B7
100
AcDbEntity
  8
0
100
AcDbSpline
 62
7
  6
CONTINUOUS
 70
0
 71
3
 72
18
 73
14
 74
0
 42
0.0000001
 43
0.0000001
 44
0.0000000001
 40
0.0
 40
0.0
 40
0.0
 40
0.0
 40
0.0863786032
 40
0.1333193294
 40
0.1828305696
 40
0.2897958998
 40
0.4077589035
 40
0.5372148004
 40
0.6064300257
 40
0.6787314286
 40
0.7541898739
 40
0.8328742323
 40
1.0
 40
1.0
 40
1.0
 40
1.0
 10
7.7946642448
 20
8.1744120058
 30
0.0
 10
7.7961546456
 20
8.1723332578
 30
0.0
 10
7.7983313287
 20
8.1690351493
 30
0.0
 10
7.8011148236
 20
8.1643912279
 30
0.0
 10
7.8040699907
 20
8.1591415319
 30
0.0
 10
7.8077813311
 20
8.1519081024
 30
0.0
 10
7.8121558344
 20
8.1423661608
 30
0.0
 10
7.8157038678
 20
8.1336839553
 30
0.0
 10
7.8185021573
 20
8.126163151
 30
0.0
 10
7.8206058191
 20
8.1200916443
 30
0.0
 10
7.8226454482
 20
8.1137030712
 30
0.0
 10
7.8252967041
 20
8.1045659948
 30
0.0
 10
7.8270054628
 20
8.0974831755
 30
0.0
 10
7.8279943768
 20
8.0926340866
 30
0.0
  0
SPLINE
  5
3B8
100
AcDbEntity
  8
0
100
AcDbSpline
 62
7
  6
CONTINUOUS
 70
0
 71
3
 72
16
 73
12
 74
0
 42
0.0000001
 43
0.0000001
 44
0.0000000001
 40
0.0
 40
0.0
 40
0.0
 40
0.0
 40
0.0863803884
 40
0.133322587
 40
0.1828351782
 40
0.2898030419
 40
0.4077686279
 40
0.5372272878
 40
0.6787382617
 40
0.8328713915
 40
1.0
 40
1.0
 40
1.0
 40
1.0
 10
7.7453203039
 20
8.174411987
 30
0.0
 10
7.7438300253
 20
8.1723331582
 30
0.0
 10
7.7416532894
 20
8.1690350883
 30
0.0
 10
7.7388696378
 20
8.1643912443
 30
0.0
 10
7.7359143528
 20
8.1591415872
 30
0.0
 10
7.7322029154
 20
8.1519082274
 30
0.0
 10
7.7278279959
 20
8.1423663713
 30
0.0
 10
7.7234707957
 20
8.1317019464
 30
0.0
 10
7.7192148054
 20
8.1198508115
 30
0.0
 10
7.7152142027
 20
8.1067385509
 30
0.0
 10
7.7129781182
 20
8.0974833276
 30
0.0
 10
7.7119900953
 20
8.0926340866
 30
0.0
  0
SPLINE
  5
3B9
100
AcDbEntity
  8
ALL_FEATURES
100
AcDbSpline
 62
7
  6
CONTINUOUS
 70
0
 71
3
 72
27
 73
23
 74
0
 42
0.0000001
 43
0.0000001
 44
0.0000000001
 40
0.0
 40
0.0
 40
0.0
 40
0.0
 40
0.0263431207
 40
0.0533413303
 40
0.0810492862
 40
0.1095022927
 40
0.1686520507
 40
0.2307613134
 40
0.295516503
 40
0.362416217
 40
0.4308207382
 40
0.5
 40
0.5691792618
 40
0.637583783
 40
0.704483497
 40
0.7692386866
 40
0.8313479493
 40
0.8904977073
 40
0.9189507138
 40
0.9466586697
 40
0.9736568793
 40
1.0
 40
1.0
 40
1.0
 40
1.0
 10
8.051533906
 20
7.9607006168
 30
0.0
 10
8.0498013158
 20
7.9616431942
 30
0.0
 10
8.0463821457
 20
7.9637201564
 30
0.0
 10
8.0414938688
 20
7.9673283181
 30
0.0
 10
8.0368124227
 20
7.9714447816
 30
0.0
 10
8.0308060498
 20
7.9776576624
 30
0.0
 10
8.0239778283
 20
7.986603095
 30
0.0
 10
8.0171143538
 20
7.9987663472
 30
0.0
 10
8.0116155357
 20
8.0122304134
 30
0.0
 10
8.0076009703
 20
8.0266947759
 30
0.0
 10
8.0051566661
 20
8.0418392543
 30
0.0
 10
8.0043358997
 20
8.0573276398
 30
0.0
 10
8.0051566661
 20
8.0728160252
 30
0.0
 10
8.0076009703
 20
8.0879605036
 30
0.0
 10
8.0116155357
 20
8.1024248661
 30
0.0
 10
8.0171143538
 20
8.1158889323
 30
0.0
 10
8.0239778283
 20
8.1280521845
 30
0.0
 10
8.0308060498
 20
8.1369976171
 30
0.0
 10
8.0368124227
 20
8.1432104979
 30
0.0
 10
8.0414938688
 20
8.1473269614
 30
0.0
 10
8.0463821457
 20
8.1509351231
 30
0.0
 10
8.0498013158
 20
8.1530120853
 30
0.0
 10
8.051533906
 20
8.1539546627
 30
0.0
  0
SPLINE
  5
3BA
100
AcDbEntity
  8
ALL_FEATURES
100
AcDbSpline
 62
7
  6
CONTINUOUS
 70
0
 71
3
 72
15
 73
11
 74
0
 42
0.0000001
 43
0.0000001
 44
0.0000000001
 40
0.0
 40
0.0
 40
0.0
 40
0.0
 40
0.0898167449
 40
0.1913014611
 40
0.3040792626
 40
0.4273495561
 40
0.5599813063
 40
0.7006103758
 40
0.8478060361
 40
1.0
 40
1.0
 40
1.0
 40
1.0
 10
7.8447732563
 20
7.9311236063
 30
0.0
 10
7.8431978681
 20
7.9307572034
 30
0.0
 10
7.8397920891
 20
7.930188348
 30
0.0
 10
7.8343238673
 20
7.9298022191
 30
0.0
 10
7.8282404547
 20
7.929845374
 30
0.0
 10
7.8216143038
 20
7.9303167506
 30
0.0
 10
7.8145254442
 20
7.9311989396
 30
0.0
 10
7.8070575782
 20
7.9324600447
 30
0.0
 10
7.7992947359
 20
7.9340561585
 30
0.0
 10
7.7940459826
 20
7.935291194
 30
0.0
 10
7.7913850099
 20
7.9359475918
 30
0.0
  0
SPLINE
  5
3BB
100
AcDbEntity
  8
ALL_FEATURES
100
AcDbSpline
 62
7
  6
CONTINUOUS
 70
0
 71
3
 72
11
 73
7
 74
0
 42
0.0000001
 43
0.0000001
 44
0.0000000001
 40
0.0
 40
0.0
 40
0.0
 40
0.0
 40
0.2567366361
 40
0.5078034861
 40
0.7549314976
 40
1.0
 40
1.0
 40
1.0
 40
1.0
 10
7.923090885
 20
8.1539572054
 30
0.0
 10
7.9210281992
 20
8.1550791319
 30
0.0
 10
7.9168175726
 20
8.1570684546
 30
0.0
 10
7.9102479242
 20
8.1592474516
 30
0.0
 10
7.9035606403
 20
8.1605634268
 30
0.0
 10
7.8990537716
 20
8.16085731
 30
0.0
 10
7.8968124246
 20
8.16085731
 30
0.0
  0
SPLINE
  5
3BC
100
AcDbEntity
  8
ALL_FEATURES
100
AcDbSpline
 62
7
  6
CONTINUOUS
 70
0
 71
3
 72
11
 73
7
 74
0
 42
0.0000001
 43
0.0000001
 44
0.0000000001
 40
0.0
 40
0.0
 40
0.0
 40
0.0
 40
0.2450603127
 40
0.4922003758
 40
0.7432631907
 40
1.0
 40
1.0
 40
1.0
 40
1.0
 10
7.6431720474
 20
7.9537979695
 30
0.0
 10
7.6409307762
 20
7.9537979695
 30
0.0
 10
7.6364238825
 20
7.9540919364
 30
0.0
 10
7.6297365817
 20
7.9554077909
 30
0.0
 10
7.6231668662
 20
7.9575868374
 30
0.0
 10
7.6189562855
 20
7.9595761586
 30
0.0
 10
7.6168935812
 20
7.9606980528
 30
0.0
  0
SPLINE
  5
3BD
100
AcDbEntity
  8
ALL_FEATURES
100
AcDbSpline
 62
7
  6
CONTINUOUS
 70
0
 71
3
 72
42
 73
38
 74
0
 42
0.0000001
 43
0.0000001
 44
0.0000000001
 40
0.0
 40
0.0
 40
0.0
 40
0.0
 40
0.0312442495
 40
0.0624987227
 40
0.093745351
 40
0.1249939447
 40
0.1562428909
 40
0.1874914735
 40
0.2187402695
 40
0.249989049
 40
0.2812378756
 40
0.3124868063
 40
0.3437357145
 40
0.3749846702
 40
0.4062337338
 40
0.4374827815
 40
0.4687318597
 40
0.4999810505
 40
0.5312302335
 40
0.5624794323
 40
0.5937287444
 40
0.6249780572
 40
0.6562273757
 40
0.6874768065
 40
0.7187262438
 40
0.7499756798
 40
0.7812252267
 40
0.8124747845
 40
0.8281041261
 40
0.8437334395
 40
0.8593628056
 40
0.8749921513
 40
0.9062418235
 40
0.9374914903
 40
0.953120864
 40
0.9687502189
 40
1.0
 40
1.0
 40
1.0
 40
1.0
 10
7.6203363649
 20
8.627820478
 30
0.0
 10
7.6239095957
 20
8.6226965674
 30
0.0
 10
7.6315832289
 20
8.6128027261
 30
0.0
 10
7.6445270397
 20
8.5992051582
 30
0.0
 10
7.6587784811
 20
8.586980769
 30
0.0
 10
7.6741859309
 20
8.5762531215
 30
0.0
 10
7.6905930365
 20
8.5671265431
 30
0.0
 10
7.7078320142
 20
8.5596900942
 30
0.0
 10
7.725728325
 20
8.5540155562
 30
0.0
 10
7.7441017043
 20
8.5501563228
 30
0.0
 10
7.7627680447
 20
8.5481466249
 30
0.0
 10
7.7815416506
 20
8.5480035221
 30
0.0
 10
7.8002365859
 20
8.5497251305
 30
0.0
 10
7.8186689518
 20
8.553290035
 30
0.0
 10
7.8366583661
 20
8.5586602837
 30
0.0
 10
7.8540295381
 20
8.5657804696
 30
0.0
 10
7.8706148119
 20
8.5745770147
 30
0.0
 10
7.8862546738
 20
8.5849617779
 30
0.0
 10
7.9007991886
 20
8.5968319942
 30
0.0
 10
7.9141109355
 20
8.6100697441
 30
0.0
 10
7.9260644204
 20
8.6245456876
 30
0.0
 10
7.9365471082
 20
8.6401196611
 30
0.0
 10
7.9454626745
 20
8.6566406647
 30
0.0
 10
7.9527293746
 20
8.6739503331
 30
0.0
 10
7.9582805653
 20
8.6918837809
 30
0.0
 10
7.9620679428
 20
8.7102708395
 30
0.0
 10
7.9640594388
 20
8.7289370691
 30
0.0
 10
7.9642079812
 20
8.7445834239
 30
0.0
 10
7.9634230148
 20
8.7570602608
 30
0.0
 10
7.9623830152
 20
8.7663807095
 30
0.0
 10
7.9608956398
 20
8.7756402584
 30
0.0
 10
7.9583216574
 20
8.7878740149
 30
0.0
 10
7.9540042492
 20
8.8029128578
 30
0.0
 10
7.9482649317
 20
8.8174681266
 30
0.0
 10
7.9428552134
 20
8.8287390328
 30
0.0
 10
7.9369134664
 20
8.839737689
 30
0.0
 10
7.9318678256
 20
8.8476587291
 30
0.0
 10
7.9282637273
 20
8.8527623291
 30
0.0
  0
SPLINE
  5
3BE
100
AcDbEntity
  8
ALL_FEATURES
100
AcDbSpline
 62
7
  6
CONTINUOUS
 70
0
 71
3
 72
35
 73
31
 74
0
 42
0.0000001
 43
0.0000001
 44
0.0000000001
 40
0.0
 40
0.0
 40
0.0
 40
0.0
 40
0.0312538465
 40
0.0625077244
 40
0.0937616236
 40
0.1250154913
 40
0.1562694368
 40
0.1875233016
 40
0.2187772767
 40
0.2500311545
 40
0.2812851409
 40
0.3125390518
 40
0.3437930345
 40
0.3750469947
 40
0.4375225004
 40
0.4999981808
 40
0.5624740191
 40
0.5937279952
 40
0.6249820597
 40
0.656236106
 40
0.6874901934
 40
0.7187442315
 40
0.7499981268
 40
0.7812523164
 40
0.812506897
 40
0.8437611424
 40
0.87501343
 40
0.9062661626
 40
0.9375250404
 40
1.0
 40
1.0
 40
1.0
 40
1.0
 10
7.9282637273
 20
8.8527623291
 30
0.0
 10
7.9257915901
 20
8.8562630103
 30
0.0
 10
7.920616361
 20
8.8631045365
 30
0.0
 10
7.9121999617
 20
8.8728351334
 30
0.0
 10
7.9031665063
 20
8.8819965487
 30
0.0
 10
7.8935540445
 20
8.8905482189
 30
0.0
 10
7.8834056388
 20
8.8984564826
 30
0.0
 10
7.8727635345
 20
8.9056867088
 30
0.0
 10
7.8616745172
 20
8.9122107566
 30
0.0
 10
7.8501851016
 20
8.9180006559
 30
0.0
 10
7.8383445671
 20
8.9230336484
 30
0.0
 10
7.8262031097
 20
8.9272893368
 30
0.0
 10
7.8138111526
 20
8.9307503304
 30
0.0
 10
7.7970322813
 20
8.9342876273
 30
0.0
 10
7.775679754
 20
8.9366648865
 30
0.0
 10
7.7499159231
 20
8.9362010496
 30
0.0
 10
7.7286625264
 20
8.9330628721
 30
0.0
 10
7.7120178408
 20
8.9289405678
 30
0.0
 10
7.6997526826
 20
8.9250545812
 30
0.0
 10
7.6877614409
 20
8.9203928982
 30
0.0
 10
7.6760926774
 20
8.9149740573
 30
0.0
 10
7.6647929012
 20
8.9088228676
 30
0.0
 10
7.6539086791
 20
8.9019631404
 30
0.0
 10
7.6434824666
 20
8.8944253973
 30
0.0
 10
7.6335572471
 20
8.8862391799
 30
0.0
 10
7.6241716298
 20
8.8774398555
 30
0.0
 10
7.6153633388
 20
8.8680633438
 30
0.0
 10
7.607166156
 20
8.858146111
 30
0.0
 10
7.5971005669
 20
8.8442655075
 30
0.0
 10
7.5905518965
 20
8.8331534237
 30
0.0
 10
7.5866768801
 20
8.8255132501
 30
0.0
  0
SPLINE
  5
3BF
100
AcDbEntity
  8
ALL_FEATURES
100
AcDbSpline
 62
7
  6
CONTINUOUS
 70
0
 71
3
 72
23
 73
19
 74
0
 42
0.0000001
 43
0.0000001
 44
0.0000000001
 40
0.0
 40
0.0
 40
0.0
 40
0.0
 40
0.0625181817
 40
0.1250245196
 40
0.1875328741
 40
0.2500411413
 40
0.3125471968
 40
0.3750512132
 40
0.4375540121
 40
0.5000552334
 40
0.562554506
 40
0.6250520996
 40
0.6875483147
 40
0.7500434834
 40
0.8125327145
 40
0.8750222786
 40
0.9375259617
 40
1.0
 40
1.0
 40
1.0
 40
1.0
 10
7.6803643257
 20
8.5554877071
 30
0.0
 10
7.6759314884
 20
8.5580612587
 30
0.0
 10
7.6672597
 20
8.5635490239
 30
0.0
 10
7.6549234486
 20
8.572750378
 30
0.0
 10
7.6433324271
 20
8.582874808
 30
0.0
 10
7.6325589748
 20
8.5938650447
 30
0.0
 10
7.6226738759
 20
8.6056605599
 30
0.0
 10
7.613741464
 20
8.618192567
 30
0.0
 10
7.6058220466
 20
8.6313878734
 30
0.0
 10
7.5989710317
 20
8.6451679133
 30
0.0
 10
7.5932363718
 20
8.6594484041
 30
0.0
 10
7.5886623142
 20
8.6741415848
 30
0.0
 10
7.5852831643
 20
8.6891545178
 30
0.0
 10
7.5831294851
 20
8.7043911203
 30
0.0
 10
7.5822205383
 20
8.719751848
 30
0.0
 10
7.5825707534
 20
8.7351367202
 30
0.0
 10
7.5841861027
 20
8.7504383553
 30
0.0
 10
7.5861023597
 20
8.7605184364
 30
0.0
 10
7.5872680154
 20
8.7655061584
 30
0.0
  0
SPLINE
  5
3C0
100
AcDbEntity
  8
ALL_FEATURES
100
AcDbSpline
 62
7
  6
CONTINUOUS
 70
0
 71
3
 72
42
 73
38
 74
0
 42
0.0000001
 43
0.0000001
 44
0.0000000001
 40
0.0
 40
0.0
 40
0.0
 40
0.0
 40
0.0312442495
 40
0.0624987227
 40
0.093745351
 40
0.1249939447
 40
0.1562428909
 40
0.1874914735
 40
0.2187402695
 40
0.249989049
 40
0.2812378756
 40
0.3124868063
 40
0.3437357145
 40
0.3749846702
 40
0.4062337338
 40
0.4374827815
 40
0.4687318597
 40
0.4999810505
 40
0.5312302335
 40
0.5624794323
 40
0.5937287444
 40
0.6249780572
 40
0.6562273757
 40
0.6874768065
 40
0.7187262438
 40
0.7499756798
 40
0.7812252267
 40
0.8124747845
 40
0.8281041261
 40
0.8437334395
 40
0.8593628056
 40
0.8749921513
 40
0.9062418235
 40
0.9374914903
 40
0.953120864
 40
0.9687502189
 40
1.0
 40
1.0
 40
1.0
 40
1.0
 10
12.1203363649
 20
8.627820478
 30
0.0
 10
12.1239095957
 20
8.6226965674
 30
0.0
 10
12.1315832289
 20
8.6128027261
 30
0.0
 10
12.1445270397
 20
8.5992051582
 30
0.0
 10
12.1587784811
 20
8.586980769
 30
0.0
 10
12.1741859309
 20
8.5762531215
 30
0.0
 10
12.1905930365
 20
8.5671265431
 30
0.0
 10
12.2078320142
 20
8.5596900942
 30
0.0
 10
12.225728325
 20
8.5540155562
 30
0.0
 10
12.2441017043
 20
8.5501563228
 30
0.0
 10
12.2627680447
 20
8.5481466249
 30
0.0
 10
12.2815416506
 20
8.5480035221
 30
0.0
 10
12.3002365859
 20
8.5497251305
 30
0.0
 10
12.3186689518
 20
8.553290035
 30
0.0
 10
12.3366583661
 20
8.5586602837
 30
0.0
 10
12.3540295381
 20
8.5657804696
 30
0.0
 10
12.3706148119
 20
8.5745770147
 30
0.0
 10
12.3862546738
 20
8.5849617779
 30
0.0
 10
12.4007991886
 20
8.5968319942
 30
0.0
 10
12.4141109355
 20
8.6100697441
 30
0.0
 10
12.4260644204
 20
8.6245456876
 30
0.0
 10
12.4365471082
 20
8.6401196611
 30
0.0
 10
12.4454626745
 20
8.6566406647
 30
0.0
 10
12.4527293746
 20
8.6739503331
 30
0.0
 10
12.4582805653
 20
8.6918837809
 30
0.0
 10
12.4620679428
 20
8.7102708395
 30
0.0
 10
12.4640594388
 20
8.7289370691
 30
0.0
 10
12.4642079812
 20
8.7445834239
 30
0.0
 10
12.4634230148
 20
8.7570602608
 30
0.0
 10
12.4623830152
 20
8.7663807095
 30
0.0
 10
12.4608956398
 20
8.7756402584
 30
0.0
 10
12.4583216574
 20
8.7878740149
 30
0.0
 10
12.4540042492
 20
8.8029128578
 30
0.0
 10
12.4482649317
 20
8.8174681266
 30
0.0
 10
12.4428552134
 20
8.8287390328
 30
0.0
 10
12.4369134664
 20
8.839737689
 30
0.0
 10
12.4318678256
 20
8.8476587291
 30
0.0
 10
12.4282637273
 20
8.8527623291
 30
0.0
  0
SPLINE
  5
3C1
100
AcDbEntity
  8
ALL_FEATURES
100
AcDbSpline
 62
7
  6
CONTINUOUS
 70
0
 71
3
 72
35
 73
31
 74
0
 42
0.0000001
 43
0.0000001
 44
0.0000000001
 40
0.0
 40
0.0
 40
0.0
 40
0.0
 40
0.0312538465
 40
0.0625077244
 40
0.0937616236
 40
0.1250154913
 40
0.1562694368
 40
0.1875233016
 40
0.2187772767
 40
0.2500311545
 40
0.2812851409
 40
0.3125390518
 40
0.3437930345
 40
0.3750469947
 40
0.4375225004
 40
0.4999981808
 40
0.5624740191
 40
0.5937279952
 40
0.6249820597
 40
0.656236106
 40
0.6874901934
 40
0.7187442315
 40
0.7499981268
 40
0.7812523164
 40
0.812506897
 40
0.8437611424
 40
0.87501343
 40
0.9062661626
 40
0.9375250404
 40
1.0
 40
1.0
 40
1.0
 40
1.0
 10
12.4282637273
 20
8.8527623291
 30
0.0
 10
12.4257915901
 20
8.8562630103
 30
0.0
 10
12.420616361
 20
8.8631045365
 30
0.0
 10
12.4121999617
 20
8.8728351334
 30
0.0
 10
12.4031665063
 20
8.8819965487
 30
0.0
 10
12.3935540445
 20
8.8905482189
 30
0.0
 10
12.3834056388
 20
8.8984564826
 30
0.0
 10
12.3727635345
 20
8.9056867088
 30
0.0
 10
12.3616745172
 20
8.9122107566
 30
0.0
 10
12.3501851016
 20
8.9180006559
 30
0.0
 10
12.3383445671
 20
8.9230336484
 30
0.0
 10
12.3262031097
 20
8.9272893368
 30
0.0
 10
12.3138111526
 20
8.9307503304
 30
0.0
 10
12.2970322813
 20
8.9342876273
 30
0.0
 10
12.275679754
 20
8.9366648865
 30
0.0
 10
12.2499159231
 20
8.9362010496
 30
0.0
 10
12.2286625264
 20
8.9330628721
 30
0.0
 10
12.2120178408
 20
8.9289405678
 30
0.0
 10
12.1997526826
 20
8.9250545812
 30
0.0
 10
12.1877614409
 20
8.9203928982
 30
0.0
 10
12.1760926774
 20
8.9149740573
 30
0.0
 10
12.1647929012
 20
8.9088228676
 30
0.0
 10
12.1539086791
 20
8.9019631404
 30
0.0
 10
12.1434824666
 20
8.8944253973
 30
0.0
 10
12.1335572471
 20
8.8862391799
 30
0.0
 10
12.1241716298
 20
8.8774398555
 30
0.0
 10
12.1153633388
 20
8.8680633438
 30
0.0
 10
12.107166156
 20
8.858146111
 30
0.0
 10
12.0971005669
 20
8.8442655075
 30
0.0
 10
12.0905518965
 20
8.8331534237
 30
0.0
 10
12.0866768801
 20
8.8255132501
 30
0.0
  0
SPLINE
  5
3C2
100
AcDbEntity
  8
ALL_FEATURES
100
AcDbSpline
 62
7
  6
CONTINUOUS
 70
0
 71
3
 72
23
 73
19
 74
0
 42
0.0000001
 43
0.0000001
 44
0.0000000001
 40
0.0
 40
0.0
 40
0.0
 40
0.0
 40
0.0625181817
 40
0.1250245196
 40
0.1875328741
 40
0.2500411413
 40
0.3125471968
 40
0.3750512132
 40
0.4375540121
 40
0.5000552334
 40
0.562554506
 40
0.6250520996
 40
0.6875483147
 40
0.7500434834
 40
0.8125327145
 40
0.8750222786
 40
0.9375259617
 40
1.0
 40
1.0
 40
1.0
 40
1.0
 10
12.1803643257
 20
8.5554877071
 30
0.0
 10
12.1759314884
 20
8.5580612587
 30
0.0
 10
12.1672597
 20
8.5635490239
 30
0.0
 10
12.1549234486
 20
8.572750378
 30
0.0
 10
12.1433324271
 20
8.582874808
 30
0.0
 10
12.1325589748
 20
8.5938650447
 30
0.0
 10
12.1226738759
 20
8.6056605599
 30
0.0
 10
12.113741464
 20
8.618192567
 30
0.0
 10
12.1058220466
 20
8.6313878734
 30
0.0
 10
12.0989710317
 20
8.6451679133
 30
0.0
 10
12.0932363718
 20
8.6594484041
 30
0.0
 10
12.0886623142
 20
8.6741415848
 30
0.0
 10
12.0852831643
 20
8.6891545178
 30
0.0
 10
12.0831294851
 20
8.7043911203
 30
0.0
 10
12.0822205383
 20
8.719751848
 30
0.0
 10
12.0825707534
 20
8.7351367202
 30
0.0
 10
12.0841861027
 20
8.7504383553
 30
0.0
 10
12.0861023597
 20
8.7605184364
 30
0.0
 10
12.0872680154
 20
8.7655061584
 30
0.0
  0
LINE
  5
3C3
100
AcDbEntity
  8
0
100
AcDbLine
 62
7
  6
CONTINUOUS
 10
7.8346264255
 20
8.7745911629
 11
7.769992236
 21
8.7765776402
  0
LINE
  5
3C4
100
AcDbEntity
  8
0
100
AcDbLine
 62
7
  6
CONTINUOUS
 10
7.8438999886
 20
8.7492725461
 11
7.769992236
 21
8.7515776394
  0
LINE
  5
3C5
100
AcDbEntity
  8
0
100
AcDbLine
 62
7
  6
CONTINUOUS
 10
7.8439392295
 20
8.724271165
 11
7.769992236
 21
8.72657764
  0
LINE
  5
3C6
100
AcDbEntity
  8
0
100
AcDbLine
 62
7
  6
CONTINUOUS
 10
7.7011208152
 20
8.7662078107
 11
7.769992236
 21
8.7640776402
  0
LINE
  5
3C7
100
AcDbEntity
  8
0
100
AcDbLine
 62
7
  6
CONTINUOUS
 10
7.695128045
 20
8.7414165133
 11
7.769992236
 21
8.7390776397
  0
LINE
  5
3C8
100
AcDbEntity
  8
0
100
AcDbLine
 62
7
  6
CONTINUOUS
 10
7.5668675295
 20
8.5257641889
 11
7.5669842145
 21
8.525629246
  0
LINE
  5
3C9
100
AcDbEntity
  8
0
100
AcDbLine
 62
7
  6
CONTINUOUS
 10
7.5668675279
 20
8.5288910906
 11
7.566984176
 21
8.5290260336
  0
SPLINE
  5
3CA
100
AcDbEntity
  8
0
100
AcDbSpline
 62
7
  6
CONTINUOUS
 70
0
 71
3
 72
21
 73
17
 74
0
 42
0.0000001
 43
0.0000001
 44
0.0000000001
 40
0.0
 40
0.0
 40
0.0
 40
0.0
 40
0.0060908326
 40
0.0115860633
 40
0.0189396943
 40
0.0282069499
 40
0.0394141828
 40
0.0676906927
 40
0.1037918275
 40
0.1476922565
 40
0.1993530166
 40
0.2587267591
 40
0.400290542
 40
0.5716384008
 40
0.7719042538
 40
1.0
 40
1.0
 40
1.0
 40
1.0
 10
7.5803974517
 20
8.51795264
 30
0.0
 10
7.5803975368
 20
8.5180168301
 30
0.0
 10
7.5805226822
 20
8.5181053025
 30
0.0
 10
7.5806962622
 20
8.5181792375
 30
0.0
 10
7.5809222476
 20
8.5182518939
 30
0.0
 10
7.5812054987
 20
8.5183223759
 30
0.0
 10
7.5817094506
 20
8.5184264001
 30
0.0
 10
7.5824961603
 20
8.5185506322
 30
0.0
 10
7.5836286378
 20
8.5186929119
 30
0.0
 10
7.5850088497
 20
8.5188358069
 30
0.0
 10
7.5866354064
 20
8.5189794738
 30
0.0
 10
7.5892896887
 20
8.5191835918
 30
0.0
 10
7.5932053963
 20
8.5194322235
 30
0.0
 10
7.5986061618
 20
8.5197180839
 30
0.0
 10
7.6049199172
 20
8.5200049237
 30
0.0
 10
7.609430745
 20
8.5201853792
 30
0.0
 10
7.6118328626
 20
8.5202767923
 30
0.0
  0
LINE
  5
3CB
100
AcDbEntity
  8
0
100
AcDbLine
 62
7
  6
CONTINUOUS
 10
7.6118328626
 20
8.5202767923
 11
7.6125269432
 21
8.5203030743
  0
LINE
  5
3CC
100
AcDbEntity
  8
0
100
AcDbLine
 62
7
  6
CONTINUOUS
 10
7.6125269432
 20
8.5203030743
 11
7.6371555284
 21
8.5211138924
  0
LINE
  5
3CD
100
AcDbEntity
  8
0
100
AcDbLine
 62
7
  6
CONTINUOUS
 10
7.8963424778
 20
8.5271048277
 11
7.8990904813
 21
8.5271828657
  0
LINE
  5
3CE
100
AcDbEntity
  8
0
100
AcDbLine
 62
7
  6
CONTINUOUS
 10
7.8990904813
 20
8.5271828657
 11
7.9062115509
 21
8.527392141
  0
SPLINE
  5
3CF
100
AcDbEntity
  8
0
100
AcDbSpline
 62
7
  6
CONTINUOUS
 70
0
 71
3
 72
13
 73
9
 74
0
 42
0.0000001
 43
0.0000001
 44
0.0000000001
 40
0.0
 40
0.0
 40
0.0
 40
0.0
 40
0.3518863858
 40
0.639574374
 40
0.7574176672
 40
0.8570949402
 40
0.9380817552
 40
1.0
 40
1.0
 40
1.0
 40
1.0
 10
7.9062115509
 20
8.527392141
 30
0.0
 10
7.912073804
 20
8.5275690212
 30
0.0
 10
7.922728153
 20
8.5279119641
 30
0.0
 10
7.9353428448
 20
8.528401266
 30
0.0
 10
7.9437534577
 20
8.5288072605
 30
0.0
 10
7.9487208212
 20
8.52908945
 30
0.0
 10
7.9527542874
 20
8.5293696749
 30
0.0
 10
7.9551271737
 20
8.5295805493
 30
0.0
 10
7.9561528972
 20
8.5296941652
 30
0.0
  0
LINE
  5
3D0
100
AcDbEntity
  8
0
100
AcDbLine
 62
7
  6
CONTINUOUS
 10
7.9561528972
 20
8.5296941652
 11
7.9588953828
 21
8.5301127154
  0
LINE
  5
3D1
100
AcDbEntity
  8
0
100
AcDbLine
 62
7
  6
CONTINUOUS
 10
7.9588953828
 20
8.5301127154
 11
7.9594620909
 21
8.5303080749
  0
SPLINE
  5
3D2
100
AcDbEntity
  8
0
100
AcDbSpline
 62
7
  6
CONTINUOUS
 70
0
 71
3
 72
20
 73
16
 74
0
 42
0.0000001
 43
0.0000001
 44
0.0000000001
 40
0.0
 40
0.0
 40
0.0
 40
0.0
 40
0.004390134
 40
0.0104968059
 40
0.0280208969
 40
0.0527063046
 40
0.0845617941
 40
0.1235681254
 40
0.1696756075
 40
0.2228052988
 40
0.2828742538
 40
0.4234697179
 40
0.5906033971
 40
0.7832617137
 40
1.0
 40
1.0
 40
1.0
 40
1.0
 10
7.566984176
 20
8.5290260336
 30
0.0
 10
7.5670406381
 20
8.5290586796
 30
0.0
 10
7.5671858146
 20
8.5291182512
 30
0.0
 10
7.5675852515
 20
8.5292354843
 30
0.0
 10
7.5682917514
 20
8.5293700254
 30
0.0
 10
7.5693809735
 20
8.5295243355
 30
0.0
 10
7.5707922524
 20
8.5296796116
 30
0.0
 10
7.5725228668
 20
8.5298365636
 30
0.0
 10
7.5745706638
 20
8.5299940407
 30
0.0
 10
7.5769320841
 20
8.530152083
 30
0.0
 10
7.5806959311
 20
8.5303750562
 30
0.0
 10
7.5861533041
 20
8.5306476921
 30
0.0
 10
7.5935805449
 20
8.5309620946
 30
0.0
 10
7.6021398195
 20
8.5312773626
 30
0.0
 10
7.6082186376
 20
8.5314767824
 30
0.0
 10
7.6114369635
 20
8.5315776398
 30
0.0
  0
SPLINE
  5
3D3
100
AcDbEntity
  8
0
100
AcDbSpline
 62
7
  6
CONTINUOUS
 70
0
 71
3
 72
22
 73
18
 74
0
 42
0.0000001
 43
0.0000001
 44
0.0000000001
 40
0.0
 40
0.0
 40
0.0
 40
0.0
 40
0.0038030519
 40
0.0094128466
 40
0.0168755655
 40
0.0262077047
 40
0.0504967855
 40
0.0822547904
 40
0.1214117682
 40
0.1678850938
 40
0.2215538692
 40
0.2822791088
 40
0.3499154614
 40
0.4242832201
 40
0.5924326527
 40
0.7849985125
 40
1.0
 40
1.0
 40
1.0
 40
1.0
 10
7.5669843151
 20
8.5040260337
 30
0.0
 10
7.5670597896
 20
8.5040695602
 30
0.0
 10
7.5672637087
 20
8.5041452471
 30
0.0
 10
7.5676375429
 20
8.5042423729
 30
0.0
 10
7.5681418297
 20
8.5043406178
 30
0.0
 10
7.5690717041
 20
8.5044861634
 30
0.0
 10
7.5705600464
 20
8.5046590113
 30
0.0
 10
7.572732184
 20
8.5048564032
 30
0.0
 10
7.5754142861
 20
8.5050549786
 30
0.0
 10
7.5785993338
 20
8.5052547406
 30
0.0
 10
7.582279316
 20
8.5054551
 30
0.0
 10
7.5864447266
 20
8.5056559332
 30
0.0
 10
7.5910848208
 20
8.5058570334
 30
0.0
 10
7.5981847871
 20
8.5061370696
 30
0.0
 10
7.6081464357
 20
8.5064815639
 30
0.0
 10
7.6213297987
 20
8.5068814182
 30
0.0
 10
7.6306635337
 20
8.5071354653
 30
0.0
 10
7.6355874373
 20
8.5072641063
 30
0.0
  0
LINE
  5
3D4
100
AcDbEntity
  8
0
100
AcDbLine
 62
7
  6
CONTINUOUS
 10
7.6355874373
 20
8.5072641063
 11
7.7649281945
 21
8.5100418845
  0
LINE
  5
3D5
100
AcDbEntity
  8
0
100
AcDbLine
 62
7
  6
CONTINUOUS
 10
7.7649281945
 20
8.5100418845
 11
7.8949358068
 21
8.5127771798
  0
SPLINE
  5
3D6
100
AcDbEntity
  8
0
100
AcDbSpline
 62
7
  6
CONTINUOUS
 70
0
 71
3
 72
13
 73
9
 74
0
 42
0.0000001
 43
0.0000001
 44
0.0000000001
 40
0.0
 40
0.0
 40
0.0
 40
0.0
 40
0.3416261058
 40
0.6270107932
 40
0.7461378414
 40
0.8484501097
 40
0.9332585594
 40
1.0
 40
1.0
 40
1.0
 40
1.0
 10
7.8949358068
 20
8.5127771798
 30
0.0
 10
7.903126957
 20
8.5129806808
 30
0.0
 10
7.9181602256
 20
8.5133758689
 30
0.0
 10
7.936047386
 20
8.5139316405
 30
0.0
 10
7.9481945751
 20
8.5143912971
 30
0.0
 10
7.9555327403
 20
8.514713466
 30
0.0
 10
7.9616130864
 20
8.5150336251
 30
0.0
 10
7.9652403321
 20
8.5152723514
 30
0.0
 10
7.9668360616
 20
8.5153990268
 30
0.0
  0
SPLINE
  5
3D7
100
AcDbEntity
  8
0
100
AcDbSpline
 62
7
  6
CONTINUOUS
 70
0
 71
3
 72
12
 73
8
 74
0
 42
0.0000001
 43
0.0000001
 44
0.0000000001
 40
0.0
 40
0.0
 40
0.0
 40
0.0
 40
0.3714544053
 40
0.6620848733
 40
0.8713918978
 40
0.9456766339
 40
1.0
 40
1.0
 40
1.0
 40
1.0
 10
7.9668360616
 20
8.5153990268
 30
0.0
 10
7.9675877343
 20
8.5154586975
 30
0.0
 10
7.9689270202
 20
8.5155735694
 30
0.0
 10
7.9706852888
 20
8.5157657819
 30
0.0
 10
7.9718399469
 20
8.5159335483
 30
0.0
 10
7.9725103904
 20
8.5160787922
 30
0.0
 10
7.9727616422
 20
8.5161523791
 30
0.0
 10
7.9728642891
 20
8.5161926781
 30
0.0
  0
LINE
  5
3D8
100
AcDbEntity
  8
0
100
AcDbLine
 62
7
  6
CONTINUOUS
 10
7.9728642891
 20
8.5161926781
 11
7.973117236
 21
8.5163910906
  0
LINE
  5
3D9
100
AcDbEntity
  8
0
100
AcDbLine
 62
7
  6
CONTINUOUS
 10
7.5805223643
 20
8.5118472046
 11
7.5822958181
 21
8.5122661607
  0
SPLINE
  5
3DA
100
AcDbEntity
  8
0
100
AcDbSpline
 62
7
  6
CONTINUOUS
 70
0
 71
3
 72
13
 73
9
 74
0
 42
0.0000001
 43
0.0000001
 44
0.0000000001
 40
0.0
 40
0.0
 40
0.0
 40
0.0
 40
0.0598243478
 40
0.1388743867
 40
0.2369194762
 40
0.3536816693
 40
0.641912059
 40
1.0
 40
1.0
 40
1.0
 40
1.0
 10
7.5822958181
 20
8.5122661607
 30
0.0
 10
7.5828915904
 20
8.5123547525
 30
0.0
 10
7.5842806525
 20
8.512518615
 30
0.0
 10
7.5866561685
 20
8.5127355062
 30
0.0
 10
7.5896068294
 20
8.5129541456
 30
0.0
 10
7.594661708
 20
8.5132699921
 30
0.0
 10
7.6023353901
 20
8.5136503752
 30
0.0
 10
7.6088373415
 20
8.5139138742
 30
0.0
 10
7.6124400774
 20
8.5140497894
 30
0.0
  0
LINE
  5
3DB
100
AcDbEntity
  8
0
100
AcDbLine
 62
7
  6
CONTINUOUS
 10
7.6124400774
 20
8.5140497894
 11
7.6133313557
 21
8.5140832043
  0
LINE
  5
3DC
100
AcDbEntity
  8
0
100
AcDbLine
 62
7
  6
CONTINUOUS
 10
7.6133313557
 20
8.5140832043
 11
7.6354270699
 21
8.5148127293
  0
SPLINE
  5
3DD
100
AcDbEntity
  8
0
100
AcDbSpline
 62
7
  6
CONTINUOUS
 70
0
 71
3
 72
10
 73
6
 74
0
 42
0.0000001
 43
0.0000001
 44
0.0000000001
 40
0.0
 40
0.0
 40
0.0
 40
0.0
 40
0.2142868082
 40
0.4583243763
 40
1.0
 40
1.0
 40
1.0
 40
1.0
 10
7.6354270699
 20
8.5148127293
 30
0.0
 10
7.6446119743
 20
8.5150863617
 30
0.0
 10
7.6642586857
 20
8.5156140857
 30
0.0
 10
7.7071283108
 20
8.5166320028
 30
0.0
 10
7.7408136175
 20
8.5173400318
 30
0.0
 10
7.7640364625
 20
8.5178276303
 30
0.0
  0
LINE
  5
3DE
100
AcDbEntity
  8
0
100
AcDbLine
 62
7
  6
CONTINUOUS
 10
7.900274558
 20
8.5209669374
 11
7.9074322803
 21
8.5211791509
  0
SPLINE
  5
3DF
100
AcDbEntity
  8
0
100
AcDbSpline
 62
7
  6
CONTINUOUS
 70
0
 71
3
 72
24
 73
20
 74
0
 42
0.0000001
 43
0.0000001
 44
0.0000000001
 40
0.0
 40
0.0
 40
0.0
 40
0.0
 40
0.2248808206
 40
0.4240835684
 40
0.5958116693
 40
0.670889092
 40
0.7385444489
 40
0.7986197739
 40
0.8509955688
 40
0.895560543
 40
0.9322119669
 40
0.9608928519
 40
0.9722383217
 40
0.9815887559
 40
0.9889544084
 40
0.9943654708
 40
0.9963656254
 40
0.9979274425
 40
1.0
 40
1.0
 40
1.0
 40
1.0
 10
7.9074322803
 20
8.5211791509
 30
0.0
 10
7.9113548128
 20
8.5212986516
 30
0.0
 10
7.9187516758
 20
8.5215344455
 30
0.0
 10
7.9291424062
 20
8.5219075127
 30
0.0
 10
7.9369190103
 20
8.5222297525
 30
0.0
 10
7.9424003494
 20
8.5224921538
 30
0.0
 10
7.9459345575
 20
8.522679773
 30
0.0
 10
7.9490720088
 20
8.5228670477
 30
0.0
 10
7.951805728
 20
8.5230538442
 30
0.0
 10
7.9541296973
 20
8.5232396601
 30
0.0
 10
7.9560386255
 20
8.523424572
 30
0.0
 10
7.9573672348
 20
8.5235863485
 30
0.0
 10
7.9582183714
 20
8.5237213085
 30
0.0
 10
7.9586994057
 20
8.5238136115
 30
0.0
 10
7.9590746977
 20
8.5239057015
 30
0.0
 10
7.9593200567
 20
8.5239858243
 30
0.0
 10
7.9594615615
 20
8.5240557206
 30
0.0
 10
7.9595422548
 20
8.5241085349
 30
0.0
 10
7.9595869528
 20
8.5241664721
 30
0.0
 10
7.9595869286
 20
8.5242026399
 30
0.0
  0
LINE
  5
3E0
100
AcDbEntity
  8
0
100
AcDbLine
 62
7
  6
CONTINUOUS
 10
7.769992236
 20
8.7515776394
 11
7.6970234631
 21
8.7538497489
  0
LINE
  5
3E1
100
AcDbEntity
  8
0
100
AcDbLine
 62
7
  6
CONTINUOUS
 10
7.769992236
 20
8.7640776402
 11
7.8405781192
 21
8.7618884597
  0
LINE
  5
3E2
100
AcDbEntity
  8
0
100
AcDbLine
 62
7
  6
CONTINUOUS
 10
7.769992236
 20
8.72657764
 11
7.6953973855
 21
8.7289069815
  0
SPLINE
  5
3E3
100
AcDbEntity
  8
0
100
AcDbSpline
 62
7
  6
CONTINUOUS
 70
0
 71
3
 72
22
 73
18
 74
0
 42
0.0000001
 43
0.0000001
 44
0.0000000001
 40
0.0
 40
0.0
 40
0.0
 40
0.0
 40
0.2150981151
 40
0.4073018965
 40
0.5748923272
 40
0.648969472
 40
0.7163501653
 40
0.7768789689
 40
0.8304145802
 40
0.8768506633
 40
0.9160883304
 40
0.9480383967
 40
0.9726562977
 40
0.9822133386
 40
0.9899406324
 40
0.9958540335
 40
1.0
 40
1.0
 40
1.0
 40
1.0
 10
7.9024121261
 20
8.5022791466
 30
0.0
 10
7.906510048
 20
8.5023993158
 30
0.0
 10
7.9142694439
 20
8.5026366791
 30
0.0
 10
7.9252202931
 20
8.5030108881
 30
0.0
 10
7.9334834758
 20
8.5033333176
 30
0.0
 10
7.9393679933
 20
8.5035953828
 30
0.0
 10
7.9432131922
 20
8.5037835414
 30
0.0
 10
7.9466663761
 20
8.5039714104
 30
0.0
 10
7.9497197358
 20
8.5041589189
 30
0.0
 10
7.9523664476
 20
8.5043458998
 30
0.0
 10
7.9546007146
 20
8.5045317717
 30
0.0
 10
7.9564173865
 20
8.5047166349
 30
0.0
 10
7.9576677408
 20
8.5048785557
 30
0.0
 10
7.9584547968
 20
8.5050142985
 30
0.0
 10
7.9588875809
 20
8.5051065117
 30
0.0
 10
7.959213941
 20
8.5051977146
 30
0.0
 10
7.9593936129
 20
8.5052685209
 30
0.0
 10
7.9594620212
 20
8.5053080752
 30
0.0
  0
LINE
  5
3E4
100
AcDbEntity
  8
0
100
AcDbLine
 62
7
  6
CONTINUOUS
 10
7.7089223907
 20
8.7034454067
 11
7.7026012235
 21
8.703657265
  0
LINE
  5
3E5
100
AcDbEntity
  8
0
100
AcDbLine
 62
7
  6
CONTINUOUS
 10
7.769992236
 20
8.7390776397
 11
7.8450163692
 21
8.7367330985
  0
SPLINE
  5
3E6
100
AcDbEntity
  8
0
100
AcDbSpline
 62
7
  6
CONTINUOUS
 70
0
 71
3
 72
14
 73
10
 74
0
 42
0.0000001
 43
0.0000001
 44
0.0000000001
 40
0.0
 40
0.0
 40
0.0
 40
0.0
 40
0.07221236
 40
0.1642671707
 40
0.27420707
 40
0.399696959
 40
0.5380654475
 40
0.6863677408
 40
1.0
 40
1.0
 40
1.0
 40
1.0
 10
7.5827387834
 20
8.5023475222
 30
0.0
 10
7.5872210328
 20
8.5025740929
 30
0.0
 10
7.5974217973
 20
8.5029958144
 30
0.0
 10
7.6144543502
 20
8.5035603131
 30
0.0
 10
7.6347995445
 20
8.5041287587
 30
0.0
 10
7.6580239584
 20
8.5047003269
 30
0.0
 10
7.6836331995
 20
8.5052734697
 30
0.0
 10
7.7209336667
 20
8.5060536179
 30
0.0
 10
7.7496372418
 20
8.5066154655
 30
0.0
 10
7.7691256352
 20
8.5069972134
 30
0.0
  0
LINE
  5
3E7
100
AcDbEntity
  8
0
100
AcDbLine
 62
7
  6
CONTINUOUS
 10
7.7698857392
 20
8.5070121026
 11
7.9019411765
 21
8.5098274607
  0
SPLINE
  5
3E8
100
AcDbEntity
  8
0
100
AcDbSpline
 62
7
  6
CONTINUOUS
 70
0
 71
3
 72
23
 73
19
 74
0
 42
0.0000001
 43
0.0000001
 44
0.0000000001
 40
0.0
 40
0.0
 40
0.0
 40
0.0
 40
0.2147412419
 40
0.407254551
 40
0.5754806336
 40
0.6499129999
 40
0.7176207325
 40
0.7784168026
 40
0.8321497316
 40
0.8786744801
 40
0.9178650281
 40
0.9496347932
 40
0.962713536
 40
0.9739108236
 40
0.9832251206
 40
0.9906623942
 40
0.9962387328
 40
1.0
 40
1.0
 40
1.0
 40
1.0
 10
7.9019411765
 20
8.5098274607
 30
0.0
 10
7.9070349607
 20
8.5099587023
 30
0.0
 10
7.9166950134
 20
8.5102178716
 30
0.0
 10
7.9303442063
 20
8.5106255501
 30
0.0
 10
7.9406642324
 20
8.5109767437
 30
0.0
 10
7.9480232158
 20
8.5112622369
 30
0.0
 10
7.9528342207
 20
8.5114672896
 30
0.0
 10
7.9571535849
 20
8.5116720549
 30
0.0
 10
7.9609696996
 20
8.5118763808
 30
0.0
 10
7.9642723797
 20
8.5120799493
 30
0.0
 10
7.9670527822
 20
8.5122827202
 30
0.0
 10
7.9690392369
 20
8.5124595495
 30
0.0
 10
7.9703611323
 20
8.5126053455
 30
0.0
 10
7.9711517592
 20
8.5127071245
 30
0.0
 10
7.9718071248
 20
8.5128084337
 30
0.0
 10
7.9723279184
 20
8.5129085191
 30
0.0
 10
7.9727130297
 20
8.5130075059
 30
0.0
 10
7.9729228284
 20
8.513084662
 30
0.0
 10
7.9730001438
 20
8.5131292458
 30
0.0
  0
LINE
  5
3E9
100
AcDbEntity
  8
0
100
AcDbLine
 62
7
  6
CONTINUOUS
 10
7.5739732606
 20
8.5018197444
 11
7.5827387834
 21
8.5023475222
  0
LINE
  5
3EA
100
AcDbEntity
  8
0
100
AcDbLine
 62
7
  6
CONTINUOUS
 10
7.6401534212
 20
8.529254974
 11
7.6355399523
 21
8.5291359676
  0
SPLINE
  5
3EB
100
AcDbEntity
  8
0
100
AcDbSpline
 62
7
  6
CONTINUOUS
 70
0
 71
3
 72
12
 73
8
 74
0
 42
0.0000001
 43
0.0000001
 44
0.0000000001
 40
0.0
 40
0.0
 40
0.0
 40
0.0
 40
0.3346995418
 40
0.6152556552
 40
0.8379880952
 40
0.9267282527
 40
1.0
 40
1.0
 40
1.0
 40
1.0
 10
7.6138516164
 20
8.528525536
 30
0.0
 10
7.6092232947
 20
8.5283837935
 30
0.0
 10
7.6007158082
 20
8.5281073344
 30
0.0
 10
7.589131012
 20
8.5276603834
 30
0.0
 10
7.5809494272
 20
8.5272701805
 30
0.0
 10
7.5756364781
 20
8.5269445712
 30
0.0
 10
7.5734010367
 20
8.5267796457
 30
0.0
 10
7.5723909446
 20
8.526694221
 30
0.0
  0
SPLINE
  5
3EC
100
AcDbEntity
  8
0
100
AcDbSpline
 62
7
  6
CONTINUOUS
 70
0
 71
3
 72
14
 73
10
 74
0
 42
0.0000001
 43
0.0000001
 44
0.0000000001
 40
0.0
 40
0.0
 40
0.0
 40
0.0
 40
0.3909124343
 40
0.5511143335
 40
0.6877414993
 40
0.8007764473
 40
0.8902649759
 40
0.9564217686
 40
1.0
 40
1.0
 40
1.0
 40
1.0
 10
7.5723909446
 20
8.526694221
 30
0.0
 10
7.5716748184
 20
8.5266336574
 30
0.0
 10
7.5706657164
 20
8.5265409479
 30
0.0
 10
7.5694095218
 20
8.5263969847
 30
0.0
 10
7.5686625644
 20
8.5262967262
 30
0.0
 10
7.5680471553
 20
8.5261969954
 30
0.0
 10
7.5675623953
 20
8.5260985932
 30
0.0
 10
7.5672099747
 20
8.5260013457
 30
0.0
 10
7.5670204461
 20
8.5259249765
 30
0.0
 10
7.5669539449
 20
8.5258802953
 30
0.0
  0
LINE
  5
3ED
100
AcDbEntity
  8
0
100
AcDbLine
 62
7
  6
CONTINUOUS
 10
7.5669539449
 20
8.5258802953
 11
7.5668675295
 21
8.5257641889
  0
LINE
  5
3EE
100
AcDbEntity
  8
0
100
AcDbLine
 62
7
  6
CONTINUOUS
 10
7.769992236
 20
8.7765776402
 11
7.7077845447
 21
8.7784830983
  0
LINE
  5
3EF
100
AcDbEntity
  8
0
100
AcDbLine
 62
7
  6
CONTINUOUS
 10
12.3346264255
 20
8.7745911629
 11
12.269992236
 21
8.7765776402
  0
LINE
  5
3F0
100
AcDbEntity
  8
0
100
AcDbLine
 62
7
  6
CONTINUOUS
 10
12.3438999886
 20
8.7492725461
 11
12.269992236
 21
8.7515776394
  0
LINE
  5
3F1
100
AcDbEntity
  8
0
100
AcDbLine
 62
7
  6
CONTINUOUS
 10
12.3439392295
 20
8.724271165
 11
12.269992236
 21
8.72657764
  0
LINE
  5
3F2
100
AcDbEntity
  8
0
100
AcDbLine
 62
7
  6
CONTINUOUS
 10
12.2011208152
 20
8.7662078107
 11
12.269992236
 21
8.7640776402
  0
LINE
  5
3F3
100
AcDbEntity
  8
0
100
AcDbLine
 62
7
  6
CONTINUOUS
 10
12.195128045
 20
8.7414165133
 11
12.269992236
 21
8.7390776397
  0
LINE
  5
3F4
100
AcDbEntity
  8
0
100
AcDbLine
 62
7
  6
CONTINUOUS
 10
12.0668675295
 20
8.5257641889
 11
12.0669842145
 21
8.525629246
  0
LINE
  5
3F5
100
AcDbEntity
  8
0
100
AcDbLine
 62
7
  6
CONTINUOUS
 10
12.0668675279
 20
8.5288910906
 11
12.066984176
 21
8.5290260336
  0
SPLINE
  5
3F6
100
AcDbEntity
  8
0
100
AcDbSpline
 62
7
  6
CONTINUOUS
 70
0
 71
3
 72
21
 73
17
 74
0
 42
0.0000001
 43
0.0000001
 44
0.0000000001
 40
0.0
 40
0.0
 40
0.0
 40
0.0
 40
0.0060908326
 40
0.0115860633
 40
0.0189396943
 40
0.0282069499
 40
0.0394141828
 40
0.0676906927
 40
0.1037918275
 40
0.1476922565
 40
0.1993530166
 40
0.2587267591
 40
0.400290542
 40
0.5716384008
 40
0.7719042538
 40
1.0
 40
1.0
 40
1.0
 40
1.0
 10
12.0803974517
 20
8.51795264
 30
0.0
 10
12.0803975368
 20
8.5180168301
 30
0.0
 10
12.0805226822
 20
8.5181053025
 30
0.0
 10
12.0806962622
 20
8.5181792375
 30
0.0
 10
12.0809222476
 20
8.5182518939
 30
0.0
 10
12.0812054987
 20
8.5183223759
 30
0.0
 10
12.0817094506
 20
8.5184264001
 30
0.0
 10
12.0824961603
 20
8.5185506322
 30
0.0
 10
12.0836286378
 20
8.5186929119
 30
0.0
 10
12.0850088497
 20
8.5188358069
 30
0.0
 10
12.0866354064
 20
8.5189794738
 30
0.0
 10
12.0892896887
 20
8.5191835918
 30
0.0
 10
12.0932053963
 20
8.5194322235
 30
0.0
 10
12.0986061618
 20
8.5197180839
 30
0.0
 10
12.1049199172
 20
8.5200049237
 30
0.0
 10
12.109430745
 20
8.5201853792
 30
0.0
 10
12.1118328626
 20
8.5202767923
 30
0.0
  0
LINE
  5
3F7
100
AcDbEntity
  8
0
100
AcDbLine
 62
7
  6
CONTINUOUS
 10
12.1118328626
 20
8.5202767923
 11
12.1125269432
 21
8.5203030743
  0
LINE
  5
3F8
100
AcDbEntity
  8
0
100
AcDbLine
 62
7
  6
CONTINUOUS
 10
12.1125269432
 20
8.5203030743
 11
12.1371555284
 21
8.5211138924
  0
LINE
  5
3F9
100
AcDbEntity
  8
0
100
AcDbLine
 62
7
  6
CONTINUOUS
 10
12.3963424778
 20
8.5271048277
 11
12.3990904813
 21
8.5271828657
  0
LINE
  5
3FA
100
AcDbEntity
  8
0
100
AcDbLine
 62
7
  6
CONTINUOUS
 10
12.3990904813
 20
8.5271828657
 11
12.4062115509
 21
8.527392141
  0
SPLINE
  5
3FB
100
AcDbEntity
  8
0
100
AcDbSpline
 62
7
  6
CONTINUOUS
 70
0
 71
3
 72
13
 73
9
 74
0
 42
0.0000001
 43
0.0000001
 44
0.0000000001
 40
0.0
 40
0.0
 40
0.0
 40
0.0
 40
0.3518863858
 40
0.639574374
 40
0.7574176672
 40
0.8570949402
 40
0.9380817552
 40
1.0
 40
1.0
 40
1.0
 40
1.0
 10
12.4062115509
 20
8.527392141
 30
0.0
 10
12.412073804
 20
8.5275690212
 30
0.0
 10
12.422728153
 20
8.5279119641
 30
0.0
 10
12.4353428448
 20
8.528401266
 30
0.0
 10
12.4437534577
 20
8.5288072605
 30
0.0
 10
12.4487208212
 20
8.52908945
 30
0.0
 10
12.4527542874
 20
8.5293696749
 30
0.0
 10
12.4551271737
 20
8.5295805493
 30
0.0
 10
12.4561528972
 20
8.5296941652
 30
0.0
  0
LINE
  5
3FC
100
AcDbEntity
  8
0
100
AcDbLine
 62
7
  6
CONTINUOUS
 10
12.4561528972
 20
8.5296941652
 11
12.4588953828
 21
8.5301127154
  0
LINE
  5
3FD
100
AcDbEntity
  8
0
100
AcDbLine
 62
7
  6
CONTINUOUS
 10
12.4588953828
 20
8.5301127154
 11
12.4594620909
 21
8.5303080749
  0
SPLINE
  5
3FE
100
AcDbEntity
  8
0
100
AcDbSpline
 62
7
  6
CONTINUOUS
 70
0
 71
3
 72
20
 73
16
 74
0
 42
0.0000001
 43
0.0000001
 44
0.0000000001
 40
0.0
 40
0.0
 40
0.0
 40
0.0
 40
0.004390134
 40
0.0104968059
 40
0.0280208969
 40
0.0527063046
 40
0.0845617941
 40
0.1235681254
 40
0.1696756075
 40
0.2228052988
 40
0.2828742538
 40
0.4234697179
 40
0.5906033971
 40
0.7832617137
 40
1.0
 40
1.0
 40
1.0
 40
1.0
 10
12.066984176
 20
8.5290260336
 30
0.0
 10
12.0670406381
 20
8.5290586796
 30
0.0
 10
12.0671858146
 20
8.5291182512
 30
0.0
 10
12.0675852515
 20
8.5292354843
 30
0.0
 10
12.0682917514
 20
8.5293700254
 30
0.0
 10
12.0693809735
 20
8.5295243355
 30
0.0
 10
12.0707922524
 20
8.5296796116
 30
0.0
 10
12.0725228668
 20
8.5298365636
 30
0.0
 10
12.0745706638
 20
8.5299940407
 30
0.0
 10
12.0769320841
 20
8.530152083
 30
0.0
 10
12.0806959311
 20
8.5303750562
 30
0.0
 10
12.0861533041
 20
8.5306476921
 30
0.0
 10
12.0935805449
 20
8.5309620946
 30
0.0
 10
12.1021398195
 20
8.5312773626
 30
0.0
 10
12.1082186376
 20
8.5314767824
 30
0.0
 10
12.1114369635
 20
8.5315776398
 30
0.0
  0
SPLINE
  5
3FF
100
AcDbEntity
  8
0
100
AcDbSpline
 62
7
  6
CONTINUOUS
 70
0
 71
3
 72
22
 73
18
 74
0
 42
0.0000001
 43
0.0000001
 44
0.0000000001
 40
0.0
 40
0.0
 40
0.0
 40
0.0
 40
0.0038030519
 40
0.0094128466
 40
0.0168755655
 40
0.0262077047
 40
0.0504967855
 40
0.0822547904
 40
0.1214117682
 40
0.1678850938
 40
0.2215538692
 40
0.2822791088
 40
0.3499154614
 40
0.4242832201
 40
0.5924326527
 40
0.7849985125
 40
1.0
 40
1.0
 40
1.0
 40
1.0
 10
12.0669843151
 20
8.5040260337
 30
0.0
 10
12.0670597896
 20
8.5040695602
 30
0.0
 10
12.0672637087
 20
8.5041452471
 30
0.0
 10
12.0676375429
 20
8.5042423729
 30
0.0
 10
12.0681418297
 20
8.5043406178
 30
0.0
 10
12.0690717041
 20
8.5044861634
 30
0.0
 10
12.0705600464
 20
8.5046590113
 30
0.0
 10
12.072732184
 20
8.5048564032
 30
0.0
 10
12.0754142861
 20
8.5050549786
 30
0.0
 10
12.0785993338
 20
8.5052547406
 30
0.0
 10
12.082279316
 20
8.5054551
 30
0.0
 10
12.0864447266
 20
8.5056559332
 30
0.0
 10
12.0910848208
 20
8.5058570334
 30
0.0
 10
12.0981847871
 20
8.5061370696
 30
0.0
 10
12.1081464357
 20
8.5064815639
 30
0.0
 10
12.1213297987
 20
8.5068814182
 30
0.0
 10
12.1306635337
 20
8.5071354653
 30
0.0
 10
12.1355874373
 20
8.5072641063
 30
0.0
  0
LINE
  5
400
100
AcDbEntity
  8
0
100
AcDbLine
 62
7
  6
CONTINUOUS
 10
12.1355874373
 20
8.5072641063
 11
12.2649281945
 21
8.5100418845
  0
LINE
  5
401
100
AcDbEntity
  8
0
100
AcDbLine
 62
7
  6
CONTINUOUS
 10
12.2649281945
 20
8.5100418845
 11
12.3949358068
 21
8.5127771798
  0
SPLINE
  5
402
100
AcDbEntity
  8
0
100
AcDbSpline
 62
7
  6
CONTINUOUS
 70
0
 71
3
 72
13
 73
9
 74
0
 42
0.0000001
 43
0.0000001
 44
0.0000000001
 40
0.0
 40
0.0
 40
0.0
 40
0.0
 40
0.3416261058
 40
0.6270107932
 40
0.7461378414
 40
0.8484501097
 40
0.9332585594
 40
1.0
 40
1.0
 40
1.0
 40
1.0
 10
12.3949358068
 20
8.5127771798
 30
0.0
 10
12.403126957
 20
8.5129806808
 30
0.0
 10
12.4181602256
 20
8.5133758689
 30
0.0
 10
12.436047386
 20
8.5139316405
 30
0.0
 10
12.4481945751
 20
8.5143912971
 30
0.0
 10
12.4555327403
 20
8.514713466
 30
0.0
 10
12.4616130864
 20
8.5150336251
 30
0.0
 10
12.4652403321
 20
8.5152723514
 30
0.0
 10
12.4668360616
 20
8.5153990268
 30
0.0
  0
SPLINE
  5
403
100
AcDbEntity
  8
0
100
AcDbSpline
 62
7
  6
CONTINUOUS
 70
0
 71
3
 72
12
 73
8
 74
0
 42
0.0000001
 43
0.0000001
 44
0.0000000001
 40
0.0
 40
0.0
 40
0.0
 40
0.0
 40
0.3714544053
 40
0.6620848733
 40
0.8713918978
 40
0.9456766339
 40
1.0
 40
1.0
 40
1.0
 40
1.0
 10
12.4668360616
 20
8.5153990268
 30
0.0
 10
12.4675877343
 20
8.5154586975
 30
0.0
 10
12.4689270202
 20
8.5155735694
 30
0.0
 10
12.4706852888
 20
8.5157657819
 30
0.0
 10
12.4718399469
 20
8.5159335483
 30
0.0
 10
12.4725103904
 20
8.5160787922
 30
0.0
 10
12.4727616422
 20
8.5161523791
 30
0.0
 10
12.4728642891
 20
8.5161926781
 30
0.0
  0
LINE
  5
404
100
AcDbEntity
  8
0
100
AcDbLine
 62
7
  6
CONTINUOUS
 10
12.4728642891
 20
8.5161926781
 11
12.473117236
 21
8.5163910906
  0
LINE
  5
405
100
AcDbEntity
  8
0
100
AcDbLine
 62
7
  6
CONTINUOUS
 10
12.0805223643
 20
8.5118472046
 11
12.0822958181
 21
8.5122661607
  0
SPLINE
  5
406
100
AcDbEntity
  8
0
100
AcDbSpline
 62
7
  6
CONTINUOUS
 70
0
 71
3
 72
13
 73
9
 74
0
 42
0.0000001
 43
0.0000001
 44
0.0000000001
 40
0.0
 40
0.0
 40
0.0
 40
0.0
 40
0.0598243478
 40
0.1388743867
 40
0.2369194762
 40
0.3536816693
 40
0.641912059
 40
1.0
 40
1.0
 40
1.0
 40
1.0
 10
12.0822958181
 20
8.5122661607
 30
0.0
 10
12.0828915904
 20
8.5123547525
 30
0.0
 10
12.0842806525
 20
8.512518615
 30
0.0
 10
12.0866561685
 20
8.5127355062
 30
0.0
 10
12.0896068294
 20
8.5129541456
 30
0.0
 10
12.094661708
 20
8.5132699921
 30
0.0
 10
12.1023353901
 20
8.5136503752
 30
0.0
 10
12.1088373415
 20
8.5139138742
 30
0.0
 10
12.1124400774
 20
8.5140497894
 30
0.0
  0
LINE
  5
407
100
AcDbEntity
  8
0
100
AcDbLine
 62
7
  6
CONTINUOUS
 10
12.1124400774
 20
8.5140497894
 11
12.1133313557
 21
8.5140832043
  0
LINE
  5
408
100
AcDbEntity
  8
0
100
AcDbLine
 62
7
  6
CONTINUOUS
 10
12.1133313557
 20
8.5140832043
 11
12.1354270699
 21
8.5148127293
  0
SPLINE
  5
409
100
AcDbEntity
  8
0
100
AcDbSpline
 62
7
  6
CONTINUOUS
 70
0
 71
3
 72
10
 73
6
 74
0
 42
0.0000001
 43
0.0000001
 44
0.0000000001
 40
0.0
 40
0.0
 40
0.0
 40
0.0
 40
0.2142868082
 40
0.4583243763
 40
1.0
 40
1.0
 40
1.0
 40
1.0
 10
12.1354270699
 20
8.5148127293
 30
0.0
 10
12.1446119743
 20
8.5150863617
 30
0.0
 10
12.1642586857
 20
8.5156140857
 30
0.0
 10
12.2071283108
 20
8.5166320028
 30
0.0
 10
12.2408136175
 20
8.5173400318
 30
0.0
 10
12.2640364625
 20
8.5178276303
 30
0.0
  0
LINE
  5
40A
100
AcDbEntity
  8
0
100
AcDbLine
 62
7
  6
CONTINUOUS
 10
12.400274558
 20
8.5209669374
 11
12.4074322803
 21
8.5211791509
  0
SPLINE
  5
40B
100
AcDbEntity
  8
0
100
AcDbSpline
 62
7
  6
CONTINUOUS
 70
0
 71
3
 72
24
 73
20
 74
0
 42
0.0000001
 43
0.0000001
 44
0.0000000001
 40
0.0
 40
0.0
 40
0.0
 40
0.0
 40
0.2248808206
 40
0.4240835684
 40
0.5958116693
 40
0.670889092
 40
0.7385444489
 40
0.7986197739
 40
0.8509955688
 40
0.895560543
 40
0.9322119669
 40
0.9608928519
 40
0.9722383217
 40
0.9815887559
 40
0.9889544084
 40
0.9943654708
 40
0.9963656254
 40
0.9979274425
 40
1.0
 40
1.0
 40
1.0
 40
1.0
 10
12.4074322803
 20
8.5211791509
 30
0.0
 10
12.4113548128
 20
8.5212986516
 30
0.0
 10
12.4187516758
 20
8.5215344455
 30
0.0
 10
12.4291424062
 20
8.5219075127
 30
0.0
 10
12.4369190103
 20
8.5222297525
 30
0.0
 10
12.4424003494
 20
8.5224921538
 30
0.0
 10
12.4459345575
 20
8.522679773
 30
0.0
 10
12.4490720088
 20
8.5228670477
 30
0.0
 10
12.451805728
 20
8.5230538442
 30
0.0
 10
12.4541296973
 20
8.5232396601
 30
0.0
 10
12.4560386255
 20
8.523424572
 30
0.0
 10
12.4573672348
 20
8.5235863485
 30
0.0
 10
12.4582183714
 20
8.5237213085
 30
0.0
 10
12.4586994057
 20
8.5238136115
 30
0.0
 10
12.4590746977
 20
8.5239057015
 30
0.0
 10
12.4593200567
 20
8.5239858243
 30
0.0
 10
12.4594615615
 20
8.5240557206
 30
0.0
 10
12.4595422548
 20
8.5241085349
 30
0.0
 10
12.4595869528
 20
8.5241664721
 30
0.0
 10
12.4595869286
 20
8.5242026399
 30
0.0
  0
LINE
  5
40C
100
AcDbEntity
  8
0
100
AcDbLine
 62
7
  6
CONTINUOUS
 10
12.269992236
 20
8.7515776394
 11
12.1970234631
 21
8.7538497489
  0
LINE
  5
40D
100
AcDbEntity
  8
0
100
AcDbLine
 62
7
  6
CONTINUOUS
 10
12.269992236
 20
8.7640776402
 11
12.3405781192
 21
8.7618884597
  0
LINE
  5
40E
100
AcDbEntity
  8
0
100
AcDbLine
 62
7
  6
CONTINUOUS
 10
12.269992236
 20
8.72657764
 11
12.1953973855
 21
8.7289069815
  0
SPLINE
  5
40F
100
AcDbEntity
  8
0
100
AcDbSpline
 62
7
  6
CONTINUOUS
 70
0
 71
3
 72
22
 73
18
 74
0
 42
0.0000001
 43
0.0000001
 44
0.0000000001
 40
0.0
 40
0.0
 40
0.0
 40
0.0
 40
0.2150981151
 40
0.4073018965
 40
0.5748923272
 40
0.648969472
 40
0.7163501653
 40
0.7768789689
 40
0.8304145802
 40
0.8768506633
 40
0.9160883304
 40
0.9480383967
 40
0.9726562977
 40
0.9822133386
 40
0.9899406324
 40
0.9958540335
 40
1.0
 40
1.0
 40
1.0
 40
1.0
 10
12.4024121261
 20
8.5022791466
 30
0.0
 10
12.406510048
 20
8.5023993158
 30
0.0
 10
12.4142694439
 20
8.5026366791
 30
0.0
 10
12.4252202931
 20
8.5030108881
 30
0.0
 10
12.4334834758
 20
8.5033333176
 30
0.0
 10
12.4393679933
 20
8.5035953828
 30
0.0
 10
12.4432131922
 20
8.5037835414
 30
0.0
 10
12.4466663761
 20
8.5039714104
 30
0.0
 10
12.4497197358
 20
8.5041589189
 30
0.0
 10
12.4523664476
 20
8.5043458998
 30
0.0
 10
12.4546007146
 20
8.5045317717
 30
0.0
 10
12.4564173865
 20
8.5047166349
 30
0.0
 10
12.4576677408
 20
8.5048785557
 30
0.0
 10
12.4584547968
 20
8.5050142985
 30
0.0
 10
12.4588875809
 20
8.5051065117
 30
0.0
 10
12.459213941
 20
8.5051977146
 30
0.0
 10
12.4593936129
 20
8.5052685209
 30
0.0
 10
12.4594620212
 20
8.5053080752
 30
0.0
  0
LINE
  5
410
100
AcDbEntity
  8
0
100
AcDbLine
 62
7
  6
CONTINUOUS
 10
12.2089223907
 20
8.7034454067
 11
12.2026012235
 21
8.703657265
  0
LINE
  5
411
100
AcDbEntity
  8
0
100
AcDbLine
 62
7
  6
CONTINUOUS
 10
12.269992236
 20
8.7390776397
 11
12.3450163692
 21
8.7367330985
  0
SPLINE
  5
412
100
AcDbEntity
  8
0
100
AcDbSpline
 62
7
  6
CONTINUOUS
 70
0
 71
3
 72
14
 73
10
 74
0
 42
0.0000001
 43
0.0000001
 44
0.0000000001
 40
0.0
 40
0.0
 40
0.0
 40
0.0
 40
0.07221236
 40
0.1642671707
 40
0.27420707
 40
0.399696959
 40
0.5380654475
 40
0.6863677408
 40
1.0
 40
1.0
 40
1.0
 40
1.0
 10
12.0827387834
 20
8.5023475222
 30
0.0
 10
12.0872210328
 20
8.5025740929
 30
0.0
 10
12.0974217973
 20
8.5029958144
 30
0.0
 10
12.1144543502
 20
8.5035603131
 30
0.0
 10
12.1347995445
 20
8.5041287587
 30
0.0
 10
12.1580239584
 20
8.5047003269
 30
0.0
 10
12.1836331995
 20
8.5052734697
 30
0.0
 10
12.2209336667
 20
8.5060536179
 30
0.0
 10
12.2496372418
 20
8.5066154655
 30
0.0
 10
12.2691256352
 20
8.5069972134
 30
0.0
  0
LINE
  5
413
100
AcDbEntity
  8
0
100
AcDbLine
 62
7
  6
CONTINUOUS
 10
12.2698857392
 20
8.5070121026
 11
12.4019411765
 21
8.5098274607
  0
SPLINE
  5
414
100
AcDbEntity
  8
0
100
AcDbSpline
 62
7
  6
CONTINUOUS
 70
0
 71
3
 72
23
 73
19
 74
0
 42
0.0000001
 43
0.0000001
 44
0.0000000001
 40
0.0
 40
0.0
 40
0.0
 40
0.0
 40
0.2147412419
 40
0.407254551
 40
0.5754806336
 40
0.6499129999
 40
0.7176207325
 40
0.7784168026
 40
0.8321497316
 40
0.8786744801
 40
0.9178650281
 40
0.9496347932
 40
0.962713536
 40
0.9739108236
 40
0.9832251206
 40
0.9906623942
 40
0.9962387328
 40
1.0
 40
1.0
 40
1.0
 40
1.0
 10
12.4019411765
 20
8.5098274607
 30
0.0
 10
12.4070349607
 20
8.5099587023
 30
0.0
 10
12.4166950134
 20
8.5102178716
 30
0.0
 10
12.4303442063
 20
8.5106255501
 30
0.0
 10
12.4406642324
 20
8.5109767437
 30
0.0
 10
12.4480232158
 20
8.5112622369
 30
0.0
 10
12.4528342207
 20
8.5114672896
 30
0.0
 10
12.4571535849
 20
8.5116720549
 30
0.0
 10
12.4609696996
 20
8.5118763808
 30
0.0
 10
12.4642723797
 20
8.5120799493
 30
0.0
 10
12.4670527822
 20
8.5122827202
 30
0.0
 10
12.4690392369
 20
8.5124595495
 30
0.0
 10
12.4703611323
 20
8.5126053455
 30
0.0
 10
12.4711517592
 20
8.5127071245
 30
0.0
 10
12.4718071248
 20
8.5128084337
 30
0.0
 10
12.4723279184
 20
8.5129085191
 30
0.0
 10
12.4727130297
 20
8.5130075059
 30
0.0
 10
12.4729228284
 20
8.513084662
 30
0.0
 10
12.4730001438
 20
8.5131292458
 30
0.0
  0
LINE
  5
415
100
AcDbEntity
  8
0
100
AcDbLine
 62
7
  6
CONTINUOUS
 10
12.0739732606
 20
8.5018197444
 11
12.0827387834
 21
8.5023475222
  0
LINE
  5
416
100
AcDbEntity
  8
0
100
AcDbLine
 62
7
  6
CONTINUOUS
 10
12.1401534212
 20
8.529254974
 11
12.1355399523
 21
8.5291359676
  0
SPLINE
  5
417
100
AcDbEntity
  8
0
100
AcDbSpline
 62
7
  6
CONTINUOUS
 70
0
 71
3
 72
12
 73
8
 74
0
 42
0.0000001
 43
0.0000001
 44
0.0000000001
 40
0.0
 40
0.0
 40
0.0
 40
0.0
 40
0.3346995418
 40
0.6152556552
 40
0.8379880952
 40
0.9267282527
 40
1.0
 40
1.0
 40
1.0
 40
1.0
 10
12.1138516164
 20
8.528525536
 30
0.0
 10
12.1092232947
 20
8.5283837935
 30
0.0
 10
12.1007158082
 20
8.5281073344
 30
0.0
 10
12.089131012
 20
8.5276603834
 30
0.0
 10
12.0809494272
 20
8.5272701805
 30
0.0
 10
12.0756364781
 20
8.5269445712
 30
0.0
 10
12.0734010367
 20
8.5267796457
 30
0.0
 10
12.0723909446
 20
8.526694221
 30
0.0
  0
SPLINE
  5
418
100
AcDbEntity
  8
0
100
AcDbSpline
 62
7
  6
CONTINUOUS
 70
0
 71
3
 72
14
 73
10
 74
0
 42
0.0000001
 43
0.0000001
 44
0.0000000001
 40
0.0
 40
0.0
 40
0.0
 40
0.0
 40
0.3909124343
 40
0.5511143335
 40
0.6877414993
 40
0.8007764473
 40
0.8902649759
 40
0.9564217686
 40
1.0
 40
1.0
 40
1.0
 40
1.0
 10
12.0723909446
 20
8.526694221
 30
0.0
 10
12.0716748184
 20
8.5266336574
 30
0.0
 10
12.0706657164
 20
8.5265409479
 30
0.0
 10
12.0694095218
 20
8.5263969847
 30
0.0
 10
12.0686625644
 20
8.5262967262
 30
0.0
 10
12.0680471553
 20
8.5261969954
 30
0.0
 10
12.0675623953
 20
8.5260985932
 30
0.0
 10
12.0672099747
 20
8.5260013457
 30
0.0
 10
12.0670204461
 20
8.5259249765
 30
0.0
 10
12.0669539449
 20
8.5258802953
 30
0.0
  0
LINE
  5
419
100
AcDbEntity
  8
0
100
AcDbLine
 62
7
  6
CONTINUOUS
 10
12.0669539449
 20
8.5258802953
 11
12.0668675295
 21
8.5257641889
  0
LINE
  5
41A
100
AcDbEntity
  8
0
100
AcDbLine
 62
7
  6
CONTINUOUS
 10
12.269992236
 20
8.7765776402
 11
12.2077845447
 21
8.7784830983
  0
ENDSEC
  0
SECTION
  2
OBJECTS
  0
DICTIONARY
  5
C
100
AcDbDictionary
280
0
281
1
  3
ACAD_GROUP
350
D
  3
ACAD_MLINESTYLE
350
17
  3
ACAD_LAYOUT
350
1A
  3
ACAD_PLOTSETTINGS
350
19
  3
ACAD_PLOTSTYLENAME
350
E
  0
DICTIONARY
  5
D
102
{ACAD_REACTORS
330
C
102
}
100
AcDbDictionary
280
0
281
1
  0
ACDBDICTIONARYWDFLT
  5
E
102
{ACAD_REACTORS
330
C
102
}
100
AcDbDictionary
281
1
  3
Normal
350
F
100
AcDbDictionaryWithDefault
340
F
  0
DICTIONARY
  5
17
102
{ACAD_REACTORS
330
C
102
}
100
AcDbDictionary
280
0
281
1
  3
Standard
350
18
  0
DICTIONARY
  5
19
102
{ACAD_REACTORS
330
C
102
}
100
AcDbDictionary
281
1
  0
DICTIONARY
  5
1A
102
{ACAD_REACTORS
330
C
102
}
100
AcDbDictionary
281
1
  3
Model
350
41B
  3
Layout1
350
41C
  0
ACDBPLACEHOLDER
  5
F
102
{ACAD_REACTORS
330
E
102
}
  0
MLINESTYLE
  5
18
102
{ACAD_REACTORS
330
17
102
}
100
AcDbMlineStyle
  2
STANDARD
 70
0
  3

 62
256
 51
90.0
 52
90.0
 71
2
 49
0.5
 62
256
  6
BYLAYER
 49
-0.5
 62
256
  6
BYLAYER
  0
LAYOUT
  5
41B
102
{ACAD_REACTORS
330
1A
102
}
100
AcDbPlotSettings
  1

  2
none_device
  4
ANSI_C_(22.00_x_17.00_Inches)
  6

 40
0.0
 41
0.0
 42
0.0
 43
0.0
 44
558.8
 45
431.8
 46
0.0
 47
0.0
 48
0.0
 49
0.0
140
0.0
141
0.0
142
1.0
143
1.0
 70
1024
 72
0
 73
0
 74
0
  7

 75
0
147
1.0
148
0.0
149
0.0
100
AcDbLayout
  1
Model
 70
0
 71
0
 10
0.0
 20
0.0
 11
22.0
 21
17.0
 12
0.0
 22
0.0
 32
0.0
 14
0.0
 24
0.0
 34
0.0
 15
0.0
 25
0.0
 35
0.0
146
0.0
 13
0.0
 23
0.0
 33
0.0
 16
1.0
 26
0.0
 36
0.0
 17
0.0
 27
1.0
 37
0.0
 76
0
330
218
345
0
346
0
  0
LAYOUT
  5
41C
102
{ACAD_REACTORS
330
1A
102
}
100
AcDbPlotSettings
  1

  2
none_device
  4
ANSI_C_(22.00_x_17.00_Inches)
  6

 40
0.0
 41
0.0
 42
0.0
 43
0.0
 44
558.8
 45
431.8
 46
0.0
 47
0.0
 48
0.0
 49
0.0
140
0.0
141
0.0
142
1.0
143
1.0
 70
0
 72
0
 73
0
 74
0
  7

 75
0
147
1.0
148
0.0
149
0.0
100
AcDbLayout
  1
Layout1
 70
0
 71
1
 10
0.0
 20
0.0
 11
22.0
 21
17.0
 12
0.0
 22
0.0
 32
0.0
 14
0.0
 24
0.0
 34
0.0
 15
0.0
 25
0.0
 35
0.0
146
0.0
 13
0.0
 23
0.0
 33
0.0
 16
1.0
 26
0.0
 36
0.0
 17
0.0
 27
1.0
 37
0.0
 76
0
330
219
345
0
346
0
  0
ENDSEC
  0
EOF
