999
DXF file: 4774_front.dxf
999
Pro/ENGINEER 2018400 by Parametric Technology Corporation
  0
SECTION
  2
HEADER
  9
$ACADVER
  1
AC1027
  9
$DWGCODEPAGE
  3
ANSI_1252
  9
$EXTMAX
 10
11.0
 20
8.5
 30
0.0
  9
$EXTMIN
 10
0.0
 20
0.0
 30
0.0
  9
$LIMMIN
 10
0.0
 20
0.0
  9
$LIMMAX
 10
11.0
 20
8.5
  9
$VIEWCTR
 10
5.5
 20
4.25
  9
$VIEWSIZE
 40
8.5
  9
$CLAYER
  8
0
  9
$LTSCALE
 40
0.605
  9
$CELTYPE
  6
BYLAYER
  9
$DIMSCALE
 40
1.0
  9
$DIMASZ
 40
0.1
  9
$DIMEXO
 40
0.0625
  9
$DIMDLI
 40
0.418
  9
$DIMEXE
 40
0.125
  9
$DIMCEN
 40
0.099
  9
$DIMLFAC
 40
1.0
  9
$DIMBLK
  1
_FILLED
  9
$DIMALT
 70
1
  9
$DIMALTD
 70
1
  9
$DIMALTTD
 70
2
  9
$DIMALTF
 40
25.4
  9
$DIMTXT
 40
0.08
  9
$DIMTOL
 70
1
  9
$DIMLIM
 70
0
  9
$DIMTFAC
 40
1.0
  9
$DIMTP
 40
0.01
  9
$DIMTM
 40
0.01
  9
$DIMGAP
 40
0.09
  9
$DIMDSEP
 70
46
  9
$AUNITS
 70
0
  9
$PDMODE
 70
3
  9
$PDSIZE
 40
0.3125
  9
$HANDSEED
  5
31A
  9
$TILEMODE
 70
1
  9
$MEASUREMENT
 70
0
  9
$INSUNITS
 70
1
  0
ENDSEC
  0
SECTION
  2
CLASSES
  0
CLASS
  1
ACDBDICTIONARYWDFLT
  2
AcDbDictionaryWithDefault
  3
AutoCAD 2000
 90
0
 91
1
280
0
281
0
  0
CLASS
  1
ACDBPLACEHOLDER
  2
AcDbPlaceHolder
  3
AutoCAD 2000
 90
0
 91
1
280
0
281
0
  0
CLASS
  1
LAYOUT
  2
AcDbLayout
  3
AutoCAD 2000
 90
0
 91
0
280
0
281
0
  0
ENDSEC
  0
SECTION
  2
TABLES
  0
TABLE
  2
VPORT
  5
8
100
AcDbSymbolTable
 70
2
  0
VPORT
  5
1F4
100
AcDbSymbolTableRecord
100
AcDbViewportTableRecord
  2
*ACTIVE
 70
0
 10
0.0
 20
0.0
 11
1.0
 21
1.0
 12
5.5
 22
4.25
 13
0.0
 23
0.0
 14
1.0
 24
1.0
 15
0.0
 25
0.0
 16
0.0
 26
0.0
 36
1.0
 17
0.0
 27
0.0
 37
0.0
 40
8.5
 41
1.2941176471
 42
50.0
 43
0.0
 44
0.0
 50
0.0
 51
0.0
 71
0
 72
100
 73
1
 74
1
 75
0
 76
0
 77
0
 78
0
  0
ENDTAB
  0
TABLE
  2
LTYPE
  5
5
100
AcDbSymbolTable
 70
6
  0
LTYPE
  5
14
100
AcDbSymbolTableRecord
100
AcDbLinetypeTableRecord
  2
BYBLOCK
 70
0
  3

 72
65
 73
0
 40
0.0
  0
LTYPE
  5
15
100
AcDbSymbolTableRecord
100
AcDbLinetypeTableRecord
  2
BYLAYER
 70
0
  3

 72
65
 73
0
 40
0.0
  0
LTYPE
  5
16
100
AcDbSymbolTableRecord
100
AcDbLinetypeTableRecord
  2
CONTINUOUS
 70
64
  3
Solid line
 72
65
 73
0
 40
0.0
  0
LTYPE
  5
1F5
100
AcDbSymbolTableRecord
100
AcDbLinetypeTableRecord
  2
CENTER
 70
64
  3
____ _ ____ _ ____ _ ____ _ ____ _ ____ _ ____
 72
65
 73
4
 40
0.6
 49
0.375
 74
0
 49
-0.075
 74
0
 49
0.075
 74
0
 49
-0.075
 74
0
  0
LTYPE
  5
1F6
100
AcDbSymbolTableRecord
100
AcDbLinetypeTableRecord
  2
HIDDEN
 70
64
  3
- - - - - - - - - - - - - - - - - - - -
 72
65
 73
2
 40
0.2
 49
0.1
 74
0
 49
-0.1
 74
0
  0
LTYPE
  5
1F7
100
AcDbSymbolTableRecord
100
AcDbLinetypeTableRecord
  2
PHANTOM
 70
64
  3
_____ _ _ _____ _ _ _____ _ _ _____
 72
65
 73
6
 40
0.8
 49
0.45
 74
0
 49
-0.05
 74
0
 49
0.1
 74
0
 49
-0.05
 74
0
 49
0.1
 74
0
 49
-0.05
 74
0
  0
LTYPE
  5
1F8
100
AcDbSymbolTableRecord
100
AcDbLinetypeTableRecord
  2
DOT
 70
64
  3
. . . . . . . . . . . . . . . . . . . .
 72
65
 73
2
 40
0.2
 49
0.1
 74
0
 49
-0.1
 74
0
  0
LTYPE
  5
1F9
100
AcDbSymbolTableRecord
100
AcDbLinetypeTableRecord
  2
DASHED
 70
64
  3
- - - - - - - - - - - - - - - - - - - -
 72
65
 73
2
 40
0.2
 49
0.1
 74
0
 49
-0.1
 74
0
  0
ENDTAB
  0
TABLE
  2
LAYER
  5
2
100
AcDbSymbolTable
 70
36
  0
LAYER
  5
10
100
AcDbSymbolTableRecord
100
AcDbLayerTableRecord
  2
0
 70
0
 62
7
  6
CONTINUOUS
370
-3
390
F
  0
LAYER
  5
1FA
100
AcDbSymbolTableRecord
100
AcDbLayerTableRecord
  2
DEFAULT_1
 70
0
 62
7
  6
CENTER
370
-3
390
F
  0
LAYER
  5
1FB
100
AcDbSymbolTableRecord
100
AcDbLayerTableRecord
  2
DEFAULT_2
 70
0
 62
8
  6
HIDDEN
370
-3
390
F
  0
LAYER
  5
1FC
100
AcDbSymbolTableRecord
100
AcDbLayerTableRecord
  2
DEFAULT_3
 70
0
 62
7
  6
PHANTOM
370
-3
390
F
  0
LAYER
  5
1FD
100
AcDbSymbolTableRecord
100
AcDbLayerTableRecord
  2
ALL_FEATURES
 70
0
 62
7
  6
CONTINUOUS
370
-3
390
F
  0
LAYER
  5
1FE
100
AcDbSymbolTableRecord
100
AcDbLayerTableRecord
  2
AXES_FEATURES
 70
0
 62
7
  6
CONTINUOUS
370
-3
390
F
  0
LAYER
  5
1FF
100
AcDbSymbolTableRecord
100
AcDbLayerTableRecord
  2
CHAMFER_FEATURES
 70
0
 62
7
  6
CONTINUOUS
370
-3
390
F
  0
LAYER
  5
200
100
AcDbSymbolTableRecord
100
AcDbLayerTableRecord
  2
CURVE_1
 70
0
 62
7
  6
CONTINUOUS
370
-3
390
F
  0
LAYER
  5
201
100
AcDbSymbolTableRecord
100
AcDbLayerTableRecord
  2
CURVE_2
 70
0
 62
7
  6
CONTINUOUS
370
-3
390
F
  0
LAYER
  5
202
100
AcDbSymbolTableRecord
100
AcDbLayerTableRecord
  2
CUT_FEATURES
 70
0
 62
7
  6
CONTINUOUS
370
-3
390
F
  0
LAYER
  5
203
100
AcDbSymbolTableRecord
100
AcDbLayerTableRecord
  2
DATUM_PLANES
 70
0
 62
7
  6
CONTINUOUS
370
-3
390
F
  0
LAYER
  5
204
100
AcDbSymbolTableRecord
100
AcDbLayerTableRecord
  2
DEFAULT_COORDINATE_SYSTEM
 70
0
 62
7
  6
CONTINUOUS
370
-3
390
F
  0
LAYER
  5
205
100
AcDbSymbolTableRecord
100
AcDbLayerTableRecord
  2
DEFAULT_DATUM_AXES
 70
0
 62
7
  6
CONTINUOUS
370
-3
390
F
  0
LAYER
  5
206
100
AcDbSymbolTableRecord
100
AcDbLayerTableRecord
  2
DEFAULT_DATUM_CURVES
 70
0
 62
7
  6
CONTINUOUS
370
-3
390
F
  0
LAYER
  5
207
100
AcDbSymbolTableRecord
100
AcDbLayerTableRecord
  2
DEFAULT_DATUM_PLANES
 70
0
 62
7
  6
CONTINUOUS
370
-3
390
F
  0
LAYER
  5
208
100
AcDbSymbolTableRecord
100
AcDbLayerTableRecord
  2
DEFAULT_SURFACES
 70
0
 62
7
  6
CONTINUOUS
370
-3
390
F
  0
LAYER
  5
209
100
AcDbSymbolTableRecord
100
AcDbLayerTableRecord
  2
DIMENSIONS
 70
0
 62
7
  6
CONTINUOUS
370
-3
390
F
  0
LAYER
  5
20A
100
AcDbSymbolTableRecord
100
AcDbLayerTableRecord
  2
HOLE_FEATURES
 70
0
 62
7
  6
CONTINUOUS
370
-3
390
F
  0
LAYER
  5
20B
100
AcDbSymbolTableRecord
100
AcDbLayerTableRecord
  2
NOTES
 70
0
 62
7
  6
CONTINUOUS
370
-3
390
F
  0
LAYER
  5
20C
100
AcDbSymbolTableRecord
100
AcDbLayerTableRecord
  2
PART_REFERENCE_DIMENSIONS
 70
0
 62
7
  6
CONTINUOUS
370
-3
390
F
  0
LAYER
  5
20D
100
AcDbSymbolTableRecord
100
AcDbLayerTableRecord
  2
PLATED_SURFACE
 70
0
 62
7
  6
CONTINUOUS
370
-3
390
F
  0
LAYER
  5
20E
100
AcDbSymbolTableRecord
100
AcDbLayerTableRecord
  2
PROTRUSION_FEATURES
 70
0
 62
7
  6
CONTINUOUS
370
-3
390
F
  0
LAYER
  5
20F
100
AcDbSymbolTableRecord
100
AcDbLayerTableRecord
  2
QUILT
 70
0
 62
7
  6
CONTINUOUS
370
-3
390
F
  0
LAYER
  5
210
100
AcDbSymbolTableRecord
100
AcDbLayerTableRecord
  2
QUILTS
 70
0
 62
7
  6
CONTINUOUS
370
-3
390
F
  0
LAYER
  5
211
100
AcDbSymbolTableRecord
100
AcDbLayerTableRecord
  2
REFERENCE_DIMENSIONS
 70
0
 62
7
  6
CONTINUOUS
370
-3
390
F
  0
LAYER
  5
212
100
AcDbSymbolTableRecord
100
AcDbLayerTableRecord
  2
ROUND_FEATURES
 70
0
 62
7
  6
CONTINUOUS
370
-3
390
F
  0
LAYER
  5
213
100
AcDbSymbolTableRecord
100
AcDbLayerTableRecord
  2
WETTED_SURFACE
 70
0
 62
7
  6
CONTINUOUS
370
-3
390
F
  0
ENDTAB
  0
TABLE
  2
STYLE
  5
3
100
AcDbSymbolTable
 70
1
  0
STYLE
  5
11
100
AcDbSymbolTableRecord
100
AcDbTextStyleTableRecord
  2
STANDARD
 70
0
 40
0.0
 41
0.8
 50
0.0
 71
0
 42
0.2
  3
txt
  4

  0
STYLE
  5
214
100
AcDbSymbolTableRecord
100
AcDbTextStyleTableRecord
  2
TEXTSTYLE_1
 70
0
 40
0.0
 41
0.8
 50
0.0
 71
0
 42
0.2
  3
gdt
  4

  0
ENDTAB
  0
TABLE
  2
VIEW
  5
6
100
AcDbSymbolTable
 70
0
  0
ENDTAB
  0
TABLE
  2
UCS
  5
7
100
AcDbSymbolTable
 70
0
  0
ENDTAB
  0
TABLE
  2
APPID
  5
9
100
AcDbSymbolTable
 70
1
  0
APPID
  5
215
100
AcDbSymbolTableRecord
100
AcDbRegAppTableRecord
  2
ACAD
 70
0
  0
ENDTAB
  0
TABLE
  2
BLOCK_RECORD
  5
1
100
AcDbSymbolTable
 70
0
  0
BLOCK_RECORD
  5
216
100
AcDbSymbolTableRecord
100
AcDbBlockTableRecord
  2
*Model_Space
  0
BLOCK_RECORD
  5
217
100
AcDbSymbolTableRecord
100
AcDbBlockTableRecord
  2
*Paper_Space
  0
BLOCK_RECORD
  5
218
100
AcDbSymbolTableRecord
100
AcDbBlockTableRecord
  2
_FILLED
  0
ENDTAB
  0
TABLE
  2
DIMSTYLE
  5
A
100
AcDbSymbolTable
 70
1
100
AcDbDimStyleTable
 71
0
  0
DIMSTYLE
105
219
100
AcDbSymbolTableRecord
100
AcDbDimStyleTableRecord
  2
STANDARD
 70
0
  3

  4

 40
1.0
 41
0.1
 42
0.0625
 43
0.38
 44
0.125
 45
0.0
 46
0.0
 47
0.01
 48
0.01
140
0.08
141
0.09
142
0.0
143
25.4
144
1.0
145
0.0
146
1.0
147
0.09
 71
1.0
 72
0.0
 73
1
 74
1
 75
0
 76
0
 77
0
 78
4
 79
1
170
1
171
1
172
0
173
0
174
0
175
0
176
0
177
0
178
0
270
2
179
2
271
2
272
2
273
2
274
2
275
0
280
0
281
0
282
0
283
1
284
4
285
0
286
0
287
3
288
0
340
11
278
46
341
218
342
218
343
218
344
218
  0
ENDTAB
  0
ENDSEC
  0
SECTION
  2
BLOCKS
  0
BLOCK
  5
20
100
AcDbEntity
  8
0
100
AcDbBlockBegin
  2
*Model_Space
 70
0
 10
0.0
 20
0.0
 30
0.0
  3
*Model_Space
  1

  0
ENDBLK
  5
21
100
AcDbEntity
  8
0
100
AcDbBlockEnd
  0
BLOCK
  5
1C
100
AcDbEntity
  8
0
100
AcDbBlockBegin
  2
*Paper_Space
 70
0
 10
0.0
 20
0.0
 30
0.0
  3
*Paper_Space
  1

  0
ENDBLK
  5
1D
100
AcDbEntity
  8
0
100
AcDbBlockEnd
  0
BLOCK
  5
21A
100
AcDbEntity
  8
0
100
AcDbBlockBegin
  2
_FILLED
 70
64
 10
0.0
 20
0.0
  3
_FILLED
  1

  0
SOLID
  5
21B
100
AcDbEntity
  8
0
  6
BYBLOCK
 62
0
100
AcDbTrace
 10
0.0
 20
0.0
 11
-1.0
 21
0.2
 12
-1.0
 22
-0.2
 13
-1.0
 23
-0.2
  0
ENDBLK
  5
21C
100
AcDbEntity
  8
0
  6
BYBLOCK
 62
0
100
AcDbBlockEnd
  0
ENDSEC
  0
SECTION
  2
ENTITIES
  0
MTEXT
  5
21D
100
AcDbEntity
  8
0
100
AcDbMText
 62
2
  6
CONTINUOUS
  7
STANDARD
 71
3
 72
1
 10
5.0272903727
 20
0.7389906832
 30
0.0
 11
1.0
 21
0.0
 31
0.0
 73
2
 44
0.9
  1
SCALE  .250
 40
0.08
 41
0.704
  0
LINE
  5
21E
100
AcDbEntity
  8
0
100
AcDbLine
 62
7
  6
CONTINUOUS
 10
0.0
 20
0.0
 11
0.0
 21
8.5
  0
LINE
  5
21F
100
AcDbEntity
  8
0
100
AcDbLine
 62
7
  6
CONTINUOUS
 10
0.0
 20
0.0
 11
11.0
 21
0.0
  0
LINE
  5
220
100
AcDbEntity
  8
0
100
AcDbLine
 62
7
  6
CONTINUOUS
 10
0.0
 20
8.5
 11
11.0
 21
8.5
  0
LINE
  5
221
100
AcDbEntity
  8
0
100
AcDbLine
 62
7
  6
CONTINUOUS
 10
11.0
 20
0.0
 11
11.0
 21
8.5
  0
LINE
  5
222
100
AcDbEntity
  8
ALL_FEATURES
100
AcDbLine
 62
7
  6
CONTINUOUS
 10
4.6927352484
 20
1.3297593168
 11
4.5202352484
 21
1.3297593168
  0
LINE
  5
223
100
AcDbEntity
  8
ALL_FEATURES
100
AcDbLine
 62
7
  6
CONTINUOUS
 10
4.3107428371
 20
1.5696376878
 11
4.9022276597
 21
1.5696376878
  0
LINE
  5
224
100
AcDbEntity
  8
ALL_FEATURES
100
AcDbLine
 62
7
  6
CONTINUOUS
 10
4.3064852484
 20
1.5722593168
 11
4.9064852484
 21
1.5722593168
  0
LINE
  5
225
100
AcDbEntity
  8
ALL_FEATURES
100
AcDbLine
 62
7
  6
CONTINUOUS
 10
4.4752352484
 20
1.8463133892
 11
4.7377352484
 21
1.8463133892
  0
LINE
  5
226
100
AcDbEntity
  8
ALL_FEATURES
100
AcDbLine
 62
7
  6
CONTINUOUS
 10
4.4858806334
 20
1.8522593168
 11
4.7270898635
 21
1.8522593168
  0
LINE
  5
227
100
AcDbEntity
  8
ALL_FEATURES
100
AcDbLine
 62
7
  6
CONTINUOUS
 10
4.3064852484
 20
1.5722593168
 11
4.3107428371
 21
1.5696376878
  0
LINE
  5
228
100
AcDbEntity
  8
ALL_FEATURES
100
AcDbLine
 62
7
  6
CONTINUOUS
 10
4.7068602484
 20
2.5047593168
 11
4.5061102484
 21
2.5047593168
  0
LINE
  5
229
100
AcDbEntity
  8
0
100
AcDbLine
 62
7
  6
CONTINUOUS
 10
4.4379975484
 20
2.5728977021
 11
4.3959375821
 21
2.5728977021
  0
LINE
  5
22A
100
AcDbEntity
  8
0
100
AcDbLine
 62
7
  6
CONTINUOUS
 10
4.4387042795
 20
2.5745723846
 11
4.395230851
 21
2.5745723846
  0
LINE
  5
22B
100
AcDbEntity
  8
ALL_FEATURES
100
AcDbLine
 62
7
  6
CONTINUOUS
 10
4.4946102484
 20
2.5772593168
 11
4.7183602484
 21
2.5772593168
  0
LINE
  5
22C
100
AcDbEntity
  8
ALL_FEATURES
100
AcDbLine
 62
7
  6
CONTINUOUS
 10
4.4458602484
 20
2.5897593168
 11
4.4521102484
 21
2.5897593168
  0
LINE
  5
22D
100
AcDbEntity
  8
ALL_FEATURES
100
AcDbLine
 62
7
  6
CONTINUOUS
 10
4.4946102484
 20
2.5950093168
 11
4.4692420006
 21
2.5950093168
  0
LINE
  5
22E
100
AcDbEntity
  8
ALL_FEATURES
100
AcDbLine
 62
7
  6
CONTINUOUS
 10
4.4569588734
 20
2.5950093168
 11
4.4521102484
 21
2.5950093168
  0
LINE
  5
22F
100
AcDbEntity
  8
0
100
AcDbLine
 62
7
  6
CONTINUOUS
 10
4.3746102484
 20
2.6186343168
 11
4.3683602484
 21
2.6186343168
  0
LINE
  5
230
100
AcDbEntity
  8
0
100
AcDbLine
 62
7
  6
CONTINUOUS
 10
4.4387042795
 20
2.6305031919
 11
4.395230851
 21
2.6305031919
  0
LINE
  5
231
100
AcDbEntity
  8
0
100
AcDbLine
 62
7
  6
CONTINUOUS
 10
4.4387042795
 20
2.6413285094
 11
4.395230851
 21
2.6413285094
  0
LINE
  5
232
100
AcDbEntity
  8
ALL_FEATURES
100
AcDbLine
 62
7
  6
CONTINUOUS
 10
4.4946102484
 20
2.6478142715
 11
4.4871102484
 21
2.6478142715
  0
LINE
  5
233
100
AcDbEntity
  8
ALL_FEATURES
100
AcDbLine
 62
7
  6
CONTINUOUS
 10
4.3536494058
 20
2.6502593168
 11
4.3683602484
 21
2.6502593168
  0
LINE
  5
234
100
AcDbEntity
  8
ALL_FEATURES
100
AcDbLine
 62
7
  6
CONTINUOUS
 10
4.3536445233
 20
2.7442593168
 11
4.3683602484
 21
2.7442593168
  0
LINE
  5
235
100
AcDbEntity
  8
ALL_FEATURES
100
AcDbLine
 62
7
  6
CONTINUOUS
 10
4.4946102484
 20
2.746704362
 11
4.4871102484
 21
2.746704362
  0
LINE
  5
236
100
AcDbEntity
  8
0
100
AcDbLine
 62
7
  6
CONTINUOUS
 10
4.4387042795
 20
2.7531901241
 11
4.395230851
 21
2.7531901241
  0
LINE
  5
237
100
AcDbEntity
  8
0
100
AcDbLine
 62
7
  6
CONTINUOUS
 10
4.4387042795
 20
2.7640154416
 11
4.395230851
 21
2.7640154416
  0
LINE
  5
238
100
AcDbEntity
  8
0
100
AcDbLine
 62
7
  6
CONTINUOUS
 10
4.3746102484
 20
2.7758843168
 11
4.3683602484
 21
2.7758843168
  0
LINE
  5
239
100
AcDbEntity
  8
ALL_FEATURES
100
AcDbLine
 62
7
  6
CONTINUOUS
 10
4.4946102484
 20
2.7965093168
 11
4.7183602484
 21
2.7965093168
  0
LINE
  5
23A
100
AcDbEntity
  8
ALL_FEATURES
100
AcDbLine
 62
7
  6
CONTINUOUS
 10
4.4946102484
 20
2.7995093168
 11
4.4781761272
 21
2.7995093168
  0
LINE
  5
23B
100
AcDbEntity
  8
ALL_FEATURES
100
AcDbLine
 62
7
  6
CONTINUOUS
 10
4.4658930002
 20
2.7995093168
 11
4.4603078719
 21
2.7995093168
  0
LINE
  5
23C
100
AcDbEntity
  8
ALL_FEATURES
100
AcDbLine
 62
7
  6
CONTINUOUS
 10
4.4458602484
 20
2.8047593168
 11
4.4521102484
 21
2.8047593168
  0
LINE
  5
23D
100
AcDbEntity
  8
0
100
AcDbLine
 62
7
  6
CONTINUOUS
 10
4.4387042795
 20
2.819946249
 11
4.395230851
 21
2.819946249
  0
LINE
  5
23E
100
AcDbEntity
  8
0
100
AcDbLine
 62
7
  6
CONTINUOUS
 10
4.4379975484
 20
2.8216209314
 11
4.3959375821
 21
2.8216209314
  0
LINE
  5
23F
100
AcDbEntity
  8
0
100
AcDbLine
 62
7
  6
CONTINUOUS
 10
4.6846102484
 20
2.8457593168
 11
4.5283602484
 21
2.8457593168
  0
LINE
  5
240
100
AcDbEntity
  8
0
100
AcDbLine
 62
7
  6
CONTINUOUS
 10
4.6846102484
 20
2.9505093168
 11
4.5283602484
 21
2.9505093168
  0
LINE
  5
241
100
AcDbEntity
  8
ALL_FEATURES
100
AcDbLine
 62
7
  6
CONTINUOUS
 10
4.4691051125
 20
2.5951277506
 11
4.4692420006
 21
2.5950093168
  0
LINE
  5
242
100
AcDbEntity
  8
ALL_FEATURES
100
AcDbLine
 62
7
  6
CONTINUOUS
 10
4.4869733607
 20
2.5951277503
 11
4.4871102484
 21
2.5950093168
  0
LINE
  5
243
100
AcDbEntity
  8
0
100
AcDbLine
 62
7
  6
CONTINUOUS
 10
4.6567096133
 20
7.5288322296
 11
4.6668858835
 21
7.5464580466
  0
LINE
  5
244
100
AcDbEntity
  8
ALL_FEATURES
100
AcDbLine
 62
7
  6
CONTINUOUS
 10
4.5362570323
 20
2.8318749741
 11
4.5435160842
 21
2.8276783505
  0
LINE
  5
245
100
AcDbEntity
  8
ALL_FEATURES
100
AcDbLine
 62
7
  6
CONTINUOUS
 10
4.5362570324
 20
2.8443749811
 11
4.5435160844
 21
2.8401783574
  0
LINE
  5
246
100
AcDbEntity
  8
ALL_FEATURES
100
AcDbLine
 62
7
  6
CONTINUOUS
 10
4.676713465
 20
2.8172317307
 11
4.6694544126
 21
2.8214283545
  0
LINE
  5
247
100
AcDbEntity
  8
ALL_FEATURES
100
AcDbLine
 62
7
  6
CONTINUOUS
 10
4.6767134647
 20
2.8297317287
 11
4.6694544126
 21
2.8339283523
  0
LINE
  5
248
100
AcDbEntity
  8
ALL_FEATURES
100
AcDbLine
 62
7
  6
CONTINUOUS
 10
4.6767134646
 20
2.8422317395
 11
4.6706115448
 21
2.8457593168
  0
LINE
  5
249
100
AcDbEntity
  8
ALL_FEATURES
100
AcDbLine
 62
7
  6
CONTINUOUS
 10
4.4660298881
 20
2.799390883
 11
4.4658930002
 21
2.7995093168
  0
LINE
  5
24A
100
AcDbEntity
  8
0
100
AcDbLine
 62
7
  6
CONTINUOUS
 10
4.5162742689
 20
2.8578452963
 11
4.5283602484
 21
2.8457593168
  0
LINE
  5
24B
100
AcDbEntity
  8
ALL_FEATURES
100
AcDbLine
 62
7
  6
CONTINUOUS
 10
4.7377352484
 20
1.8463133892
 11
4.9064852484
 21
1.5722593168
  0
LINE
  5
24C
100
AcDbEntity
  8
ALL_FEATURES
100
AcDbLine
 62
7
  6
CONTINUOUS
 10
4.4629476832
 20
2.6057789463
 11
4.4631004368
 21
2.6055147466
  0
LINE
  5
24D
100
AcDbEntity
  8
ALL_FEATURES
100
AcDbLine
 62
7
  6
CONTINUOUS
 10
4.4631004368
 20
2.6055147466
 11
4.4691051125
 21
2.5951277506
  0
LINE
  5
24E
100
AcDbEntity
  8
ALL_FEATURES
100
AcDbLine
 62
7
  6
CONTINUOUS
 10
4.2447948539
 20
2.6207110947
 11
4.2447967275
 21
2.6207076501
  0
LINE
  5
24F
100
AcDbEntity
  8
0
100
AcDbLine
 62
7
  6
CONTINUOUS
 10
4.6846102484
 20
2.9505093168
 11
4.696696228
 21
2.9384233372
  0
LINE
  5
250
100
AcDbEntity
  8
ALL_FEATURES
100
AcDbLine
 62
7
  6
CONTINUOUS
 10
4.4808159316
 20
2.6057789459
 11
4.4869733607
 21
2.5951277503
  0
LINE
  5
251
100
AcDbEntity
  8
ALL_FEATURES
100
AcDbLine
 62
7
  6
CONTINUOUS
 10
4.4543190621
 20
2.7887396871
 11
4.4541663081
 21
2.7890038868
  0
LINE
  5
252
100
AcDbEntity
  8
ALL_FEATURES
100
AcDbLine
 62
7
  6
CONTINUOUS
 10
4.4541663081
 20
2.7890038868
 11
4.4521102484
 21
2.7925601725
  0
LINE
  5
253
100
AcDbEntity
  8
ALL_FEATURES
100
AcDbLine
 62
7
  6
CONTINUOUS
 10
4.4721873174
 20
2.7887396874
 11
4.4720345635
 21
2.7890038869
  0
LINE
  5
254
100
AcDbEntity
  8
ALL_FEATURES
100
AcDbLine
 62
7
  6
CONTINUOUS
 10
4.4720345635
 20
2.7890038869
 11
4.4660298881
 21
2.799390883
  0
LINE
  5
255
100
AcDbEntity
  8
ALL_FEATURES
100
AcDbLine
 62
7
  6
CONTINUOUS
 10
4.3414237694
 20
2.7738109834
 11
4.341425643
 21
2.7738075388
  0
LINE
  5
256
100
AcDbEntity
  8
0
100
AcDbLine
 62
7
  6
CONTINUOUS
 10
4.3959375821
 20
2.5728977021
 11
4.3746102484
 21
2.6186343168
  0
LINE
  5
257
100
AcDbEntity
  8
0
100
AcDbLine
 62
7
  6
CONTINUOUS
 10
4.4458602484
 20
2.8047593168
 11
4.4379975484
 21
2.8216209314
  0
LINE
  5
258
100
AcDbEntity
  8
0
100
AcDbLine
 62
7
  6
CONTINUOUS
 10
4.3959375821
 20
2.5728977021
 11
4.395230851
 21
2.5745723846
  0
LINE
  5
259
100
AcDbEntity
  8
0
100
AcDbLine
 62
7
  6
CONTINUOUS
 10
4.3956222894
 20
2.5736473624
 11
4.395230851
 21
2.5745723846
  0
LINE
  5
25A
100
AcDbEntity
  8
0
100
AcDbLine
 62
7
  6
CONTINUOUS
 10
4.3959286823
 20
2.5729186506
 11
4.3958585039
 21
2.5730861076
  0
LINE
  5
25B
100
AcDbEntity
  8
0
100
AcDbLine
 62
7
  6
CONTINUOUS
 10
4.4379975484
 20
2.8216209314
 11
4.4387042795
 21
2.819946249
  0
LINE
  5
25C
100
AcDbEntity
  8
ALL_FEATURES
100
AcDbLine
 62
7
  6
CONTINUOUS
 10
4.2257352484
 20
2.6972606084
 11
4.2257377738
 21
2.697212624
  0
LINE
  5
25D
100
AcDbEntity
  8
0
100
AcDbLine
 62
7
  6
CONTINUOUS
 10
4.3683602484
 20
2.6186343168
 11
4.3683602484
 21
2.7758843168
  0
LINE
  5
25E
100
AcDbEntity
  8
0
100
AcDbLine
 62
7
  6
CONTINUOUS
 10
4.3746102484
 20
2.7758843168
 11
4.3746102484
 21
2.6186343168
  0
LINE
  5
25F
100
AcDbEntity
  8
ALL_FEATURES
100
AcDbLine
 62
7
  6
CONTINUOUS
 10
4.2257352558
 20
2.69730486
 11
4.2257353978
 21
2.6972128446
  0
LINE
  5
260
100
AcDbEntity
  8
ALL_FEATURES
100
AcDbLine
 62
7
  6
CONTINUOUS
 10
4.2257352568
 20
2.6973078719
 11
4.2257352484
 21
2.6972585276
  0
LINE
  5
261
100
AcDbEntity
  8
ALL_FEATURES
100
AcDbLine
 62
7
  6
CONTINUOUS
 10
4.2257352484
 20
2.6972593187
 11
4.2257374612
 21
2.697301313
  0
LINE
  5
262
100
AcDbEntity
  8
0
100
AcDbLine
 62
7
  6
CONTINUOUS
 10
4.4458602484
 20
2.5897593168
 11
4.4458602484
 21
2.8047593168
  0
LINE
  5
263
100
AcDbEntity
  8
ALL_FEATURES
100
AcDbLine
 62
7
  6
CONTINUOUS
 10
4.4521102484
 20
2.5897601924
 11
4.4521102484
 21
2.8047584411
  0
LINE
  5
264
100
AcDbEntity
  8
ALL_FEATURES
100
AcDbLine
 62
7
  6
CONTINUOUS
 10
4.4871102484
 20
2.6478142715
 11
4.4871102484
 21
2.7467043621
  0
LINE
  5
265
100
AcDbEntity
  8
ALL_FEATURES
100
AcDbLine
 62
7
  6
CONTINUOUS
 10
4.4946102484
 20
2.6478142715
 11
4.4946102484
 21
2.5772593168
  0
LINE
  5
266
100
AcDbEntity
  8
ALL_FEATURES
100
AcDbLine
 62
7
  6
CONTINUOUS
 10
4.4946102484
 20
2.746704362
 11
4.4946102484
 21
2.7995093168
  0
LINE
  5
267
100
AcDbEntity
  8
ALL_FEATURES
100
AcDbLine
 62
7
  6
CONTINUOUS
 10
4.5008602484
 20
7.6660093168
 11
4.5008602484
 21
7.6347593168
  0
LINE
  5
268
100
AcDbEntity
  8
ALL_FEATURES
100
AcDbLine
 62
7
  6
CONTINUOUS
 10
4.5061102484
 20
2.5047593168
 11
4.5061102484
 21
2.5772593168
  0
LINE
  5
269
100
AcDbEntity
  8
0
100
AcDbLine
 62
7
  6
CONTINUOUS
 10
4.5064852484
 20
7.6197593168
 11
4.5064852484
 21
7.6347593168
  0
LINE
  5
26A
100
AcDbEntity
  8
0
100
AcDbLine
 62
7
  6
CONTINUOUS
 10
4.5162742689
 20
2.9384233372
 11
4.5162742689
 21
2.8578452963
  0
LINE
  5
26B
100
AcDbEntity
  8
ALL_FEATURES
100
AcDbLine
 62
7
  6
CONTINUOUS
 10
4.5202352484
 20
2.5047593168
 11
4.5202352484
 21
1.8522593168
  0
LINE
  5
26C
100
AcDbEntity
  8
ALL_FEATURES
100
AcDbLine
 62
7
  6
CONTINUOUS
 10
4.5202352484
 20
1.5696376878
 11
4.5202352484
 21
1.3297593168
  0
LINE
  5
26D
100
AcDbEntity
  8
ALL_FEATURES
100
AcDbLine
 62
7
  6
CONTINUOUS
 10
4.5361727484
 20
2.7965093168
 11
4.5361727484
 21
2.8233843078
  0
LINE
  5
26E
100
AcDbEntity
  8
ALL_FEATURES
100
AcDbLine
 62
7
  6
CONTINUOUS
 10
4.5361727484
 20
2.8319723933
 11
4.5361727484
 21
2.8358843144
  0
LINE
  5
26F
100
AcDbEntity
  8
ALL_FEATURES
100
AcDbLine
 62
7
  6
CONTINUOUS
 10
4.5361727484
 20
2.8444724004
 11
4.5361727484
 21
2.8457593168
  0
LINE
  5
270
100
AcDbEntity
  8
ALL_FEATURES
100
AcDbLine
 62
7
  6
CONTINUOUS
 10
4.5377701062
 20
2.7965093168
 11
4.5377701062
 21
2.5772593168
  0
LINE
  5
271
100
AcDbEntity
  8
0
100
AcDbLine
 62
7
  6
CONTINUOUS
 10
4.5427352484
 20
7.5589580466
 11
4.5427352484
 21
7.6197593168
  0
LINE
  5
272
100
AcDbEntity
  8
0
100
AcDbLine
 62
7
  6
CONTINUOUS
 10
4.5596102484
 20
2.9505093168
 11
4.5596102484
 21
7.5163322296
  0
LINE
  5
273
100
AcDbEntity
  8
ALL_FEATURES
100
AcDbLine
 62
7
  6
CONTINUOUS
 10
4.5601451062
 20
2.7965093168
 11
4.5601451062
 21
2.5772593168
  0
LINE
  5
274
100
AcDbEntity
  8
0
100
AcDbLine
 62
7
  6
CONTINUOUS
 10
4.5613797587
 20
2.9384233372
 11
4.5613797587
 21
2.8578452963
  0
LINE
  5
275
100
AcDbEntity
  8
ALL_FEATURES
100
AcDbLine
 62
7
  6
CONTINUOUS
 10
4.6064852484
 20
2.822597402
 11
4.6064852484
 21
2.8140093168
  0
LINE
  5
276
100
AcDbEntity
  8
0
100
AcDbLine
 62
7
  6
CONTINUOUS
 10
4.6515907382
 20
2.9384233372
 11
4.6515907382
 21
2.8578452963
  0
LINE
  5
277
100
AcDbEntity
  8
ALL_FEATURES
100
AcDbLine
 62
7
  6
CONTINUOUS
 10
4.6528253907
 20
2.7965093168
 11
4.6528253907
 21
2.5772593168
  0
LINE
  5
278
100
AcDbEntity
  8
0
100
AcDbLine
 62
7
  6
CONTINUOUS
 10
4.6533602484
 20
2.9505093168
 11
4.6533602484
 21
7.5163322296
  0
LINE
  5
279
100
AcDbEntity
  8
0
100
AcDbLine
 62
7
  6
CONTINUOUS
 10
4.6702352484
 20
7.5589580466
 11
4.6702352484
 21
7.6197593168
  0
LINE
  5
27A
100
AcDbEntity
  8
ALL_FEATURES
100
AcDbLine
 62
7
  6
CONTINUOUS
 10
4.6767977484
 20
2.7965093168
 11
4.6767977484
 21
2.8171343119
  0
LINE
  5
27B
100
AcDbEntity
  8
ALL_FEATURES
100
AcDbLine
 62
7
  6
CONTINUOUS
 10
4.6767977484
 20
2.8257223971
 11
4.6767977484
 21
2.8296343095
  0
LINE
  5
27C
100
AcDbEntity
  8
ALL_FEATURES
100
AcDbLine
 62
7
  6
CONTINUOUS
 10
4.6767977484
 20
2.8382223952
 11
4.6767977484
 21
2.8421343202
  0
LINE
  5
27D
100
AcDbEntity
  8
ALL_FEATURES
100
AcDbLine
 62
7
  6
CONTINUOUS
 10
4.6927352484
 20
2.5047593168
 11
4.6927352484
 21
1.8522593168
  0
LINE
  5
27E
100
AcDbEntity
  8
ALL_FEATURES
100
AcDbLine
 62
7
  6
CONTINUOUS
 10
4.6927352484
 20
1.5696376878
 11
4.6927352484
 21
1.3297593168
  0
LINE
  5
27F
100
AcDbEntity
  8
0
100
AcDbLine
 62
7
  6
CONTINUOUS
 10
4.696696228
 20
2.9384233372
 11
4.696696228
 21
2.8578452963
  0
LINE
  5
280
100
AcDbEntity
  8
0
100
AcDbLine
 62
7
  6
CONTINUOUS
 10
4.7064852484
 20
7.6197593168
 11
4.7064852484
 21
7.6347593168
  0
LINE
  5
281
100
AcDbEntity
  8
ALL_FEATURES
100
AcDbLine
 62
7
  6
CONTINUOUS
 10
4.7068602484
 20
2.5047593168
 11
4.7068602484
 21
2.5772593168
  0
LINE
  5
282
100
AcDbEntity
  8
ALL_FEATURES
100
AcDbLine
 62
7
  6
CONTINUOUS
 10
4.7121102484
 20
7.6660093168
 11
4.7121102484
 21
7.6347593168
  0
LINE
  5
283
100
AcDbEntity
  8
ALL_FEATURES
100
AcDbLine
 62
7
  6
CONTINUOUS
 10
4.7183602484
 20
2.7965093168
 11
4.7183602484
 21
2.5772593168
  0
LINE
  5
284
100
AcDbEntity
  8
0
100
AcDbLine
 62
7
  6
CONTINUOUS
 10
4.395230851
 20
2.819946249
 11
4.3959375821
 21
2.8216209314
  0
LINE
  5
285
100
AcDbEntity
  8
0
100
AcDbLine
 62
7
  6
CONTINUOUS
 10
4.4387042795
 20
2.5745723846
 11
4.4379975484
 21
2.5728977021
  0
LINE
  5
286
100
AcDbEntity
  8
0
100
AcDbLine
 62
7
  6
CONTINUOUS
 10
4.3959375821
 20
2.8216209314
 11
4.3746102484
 21
2.7758843168
  0
LINE
  5
287
100
AcDbEntity
  8
ALL_FEATURES
100
AcDbLine
 62
7
  6
CONTINUOUS
 10
4.244795455
 20
2.7738086442
 11
4.2447967275
 21
2.7738109834
  0
LINE
  5
288
100
AcDbEntity
  8
0
100
AcDbLine
 62
7
  6
CONTINUOUS
 10
4.4458602484
 20
2.5897593168
 11
4.4379975484
 21
2.5728977021
  0
LINE
  5
289
100
AcDbEntity
  8
ALL_FEATURES
100
AcDbLine
 62
7
  6
CONTINUOUS
 10
4.3414237694
 20
2.6207076501
 11
4.3414250418
 21
2.6207099894
  0
LINE
  5
28A
100
AcDbEntity
  8
ALL_FEATURES
100
AcDbLine
 62
7
  6
CONTINUOUS
 10
4.480968685
 20
2.6056468168
 11
4.4748271215
 21
2.5950093168
  0
LINE
  5
28B
100
AcDbEntity
  8
ALL_FEATURES
100
AcDbLine
 62
7
  6
CONTINUOUS
 10
4.4601709839
 20
2.7993908829
 11
4.4594329948
 21
2.7981141475
  0
LINE
  5
28C
100
AcDbEntity
  8
ALL_FEATURES
100
AcDbLine
 62
7
  6
CONTINUOUS
 10
4.4780392393
 20
2.799390883
 11
4.4773012503
 21
2.7981141478
  0
LINE
  5
28D
100
AcDbEntity
  8
ALL_FEATURES
100
AcDbLine
 62
7
  6
CONTINUOUS
 10
4.4570957614
 20
2.5951277506
 11
4.4579412083
 21
2.5965903869
  0
LINE
  5
28E
100
AcDbEntity
  8
ALL_FEATURES
100
AcDbLine
 62
7
  6
CONTINUOUS
 10
4.4594329948
 20
2.7981141475
 11
4.4541663081
 21
2.7890038868
  0
LINE
  5
28F
100
AcDbEntity
  8
ALL_FEATURES
100
AcDbLine
 62
7
  6
CONTINUOUS
 10
4.4773012503
 20
2.7981141478
 11
4.4720345635
 21
2.7890038869
  0
LINE
  5
290
100
AcDbEntity
  8
ALL_FEATURES
100
AcDbLine
 62
7
  6
CONTINUOUS
 10
4.4579412083
 20
2.5965903869
 11
4.4631004368
 21
2.6055147466
  0
LINE
  5
291
100
AcDbEntity
  8
ALL_FEATURES
100
AcDbLine
 62
7
  6
CONTINUOUS
 10
4.5362570323
 20
2.8359817337
 11
4.5361727484
 21
2.8358843144
  0
LINE
  5
292
100
AcDbEntity
  8
ALL_FEATURES
100
AcDbLine
 62
7
  6
CONTINUOUS
 10
4.5362570321
 20
2.8234817269
 11
4.5361727484
 21
2.8233843078
  0
LINE
  5
293
100
AcDbEntity
  8
0
100
AcDbLine
 62
7
  6
CONTINUOUS
 10
4.5283602484
 20
2.9505093168
 11
4.5162742689
 21
2.9384233372
  0
LINE
  5
294
100
AcDbEntity
  8
ALL_FEATURES
100
AcDbLine
 62
7
  6
CONTINUOUS
 10
4.6767134645
 20
2.8381249759
 11
4.6767977484
 21
2.8382223952
  0
LINE
  5
295
100
AcDbEntity
  8
ALL_FEATURES
100
AcDbLine
 62
7
  6
CONTINUOUS
 10
4.6767134648
 20
2.8256249782
 11
4.6767977484
 21
2.8257223971
  0
LINE
  5
296
100
AcDbEntity
  8
0
100
AcDbLine
 62
7
  6
CONTINUOUS
 10
4.696696228
 20
2.8578452963
 11
4.6846102484
 21
2.8457593168
  0
LINE
  5
297
100
AcDbEntity
  8
ALL_FEATURES
100
AcDbLine
 62
7
  6
CONTINUOUS
 10
4.4601709839
 20
2.7993908829
 11
4.4603078719
 21
2.7995093168
  0
LINE
  5
298
100
AcDbEntity
  8
ALL_FEATURES
100
AcDbLine
 62
7
  6
CONTINUOUS
 10
4.4780392393
 20
2.799390883
 11
4.4781761272
 21
2.7995093168
  0
LINE
  5
299
100
AcDbEntity
  8
ALL_FEATURES
100
AcDbLine
 62
7
  6
CONTINUOUS
 10
4.4752352484
 20
1.8463133892
 11
4.3064852484
 21
1.5722593168
  0
LINE
  5
29A
100
AcDbEntity
  8
ALL_FEATURES
100
AcDbLine
 62
7
  6
CONTINUOUS
 10
4.4570957614
 20
2.5951277506
 11
4.4569588734
 21
2.5950093168
  0
LINE
  5
29B
100
AcDbEntity
  8
ALL_FEATURES
100
AcDbLine
 62
7
  6
CONTINUOUS
 10
4.5437044566
 20
2.8402872764
 11
4.5435160844
 21
2.8401783574
  0
LINE
  5
29C
100
AcDbEntity
  8
ALL_FEATURES
100
AcDbLine
 62
7
  6
CONTINUOUS
 10
4.5435160844
 20
2.8401783574
 11
4.5362570323
 21
2.8359817337
  0
LINE
  5
29D
100
AcDbEntity
  8
ALL_FEATURES
100
AcDbLine
 62
7
  6
CONTINUOUS
 10
4.543704456
 20
2.8277872693
 11
4.5435160842
 21
2.8276783505
  0
LINE
  5
29E
100
AcDbEntity
  8
ALL_FEATURES
100
AcDbLine
 62
7
  6
CONTINUOUS
 10
4.5435160842
 20
2.8276783505
 11
4.5362570321
 21
2.8234817269
  0
LINE
  5
29F
100
AcDbEntity
  8
ALL_FEATURES
100
AcDbLine
 62
7
  6
CONTINUOUS
 10
4.6692660405
 20
2.8338194334
 11
4.6694544126
 21
2.8339283523
  0
LINE
  5
2A0
100
AcDbEntity
  8
ALL_FEATURES
100
AcDbLine
 62
7
  6
CONTINUOUS
 10
4.6694544126
 20
2.8339283523
 11
4.6767134645
 21
2.8381249759
  0
LINE
  5
2A1
100
AcDbEntity
  8
ALL_FEATURES
100
AcDbLine
 62
7
  6
CONTINUOUS
 10
4.6692660412
 20
2.8213194359
 11
4.6694544126
 21
2.8214283545
  0
LINE
  5
2A2
100
AcDbEntity
  8
ALL_FEATURES
100
AcDbLine
 62
7
  6
CONTINUOUS
 10
4.6694544126
 20
2.8214283545
 11
4.6767134648
 21
2.8256249782
  0
LINE
  5
2A3
100
AcDbEntity
  8
0
100
AcDbLine
 62
7
  6
CONTINUOUS
 10
4.5562608835
 20
7.5288322296
 11
4.5460846133
 21
7.5464580466
  0
LINE
  5
2A4
100
AcDbEntity
  8
ALL_FEATURES
100
AcDbLine
 62
7
  6
CONTINUOUS
 10
4.9064852484
 20
1.5722593168
 11
4.9022276597
 21
1.5696376878
  0
LINE
  5
2A5
100
AcDbEntity
  8
0
100
AcDbLine
 62
7
  6
CONTINUOUS
 10
4.5596102484
 20
7.5163322296
 11
4.6533602484
 21
7.5163322296
  0
LINE
  5
2A6
100
AcDbEntity
  8
0
100
AcDbLine
 62
7
  6
CONTINUOUS
 10
4.5562616117
 20
7.5288309684
 11
4.6064852484
 21
7.5288322296
  0
LINE
  5
2A7
100
AcDbEntity
  8
0
100
AcDbLine
 62
7
  6
CONTINUOUS
 10
4.6064852484
 20
7.5288322296
 11
4.6567088852
 21
7.5288309684
  0
LINE
  5
2A8
100
AcDbEntity
  8
0
100
AcDbLine
 62
7
  6
CONTINUOUS
 10
4.6668858825
 20
7.5464580447
 11
4.5460846144
 21
7.5464580447
  0
LINE
  5
2A9
100
AcDbEntity
  8
0
100
AcDbLine
 62
7
  6
CONTINUOUS
 10
4.6702352484
 20
7.5589580441
 11
4.5427352484
 21
7.5589580441
  0
LINE
  5
2AA
100
AcDbEntity
  8
0
100
AcDbLine
 62
7
  6
CONTINUOUS
 10
4.5064852484
 20
7.6197593168
 11
4.7064852484
 21
7.6197593168
  0
LINE
  5
2AB
100
AcDbEntity
  8
ALL_FEATURES
100
AcDbLine
 62
7
  6
CONTINUOUS
 10
4.5008602484
 20
7.6347593168
 11
4.7121102484
 21
7.6347593168
  0
LINE
  5
2AC
100
AcDbEntity
  8
ALL_FEATURES
100
AcDbLine
 62
7
  6
CONTINUOUS
 10
4.5008602484
 20
7.6660093168
 11
4.7121102484
 21
7.6660093168
  0
ARC
  5
2AD
100
AcDbEntity
  8
ALL_FEATURES
100
AcDbCircle
 62
7
  6
CONTINUOUS
 10
5.0275226075
 20
2.6516987734
 40
0.5490831375
100
AcDbArc
 50
183.1358133871
 51
183.4190597247
  0
ARC
  5
2AE
100
AcDbEntity
  8
ALL_FEATURES
100
AcDbCircle
 62
7
  6
CONTINUOUS
 10
4.3922059728
 20
2.6972501403
 40
0.1664708171
100
AcDbArc
 50
177.3760150541
 51
178.3329854269
  0
ARC
  5
2AF
100
AcDbEntity
  8
ALL_FEATURES
100
AcDbCircle
 62
7
  6
CONTINUOUS
 10
4.3921827053
 20
2.6972514397
 40
0.1664475144
100
AcDbArc
 50
176.4078212431
 51
177.376095207
  0
ARC
  5
2B0
100
AcDbEntity
  8
ALL_FEATURES
100
AcDbCircle
 62
7
  6
CONTINUOUS
 10
4.3919578484
 20
2.6972657892
 40
0.1662222003
100
AcDbArc
 50
175.4414377292
 51
176.4079015691
  0
ARC
  5
2B1
100
AcDbEntity
  8
ALL_FEATURES
100
AcDbCircle
 62
7
  6
CONTINUOUS
 10
4.3919572318
 20
2.6972569249
 40
0.166221984
100
AcDbArc
 50
178.3328288193
 51
179.9846595487
  0
ARC
  5
2B2
100
AcDbEntity
  8
ALL_FEATURES
100
AcDbCircle
 62
7
  6
CONTINUOUS
 10
4.3902168559
 20
2.697440542
 40
0.1644728301
100
AcDbArc
 50
166.9247711788
 51
175.4539192657
  0
ARC
  5
2B3
100
AcDbEntity
  8
ALL_FEATURES
100
AcDbCircle
 62
7
  6
CONTINUOUS
 10
4.2931102484
 20
2.8643132938
 40
0.055
100
AcDbArc
 50
331.4532700444
 51
208.5467299556
  0
ARC
  5
2B4
100
AcDbEntity
  8
ALL_FEATURES
100
AcDbCircle
 62
7
  6
CONTINUOUS
 10
4.2931102484
 20
2.5302053397
 40
0.055
100
AcDbArc
 50
151.4532700444
 51
28.5467299556
  0
ARC
  5
2B5
100
AcDbEntity
  8
ALL_FEATURES
100
AcDbCircle
 62
7
  6
CONTINUOUS
 10
4.2719823962
 20
2.7590224958
 40
0.0309476532
100
AcDbArc
 50
151.4595595276
 51
152.0543417394
  0
ARC
  5
2B6
100
AcDbEntity
  8
ALL_FEATURES
100
AcDbCircle
 62
7
  6
CONTINUOUS
 10
4.3142388359
 20
2.7590228907
 40
0.0309468186
100
AcDbArc
 50
27.9434501861
 51
28.5381190444
  0
ARC
  5
2B7
100
AcDbEntity
  8
0
100
AcDbCircle
 62
7
  6
CONTINUOUS
 10
4.6452352484
 20
7.5589580466
 40
0.025
100
AcDbArc
 50
330.0
 51
360.0
  0
ARC
  5
2B8
100
AcDbEntity
  8
0
100
AcDbCircle
 62
7
  6
CONTINUOUS
 10
4.5677352484
 20
7.5589580466
 40
0.025
100
AcDbArc
 50
180.0
 51
210.0
  0
ARC
  5
2B9
100
AcDbEntity
  8
0
100
AcDbCircle
 62
7
  6
CONTINUOUS
 10
4.6783602484
 20
7.5163322296
 40
0.025
100
AcDbArc
 50
150.0
 51
180.0
  0
ARC
  5
2BA
100
AcDbEntity
  8
0
100
AcDbCircle
 62
7
  6
CONTINUOUS
 10
4.5346102484
 20
7.5163322296
 40
0.025
100
AcDbArc
 50
0.0
 51
30.0
  0
ARC
  5
2BB
100
AcDbEntity
  8
0
100
AcDbCircle
 62
7
  6
CONTINUOUS
 10
4.5388435166
 20
2.8656742569
 40
0.019914947
100
AcDbArc
 50
259.6598971925
 51
269.952521011
  0
ARC
  5
2BC
100
AcDbEntity
  8
ALL_FEATURES
100
AcDbCircle
 62
7
  6
CONTINUOUS
 10
4.7270912767
 20
1.8397593168
 40
0.0125
100
AcDbArc
 50
31.6228670355
 51
90.0
  0
ARC
  5
2BD
100
AcDbEntity
  8
ALL_FEATURES
100
AcDbCircle
 62
7
  6
CONTINUOUS
 10
4.4858792202
 20
1.8397593168
 40
0.0125
100
AcDbArc
 50
90.0
 51
148.3771329645
  0
SPLINE
  5
2BE
100
AcDbEntity
  8
0
100
AcDbSpline
 62
7
  6
CONTINUOUS
 70
0
 71
3
 72
15
 73
11
 74
0
 42
0.0000001
 43
0.0000001
 44
0.0000000001
 40
0.0
 40
0.0
 40
0.0
 40
0.0
 40
0.1124520573
 40
0.2267395247
 40
0.3443378153
 40
0.4662176043
 40
0.5928111036
 40
0.7241455739
 40
0.8600010626
 40
1.0
 40
1.0
 40
1.0
 40
1.0
 10
4.6741434831
 20
2.8457593168
 30
0.0
 10
4.6751272637
 20
2.8457593168
 30
0.0
 10
4.6771139616
 20
2.8459109188
 30
0.0
 10
4.6800608226
 20
2.8465800691
 30
0.0
 10
4.6829688383
 20
2.847662629
 30
0.0
 10
4.6858276106
 20
2.8491190993
 30
0.0
 10
4.6886334423
 20
2.8509067504
 30
0.0
 10
4.6913859764
 20
2.8529832023
 30
0.0
 10
4.6940867483
 20
2.8553090464
 30
0.0
 10
4.6958301828
 20
2.8569792511
 30
0.0
 10
4.696696228
 20
2.8578452963
 30
0.0
  0
SPLINE
  5
2BF
100
AcDbEntity
  8
0
100
AcDbSpline
 62
7
  6
CONTINUOUS
 70
0
 71
3
 72
15
 73
11
 74
0
 42
0.0000001
 43
0.0000001
 44
0.0000000001
 40
0.0
 40
0.0
 40
0.0
 40
0.0
 40
0.1399989447
 40
0.2758544359
 40
0.4071889025
 40
0.5337823884
 40
0.6556621661
 40
0.7732604513
 40
0.8875479307
 40
1.0
 40
1.0
 40
1.0
 40
1.0
 10
4.6515907382
 20
2.8578452963
 30
0.0
 10
4.6524567835
 20
2.8569792511
 30
0.0
 10
4.654200218
 20
2.8553090462
 30
0.0
 10
4.65690099
 20
2.8529832022
 30
0.0
 10
4.6596535239
 20
2.8509067503
 30
0.0
 10
4.6624593555
 20
2.8491190994
 30
0.0
 10
4.6653181275
 20
2.8476626291
 30
0.0
 10
4.6682261431
 20
2.8465800692
 30
0.0
 10
4.6711730043
 20
2.845910919
 30
0.0
 10
4.6731597025
 20
2.8457593168
 30
0.0
 10
4.6741434831
 20
2.8457593168
 30
0.0
  0
SPLINE
  5
2C0
100
AcDbEntity
  8
0
100
AcDbSpline
 62
7
  6
CONTINUOUS
 70
0
 71
3
 72
15
 73
11
 74
0
 42
0.0000001
 43
0.0000001
 44
0.0000000001
 40
0.0
 40
0.0
 40
0.0
 40
0.0
 40
0.1399989447
 40
0.2758544359
 40
0.4071889025
 40
0.5337823884
 40
0.6556621661
 40
0.7732604513
 40
0.8875479307
 40
1.0
 40
1.0
 40
1.0
 40
1.0
 10
4.6515907382
 20
2.9384233372
 30
0.0
 10
4.6524567835
 20
2.9392893825
 30
0.0
 10
4.654200218
 20
2.9409595874
 30
0.0
 10
4.65690099
 20
2.9432854313
 30
0.0
 10
4.6596535239
 20
2.9453618832
 30
0.0
 10
4.6624593555
 20
2.9471495341
 30
0.0
 10
4.6653181275
 20
2.9486060045
 30
0.0
 10
4.6682261431
 20
2.9496885643
 30
0.0
 10
4.6711730043
 20
2.9503577145
 30
0.0
 10
4.6731597025
 20
2.9505093168
 30
0.0
 10
4.6741434831
 20
2.9505093168
 30
0.0
  0
SPLINE
  5
2C1
100
AcDbEntity
  8
0
100
AcDbSpline
 62
7
  6
CONTINUOUS
 70
0
 71
3
 72
15
 73
11
 74
0
 42
0.0000001
 43
0.0000001
 44
0.0000000001
 40
0.0
 40
0.0
 40
0.0
 40
0.0
 40
0.1124520573
 40
0.2267395247
 40
0.3443378153
 40
0.4662176043
 40
0.5928111035
 40
0.7241455739
 40
0.8600010626
 40
1.0
 40
1.0
 40
1.0
 40
1.0
 10
4.6741434831
 20
2.9505093168
 30
0.0
 10
4.6751272637
 20
2.9505093168
 30
0.0
 10
4.6771139616
 20
2.9503577148
 30
0.0
 10
4.6800608226
 20
2.9496885645
 30
0.0
 10
4.6829688383
 20
2.9486060046
 30
0.0
 10
4.6858276106
 20
2.9471495342
 30
0.0
 10
4.6886334423
 20
2.9453618832
 30
0.0
 10
4.6913859764
 20
2.9432854312
 30
0.0
 10
4.6940867483
 20
2.9409595872
 30
0.0
 10
4.6958301828
 20
2.9392893824
 30
0.0
 10
4.696696228
 20
2.9384233372
 30
0.0
  0
SPLINE
  5
2C2
100
AcDbEntity
  8
0
100
AcDbSpline
 62
7
  6
CONTINUOUS
 70
0
 71
3
 72
14
 73
10
 74
0
 42
0.0000001
 43
0.0000001
 44
0.0000000001
 40
0.0
 40
0.0
 40
0.0
 40
0.0
 40
0.1250092838
 40
0.2500255614
 40
0.3750343274
 40
0.500047061
 40
0.7499798258
 40
0.8749933886
 40
1.0
 40
1.0
 40
1.0
 40
1.0
 10
4.6064852484
 20
2.8457593168
 30
0.0
 10
4.6045218395
 20
2.8457593168
 30
0.0
 10
4.6005933257
 20
2.845907991
 30
0.0
 10
4.5947351257
 20
2.8465678239
 30
0.0
 10
4.5889382911
 20
2.8476399385
 30
0.0
 10
4.5813223331
 20
2.8495703315
 30
0.0
 10
4.5738946428
 20
2.852171176
 30
0.0
 10
4.5666794303
 20
2.855272214
 30
0.0
 10
4.5631358475
 20
2.8569672519
 30
0.0
 10
4.5613797587
 20
2.8578452963
 30
0.0
  0
SPLINE
  5
2C3
100
AcDbEntity
  8
0
100
AcDbSpline
 62
7
  6
CONTINUOUS
 70
0
 71
3
 72
14
 73
10
 74
0
 42
0.0000001
 43
0.0000001
 44
0.0000000001
 40
0.0
 40
0.0
 40
0.0
 40
0.0
 40
0.1250092838
 40
0.2500255614
 40
0.3750343274
 40
0.500047061
 40
0.7499798258
 40
0.8749933886
 40
1.0
 40
1.0
 40
1.0
 40
1.0
 10
4.6064852484
 20
2.9505093168
 30
0.0
 10
4.6045218395
 20
2.9505093168
 30
0.0
 10
4.6005933257
 20
2.9503606426
 30
0.0
 10
4.5947351257
 20
2.9497008096
 30
0.0
 10
4.5889382911
 20
2.948628695
 30
0.0
 10
4.5813223331
 20
2.946698302
 30
0.0
 10
4.5738946428
 20
2.9440974576
 30
0.0
 10
4.5666794303
 20
2.9409964195
 30
0.0
 10
4.5631358475
 20
2.9393013816
 30
0.0
 10
4.5613797587
 20
2.9384233372
 30
0.0
  0
SPLINE
  5
2C4
100
AcDbEntity
  8
0
100
AcDbSpline
 62
7
  6
CONTINUOUS
 70
0
 71
3
 72
14
 73
10
 74
0
 42
0.0000001
 43
0.0000001
 44
0.0000000001
 40
0.0
 40
0.0
 40
0.0
 40
0.0
 40
0.1250066279
 40
0.2500202144
 40
0.4999530063
 40
0.6249657366
 40
0.7499744947
 40
0.8749907379
 40
1.0
 40
1.0
 40
1.0
 40
1.0
 10
4.6515907382
 20
2.9384233372
 30
0.0
 10
4.6498346492
 20
2.9393013817
 30
0.0
 10
4.6462910659
 20
2.9409964201
 30
0.0
 10
4.6390758522
 20
2.9440974581
 30
0.0
 10
4.6316481612
 20
2.9466983029
 30
0.0
 10
4.6240322029
 20
2.9486286955
 30
0.0
 10
4.618235369
 20
2.9497008101
 30
0.0
 10
4.61237717
 20
2.950360643
 30
0.0
 10
4.6084486571
 20
2.9505093168
 30
0.0
 10
4.6064852484
 20
2.9505093168
 30
0.0
  0
SPLINE
  5
2C5
100
AcDbEntity
  8
0
100
AcDbSpline
 62
7
  6
CONTINUOUS
 70
0
 71
3
 72
14
 73
10
 74
0
 42
0.0000001
 43
0.0000001
 44
0.0000000001
 40
0.0
 40
0.0
 40
0.0
 40
0.0
 40
0.1250066279
 40
0.2500202144
 40
0.4999530063
 40
0.6249657366
 40
0.7499744947
 40
0.8749907379
 40
1.0
 40
1.0
 40
1.0
 40
1.0
 10
4.6515907382
 20
2.8578452963
 30
0.0
 10
4.6498346492
 20
2.8569672518
 30
0.0
 10
4.6462910659
 20
2.8552722134
 30
0.0
 10
4.6390758522
 20
2.8521711754
 30
0.0
 10
4.6316481612
 20
2.8495703307
 30
0.0
 10
4.6240322029
 20
2.8476399381
 30
0.0
 10
4.618235369
 20
2.8465678235
 30
0.0
 10
4.61237717
 20
2.8459079906
 30
0.0
 10
4.6084486571
 20
2.8457593168
 30
0.0
 10
4.6064852484
 20
2.8457593168
 30
0.0
  0
SPLINE
  5
2C6
100
AcDbEntity
  8
0
100
AcDbSpline
 62
7
  6
CONTINUOUS
 70
0
 71
3
 72
15
 73
11
 74
0
 42
0.0000001
 43
0.0000001
 44
0.0000000001
 40
0.0
 40
0.0
 40
0.0
 40
0.0
 40
0.1399989447
 40
0.2758544359
 40
0.4071889025
 40
0.5337823884
 40
0.6556621661
 40
0.7732604513
 40
0.8875479307
 40
1.0
 40
1.0
 40
1.0
 40
1.0
 10
4.5162742689
 20
2.9384233372
 30
0.0
 10
4.5171403141
 20
2.9392893825
 30
0.0
 10
4.5188837487
 20
2.9409595874
 30
0.0
 10
4.5215845207
 20
2.9432854313
 30
0.0
 10
4.5243370546
 20
2.9453618832
 30
0.0
 10
4.5271428862
 20
2.9471495341
 30
0.0
 10
4.5300016582
 20
2.9486060045
 30
0.0
 10
4.5329096738
 20
2.9496885643
 30
0.0
 10
4.535856535
 20
2.9503577145
 30
0.0
 10
4.5378432331
 20
2.9505093168
 30
0.0
 10
4.5388270138
 20
2.9505093168
 30
0.0
  0
SPLINE
  5
2C7
100
AcDbEntity
  8
0
100
AcDbSpline
 62
7
  6
CONTINUOUS
 70
0
 71
3
 72
15
 73
11
 74
0
 42
0.0000001
 43
0.0000001
 44
0.0000000001
 40
0.0
 40
0.0
 40
0.0
 40
0.0
 40
0.1124520573
 40
0.2267395247
 40
0.3443378153
 40
0.4662176043
 40
0.5928111035
 40
0.7241455739
 40
0.8600010626
 40
1.0
 40
1.0
 40
1.0
 40
1.0
 10
4.5388270138
 20
2.9505093168
 30
0.0
 10
4.5398107943
 20
2.9505093168
 30
0.0
 10
4.5417974923
 20
2.9503577148
 30
0.0
 10
4.5447443533
 20
2.9496885645
 30
0.0
 10
4.5476523689
 20
2.9486060046
 30
0.0
 10
4.5505111412
 20
2.9471495342
 30
0.0
 10
4.553316973
 20
2.9453618832
 30
0.0
 10
4.5560695071
 20
2.9432854312
 30
0.0
 10
4.5587702789
 20
2.9409595872
 30
0.0
 10
4.5605137134
 20
2.9392893824
 30
0.0
 10
4.5613797587
 20
2.9384233372
 30
0.0
  0
SPLINE
  5
2C8
100
AcDbEntity
  8
0
100
AcDbSpline
 62
7
  6
CONTINUOUS
 70
0
 71
3
 72
15
 73
11
 74
0
 42
0.0000001
 43
0.0000001
 44
0.0000000001
 40
0.0
 40
0.0
 40
0.0
 40
0.0
 40
0.1124520573
 40
0.2267395247
 40
0.3443378153
 40
0.4662176043
 40
0.5928111035
 40
0.7241455739
 40
0.8600010626
 40
1.0
 40
1.0
 40
1.0
 40
1.0
 10
4.5388270138
 20
2.8457593168
 30
0.0
 10
4.5398107943
 20
2.8457593168
 30
0.0
 10
4.5417974923
 20
2.8459109188
 30
0.0
 10
4.5447443533
 20
2.8465800691
 30
0.0
 10
4.5476523689
 20
2.847662629
 30
0.0
 10
4.5505111412
 20
2.8491190993
 30
0.0
 10
4.553316973
 20
2.8509067504
 30
0.0
 10
4.5560695071
 20
2.8529832023
 30
0.0
 10
4.5587702789
 20
2.8553090464
 30
0.0
 10
4.5605137134
 20
2.8569792511
 30
0.0
 10
4.5613797587
 20
2.8578452963
 30
0.0
  0
SPLINE
  5
2C9
100
AcDbEntity
  8
0
100
AcDbSpline
 62
7
  6
CONTINUOUS
 70
0
 71
3
 72
15
 73
11
 74
0
 42
0.0000001
 43
0.0000001
 44
0.0000000001
 40
0.0
 40
0.0
 40
0.0
 40
0.0
 40
0.1378538025
 40
0.2723048737
 40
0.4030726994
 40
0.5299463241
 40
0.652839621
 40
0.7718512427
 40
0.8873395981
 40
1.0
 40
1.0
 40
1.0
 40
1.0
 10
4.5162742689
 20
2.8578452963
 30
0.0
 10
4.5170109815
 20
2.8571085837
 30
0.0
 10
4.5184930081
 20
2.8556797071
 30
0.0
 10
4.520777325
 20
2.8536625834
 30
0.0
 10
4.5230981824
 20
2.8518174975
 30
0.0
 10
4.525456808
 20
2.8501681002
 30
0.0
 10
4.5278531449
 20
2.8487392333
 30
0.0
 10
4.5302862282
 20
2.8475572377
 30
0.0
 10
4.5327522126
 20
2.8466478432
 30
0.0
 10
4.5344311749
 20
2.8462347027
 30
0.0
 10
4.5352689665
 20
2.8460827357
 30
0.0
  0
SPLINE
  5
2CA
100
AcDbEntity
  8
0
100
AcDbSpline
 62
7
  6
CONTINUOUS
 70
0
 71
3
 72
19
 73
15
 74
0
 42
0.0000001
 43
0.0000001
 44
0.0000000001
 40
0.0
 40
0.0
 40
0.0
 40
0.0
 40
0.1283756598
 40
0.2540824588
 40
0.316093143
 40
0.3776589512
 40
0.4389108338
 40
0.5000000068
 40
0.5610891802
 40
0.622341062
 40
0.6839068698
 40
0.7459175528
 40
0.871624345
 40
1.0
 40
1.0
 40
1.0
 40
1.0
 10
4.4387042795
 20
2.7640154416
 30
0.0
 10
4.4396694345
 20
2.7662884684
 30
0.0
 10
4.441424775
 20
2.7708557244
 30
0.0
 10
4.4431093491
 20
2.7767085473
 30
0.0
 10
4.4440746809
 20
2.7814077401
 30
0.0
 10
4.4445976281
 20
2.7849264012
 30
0.0
 10
4.4449150632
 20
2.7884518295
 30
0.0
 10
4.4450211696
 20
2.7919808457
 30
0.0
 10
4.4449150634
 20
2.7955098619
 30
0.0
 10
4.4445976277
 20
2.7990352902
 30
0.0
 10
4.4440746811
 20
2.8025539512
 30
0.0
 10
4.4431093486
 20
2.8072531438
 30
0.0
 10
4.441424775
 20
2.8131059665
 30
0.0
 10
4.4396694345
 20
2.8176732223
 30
0.0
 10
4.4387042795
 20
2.819946249
 30
0.0
  0
SPLINE
  5
2CB
100
AcDbEntity
  8
0
100
AcDbSpline
 62
7
  6
CONTINUOUS
 70
0
 71
3
 72
19
 73
15
 74
0
 42
0.0000001
 43
0.0000001
 44
0.0000000001
 40
0.0
 40
0.0
 40
0.0
 40
0.0
 40
0.1249951581
 40
0.2499887915
 40
0.3124912432
 40
0.3749939961
 40
0.4374969088
 40
0.500000007
 40
0.5625031056
 40
0.6250060172
 40
0.68750877
 40
0.7500112198
 40
0.8750048465
 40
1.0
 40
1.0
 40
1.0
 40
1.0
 10
4.4387042795
 20
2.6413285094
 30
0.0
 10
4.4396800457
 20
2.6459245434
 30
0.0
 10
4.4414495175
 20
2.6551566219
 30
0.0
 10
4.4431176689
 20
2.6667893135
 30
0.0
 10
4.4440768974
 20
2.6761385598
 30
0.0
 10
4.4445986549
 20
2.6831685043
 30
0.0
 10
4.4449152865
 20
2.6902107254
 30
0.0
 10
4.4450211051
 20
2.6972593176
 30
0.0
 10
4.4449152867
 20
2.7043079097
 30
0.0
 10
4.4445986546
 20
2.7113501308
 30
0.0
 10
4.4440768976
 20
2.7183800752
 30
0.0
 10
4.4431176684
 20
2.7277293211
 30
0.0
 10
4.4414495175
 20
2.7393620123
 30
0.0
 10
4.4396800456
 20
2.7485940903
 30
0.0
 10
4.4387042795
 20
2.7531901241
 30
0.0
  0
SPLINE
  5
2CC
100
AcDbEntity
  8
0
100
AcDbSpline
 62
7
  6
CONTINUOUS
 70
0
 71
3
 72
19
 73
15
 74
0
 42
0.0000001
 43
0.0000001
 44
0.0000000001
 40
0.0
 40
0.0
 40
0.0
 40
0.0
 40
0.1249951581
 40
0.2499887915
 40
0.3124912432
 40
0.3749939961
 40
0.4374969088
 40
0.500000007
 40
0.5625031056
 40
0.6250060172
 40
0.68750877
 40
0.7500112198
 40
0.8750048465
 40
1.0
 40
1.0
 40
1.0
 40
1.0
 10
4.395230851
 20
2.6413285094
 30
0.0
 10
4.3942550848
 20
2.6459245434
 30
0.0
 10
4.392485613
 20
2.6551566219
 30
0.0
 10
4.3908174616
 20
2.6667893135
 30
0.0
 10
4.3898582331
 20
2.6761385598
 30
0.0
 10
4.3893364756
 20
2.6831685043
 30
0.0
 10
4.389019844
 20
2.6902107254
 30
0.0
 10
4.3889140254
 20
2.6972593176
 30
0.0
 10
4.3890198438
 20
2.7043079097
 30
0.0
 10
4.3893364759
 20
2.7113501308
 30
0.0
 10
4.389858233
 20
2.7183800752
 30
0.0
 10
4.3908174621
 20
2.7277293211
 30
0.0
 10
4.392485613
 20
2.7393620123
 30
0.0
 10
4.3942550849
 20
2.7485940903
 30
0.0
 10
4.395230851
 20
2.7531901241
 30
0.0
  0
SPLINE
  5
2CD
100
AcDbEntity
  8
0
100
AcDbSpline
 62
7
  6
CONTINUOUS
 70
0
 71
3
 72
13
 73
9
 74
0
 42
0.0000001
 43
0.0000001
 44
0.0000000001
 40
0.0
 40
0.0
 40
0.0
 40
0.0
 40
0.2568597981
 40
0.5082062882
 40
0.6321682773
 40
0.7552532865
 40
0.8777526815
 40
1.0
 40
1.0
 40
1.0
 40
1.0
 10
4.4387042795
 20
2.5745723846
 30
0.0
 10
4.4397043338
 20
2.5769276023
 30
0.0
 10
4.4415168369
 20
2.5816610613
 30
0.0
 10
4.4432310393
 20
2.5877325178
 30
0.0
 10
4.4441877774
 20
2.5926066756
 30
0.0
 10
4.4446876176
 20
2.5962561089
 30
0.0
 10
4.4449651534
 20
2.5999119771
 30
0.0
 10
4.4449981528
 20
2.602351703
 30
0.0
 10
4.4449767786
 20
2.6035692977
 30
0.0
  0
SPLINE
  5
2CE
100
AcDbEntity
  8
0
100
AcDbSpline
 62
7
  6
CONTINUOUS
 70
0
 71
3
 72
13
 73
9
 74
0
 42
0.0000001
 43
0.0000001
 44
0.0000000001
 40
0.0
 40
0.0
 40
0.0
 40
0.0
 40
0.1221266876
 40
0.2446444908
 40
0.3678258294
 40
0.4919045138
 40
0.7433726942
 40
1.0
 40
1.0
 40
1.0
 40
1.0
 10
4.4449767786
 20
2.6035692977
 30
0.0
 10
4.4449568985
 20
2.6047017821
 30
0.0
 10
4.4448511749
 20
2.6069697562
 30
0.0
 10
4.444497915
 20
2.6103645104
 30
0.0
 10
4.4439551034
 20
2.6137525115
 30
0.0
 10
4.442984692
 20
2.6182768521
 30
0.0
 10
4.4413322125
 20
2.62391141
 30
0.0
 10
4.4396345057
 20
2.6283124256
 30
0.0
 10
4.4387042795
 20
2.6305031919
 30
0.0
  0
SPLINE
  5
2CF
100
AcDbEntity
  8
0
100
AcDbSpline
 62
7
  6
CONTINUOUS
 70
0
 71
3
 72
19
 73
15
 74
0
 42
0.0000001
 43
0.0000001
 44
0.0000000001
 40
0.0
 40
0.0
 40
0.0
 40
0.0
 40
0.1283756598
 40
0.2540824588
 40
0.316093143
 40
0.3776589512
 40
0.4389108338
 40
0.5000000068
 40
0.5610891802
 40
0.622341062
 40
0.6839068698
 40
0.7459175528
 40
0.871624345
 40
1.0
 40
1.0
 40
1.0
 40
1.0
 10
4.395230851
 20
2.5745723846
 30
0.0
 10
4.394265696
 20
2.5768454113
 30
0.0
 10
4.3925103555
 20
2.5814126673
 30
0.0
 10
4.3908257814
 20
2.5872654902
 30
0.0
 10
4.3898604496
 20
2.5919646831
 30
0.0
 10
4.3893375024
 20
2.5954833441
 30
0.0
 10
4.3890200673
 20
2.5990087724
 30
0.0
 10
4.3889139609
 20
2.6025377886
 30
0.0
 10
4.3890200672
 20
2.6060668048
 30
0.0
 10
4.3893375028
 20
2.6095922331
 30
0.0
 10
4.3898604494
 20
2.6131108942
 30
0.0
 10
4.3908257819
 20
2.6178100867
 30
0.0
 10
4.3925103555
 20
2.6236629094
 30
0.0
 10
4.394265696
 20
2.6282301652
 30
0.0
 10
4.395230851
 20
2.6305031919
 30
0.0
  0
SPLINE
  5
2D0
100
AcDbEntity
  8
0
100
AcDbSpline
 62
7
  6
CONTINUOUS
 70
0
 71
3
 72
15
 73
11
 74
0
 42
0.0000001
 43
0.0000001
 44
0.0000000001
 40
0.0
 40
0.0
 40
0.0
 40
0.0
 40
0.0865581874
 40
0.186750557
 40
0.2999639006
 40
0.4249722194
 40
0.5598610156
 40
0.7023504706
 40
0.8499988266
 40
1.0
 40
1.0
 40
1.0
 40
1.0
 10
4.4387042795
 20
2.7640154416
 30
0.0
 10
4.438580728
 20
2.7637244667
 30
0.0
 10
4.4383683967
 20
2.7630734839
 30
0.0
 10
4.4381534566
 20
2.7619976021
 30
0.0
 10
4.4380238823
 20
2.7607669913
 30
0.0
 10
4.4379827165
 20
2.7594039565
 30
0.0
 10
4.4380307021
 20
2.7579343342
 30
0.0
 10
4.4381673059
 20
2.7563873886
 30
0.0
 10
4.4383894385
 20
2.7547947654
 30
0.0
 10
4.4385905098
 20
2.7537259998
 30
0.0
 10
4.4387042795
 20
2.7531901241
 30
0.0
  0
SPLINE
  5
2D1
100
AcDbEntity
  8
0
100
AcDbSpline
 62
7
  6
CONTINUOUS
 70
0
 71
3
 72
15
 73
11
 74
0
 42
0.0000001
 43
0.0000001
 44
0.0000000001
 40
0.0
 40
0.0
 40
0.0
 40
0.0
 40
0.1499994681
 40
0.2976424581
 40
0.4401272773
 40
0.5750160048
 40
0.7000258869
 40
0.8132441957
 40
0.9134405188
 40
1.0
 40
1.0
 40
1.0
 40
1.0
 10
4.4387042795
 20
2.6413285094
 30
0.0
 10
4.4385905111
 20
2.6407926399
 30
0.0
 10
4.4383894423
 20
2.6397239001
 30
0.0
 10
4.4381673157
 20
2.6381313193
 30
0.0
 10
4.4380307088
 20
2.636584411
 30
0.0
 10
4.4379827167
 20
2.6351148005
 30
0.0
 10
4.4380238764
 20
2.6337517421
 30
0.0
 10
4.4381534456
 20
2.632521092
 30
0.0
 10
4.4383683929
 20
2.6314451736
 30
0.0
 10
4.4385807261
 20
2.6307941712
 30
0.0
 10
4.4387042795
 20
2.6305031919
 30
0.0
  0
SPLINE
  5
2D2
100
AcDbEntity
  8
0
100
AcDbSpline
 62
7
  6
CONTINUOUS
 70
0
 71
3
 72
15
 73
11
 74
0
 42
0.0000001
 43
0.0000001
 44
0.0000000001
 40
0.0
 40
0.0
 40
0.0
 40
0.0
 40
0.1500011734
 40
0.2976495294
 40
0.4401389844
 40
0.5750277806
 40
0.7000360994
 40
0.813249443
 40
0.9134418126
 40
1.0
 40
1.0
 40
1.0
 40
1.0
 10
4.395230851
 20
2.7531901241
 30
0.0
 10
4.3953446207
 20
2.7537259998
 30
0.0
 10
4.395545692
 20
2.7547947654
 30
0.0
 10
4.3957678246
 20
2.7563873886
 30
0.0
 10
4.3959044284
 20
2.7579343342
 30
0.0
 10
4.395952414
 20
2.7594039565
 30
0.0
 10
4.3959112482
 20
2.7607669913
 30
0.0
 10
4.3957816739
 20
2.7619976021
 30
0.0
 10
4.3955667339
 20
2.7630734839
 30
0.0
 10
4.3953544026
 20
2.7637244667
 30
0.0
 10
4.395230851
 20
2.7640154416
 30
0.0
  0
SPLINE
  5
2D3
100
AcDbEntity
  8
0
100
AcDbSpline
 62
7
  6
CONTINUOUS
 70
0
 71
3
 72
15
 73
11
 74
0
 42
0.0000001
 43
0.0000001
 44
0.0000000001
 40
0.0
 40
0.0
 40
0.0
 40
0.0
 40
0.0865594812
 40
0.1867558043
 40
0.2999741131
 40
0.4249839952
 40
0.5598727227
 40
0.7023575419
 40
0.8500005319
 40
1.0
 40
1.0
 40
1.0
 40
1.0
 10
4.395230851
 20
2.6305031919
 30
0.0
 10
4.3953544044
 20
2.6307941712
 30
0.0
 10
4.3955667377
 20
2.6314451736
 30
0.0
 10
4.3957816849
 20
2.632521092
 30
0.0
 10
4.3959112542
 20
2.6337517421
 30
0.0
 10
4.3959524138
 20
2.6351148005
 30
0.0
 10
4.3959044217
 20
2.636584411
 30
0.0
 10
4.3957678149
 20
2.6381313193
 30
0.0
 10
4.3955456882
 20
2.6397239001
 30
0.0
 10
4.3953446194
 20
2.6407926399
 30
0.0
 10
4.395230851
 20
2.6413285094
 30
0.0
  0
SPLINE
  5
2D4
100
AcDbEntity
  8
0
100
AcDbSpline
 62
7
  6
CONTINUOUS
 70
0
 71
3
 72
19
 73
15
 74
0
 42
0.0000001
 43
0.0000001
 44
0.0000000001
 40
0.0
 40
0.0
 40
0.0
 40
0.0
 40
0.1283756598
 40
0.2540824588
 40
0.316093143
 40
0.3776589512
 40
0.4389108338
 40
0.5000000068
 40
0.5610891802
 40
0.622341062
 40
0.6839068698
 40
0.7459175528
 40
0.871624345
 40
1.0
 40
1.0
 40
1.0
 40
1.0
 10
4.395230851
 20
2.7640154416
 30
0.0
 10
4.394265696
 20
2.7662884684
 30
0.0
 10
4.3925103555
 20
2.7708557244
 30
0.0
 10
4.3908257814
 20
2.7767085473
 30
0.0
 10
4.3898604496
 20
2.7814077401
 30
0.0
 10
4.3893375024
 20
2.7849264012
 30
0.0
 10
4.3890200673
 20
2.7884518295
 30
0.0
 10
4.3889139609
 20
2.7919808457
 30
0.0
 10
4.3890200672
 20
2.7955098619
 30
0.0
 10
4.3893375028
 20
2.7990352902
 30
0.0
 10
4.3898604494
 20
2.8025539512
 30
0.0
 10
4.3908257819
 20
2.8072531438
 30
0.0
 10
4.3925103555
 20
2.8131059665
 30
0.0
 10
4.394265696
 20
2.8176732223
 30
0.0
 10
4.395230851
 20
2.819946249
 30
0.0
  0
SPLINE
  5
2D5
100
AcDbEntity
  8
ALL_FEATURES
100
AcDbSpline
 62
7
  6
CONTINUOUS
 70
0
 71
3
 72
15
 73
11
 74
0
 42
0.0000001
 43
0.0000001
 44
0.0000000001
 40
0.0
 40
0.0
 40
0.0
 40
0.0
 40
0.1395582571
 40
0.2763587794
 40
0.4096551894
 40
0.5387634102
 40
0.6629837913
 40
0.7816380247
 40
0.8941519025
 40
1.0
 40
1.0
 40
1.0
 40
1.0
 10
4.2378380365
 20
2.6827522098
 30
0.0
 10
4.2374087299
 20
2.6815602734
 30
0.0
 10
4.2365871448
 20
2.6791895173
 30
0.0
 10
4.2354676791
 20
2.6756426588
 30
0.0
 10
4.2344872338
 20
2.6721531472
 30
0.0
 10
4.2336604666
 20
2.66874129
 30
0.0
 10
4.2330002111
 20
2.6654285683
 30
0.0
 10
4.2325179184
 20
2.6622372607
 30
0.0
 10
4.2322222656
 20
2.6591906692
 30
0.0
 10
4.2321507952
 20
2.6572079993
 30
0.0
 10
4.2321507952
 20
2.6562471235
 30
0.0
  0
SPLINE
  5
2D6
100
AcDbEntity
  8
ALL_FEATURES
100
AcDbSpline
 62
7
  6
CONTINUOUS
 70
0
 71
3
 72
11
 73
7
 74
0
 42
0.0000001
 43
0.0000001
 44
0.0000000001
 40
0.0
 40
0.0
 40
0.0
 40
0.0
 40
0.2748830851
 40
0.5330663409
 40
0.7745776558
 40
1.0
 40
1.0
 40
1.0
 40
1.0
 10
4.2321507952
 20
2.6562471235
 30
0.0
 10
4.2321507952
 20
2.655473666
 30
0.0
 10
4.2321943547
 20
2.6539732129
 30
0.0
 10
4.2324037226
 20
2.6518019844
 30
0.0
 10
4.2327525196
 20
2.6497896403
 30
0.0
 10
4.2330863801
 20
2.6485167324
 30
0.0
 10
4.2332771557
 20
2.6479118159
 30
0.0
  0
LINE
  5
2D7
100
AcDbEntity
  8
ALL_FEATURES
100
AcDbLine
 62
7
  6
CONTINUOUS
 10
4.2321671092
 20
2.6551126449
 11
4.2317084079
 21
2.6557078765
  0
SPLINE
  5
2D8
100
AcDbEntity
  8
ALL_FEATURES
100
AcDbSpline
 62
7
  6
CONTINUOUS
 70
0
 71
3
 72
11
 73
7
 74
0
 42
0.0000001
 43
0.0000001
 44
0.0000000001
 40
0.0
 40
0.0
 40
0.0
 40
0.0
 40
0.2174590944
 40
0.455668386
 40
0.7161588602
 40
1.0
 40
1.0
 40
1.0
 40
1.0
 10
4.2317084079
 20
2.6557078765
 30
0.0
 10
4.2315223064
 20
2.6559774457
 30
0.0
 10
4.2311683074
 20
2.6565676088
 30
0.0
 10
4.2307138167
 20
2.6575477629
 30
0.0
 10
4.2303177565
 20
2.6586595361
 30
0.0
 10
4.2301050805
 20
2.6594523404
 30
0.0
 10
4.2300082103
 20
2.6598687853
 30
0.0
  0
SPLINE
  5
2D9
100
AcDbEntity
  8
0
100
AcDbSpline
 62
7
  6
CONTINUOUS
 70
0
 71
3
 72
15
 73
11
 74
0
 42
0.0000001
 43
0.0000001
 44
0.0000000001
 40
0.0
 40
0.0
 40
0.0
 40
0.0
 40
0.1519465358
 40
0.2989736393
 40
0.439512845
 40
0.5720902329
 40
0.6953200789
 40
0.8080943019
 40
0.9097113534
 40
1.0
 40
1.0
 40
1.0
 40
1.0
 10
4.3516524015
 20
2.7095953308
 30
0.0
 10
4.3520907381
 20
2.7110932689
 30
0.0
 10
4.3529143749
 20
2.7140522915
 30
0.0
 10
4.3539773924
 20
2.7184409823
 30
0.0
 10
4.3548178756
 20
2.7226755003
 30
0.0
 10
4.3554075778
 20
2.7267058642
 30
0.0
 10
4.35572545
 20
2.7304812814
 30
0.0
 10
4.3557595721
 20
2.7339530631
 30
0.0
 10
4.3555086045
 20
2.7370771785
 30
0.0
 10
4.3551349057
 20
2.7390187674
 30
0.0
 10
4.3548946955
 20
2.7399145408
 30
0.0
  0
SPLINE
  5
2DA
100
AcDbEntity
  8
0
100
AcDbSpline
 62
7
  6
CONTINUOUS
 70
0
 71
3
 72
11
 73
7
 74
0
 42
0.0000001
 43
0.0000001
 44
0.0000000001
 40
0.0
 40
0.0
 40
0.0
 40
0.0
 40
0.2468130187
 40
0.4963032522
 40
0.7476734002
 40
1.0
 40
1.0
 40
1.0
 40
1.0
 10
4.3516524025
 20
2.6849233444
 30
0.0
 10
4.3513633994
 20
2.685910961
 30
0.0
 10
4.3508458823
 20
2.6879162419
 30
0.0
 10
4.3502742579
 20
2.6909831974
 30
0.0
 10
4.3499223598
 20
2.6941064011
 30
0.0
 10
4.3498430698
 20
2.6962072959
 30
0.0
 10
4.3498430686
 20
2.6972593168
 30
0.0
  0
SPLINE
  5
2DB
100
AcDbEntity
  8
0
100
AcDbSpline
 62
7
  6
CONTINUOUS
 70
0
 71
3
 72
11
 73
7
 74
0
 42
0.0000001
 43
0.0000001
 44
0.0000000001
 40
0.0
 40
0.0
 40
0.0
 40
0.0
 40
0.2523251163
 40
0.5036921545
 40
0.7531840026
 40
1.0
 40
1.0
 40
1.0
 40
1.0
 10
4.3498430686
 20
2.6972593168
 30
0.0
 10
4.3498430675
 20
2.698311335
 30
0.0
 10
4.3499223506
 20
2.7004122179
 30
0.0
 10
4.3502742337
 20
2.703535422
 30
0.0
 10
4.3508458715
 20
2.7066023925
 30
0.0
 10
4.3513633941
 20
2.7086076988
 30
0.0
 10
4.3516524015
 20
2.7095953308
 30
0.0
  0
SPLINE
  5
2DC
100
AcDbEntity
  8
ALL_FEATURES
100
AcDbSpline
 62
7
  6
CONTINUOUS
 70
0
 71
3
 72
15
 73
11
 74
0
 42
0.0000001
 43
0.0000001
 44
0.0000000001
 40
0.0
 40
0.0
 40
0.0
 40
0.0
 40
0.1234189325
 40
0.2481560655
 40
0.3738183148
 40
0.4999993445
 40
0.6261806803
 40
0.7518439356
 40
0.8765816456
 40
1.0
 40
1.0
 40
1.0
 40
1.0
 10
4.2378380792
 20
2.7117663022
 30
0.0
 10
4.2382510808
 20
2.7106196352
 30
0.0
 10
4.2389962225
 20
2.7082820921
 30
0.0
 10
4.2398290437
 20
2.7046813875
 30
0.0
 10
4.2403467041
 20
2.7009936426
 30
0.0
 10
4.2405226359
 20
2.6972592701
 30
0.0
 10
4.2403466913
 20
2.6935248875
 30
0.0
 10
4.2398289985
 20
2.6898371288
 30
0.0
 10
4.2389961834
 20
2.6862364131
 30
0.0
 10
4.2382510361
 20
2.6838988715
 30
0.0
 10
4.2378380365
 20
2.6827522098
 30
0.0
  0
SPLINE
  5
2DD
100
AcDbEntity
  8
ALL_FEATURES
100
AcDbSpline
 62
7
  6
CONTINUOUS
 70
0
 71
3
 72
13
 73
9
 74
0
 42
0.0000001
 43
0.0000001
 44
0.0000000001
 40
0.0
 40
0.0
 40
0.0
 40
0.0
 40
0.2166462597
 40
0.3369283623
 40
0.4630313481
 40
0.7271468123
 40
0.8629514529
 40
1.0
 40
1.0
 40
1.0
 40
1.0
 10
4.2447967778
 20
2.773811408
 30
0.0
 10
4.245946917
 20
2.7759262571
 30
0.0
 10
4.2475096983
 20
2.7793426122
 30
0.0
 10
4.2492238386
 20
2.7841961183
 30
0.0
 10
4.250774702
 20
2.7896560123
 30
0.0
 10
4.251843562
 20
2.7954206558
 30
0.0
 10
4.2523912398
 20
2.8013647843
 30
0.0
 10
4.2524852484
 20
2.8043976879
 30
0.0
 10
4.2524852484
 20
2.8059205663
 30
0.0
  0
SPLINE
  5
2DE
100
AcDbEntity
  8
ALL_FEATURES
100
AcDbSpline
 62
7
  6
CONTINUOUS
 70
0
 71
3
 72
16
 73
12
 74
0
 42
0.0000001
 43
0.0000001
 44
0.0000000001
 40
0.0
 40
0.0
 40
0.0
 40
0.0
 40
0.1370335261
 40
0.2727912139
 40
0.3399414122
 40
0.406456891
 40
0.5369692258
 40
0.6630433665
 40
0.7832964735
 40
0.8961842027
 40
1.0
 40
1.0
 40
1.0
 40
1.0
 10
4.3337352484
 20
2.8059205663
 30
0.0
 10
4.3337352484
 20
2.8043974807
 30
0.0
 10
4.3338290886
 20
2.8013647345
 30
0.0
 10
4.3341762915
 20
2.7975999295
 30
0.0
 10
4.3345888823
 20
2.7946334898
 30
0.0
 10
4.3350840022
 20
2.7917388696
 30
0.0
 10
4.3358517658
 20
2.7882282275
 30
0.0
 10
4.3369963331
 20
2.7841964332
 30
0.0
 10
4.3383271028
 20
2.7804293675
 30
0.0
 10
4.3397913806
 20
2.7769797804
 30
0.0
 10
4.3408724435
 20
2.7748252707
 30
0.0
 10
4.3414237324
 20
2.7738116035
 30
0.0
  0
SPLINE
  5
2DF
100
AcDbEntity
  8
ALL_FEATURES
100
AcDbSpline
 62
7
  6
CONTINUOUS
 70
0
 71
3
 72
11
 73
7
 74
0
 42
0.0000001
 43
0.0000001
 44
0.0000000001
 40
0.0
 40
0.0
 40
0.0
 40
0.0
 40
0.2914808274
 40
0.5539360238
 40
0.7892417301
 40
1.0
 40
1.0
 40
1.0
 40
1.0
 10
4.2300082367
 20
2.7346498472
 30
0.0
 10
4.2301243671
 20
2.735149161
 30
0.0
 10
4.2303832982
 20
2.7360899786
 30
0.0
 10
4.2308839027
 20
2.7373875315
 30
0.0
 10
4.2314671864
 20
2.7384922281
 30
0.0
 10
4.231929066
 20
2.7391309359
 30
0.0
 10
4.2321716356
 20
2.7394112151
 30
0.0
  0
SPLINE
  5
2E0
100
AcDbEntity
  8
ALL_FEATURES
100
AcDbSpline
 62
7
  6
CONTINUOUS
 70
0
 71
3
 72
15
 73
11
 74
0
 42
0.0000001
 43
0.0000001
 44
0.0000000001
 40
0.0
 40
0.0
 40
0.0
 40
0.0
 40
0.0909796593
 40
0.1927755933
 40
0.3055266423
 40
0.4286907265
 40
0.5611954155
 40
0.7016205895
 40
0.8484098546
 40
1.0
 40
1.0
 40
1.0
 40
1.0
 10
4.233277226
 20
2.7466070126
 30
0.0
 10
4.2329517842
 20
2.7455754
 30
0.0
 10
4.2324444268
 20
2.7433303482
 30
0.0
 10
4.2321093069
 20
2.7397056118
 30
0.0
 10
4.23216798
 20
2.7356842351
 30
0.0
 10
4.2326172207
 20
2.7313222991
 30
0.0
 10
4.2334398694
 20
2.7266817217
 30
0.0
 10
4.234607342
 20
2.7218272252
 30
0.0
 10
4.236082262
 20
2.7168208884
 30
0.0
 10
4.237227316
 20
2.7134620386
 30
0.0
 10
4.2378380792
 20
2.7117663022
 30
0.0
  0
SPLINE
  5
2E1
100
AcDbEntity
  8
ALL_FEATURES
100
AcDbSpline
 62
7
  6
CONTINUOUS
 70
0
 71
3
 72
10
 73
6
 74
0
 42
0.0000001
 43
0.0000001
 44
0.0000000001
 40
0.0
 40
0.0
 40
0.0
 40
0.0
 40
0.2465029401
 40
0.49571811
 40
1.0
 40
1.0
 40
1.0
 40
1.0
 10
4.2447967275
 20
2.7738109834
 30
0.0
 10
4.2436351952
 20
2.7716758616
 30
0.0
 10
4.2414059591
 20
2.767322994
 30
0.0
 10
4.2373415575
 20
2.7583365453
 30
0.0
 10
4.2347727059
 20
2.751349012
 30
0.0
 10
4.2332771193
 20
2.7466068401
 30
0.0
  0
SPLINE
  5
2E2
100
AcDbEntity
  8
ALL_FEATURES
100
AcDbSpline
 62
7
  6
CONTINUOUS
 70
0
 71
3
 72
10
 73
6
 74
0
 42
0.0000001
 43
0.0000001
 44
0.0000000001
 40
0.0
 40
0.0
 40
0.0
 40
0.0
 40
0.5048281291
 40
0.7539834373
 40
1.0
 40
1.0
 40
1.0
 40
1.0
 10
4.3548945068
 20
2.7399149781
 30
0.0
 10
4.3533016105
 20
2.7458549562
 30
0.0
 10
4.3504109431
 20
2.7546025262
 30
0.0
 10
4.3455766821
 20
2.7657892906
 30
0.0
 10
4.3428559572
 20
2.7711783442
 30
0.0
 10
4.3414237694
 20
2.7738109834
 30
0.0
  0
SPLINE
  5
2E3
100
AcDbEntity
  8
ALL_FEATURES
100
AcDbSpline
 62
7
  6
CONTINUOUS
 70
0
 71
3
 72
13
 73
9
 74
0
 42
0.0000001
 43
0.0000001
 44
0.0000000001
 40
0.0
 40
0.0
 40
0.0
 40
0.0
 40
0.2166463016
 40
0.3369284096
 40
0.4630313936
 40
0.7271468397
 40
0.8629514673
 40
1.0
 40
1.0
 40
1.0
 40
1.0
 10
4.3414237128
 20
2.8380297129
 30
0.0
 10
4.3402735743
 20
2.835914864
 30
0.0
 10
4.3387107942
 20
2.8324985094
 30
0.0
 10
4.3369966552
 20
2.8276450045
 30
0.0
 10
4.3354457932
 20
2.8221851126
 30
0.0
 10
4.3343769342
 20
2.8164204716
 30
0.0
 10
4.333829257
 20
2.8104763459
 30
0.0
 10
4.3337352484
 20
2.8074434439
 30
0.0
 10
4.3337352484
 20
2.8059205663
 30
0.0
  0
SPLINE
  5
2E4
100
AcDbEntity
  8
ALL_FEATURES
100
AcDbSpline
 62
7
  6
CONTINUOUS
 70
0
 71
3
 72
16
 73
12
 74
0
 42
0.0000001
 43
0.0000001
 44
0.0000000001
 40
0.0
 40
0.0
 40
0.0
 40
0.0
 40
0.1370335261
 40
0.2727912139
 40
0.3399414122
 40
0.406456891
 40
0.5369692258
 40
0.6630433665
 40
0.7832964735
 40
0.8961842027
 40
1.0
 40
1.0
 40
1.0
 40
1.0
 10
4.2524852484
 20
2.8059205663
 30
0.0
 10
4.2524852484
 20
2.8074436518
 30
0.0
 10
4.2523914083
 20
2.8104763981
 30
0.0
 10
4.2520442054
 20
2.8142412031
 30
0.0
 10
4.2516316146
 20
2.8172076428
 30
0.0
 10
4.2511364947
 20
2.8201022629
 30
0.0
 10
4.2503687311
 20
2.823612905
 30
0.0
 10
4.2492241638
 20
2.8276446994
 30
0.0
 10
4.2478933941
 20
2.831411765
 30
0.0
 10
4.2464291163
 20
2.8348613521
 30
0.0
 10
4.2453480534
 20
2.8370158618
 30
0.0
 10
4.2447967645
 20
2.838029529
 30
0.0
  0
SPLINE
  5
2E5
100
AcDbEntity
  8
ALL_FEATURES
100
AcDbSpline
 62
7
  6
CONTINUOUS
 70
0
 71
3
 72
13
 73
9
 74
0
 42
0.0000001
 43
0.0000001
 44
0.0000000001
 40
0.0
 40
0.0
 40
0.0
 40
0.0
 40
0.2166463016
 40
0.3369284096
 40
0.4630313936
 40
0.7271468397
 40
0.8629514673
 40
1.0
 40
1.0
 40
1.0
 40
1.0
 10
4.2447967841
 20
2.5564889206
 30
0.0
 10
4.2459469226
 20
2.5586037695
 30
0.0
 10
4.2475097027
 20
2.5620201241
 30
0.0
 10
4.2492238417
 20
2.566873629
 30
0.0
 10
4.2507747037
 20
2.572333521
 30
0.0
 10
4.2518435627
 20
2.5780981619
 30
0.0
 10
4.2523912399
 20
2.5840422876
 30
0.0
 10
4.2524852484
 20
2.5870751897
 30
0.0
 10
4.2524852484
 20
2.5885980673
 30
0.0
  0
SPLINE
  5
2E6
100
AcDbEntity
  8
ALL_FEATURES
100
AcDbSpline
 62
7
  6
CONTINUOUS
 70
0
 71
3
 72
16
 73
12
 74
0
 42
0.0000001
 43
0.0000001
 44
0.0000000001
 40
0.0
 40
0.0
 40
0.0
 40
0.0
 40
0.1370335261
 40
0.2727912139
 40
0.3399414122
 40
0.406456891
 40
0.5369692258
 40
0.6630433665
 40
0.7832964735
 40
0.8961842027
 40
1.0
 40
1.0
 40
1.0
 40
1.0
 10
4.3337352484
 20
2.5885980673
 30
0.0
 10
4.3337352484
 20
2.5870749817
 30
0.0
 10
4.3338290886
 20
2.5840422355
 30
0.0
 10
4.3341762915
 20
2.5802774305
 30
0.0
 10
4.3345888823
 20
2.5773109908
 30
0.0
 10
4.3350840022
 20
2.5744163706
 30
0.0
 10
4.3358517658
 20
2.5709057285
 30
0.0
 10
4.3369963331
 20
2.5668739342
 30
0.0
 10
4.3383271028
 20
2.5631068685
 30
0.0
 10
4.3397913806
 20
2.5596572814
 30
0.0
 10
4.3408724435
 20
2.5575027717
 30
0.0
 10
4.3414237324
 20
2.5564891045
 30
0.0
  0
SPLINE
  5
2E7
100
AcDbEntity
  8
ALL_FEATURES
100
AcDbSpline
 62
7
  6
CONTINUOUS
 70
0
 71
3
 72
13
 73
9
 74
0
 42
0.0000001
 43
0.0000001
 44
0.0000000001
 40
0.0
 40
0.0
 40
0.0
 40
0.0
 40
0.2166462597
 40
0.3369283623
 40
0.4630313481
 40
0.7271468123
 40
0.8629514529
 40
1.0
 40
1.0
 40
1.0
 40
1.0
 10
4.3414237191
 20
2.6207072256
 30
0.0
 10
4.3402735799
 20
2.6185923765
 30
0.0
 10
4.3387107986
 20
2.6151760213
 30
0.0
 10
4.3369966583
 20
2.6103225153
 30
0.0
 10
4.3354457949
 20
2.6048626212
 30
0.0
 10
4.3343769348
 20
2.5990979777
 30
0.0
 10
4.3338292571
 20
2.5931538492
 30
0.0
 10
4.3337352484
 20
2.5901209456
 30
0.0
 10
4.3337352484
 20
2.5885980673
 30
0.0
  0
SPLINE
  5
2E8
100
AcDbEntity
  8
ALL_FEATURES
100
AcDbSpline
 62
7
  6
CONTINUOUS
 70
0
 71
3
 72
16
 73
12
 74
0
 42
0.0000001
 43
0.0000001
 44
0.0000000001
 40
0.0
 40
0.0
 40
0.0
 40
0.0
 40
0.1370335261
 40
0.2727912139
 40
0.3399414122
 40
0.406456891
 40
0.5369692258
 40
0.6630433665
 40
0.7832964735
 40
0.8961842027
 40
1.0
 40
1.0
 40
1.0
 40
1.0
 10
4.2524852484
 20
2.5885980673
 30
0.0
 10
4.2524852484
 20
2.5901211528
 30
0.0
 10
4.2523914083
 20
2.5931538991
 30
0.0
 10
4.2520442054
 20
2.596918704
 30
0.0
 10
4.2516316146
 20
2.5998851438
 30
0.0
 10
4.2511364947
 20
2.6027797639
 30
0.0
 10
4.2503687311
 20
2.606290406
 30
0.0
 10
4.2492241638
 20
2.6103222003
 30
0.0
 10
4.2478933941
 20
2.614089266
 30
0.0
 10
4.2464291163
 20
2.6175388531
 30
0.0
 10
4.2453480534
 20
2.6196933628
 30
0.0
 10
4.2447967645
 20
2.62070703
 30
0.0
  0
SPLINE
  5
2E9
100
AcDbEntity
  8
0
100
AcDbSpline
 62
7
  6
CONTINUOUS
 70
0
 71
3
 72
15
 73
11
 74
0
 42
0.0000001
 43
0.0000001
 44
0.0000000001
 40
0.0
 40
0.0
 40
0.0
 40
0.0
 40
0.090284959
 40
0.1919001108
 40
0.3046750206
 40
0.4279059981
 40
0.560483536
 40
0.7010256193
 40
0.8480431361
 40
1.0
 40
1.0
 40
1.0
 40
1.0
 10
4.3548947446
 20
2.6546041451
 30
0.0
 10
4.3551349595
 20
2.6554998773
 30
0.0
 10
4.3555086182
 20
2.6574414172
 30
0.0
 10
4.3557595257
 20
2.6605654824
 30
0.0
 10
4.3557254151
 20
2.6640372595
 30
0.0
 10
4.3554075834
 20
2.6678126975
 30
0.0
 10
4.3548179206
 20
2.6718431083
 30
0.0
 10
4.3539774246
 20
2.6760775525
 30
0.0
 10
4.3529144186
 20
2.6804662805
 30
0.0
 10
4.3520907689
 20
2.6834253056
 30
0.0
 10
4.3516524025
 20
2.6849233444
 30
0.0
  0
SPLINE
  5
2EA
100
AcDbEntity
  8
ALL_FEATURES
100
AcDbSpline
 62
7
  6
CONTINUOUS
 70
0
 71
3
 72
10
 73
6
 74
0
 42
0.0000001
 43
0.0000001
 44
0.0000000001
 40
0.0
 40
0.0
 40
0.0
 40
0.0
 40
0.5048268402
 40
0.7539853008
 40
1.0
 40
1.0
 40
1.0
 40
1.0
 10
4.3548945179
 20
2.6546035406
 30
0.0
 10
4.353301622
 20
2.6486635973
 30
0.0
 10
4.3504109036
 20
2.6399160489
 30
0.0
 10
4.3455766619
 20
2.6287293161
 30
0.0
 10
4.3428559422
 20
2.6233402617
 30
0.0
 10
4.3414237694
 20
2.6207076501
 30
0.0
  0
SPLINE
  5
2EB
100
AcDbEntity
  8
ALL_FEATURES
100
AcDbSpline
 62
7
  6
CONTINUOUS
 70
0
 71
3
 72
9
 73
5
 74
0
 42
0.0000001
 43
0.0000001
 44
0.0000000001
 40
0.0
 40
0.0
 40
0.0
 40
0.0
 40
0.4987840431
 40
1.0
 40
1.0
 40
1.0
 40
1.0
 10
4.2300081405
 20
2.6598692322
 30
0.0
 10
4.2285901139
 20
2.6659668373
 30
0.0
 10
4.2264523045
 20
2.6783659671
 30
0.0
 10
4.2257367685
 20
2.6909270973
 30
0.0
 10
4.2257352611
 20
2.697217939
 30
0.0
  0
SPLINE
  5
2EC
100
AcDbEntity
  8
ALL_FEATURES
100
AcDbSpline
 62
7
  6
CONTINUOUS
 70
0
 71
3
 72
10
 73
6
 74
0
 42
0.0000001
 43
0.0000001
 44
0.0000000001
 40
0.0
 40
0.0
 40
0.0
 40
0.0
 40
0.2464932147
 40
0.4957230613
 40
1.0
 40
1.0
 40
1.0
 40
1.0
 10
4.2447967275
 20
2.6207076501
 30
0.0
 10
4.2436352416
 20
2.6228426867
 30
0.0
 10
4.241406002
 20
2.6271956042
 30
0.0
 10
4.2373415551
 20
2.6361820276
 30
0.0
 10
4.2347726943
 20
2.6431696578
 30
0.0
 10
4.2332771314
 20
2.6479117835
 30
0.0
  0
SPLINE
  5
2ED
100
AcDbEntity
  8
ALL_FEATURES
100
AcDbSpline
 62
7
  6
CONTINUOUS
 70
0
 71
3
 72
11
 73
7
 74
0
 42
0.0000001
 43
0.0000001
 44
0.0000000001
 40
0.0
 40
0.0
 40
0.0
 40
0.0
 40
0.2564576044
 40
0.5074707674
 40
0.7547487252
 40
1.0
 40
1.0
 40
1.0
 40
1.0
 10
4.3415775811
 20
2.7735245662
 30
0.0
 10
4.3421142333
 20
2.7725128475
 30
0.0
 10
4.3430655238
 20
2.7704494829
 30
0.0
 10
4.3441064045
 20
2.7672353797
 30
0.0
 10
4.3447346587
 20
2.7639665292
 30
0.0
 10
4.3448750836
 20
2.7617646061
 30
0.0
 10
4.3448750836
 20
2.7606694111
 30
0.0
  0
SPLINE
  5
2EE
100
AcDbEntity
  8
ALL_FEATURES
100
AcDbSpline
 62
7
  6
CONTINUOUS
 70
0
 71
3
 72
19
 73
15
 74
0
 42
0.0000001
 43
0.0000001
 44
0.0000000001
 40
0.0
 40
0.0
 40
0.0
 40
0.0
 40
0.0537601718
 40
0.1078543869
 40
0.162546426
 40
0.2181202778
 40
0.2748242615
 40
0.3328577392
 40
0.3923789069
 40
0.4535032846
 40
0.5806998776
 40
0.7146160696
 40
0.8547135616
 40
1.0
 40
1.0
 40
1.0
 40
1.0
 10
4.2413454133
 20
2.7606694111
 30
0.0
 10
4.2413454133
 20
2.7597366834
 30
0.0
 10
4.2414471086
 20
2.7578638885
 30
0.0
 10
4.2419022172
 20
2.755075531
 30
0.0
 10
4.2426580436
 20
2.7523204381
 30
0.0
 10
4.2437092576
 20
2.7496157324
 30
0.0
 10
4.2450492422
 20
2.7469769394
 30
0.0
 10
4.2466698985
 20
2.7444195698
 30
0.0
 10
4.2485613271
 20
2.7419582115
 30
0.0
 10
4.2514669441
 20
2.7387824213
 30
0.0
 10
4.255738046
 20
2.7351369255
 30
0.0
 10
4.2616507752
 20
2.7314229445
 30
0.0
 10
4.2682833842
 20
2.7283889698
 30
0.0
 10
4.2730153893
 20
2.7268867162
 30
0.0
 10
4.275457025
 20
2.7262603871
 30
0.0
  0
SPLINE
  5
2EF
100
AcDbEntity
  8
ALL_FEATURES
100
AcDbSpline
 62
7
  6
CONTINUOUS
 70
0
 71
3
 72
15
 73
11
 74
0
 42
0.0000001
 43
0.0000001
 44
0.0000000001
 40
0.0
 40
0.0
 40
0.0
 40
0.0
 40
0.1521934187
 40
0.2993884024
 40
0.4400178248
 40
0.5726499987
 40
0.6959205594
 40
0.8086984939
 40
0.9101832411
 40
1.0
 40
1.0
 40
1.0
 40
1.0
 10
4.2324202286
 20
2.7079556857
 30
0.0
 10
4.2320920305
 20
2.7092861693
 30
0.0
 10
4.2314745123
 20
2.7119105386
 30
0.0
 10
4.230676457
 20
2.715791958
 30
0.0
 10
4.2300459025
 20
2.7195258971
 30
0.0
 10
4.2296048049
 20
2.7230703412
 30
0.0
 10
4.2293691151
 20
2.7263834289
 30
0.0
 10
4.229347538
 20
2.7294251435
 30
0.0
 10
4.2295406038
 20
2.7321592601
 30
0.0
 10
4.2298250345
 20
2.733862152
 30
0.0
 10
4.2300082367
 20
2.7346498472
 30
0.0
  0
SPLINE
  5
2F0
100
AcDbEntity
  8
ALL_FEATURES
100
AcDbSpline
 62
7
  6
CONTINUOUS
 70
0
 71
3
 72
19
 73
15
 74
0
 42
0.0000001
 43
0.0000001
 44
0.0000000001
 40
0.0
 40
0.0
 40
0.0
 40
0.0
 40
0.1452864381
 40
0.2853839302
 40
0.4193001222
 40
0.5464967152
 40
0.607621093
 40
0.6671422607
 40
0.7251757385
 40
0.7818797221
 40
0.837453574
 40
0.8921456131
 40
0.9462398282
 40
1.0
 40
1.0
 40
1.0
 40
1.0
 10
4.3107634719
 20
2.7262603871
 30
0.0
 10
4.3132051076
 20
2.7268867162
 30
0.0
 10
4.3179371127
 20
2.7283889698
 30
0.0
 10
4.3245697217
 20
2.7314229445
 30
0.0
 10
4.3304824509
 20
2.7351369255
 30
0.0
 10
4.3347535528
 20
2.7387824213
 30
0.0
 10
4.3376591697
 20
2.7419582115
 30
0.0
 10
4.3395505983
 20
2.7444195698
 30
0.0
 10
4.3411712547
 20
2.7469769394
 30
0.0
 10
4.3425112393
 20
2.7496157324
 30
0.0
 10
4.3435624533
 20
2.7523204381
 30
0.0
 10
4.3443182797
 20
2.755075531
 30
0.0
 10
4.3447733883
 20
2.7578638885
 30
0.0
 10
4.3448750836
 20
2.7597366834
 30
0.0
 10
4.3448750836
 20
2.7606694111
 30
0.0
  0
SPLINE
  5
2F1
100
AcDbEntity
  8
ALL_FEATURES
100
AcDbSpline
 62
7
  6
CONTINUOUS
 70
0
 71
3
 72
29
 73
25
 74
0
 42
0.0000001
 43
0.0000001
 44
0.0000000001
 40
0.0
 40
0.0
 40
0.0
 40
0.0
 40
0.0263416427
 40
0.0533379519
 40
0.0810439809
 40
0.1094950287
 40
0.168640704
 40
0.199355595
 40
0.2307797323
 40
0.295530556
 40
0.3624256781
 40
0.4308254968
 40
0.5
 40
0.5691745032
 40
0.6375743219
 40
0.704469444
 40
0.7692202677
 40
0.800644405
 40
0.831359296
 40
0.8905049713
 40
0.9189560191
 40
0.9466620481
 40
0.9736583573
 40
1.0
 40
1.0
 40
1.0
 40
1.0
 10
4.2447967739
 20
2.8380301618
 30
0.0
 10
4.2452680322
 20
2.8371638372
 30
0.0
 10
4.246306556
 20
2.8354542633
 30
0.0
 10
4.2481105871
 20
2.833010094
 30
0.0
 10
4.2501688987
 20
2.8306693932
 30
0.0
 10
4.2532751281
 20
2.8276663106
 30
0.0
 10
4.2568110781
 20
2.824967229
 30
0.0
 10
4.2606855115
 20
2.8225948359
 30
0.0
 10
4.2648946675
 20
2.8203853099
 30
0.0
 10
4.270562004
 20
2.818070868
 30
0.0
 10
4.2777937335
 20
2.8160637224
 30
0.0
 10
4.2853660883
 20
2.814841537
 30
0.0
 10
4.2931102484
 20
2.8144311961
 30
0.0
 10
4.3008544086
 20
2.814841537
 30
0.0
 10
4.3084267634
 20
2.8160637224
 30
0.0
 10
4.3156584929
 20
2.818070868
 30
0.0
 10
4.3213258294
 20
2.8203853099
 30
0.0
 10
4.3255349854
 20
2.8225948359
 30
0.0
 10
4.3294094188
 20
2.824967229
 30
0.0
 10
4.3329453688
 20
2.8276663106
 30
0.0
 10
4.3360515982
 20
2.8306693932
 30
0.0
 10
4.3381099098
 20
2.833010094
 30
0.0
 10
4.3399139409
 20
2.8354542633
 30
0.0
 10
4.3409524647
 20
2.8371638372
 30
0.0
 10
4.341423723
 20
2.8380301618
 30
0.0
  0
SPLINE
  5
2F2
100
AcDbEntity
  8
ALL_FEATURES
100
AcDbSpline
 62
7
  6
CONTINUOUS
 70
0
 71
3
 72
27
 73
23
 74
0
 42
0.0000001
 43
0.0000001
 44
0.0000000001
 40
0.0
 40
0.0
 40
0.0
 40
0.0
 40
0.0263433479
 40
0.0533413754
 40
0.0810493965
 40
0.1095024277
 40
0.1686521556
 40
0.2307613664
 40
0.2955165439
 40
0.3624162265
 40
0.4308207471
 40
0.5
 40
0.5691792529
 40
0.6375837735
 40
0.7044834561
 40
0.7692386336
 40
0.8313478444
 40
0.8904975723
 40
0.9189506035
 40
0.9466586246
 40
0.9736566521
 40
1.0
 40
1.0
 40
1.0
 40
1.0
 10
4.2447967325
 20
2.556488483
 30
0.0
 10
4.2452679979
 20
2.5573548003
 30
0.0
 10
4.2463065711
 20
2.559064332
 30
0.0
 10
4.2481105642
 20
2.5615085351
 30
0.0
 10
4.2501688401
 20
2.5638492197
 30
0.0
 10
4.253275284
 20
2.5668524009
 30
0.0
 10
4.2577479961
 20
2.5702665131
 30
0.0
 10
4.2638296104
 20
2.5736982631
 30
0.0
 10
4.2705616431
 20
2.5764476611
 30
0.0
 10
4.2777938156
 20
2.5784549647
 30
0.0
 10
4.2853660571
 20
2.5796770994
 30
0.0
 10
4.2931102484
 20
2.5800874503
 30
0.0
 10
4.3008544398
 20
2.5796770994
 30
0.0
 10
4.3084266813
 20
2.5784549647
 30
0.0
 10
4.3156588538
 20
2.5764476611
 30
0.0
 10
4.3223908865
 20
2.5736982631
 30
0.0
 10
4.3284725008
 20
2.5702665131
 30
0.0
 10
4.3329452129
 20
2.5668524009
 30
0.0
 10
4.3360516567
 20
2.5638492197
 30
0.0
 10
4.3381099327
 20
2.5615085351
 30
0.0
 10
4.3399139258
 20
2.559064332
 30
0.0
 10
4.340952499
 20
2.5573548003
 30
0.0
 10
4.3414237644
 20
2.556488483
 30
0.0
  0
SPLINE
  5
2F3
100
AcDbEntity
  8
ALL_FEATURES
100
AcDbSpline
 62
7
  6
CONTINUOUS
 70
0
 71
3
 72
11
 73
7
 74
0
 42
0.0000001
 43
0.0000001
 44
0.0000000001
 40
0.0
 40
0.0
 40
0.0
 40
0.0
 40
0.2567368093
 40
0.5077996242
 40
0.7549396873
 40
1.0
 40
1.0
 40
1.0
 40
1.0
 10
4.3414250419
 20
2.6207099894
 30
0.0
 10
4.341985989
 20
2.6217413415
 30
0.0
 10
4.3429806496
 20
2.6238466319
 30
0.0
 10
4.3440701729
 20
2.6271314896
 30
0.0
 10
4.3447281001
 20
2.63047514
 30
0.0
 10
4.3448750836
 20
2.6327285868
 30
0.0
 10
4.3448750836
 20
2.6338492225
 30
0.0
  0
SPLINE
  5
2F4
100
AcDbEntity
  8
0
100
AcDbSpline
 62
7
  6
CONTINUOUS
 70
0
 71
3
 72
16
 73
12
 74
0
 42
0.0000001
 43
0.0000001
 44
0.0000000001
 40
0.0
 40
0.0
 40
0.0
 40
0.0
 40
0.167129135
 40
0.3212630291
 40
0.4627723777
 40
0.592230999
 40
0.7101965898
 40
0.8171645991
 40
0.8666773126
 40
0.9136195941
 40
1.0
 40
1.0
 40
1.0
 40
1.0
 10
4.3107634719
 20
2.6682582464
 30
0.0
 10
4.3131881019
 20
2.6687522498
 30
0.0
 10
4.3178157376
 20
2.6698702826
 30
0.0
 10
4.3243718378
 20
2.6718706589
 30
0.0
 10
4.330297427
 20
2.6739985542
 30
0.0
 10
4.3356295879
 20
2.6761772172
 30
0.0
 10
4.3404005319
 20
2.6783646432
 30
0.0
 10
4.344017216
 20
2.6802203641
 30
0.0
 10
4.3466420447
 20
2.6816980167
 30
0.0
 10
4.3489639699
 20
2.6830898431
 30
0.0
 10
4.350613008
 20
2.6841782091
 30
0.0
 10
4.3516524229
 20
2.6849233481
 30
0.0
  0
SPLINE
  5
2F5
100
AcDbEntity
  8
ALL_FEATURES
100
AcDbSpline
 62
7
  6
CONTINUOUS
 70
0
 71
3
 72
15
 73
11
 74
0
 42
0.0000001
 43
0.0000001
 44
0.0000000001
 40
0.0
 40
0.0
 40
0.0
 40
0.0
 40
0.1211783746
 40
0.2456335572
 40
0.3722606957
 40
0.5000000207
 40
0.6277393429
 40
0.7543664731
 40
0.8788216425
 40
1.0
 40
1.0
 40
1.0
 40
1.0
 10
4.3107634638
 20
2.6682582367
 30
0.0
 10
4.310424046
 20
2.6705841011
 30
0.0
 10
4.3098310233
 20
2.6753130194
 30
0.0
 10
4.3091993891
 20
2.6825075887
 30
0.0
 10
4.3088179733
 20
2.689847233
 30
0.0
 10
4.3086903371
 20
2.6972593151
 30
0.0
 10
4.308817975
 20
2.704671397
 30
0.0
 10
4.3091993922
 20
2.7120110408
 30
0.0
 10
4.3098310276
 20
2.7192056092
 30
0.0
 10
4.3104240507
 20
2.7239345269
 30
0.0
 10
4.3107634687
 20
2.7262603909
 30
0.0
  0
SPLINE
  5
2F6
100
AcDbEntity
  8
0
100
AcDbSpline
 62
7
  6
CONTINUOUS
 70
0
 71
3
 72
16
 73
12
 74
0
 42
0.0000001
 43
0.0000001
 44
0.0000000001
 40
0.0
 40
0.0
 40
0.0
 40
0.0
 40
0.1671217233
 40
0.2458065011
 40
0.3212677132
 40
0.4627764794
 40
0.5922351681
 40
0.7102024712
 40
0.8171728329
 40
0.913616087
 40
1.0
 40
1.0
 40
1.0
 40
1.0
 10
4.3107634719
 20
2.7262603871
 30
0.0
 10
4.3131879155
 20
2.7257659564
 30
0.0
 10
4.3167292058
 20
2.7249115737
 30
0.0
 10
4.3212975095
 20
2.7235854206
 30
0.0
 10
4.3254679965
 20
2.7222541071
 30
0.0
 10
4.3302973002
 20
2.7205205562
 30
0.0
 10
4.3356295597
 20
2.7183421217
 30
0.0
 10
4.3404004974
 20
2.7161543159
 30
0.0
 10
4.3446352335
 20
2.7139806324
 30
0.0
 10
4.3483516085
 20
2.7118326191
 30
0.0
 10
4.3506130129
 20
2.7103405575
 30
0.0
 10
4.3516524326
 20
2.7095953251
 30
0.0
  0
SPLINE
  5
2F7
100
AcDbEntity
  8
ALL_FEATURES
100
AcDbSpline
 62
7
  6
CONTINUOUS
 70
0
 71
3
 72
23
 73
19
 74
0
 42
0.0000001
 43
0.0000001
 44
0.0000000001
 40
0.0
 40
0.0
 40
0.0
 40
0.0
 40
0.1180846002
 40
0.2400536439
 40
0.3030380042
 40
0.3675115776
 40
0.4002791654
 40
0.433343641
 40
0.4666143633
 40
0.4999988748
 40
0.533382775
 40
0.5666525969
 40
0.5997149099
 40
0.6324807003
 40
0.69695365
 40
0.7599414292
 40
0.8819145585
 40
1.0
 40
1.0
 40
1.0
 40
1.0
 10
4.275457025
 20
2.6682582464
 30
0.0
 10
4.2767070626
 20
2.6674300775
 30
0.0
 10
4.2793043077
 20
2.665828806
 30
0.0
 10
4.2827651234
 20
2.6641236058
 30
0.0
 10
4.2857404644
 20
2.6630290942
 30
0.0
 10
4.2877060887
 20
2.6624913043
 30
0.0
 10
4.2893306494
 20
2.6621737321
 30
0.0
 10
4.2905773674
 20
2.6619977868
 30
0.0
 10
4.2918396788
 20
2.6618895542
 30
0.0
 10
4.2931101977
 20
2.6618535361
 30
0.0
 10
4.2943807043
 20
2.6618895673
 30
0.0
 10
4.2956429707
 20
2.6619977587
 30
0.0
 10
4.2968896407
 20
2.6621736147
 30
0.0
 10
4.29851413
 20
2.6624912468
 30
0.0
 10
4.3004797954
 20
2.6630289393
 30
0.0
 10
4.3034551343
 20
2.6641237133
 30
0.0
 10
4.3069161614
 20
2.6658286891
 30
0.0
 10
4.3095134441
 20
2.6674300433
 30
0.0
 10
4.3107634719
 20
2.6682582464
 30
0.0
  0
SPLINE
  5
2F8
100
AcDbEntity
  8
ALL_FEATURES
100
AcDbSpline
 62
7
  6
CONTINUOUS
 70
0
 71
3
 72
15
 73
11
 74
0
 42
0.0000001
 43
0.0000001
 44
0.0000000001
 40
0.0
 40
0.0
 40
0.0
 40
0.0
 40
0.1211783787
 40
0.2456335547
 40
0.3722606808
 40
0.4999999927
 40
0.6277393057
 40
0.7543664351
 40
0.8788216157
 40
1.0
 40
1.0
 40
1.0
 40
1.0
 10
4.2754570233
 20
2.6682582485
 30
0.0
 10
4.2757964414
 20
2.6705841123
 30
0.0
 10
4.2763894647
 20
2.6753130293
 30
0.0
 10
4.2770211
 20
2.6825075962
 30
0.0
 10
4.2774025168
 20
2.6898472379
 30
0.0
 10
4.2775301541
 20
2.6972593174
 30
0.0
 10
4.2774025171
 20
2.7046713969
 30
0.0
 10
4.2770211007
 20
2.7120110388
 30
0.0
 10
4.2763894659
 20
2.719205606
 30
0.0
 10
4.275796443
 20
2.7239345232
 30
0.0
 10
4.275457025
 20
2.7262603872
 30
0.0
  0
SPLINE
  5
2F9
100
AcDbEntity
  8
ALL_FEATURES
100
AcDbSpline
 62
7
  6
CONTINUOUS
 70
0
 71
3
 72
24
 73
20
 74
0
 42
0.0000001
 43
0.0000001
 44
0.0000000001
 40
0.0
 40
0.0
 40
0.0
 40
0.0
 40
0.1180779401
 40
0.2400378403
 40
0.303018902
 40
0.3674903624
 40
0.400256993
 40
0.4333202324
 40
0.466589544
 40
0.4999724094
 40
0.5333545762
 40
0.5666228617
 40
0.5996839149
 40
0.6324487332
 40
0.696919733
 40
0.7599047981
 40
0.8215032994
 40
0.8819212537
 40
1.0
 40
1.0
 40
1.0
 40
1.0
 10
4.275457025
 20
2.7262603871
 30
0.0
 10
4.2767077025
 20
2.727087627
 30
0.0
 10
4.2793039301
 20
2.7286904164
 30
0.0
 10
4.2827646489
 20
2.7303960903
 30
0.0
 10
4.2857400119
 20
2.7314906539
 30
0.0
 10
4.2877058053
 20
2.7320281068
 30
0.0
 10
4.2893304975
 20
2.7323453234
 30
0.0
 10
4.2905772954
 20
2.7325210032
 30
0.0
 10
4.2918396548
 20
2.7326290494
 30
0.0
 10
4.2931102004
 20
2.7326650317
 30
0.0
 10
4.2943807342
 20
2.7326290722
 30
0.0
 10
4.2956430432
 20
2.7325210227
 30
0.0
 10
4.2968897806
 20
2.732345365
 30
0.0
 10
4.2985143974
 20
2.7320280518
 30
0.0
 10
4.3004802405
 20
2.7314907859
 30
0.0
 10
4.302735629
 20
2.7306610339
 30
0.0
 10
4.304879059
 20
2.7296949831
 30
0.0
 10
4.3075812053
 20
2.728279841
 30
0.0
 10
4.3095127816
 20
2.7270876262
 30
0.0
 10
4.3107634719
 20
2.7262603871
 30
0.0
  0
SPLINE
  5
2FA
100
AcDbEntity
  8
ALL_FEATURES
100
AcDbSpline
 62
7
  6
CONTINUOUS
 70
0
 71
3
 72
13
 73
9
 74
0
 42
0.0000001
 43
0.0000001
 44
0.0000000001
 40
0.0
 40
0.0
 40
0.0
 40
0.0
 40
0.2481009604
 40
0.3738063388
 40
0.4999987644
 40
0.6261908291
 40
0.7518964707
 40
1.0
 40
1.0
 40
1.0
 40
1.0
 10
4.232420233
 20
2.686562968
 30
0.0
 10
4.2328480581
 20
2.6882973295
 30
0.0
 10
4.2333454568
 20
2.6909506913
 30
0.0
 10
4.2336839994
 20
2.6945364715
 30
0.0
 10
4.2337697592
 20
2.6972592979
 30
0.0
 10
4.2336839991
 20
2.699982126
 30
0.0
 10
4.2333454671
 20
2.7035679252
 30
0.0
 10
4.2328480581
 20
2.7062213062
 30
0.0
 10
4.2324202286
 20
2.7079556857
 30
0.0
  0
SPLINE
  5
2FB
100
AcDbEntity
  8
ALL_FEATURES
100
AcDbSpline
 62
7
  6
CONTINUOUS
 70
0
 71
3
 72
15
 73
11
 74
0
 42
0.0000001
 43
0.0000001
 44
0.0000000001
 40
0.0
 40
0.0
 40
0.0
 40
0.0
 40
0.1016870635
 40
0.2059765814
 40
0.3153223633
 40
0.4318376515
 40
0.5572753658
 40
0.6930631563
 40
0.8403436532
 40
1.0
 40
1.0
 40
1.0
 40
1.0
 10
4.2257353978
 20
2.6972128446
 30
0.0
 10
4.2257380216
 20
2.6967729639
 30
0.0
 10
4.2258139712
 20
2.6958808606
 30
0.0
 10
4.2261382988
 20
2.694550983
 30
0.0
 10
4.2266720808
 20
2.6932215469
 30
0.0
 10
4.2274136326
 20
2.691891072
 30
0.0
 10
4.228361937
 20
2.6905569076
 30
0.0
 10
4.2295172207
 20
2.6892167998
 30
0.0
 10
4.2308799115
 20
2.6878687293
 30
0.0
 10
4.231885381
 20
2.6870000103
 30
0.0
 10
4.2324202562
 20
2.6865630697
 30
0.0
  0
SPLINE
  5
2FC
100
AcDbEntity
  8
ALL_FEATURES
100
AcDbSpline
 62
7
  6
CONTINUOUS
 70
0
 71
3
 72
15
 73
11
 74
0
 42
0.0000001
 43
0.0000001
 44
0.0000000001
 40
0.0
 40
0.0
 40
0.0
 40
0.0
 40
0.1016650216
 40
0.2059105383
 40
0.3152490084
 40
0.4317760819
 40
0.5572205939
 40
0.6930172755
 40
0.8403177669
 40
1.0
 40
1.0
 40
1.0
 40
1.0
 10
4.2257353641
 20
2.6973011441
 30
0.0
 10
4.2257376736
 20
2.697741089
 30
0.0
 10
4.2258130469
 20
2.6986332908
 30
0.0
 10
4.2261369533
 20
2.6999634585
 30
0.0
 10
4.2266703709
 20
2.7012934052
 30
0.0
 10
4.2274117261
 20
2.7026246797
 30
0.0
 10
4.2283601959
 20
2.7039596056
 30
0.0
 10
4.2295158768
 20
2.7053004152
 30
0.0
 10
4.2308791013
 20
2.7066492631
 30
0.0
 10
4.2318850727
 20
2.7075184416
 30
0.0
 10
4.2324202527
 20
2.7079555781
 30
0.0
  0
SPLINE
  5
2FD
100
AcDbEntity
  8
ALL_FEATURES
100
AcDbSpline
 62
7
  6
CONTINUOUS
 70
0
 71
3
 72
15
 73
11
 74
0
 42
0.0000001
 43
0.0000001
 44
0.0000000001
 40
0.0
 40
0.0
 40
0.0
 40
0.0
 40
0.0918554383
 40
0.1924705053
 40
0.3021617187
 40
0.4212910481
 40
0.55024223
 40
0.6894397022
 40
0.8392894956
 40
1.0
 40
1.0
 40
1.0
 40
1.0
 10
4.2378380378
 20
2.6827522139
 30
0.0
 10
4.2388924098
 20
2.6820999617
 30
0.0
 10
4.2411387495
 20
2.6807926648
 30
0.0
 10
4.2447521757
 20
2.6788991588
 30
0.0
 10
4.2487705411
 20
2.6769928114
 30
0.0
 10
4.2532080864
 20
2.6750855296
 30
0.0
 10
4.25808445
 20
2.6731992773
 30
0.0
 10
4.263423303
 20
2.6713700135
 30
0.0
 10
4.2692498445
 20
2.6696585923
 30
0.0
 10
4.2733315191
 20
2.6686913244
 30
0.0
 10
4.275457025
 20
2.6682582464
 30
0.0
  0
SPLINE
  5
2FE
100
AcDbEntity
  8
ALL_FEATURES
100
AcDbSpline
 62
7
  6
CONTINUOUS
 70
0
 71
3
 72
15
 73
11
 74
0
 42
0.0000001
 43
0.0000001
 44
0.0000000001
 40
0.0
 40
0.0
 40
0.0
 40
0.0
 40
0.0918479383
 40
0.1924666619
 40
0.302156526
 40
0.4212823823
 40
0.5502347135
 40
0.6894281531
 40
0.8392829617
 40
1.0
 40
1.0
 40
1.0
 40
1.0
 10
4.2378380634
 20
2.7117663498
 30
0.0
 10
4.2388924116
 20
2.7124184522
 30
0.0
 10
4.24113869
 20
2.7137257494
 30
0.0
 10
4.2447520176
 20
2.7156193132
 30
0.0
 10
4.248770338
 20
2.7175257312
 30
0.0
 10
4.2532076994
 20
2.7194333323
 30
0.0
 10
4.2580839627
 20
2.7213196573
 30
0.0
 10
4.2634229059
 20
2.7231487324
 30
0.0
 10
4.2692494091
 20
2.724860789
 30
0.0
 10
4.2733315099
 20
2.7258268938
 30
0.0
 10
4.275457025
 20
2.7262603871
 30
0.0
  0
SPLINE
  5
2FF
100
AcDbEntity
  8
ALL_FEATURES
100
AcDbSpline
 62
7
  6
CONTINUOUS
 70
0
 71
3
 72
13
 73
9
 74
0
 42
0.0000001
 43
0.0000001
 44
0.0000000001
 40
0.0
 40
0.0
 40
0.0
 40
0.0
 40
0.1059916988
 40
0.2185771668
 40
0.3372147752
 40
0.4613504753
 40
0.7235538192
 40
1.0
 40
1.0
 40
1.0
 40
1.0
 10
4.2293663103
 20
2.6663233951
 30
0.0
 10
4.2293663103
 20
2.6670481886
 30
0.0
 10
4.2294047527
 20
2.6685430225
 30
0.0
 10
4.2295639087
 20
2.6708440499
 30
0.0
 10
4.2298236404
 20
2.673260682
 30
0.0
 10
4.2303068417
 20
2.67668037
 30
0.0
 10
4.2311380087
 20
2.6811379783
 30
0.0
 10
4.2319674889
 20
2.684727587
 30
0.0
 10
4.232420233
 20
2.686562968
 30
0.0
  0
SPLINE
  5
300
100
AcDbEntity
  8
ALL_FEATURES
100
AcDbSpline
 62
7
  6
CONTINUOUS
 70
0
 71
3
 72
11
 73
7
 74
0
 42
0.0000001
 43
0.0000001
 44
0.0000000001
 40
0.0
 40
0.0
 40
0.0
 40
0.0
 40
0.2228134157
 40
0.4638645483
 40
0.7231029025
 40
1.0
 40
1.0
 40
1.0
 40
1.0
 10
4.2300082103
 20
2.6598687853
 30
0.0
 10
4.2298988446
 20
2.6603389484
 30
0.0
 10
4.2297083746
 20
2.6613266337
 30
0.0
 10
4.2295100839
 20
2.6628814731
 30
0.0
 10
4.2293910955
 20
2.664561777
 30
0.0
 10
4.2293663103
 20
2.6657235098
 30
0.0
 10
4.2293663103
 20
2.6663233951
 30
0.0
  0
SPLINE
  5
301
100
AcDbEntity
  8
ALL_FEATURES
100
AcDbSpline
 62
7
  6
CONTINUOUS
 70
0
 71
3
 72
20
 73
16
 74
0
 42
0.0000001
 43
0.0000001
 44
0.0000000001
 40
0.0
 40
0.0
 40
0.0
 40
0.0
 40
0.0537588922
 40
0.1078445133
 40
0.162529568
 40
0.2180999325
 40
0.2747986276
 40
0.3328261803
 40
0.3923419403
 40
0.4534602224
 40
0.516250811
 40
0.5807395491
 40
0.7146428025
 40
0.8547270021
 40
1.0
 40
1.0
 40
1.0
 40
1.0
 10
4.2413454133
 20
2.6338492225
 30
0.0
 10
4.2413454133
 20
2.6347820162
 30
0.0
 10
4.2414470402
 20
2.6366548234
 30
0.0
 10
4.2419022615
 20
2.6394431376
 30
0.0
 10
4.2426580238
 20
2.6421981808
 30
0.0
 10
4.243709259
 20
2.6449028829
 30
0.0
 10
4.2450492169
 20
2.6475417073
 30
0.0
 10
4.2466698889
 20
2.6500990992
 30
0.0
 10
4.2485613127
 20
2.6525603202
 30
0.0
 10
4.2507120995
 20
2.6549112674
 30
0.0
 10
4.253109772
 20
2.6571384285
 30
0.0
 10
4.2566603402
 20
2.6599607028
 30
0.0
 10
4.2616513986
 20
2.6630962024
 30
0.0
 10
4.2682831854
 20
2.6661294967
 30
0.0
 10
4.2730153841
 20
2.667631916
 30
0.0
 10
4.275457025
 20
2.6682582464
 30
0.0
  0
SPLINE
  5
302
100
AcDbEntity
  8
ALL_FEATURES
100
AcDbSpline
 62
7
  6
CONTINUOUS
 70
0
 71
3
 72
11
 73
7
 74
0
 42
0.0000001
 43
0.0000001
 44
0.0000000001
 40
0.0
 40
0.0
 40
0.0
 40
0.0
 40
0.2450611176
 40
0.4922016527
 40
0.7432642744
 40
1.0
 40
1.0
 40
1.0
 40
1.0
 10
4.2413454133
 20
2.6338492225
 30
0.0
 10
4.2413454133
 20
2.6327286858
 30
0.0
 10
4.2414923706
 20
2.6304754399
 30
0.0
 10
4.2421501812
 20
2.627132081
 30
0.0
 10
4.2432395129
 20
2.6238474988
 30
0.0
 10
4.2442340023
 20
2.6217423708
 30
0.0
 10
4.2447948538
 20
2.6207110947
 30
0.0
  0
SPLINE
  5
303
100
AcDbEntity
  8
ALL_FEATURES
100
AcDbSpline
 62
7
  6
CONTINUOUS
 70
0
 71
3
 72
20
 73
16
 74
0
 42
0.0000001
 43
0.0000001
 44
0.0000000001
 40
0.0
 40
0.0
 40
0.0
 40
0.0
 40
0.145272998
 40
0.2853571976
 40
0.419260451
 40
0.4837491891
 40
0.5465397777
 40
0.6076580598
 40
0.6671738198
 40
0.7252013724
 40
0.7819000676
 40
0.8374704321
 40
0.8921554867
 40
0.9462411078
 40
1.0
 40
1.0
 40
1.0
 40
1.0
 10
4.3107634719
 20
2.6682582464
 30
0.0
 10
4.3132051128
 20
2.667631916
 30
0.0
 10
4.3179373115
 20
2.6661294967
 30
0.0
 10
4.3245690983
 20
2.6630962024
 30
0.0
 10
4.3295601567
 20
2.6599607028
 30
0.0
 10
4.3331107249
 20
2.6571384285
 30
0.0
 10
4.3355083974
 20
2.6549112674
 30
0.0
 10
4.3376591842
 20
2.6525603202
 30
0.0
 10
4.339550608
 20
2.6500990992
 30
0.0
 10
4.34117128
 20
2.6475417073
 30
0.0
 10
4.3425112379
 20
2.6449028829
 30
0.0
 10
4.343562473
 20
2.6421981808
 30
0.0
 10
4.3443182354
 20
2.6394431376
 30
0.0
 10
4.3447734567
 20
2.6366548234
 30
0.0
 10
4.3448750836
 20
2.6347820162
 30
0.0
 10
4.3448750836
 20
2.6338492225
 30
0.0
  0
SPLINE
  5
304
100
AcDbEntity
  8
ALL_FEATURES
100
AcDbSpline
 62
7
  6
CONTINUOUS
 70
0
 71
3
 72
11
 73
7
 74
0
 42
0.0000001
 43
0.0000001
 44
0.0000000001
 40
0.0
 40
0.0
 40
0.0
 40
0.0
 40
0.2452505277
 40
0.4925280446
 40
0.7435413808
 40
1.0
 40
1.0
 40
1.0
 40
1.0
 10
4.2413454133
 20
2.7606694111
 30
0.0
 10
4.2413454133
 20
2.7617646998
 30
0.0
 10
4.2414858624
 20
2.763966813
 30
0.0
 10
4.2421142244
 20
2.7672359397
 30
0.0
 10
4.2431552825
 20
2.7704503047
 30
0.0
 10
4.2441067318
 20
2.7725138244
 30
0.0
 10
4.2446434727
 20
2.773525616
 30
0.0
  0
SPLINE
  5
305
100
AcDbEntity
  8
ALL_FEATURES
100
AcDbSpline
 62
7
  6
CONTINUOUS
 70
0
 71
3
 72
39
 73
35
 74
0
 42
0.0000001
 43
0.0000001
 44
0.0000000001
 40
0.0
 40
0.0
 40
0.0
 40
0.0
 40
0.002001165
 40
0.0050646022
 40
0.0092134254
 40
0.0144489706
 40
0.0207626236
 40
0.0281433157
 40
0.0460491876
 40
0.068010329
 40
0.0938387203
 40
0.1233007964
 40
0.1561383799
 40
0.1920541449
 40
0.2307304481
 40
0.3149513811
 40
0.4057906549
 40
0.4999996662
 40
0.5942087381
 40
0.6850481811
 40
0.7692693551
 40
0.8079442097
 40
0.8438616803
 40
0.876697304
 40
0.9061615454
 40
0.9319876225
 40
0.9539511624
 40
0.9718546336
 40
0.9792370559
 40
0.9855512963
 40
0.9907849178
 40
0.9949334954
 40
0.9979987826
 40
1.0
 40
1.0
 40
1.0
 40
1.0
 10
4.5437046011
 20
2.8277872696
 30
0.0
 10
4.5437772487
 20
2.8278292497
 30
0.0
 10
4.5439800052
 20
2.8278994837
 30
0.0
 10
4.5443549729
 20
2.8279896115
 30
0.0
 10
4.5448695064
 20
2.828080581
 30
0.0
 10
4.5455210896
 20
2.8281729486
 30
0.0
 10
4.5463094448
 20
2.8282657868
 30
0.0
 10
4.547627698
 20
2.8283988195
 30
0.0
 10
4.5496023033
 20
2.8285598906
 30
0.0
 10
4.5523505942
 20
2.828744837
 30
0.0
 10
4.555584315
 20
2.8289305114
 30
0.0
 10
4.559274656
 20
2.8291169246
 30
0.0
 10
4.5633884053
 20
2.8293036723
 30
0.0
 10
4.5678888318
 20
2.8294907524
 30
0.0
 10
4.5745425816
 20
2.829747753
 30
0.0
 10
4.583498581
 20
2.8300632616
 30
0.0
 10
4.5947824321
 20
2.8304330906
 30
0.0
 10
4.6064852661
 20
2.8308033515
 30
0.0
 10
4.6181881073
 20
2.8311736106
 30
0.0
 10
4.6294719779
 20
2.8315434446
 30
0.0
 10
4.6384279344
 20
2.8318589366
 30
0.0
 10
4.6450817041
 20
2.8321159632
 30
0.0
 10
4.6495820605
 20
2.8323030123
 30
0.0
 10
4.653695888
 20
2.8324898004
 30
0.0
 10
4.6573861433
 20
2.8326761629
 30
0.0
 10
4.6606199546
 20
2.8328619004
 30
0.0
 10
4.6633681537
 20
2.83304677
 30
0.0
 10
4.6653428253
 20
2.8332079188
 30
0.0
 10
4.6666610783
 20
2.8333409121
 30
0.0
 10
4.6674494538
 20
2.8334337273
 30
0.0
 10
4.6681009633
 20
2.8335261336
 30
0.0
 10
4.6686154829
 20
2.8336171261
 30
0.0
 10
4.6689905179
 20
2.8337072137
 30
0.0
 10
4.66919339
 20
2.8337774112
 30
0.0
 10
4.6692660157
 20
2.8338194336
 30
0.0
  0
SPLINE
  5
306
100
AcDbEntity
  8
ALL_FEATURES
100
AcDbSpline
 62
7
  6
CONTINUOUS
 70
0
 71
3
 72
26
 73
22
 74
0
 42
0.0000001
 43
0.0000001
 44
0.0000000001
 40
0.0
 40
0.0
 40
0.0
 40
0.0
 40
0.0022843762
 40
0.0039374895
 40
0.0060258577
 40
0.0116164863
 40
0.0191778698
 40
0.0287495964
 40
0.0403480344
 40
0.0539757058
 40
0.0696261023
 40
0.1069560552
 40
0.1522492674
 40
0.2053722775
 40
0.2661504944
 40
0.3344013352
 40
0.4099024273
 40
0.4924069387
 40
0.5816587871
 40
0.7792076335
 40
1.0
 40
1.0
 40
1.0
 40
1.0
 10
4.4781761272
 20
2.7995093168
 30
0.0
 10
4.4782064898
 20
2.7995093168
 30
0.0
 10
4.4782556155
 20
2.7994758661
 30
0.0
 10
4.4783019753
 20
2.7994119334
 30
0.0
 10
4.4783616891
 20
2.799302252
 30
0.0
 10
4.4784307362
 20
2.7991113921
 30
0.0
 10
4.4785098202
 20
2.7988197006
 30
0.0
 10
4.4785891317
 20
2.7984460079
 30
0.0
 10
4.4786691001
 20
2.7979904019
 30
0.0
 10
4.4787492937
 20
2.7974530005
 30
0.0
 10
4.4788633173
 20
2.796575022
 30
0.0
 10
4.4790022571
 20
2.7952760965
 30
0.0
 10
4.4791618934
 20
2.7934788667
 30
0.0
 10
4.4793220971
 20
2.7913689759
 30
0.0
 10
4.4794828189
 20
2.788953236
 30
0.0
 10
4.4796437937
 20
2.7862394953
 30
0.0
 10
4.4798049832
 20
2.7832365409
 30
0.0
 10
4.4799663519
 20
2.7799540979
 30
0.0
 10
4.4801892474
 20
2.7750505689
 30
0.0
 10
4.4804642853
 20
2.7683095209
 30
0.0
 10
4.4806677291
 20
2.762752892
 30
0.0
 10
4.4807708558
 20
2.7598200646
 30
0.0
  0
SPLINE
  5
307
100
AcDbEntity
  8
ALL_FEATURES
100
AcDbSpline
 62
7
  6
CONTINUOUS
 70
0
 71
3
 72
29
 73
25
 74
0
 42
0.0000001
 43
0.0000001
 44
0.0000000001
 40
0.0
 40
0.0
 40
0.0
 40
0.0
 40
0.1461856749
 40
0.3095950705
 40
0.3940183025
 40
0.4781759925
 40
0.5605061247
 40
0.639483128
 40
0.7136441573
 40
0.7816142781
 40
0.8421346651
 40
0.869246047
 40
0.8940870607
 40
0.9165437356
 40
0.9365133968
 40
0.9539028652
 40
0.9686363968
 40
0.9806455628
 40
0.9856138715
 40
0.9898853808
 40
0.9934566827
 40
0.9963271598
 40
0.9985025228
 40
1.0
 40
1.0
 40
1.0
 40
1.0
 10
4.4807708558
 20
2.7598200646
 30
0.0
 10
4.4810531676
 20
2.7517913779
 30
0.0
 10
4.4815873143
 20
2.7347858421
 30
0.0
 10
4.4822019111
 20
2.7131412584
 30
0.0
 10
4.4827085149
 20
2.6949037301
 30
0.0
 10
4.4830925514
 20
2.6811202368
 30
0.0
 10
4.4834764378
 20
2.667636154
 30
0.0
 10
4.4838600111
 20
2.654701659
 30
0.0
 10
4.4842430325
 20
2.6425566645
 30
0.0
 10
4.4846252846
 20
2.6314264742
 30
0.0
 10
4.4849535275
 20
2.6228816149
 30
0.0
 10
4.485220403
 20
2.6167064136
 30
0.0
 10
4.4854129562
 20
2.6126217789
 30
0.0
 10
4.4856052168
 20
2.608930078
 30
0.0
 10
4.4857970805
 20
2.6056484729
 30
0.0
 10
4.485988338
 20
2.6027920562
 30
0.0
 10
4.48617875
 20
2.6003742056
 30
0.0
 10
4.4863447357
 20
2.5986392636
 30
0.0
 10
4.4864814609
 20
2.5974795201
 30
0.0
 10
4.4865770866
 20
2.5967819179
 30
0.0
 10
4.4866722646
 20
2.5962009159
 30
0.0
 10
4.4867664943
 20
2.595736401
 30
0.0
 10
4.4868597025
 20
2.5953893626
 30
0.0
 10
4.486932216
 20
2.5951992646
 30
0.0
 10
4.4869733609
 20
2.5951279946
 30
0.0
  0
SPLINE
  5
308
100
AcDbEntity
  8
ALL_FEATURES
100
AcDbSpline
 62
7
  6
CONTINUOUS
 70
0
 71
3
 72
47
 73
43
 74
0
 42
0.0000001
 43
0.0000001
 44
0.0000000001
 40
0.0
 40
0.0
 40
0.0
 40
0.0
 40
0.0008979098
 40
0.0017026081
 40
0.0027774124
 40
0.0041301599
 40
0.0057643685
 40
0.0098826581
 40
0.0151336661
 40
0.0215077745
 40
0.0289929569
 40
0.0375753516
 40
0.0579476318
 40
0.0824392941
 40
0.1108238653
 40
0.1428411118
 40
0.1781906586
 40
0.2165465172
 40
0.257547799
 40
0.300814519
 40
0.3459411075
 40
0.3925082879
 40
0.4882182862
 40
0.5843850416
 40
0.6774281506
 40
0.721689183
 40
0.7638886381
 40
0.8036321141
 40
0.8405489295
 40
0.8742954861
 40
0.9045564266
 40
0.9310534954
 40
0.9535389899
 40
0.9632132322
 40
0.9718109022
 40
0.9793116995
 40
0.9857016912
 40
0.9909687508
 40
0.9951031285
 40
0.9981052752
 40
0.9991878568
 40
1.0
 40
1.0
 40
1.0
 40
1.0
 10
4.6767977484
 20
2.8296343095
 30
0.0
 10
4.6767977484
 20
2.8295921703
 30
0.0
 10
4.6767167911
 20
2.8295335048
 30
0.0
 10
4.6766035578
 20
2.8294844579
 30
0.0
 10
4.6764568178
 20
2.8294363604
 30
0.0
 10
4.6762728985
 20
2.829389688
 30
0.0
 10
4.6759461145
 20
2.8293208382
 30
0.0
 10
4.6754363662
 20
2.8292386017
 30
0.0
 10
4.6747033778
 20
2.8291444706
 30
0.0
 10
4.6738115035
 20
2.8290499238
 30
0.0
 10
4.6727625673
 20
2.8289548733
 30
0.0
 10
4.6710577337
 20
2.8288200454
 30
0.0
 10
4.6685547696
 20
2.8286557682
 30
0.0
 10
4.6651223646
 20
2.8284667611
 30
0.0
 10
4.6611427786
 20
2.828277041
 30
0.0
 10
4.6566531545
 20
2.8280867766
 30
0.0
 10
4.6516952125
 20
2.8278961414
 30
0.0
 10
4.6463153718
 20
2.8277052866
 30
0.0
 10
4.6405637656
 20
2.8275142375
 30
0.0
 10
4.6344942458
 20
2.8273230861
 30
0.0
 10
4.6281633965
 20
2.8271318341
 30
0.0
 10
4.6193722484
 20
2.8268744223
 30
0.0
 10
4.6081864999
 20
2.8265571699
 30
0.0
 10
4.5948204542
 20
2.826179735
 30
0.0
 10
4.5838682394
 20
2.8258605591
 30
0.0
 10
4.5754480701
 20
2.8256012923
 30
0.0
 10
4.5695283614
 20
2.8254101847
 30
0.0
 10
4.5639535029
 20
2.8252192239
 30
0.0
 10
4.5587755814
 20
2.8250284644
 30
0.0
 10
4.5540429931
 20
2.8248380001
 30
0.0
 10
4.5497998181
 20
2.8246479721
 30
0.0
 10
4.5460856985
 20
2.8244585464
 30
0.0
 10
4.5433377485
 20
2.8242944244
 30
0.0
 10
4.5414296768
 20
2.8241603419
 30
0.0
 10
4.5402238983
 20
2.8240650684
 30
0.0
 10
4.5391727518
 20
2.8239700684
 30
0.0
 10
4.5382786516
 20
2.8238753926
 30
0.0
 10
4.5375433465
 20
2.8237815801
 30
0.0
 10
4.536968807
 20
2.8236883577
 30
0.0
 10
4.5365911025
 20
2.8236066461
 30
0.0
 10
4.5363721945
 20
2.8235364422
 30
0.0
 10
4.5362902748
 20
2.8235007758
 30
0.0
 10
4.5362572624
 20
2.8234817268
 30
0.0
  0
SPLINE
  5
309
100
AcDbEntity
  8
ALL_FEATURES
100
AcDbSpline
 62
7
  6
CONTINUOUS
 70
0
 71
3
 72
26
 73
22
 74
0
 42
0.0000001
 43
0.0000001
 44
0.0000000001
 40
0.0
 40
0.0
 40
0.0
 40
0.0
 40
0.1891083804
 40
0.3713890499
 40
0.4579099452
 40
0.5402979398
 40
0.6178057698
 40
0.6897328998
 40
0.7554344545
 40
0.8143127224
 40
0.8658455541
 40
0.909565424
 40
0.9283752536
 40
0.9450928151
 40
0.9596805337
 40
0.9721124812
 40
0.9823657796
 40
0.9904223437
 40
0.9962841749
 40
0.9984040979
 40
1.0
 40
1.0
 40
1.0
 40
1.0
 10
4.6064852484
 20
2.822597402
 30
0.0
 10
4.6109168597
 20
2.8227227907
 30
0.0
 10
4.6196200798
 20
2.8229690326
 30
0.0
 10
4.6303505448
 20
2.8232835073
 30
0.0
 10
4.6385797399
 20
2.8235388789
 30
0.0
 10
4.6443535793
 20
2.82372698
 30
0.0
 10
4.6497851023
 20
2.8239149254
 30
0.0
 10
4.6548251925
 20
2.8241026825
 30
0.0
 10
4.6594282225
 20
2.8242901365
 30
0.0
 10
4.6635527233
 20
2.8244771733
 30
0.0
 10
4.6671613237
 20
2.8246636115
 30
0.0
 10
4.6698305434
 20
2.8248251587
 30
0.0
 10
4.671683713
 20
2.8249571199
 30
0.0
 10
4.6728548603
 20
2.82505089
 30
0.0
 10
4.6738759872
 20
2.8251443919
 30
0.0
 10
4.6747448339
 20
2.8252375753
 30
0.0
 10
4.6754597579
 20
2.8253299235
 30
0.0
 10
4.6760189052
 20
2.8254216939
 30
0.0
 10
4.676386905
 20
2.8255021514
 30
0.0
 10
4.676600644
 20
2.8255712021
 30
0.0
 10
4.6766808284
 20
2.8256062794
 30
0.0
 10
4.6767132342
 20
2.8256249783
 30
0.0
  0
SPLINE
  5
30A
100
AcDbEntity
  8
ALL_FEATURES
100
AcDbSpline
 62
7
  6
CONTINUOUS
 70
0
 71
3
 72
43
 73
39
 74
0
 42
0.0000001
 43
0.0000001
 44
0.0000000001
 40
0.0
 40
0.0
 40
0.0
 40
0.0
 40
0.0008586785
 40
0.0019769946
 40
0.005018123
 40
0.0091455845
 40
0.0143599531
 40
0.0206561906
 40
0.028022851
 40
0.0364436063
 40
0.0459014057
 40
0.0678462947
 40
0.0936620019
 40
0.1231211322
 40
0.1559600438
 40
0.2109048116
 40
0.271680305
 40
0.4057297946
 40
0.4762998275
 40
0.5473478951
 40
0.6174407265
 40
0.6851644162
 40
0.7491529887
 40
0.8081160502
 40
0.8608650831
 40
0.8845715892
 40
0.9063383891
 40
0.9260552312
 40
0.9436233504
 40
0.958956725
 40
0.9719776348
 40
0.9826270084
 40
0.9870458796
 40
0.9908549696
 40
0.9940525436
 40
0.9966384758
 40
0.9986162342
 40
1.0
 40
1.0
 40
1.0
 40
1.0
 10
4.4629476835
 20
2.605779064
 30
0.0
 10
4.4629214144
 20
2.605824471
 30
0.0
 10
4.4628716289
 20
2.6059350548
 30
0.0
 10
4.462773586
 20
2.6062256719
 30
0.0
 10
4.4626587478
 20
2.6067196814
 30
0.0
 10
4.4625278152
 20
2.6074647387
 30
0.0
 10
4.462395986
 20
2.6084111786
 30
0.0
 10
4.4622631306
 20
2.6095567778
 30
0.0
 10
4.4621298454
 20
2.6108993622
 30
0.0
 10
4.4619961544
 20
2.6124358544
 30
0.0
 10
4.461808172
 20
2.614861492
 30
0.0
 10
4.4615780479
 20
2.618349577
 30
0.0
 10
4.4613122483
 20
2.6230596058
 30
0.0
 10
4.4610456916
 20
2.6284360536
 30
0.0
 10
4.46072684
 20
2.635591535
 30
0.0
 10
4.4603659858
 20
2.6446601267
 30
0.0
 10
4.459815897
 20
2.6599090847
 30
0.0
 10
4.4592918741
 20
2.6761140839
 30
0.0
 10
4.4587668033
 20
2.6929468913
 30
0.0
 10
4.4583664484
 20
2.7058744737
 30
0.0
 10
4.4579661397
 20
2.718628085
 30
0.0
 10
4.457566129
 20
2.7309502125
 30
0.0
 10
4.4571666572
 20
2.7425920505
 30
0.0
 10
4.4567679558
 20
2.7533185111
 30
0.0
 10
4.456425882
 20
2.7615844336
 30
0.0
 10
4.4561477444
 20
2.7675785661
 30
0.0
 10
4.4559468454
 20
2.7715560857
 30
0.0
 10
4.4557462521
 20
2.7751580982
 30
0.0
 10
4.4555460241
 20
2.7783664268
 30
0.0
 10
4.4553465124
 20
2.7811648604
 30
0.0
 10
4.4551477199
 20
2.7835394075
 30
0.0
 10
4.4549746045
 20
2.7852468607
 30
0.0
 10
4.4548320676
 20
2.786391308
 30
0.0
 10
4.4547322285
 20
2.7870822244
 30
0.0
 10
4.4546328574
 20
2.7876597814
 30
0.0
 10
4.4545344158
 20
2.7881239963
 30
0.0
 10
4.4544370342
 20
2.7884738716
 30
0.0
 10
4.4543613965
 20
2.788666422
 30
0.0
 10
4.4543190618
 20
2.7887395945
 30
0.0
  0
SPLINE
  5
30B
100
AcDbEntity
  8
ALL_FEATURES
100
AcDbSpline
 62
7
  6
CONTINUOUS
 70
0
 71
3
 72
47
 73
43
 74
0
 42
0.0000001
 43
0.0000001
 44
0.0000000001
 40
0.0
 40
0.0
 40
0.0
 40
0.0
 40
0.0008979001
 40
0.0017025857
 40
0.002777376
 40
0.0041301108
 40
0.0057643108
 40
0.0098826009
 40
0.0151336081
 40
0.0215077213
 40
0.0289929313
 40
0.0375753865
 40
0.0579478066
 40
0.0824395215
 40
0.1108240987
 40
0.1428413063
 40
0.1781908098
 40
0.216546603
 40
0.2575478259
 40
0.3008144843
 40
0.3459409497
 40
0.3925079377
 40
0.4882177922
 40
0.5843851563
 40
0.6774282936
 40
0.7216892462
 40
0.7638886275
 40
0.8036320372
 40
0.8405487974
 40
0.874295316
 40
0.9045562122
 40
0.9310532351
 40
0.9535386898
 40
0.9632129347
 40
0.971810602
 40
0.9793114471
 40
0.985701533
 40
0.9909686855
 40
0.9951031137
 40
0.9981052764
 40
0.9991878585
 40
1.0
 40
1.0
 40
1.0
 40
1.0
 10
4.6767977484
 20
2.8421343202
 30
0.0
 10
4.6767977484
 20
2.8420921815
 30
0.0
 10
4.6767167935
 20
2.8420335157
 30
0.0
 10
4.6766035616
 20
2.8419844689
 30
0.0
 10
4.6764568236
 20
2.8419363716
 30
0.0
 10
4.676272906
 20
2.8418896994
 30
0.0
 10
4.6759461229
 20
2.8418208497
 30
0.0
 10
4.6754363749
 20
2.8417386139
 30
0.0
 10
4.6747033863
 20
2.8416444824
 30
0.0
 10
4.6738115106
 20
2.8415499352
 30
0.0
 10
4.6727625701
 20
2.841454884
 30
0.0
 10
4.6710577258
 20
2.8413200553
 30
0.0
 10
4.6685547498
 20
2.8411557776
 30
0.0
 10
4.6651223355
 20
2.8409667697
 30
0.0
 10
4.6611427485
 20
2.84077705
 30
0.0
 10
4.6566531279
 20
2.8405867856
 30
0.0
 10
4.6516951928
 20
2.8403961507
 30
0.0
 10
4.6463153599
 20
2.8402052961
 30
0.0
 10
4.6405637624
 20
2.8400142473
 30
0.0
 10
4.6344942539
 20
2.8398230961
 30
0.0
 10
4.6281634222
 20
2.8396318445
 30
0.0
 10
4.6193722956
 20
2.8393744332
 30
0.0
 10
4.6081865342
 20
2.8390571802
 30
0.0
 10
4.5948204653
 20
2.8386797443
 30
0.0
 10
4.5838682243
 20
2.8383605675
 30
0.0
 10
4.5754480608
 20
2.8381013007
 30
0.0
 10
4.5695283623
 20
2.8379101932
 30
0.0
 10
4.5639535129
 20
2.8377192326
 30
0.0
 10
4.5587755988
 20
2.8375284732
 30
0.0
 10
4.5540430169
 20
2.8373380092
 30
0.0
 10
4.549799848
 20
2.8371479812
 30
0.0
 10
4.5460857344
 20
2.8369585559
 30
0.0
 10
4.5433377882
 20
2.8367944346
 30
0.0
 10
4.5414297183
 20
2.836660353
 30
0.0
 10
4.5402239376
 20
2.836565079
 30
0.0
 10
4.5391727846
 20
2.8364700783
 30
0.0
 10
4.5382786734
 20
2.8363754017
 30
0.0
 10
4.5375433572
 20
2.8362815885
 30
0.0
 10
4.5369688102
 20
2.8361883652
 30
0.0
 10
4.5365911026
 20
2.8361066532
 30
0.0
 10
4.5363721939
 20
2.836036449
 30
0.0
 10
4.5362902743
 20
2.8360007826
 30
0.0
 10
4.536257262
 20
2.8359817335
 30
0.0
  0
SPLINE
  5
30C
100
AcDbEntity
  8
ALL_FEATURES
100
AcDbSpline
 62
7
  6
CONTINUOUS
 70
0
 71
3
 72
23
 73
19
 74
0
 42
0.0000001
 43
0.0000001
 44
0.0000000001
 40
0.0
 40
0.0
 40
0.0
 40
0.0
 40
0.1884214153
 40
0.370096213
 40
0.5385404075
 40
0.6158908613
 40
0.6877240818
 40
0.753396934
 40
0.8123236211
 40
0.8639782877
 40
0.9079024089
 40
0.9437127745
 40
0.9584768902
 40
0.9711024759
 40
0.9815713021
 40
0.9898708267
 40
0.9959997697
 40
1.0
 40
1.0
 40
1.0
 40
1.0
 10
4.6064852484
 20
2.8183033594
 30
0.0
 10
4.6104333307
 20
2.818428281
 30
0.0
 10
4.6181881322
 20
2.8186736142
 30
0.0
 10
4.6294720129
 20
2.8190434531
 30
0.0
 10
4.6384279291
 20
2.8193589457
 30
0.0
 10
4.6450817106
 20
2.8196159652
 30
0.0
 10
4.6495820752
 20
2.8198030248
 30
0.0
 10
4.6536958594
 20
2.8199897953
 30
0.0
 10
4.6573861584
 20
2.8201761816
 30
0.0
 10
4.6606199214
 20
2.8203618859
 30
0.0
 10
4.6633681776
 20
2.8205467959
 30
0.0
 10
4.6653428437
 20
2.8207079146
 30
0.0
 10
4.6666610923
 20
2.8208409022
 30
0.0
 10
4.6674494194
 20
2.820933751
 30
0.0
 10
4.6681009533
 20
2.8210261454
 30
0.0
 10
4.6686155229
 20
2.8211171099
 30
0.0
 10
4.6689905401
 20
2.821207181
 30
0.0
 10
4.669193296
 20
2.821277442
 30
0.0
 10
4.6692658846
 20
2.8213194361
 30
0.0
  0
SPLINE
  5
30D
100
AcDbEntity
  8
ALL_FEATURES
100
AcDbSpline
 62
7
  6
CONTINUOUS
 70
0
 71
3
 72
17
 73
13
 74
0
 42
0.0000001
 43
0.0000001
 44
0.0000000001
 40
0.0
 40
0.0
 40
0.0
 40
0.0
 40
0.0160699966
 40
0.0382243734
 40
0.0666288044
 40
0.1013500469
 40
0.1897602506
 40
0.3032839063
 40
0.441605717
 40
0.6042453542
 40
0.7905933397
 40
1.0
 40
1.0
 40
1.0
 40
1.0
 10
4.4808159318
 20
2.6057792296
 30
0.0
 10
4.4807803723
 20
2.605840805
 30
0.0
 10
4.4807151734
 20
2.6059979575
 30
0.0
 10
4.4806304671
 20
2.6062803353
 30
0.0
 10
4.4805449389
 20
2.606648131
 30
0.0
 10
4.480419877
 20
2.6073069396
 30
0.0
 10
4.4802702878
 20
2.6083437671
 30
0.0
 10
4.4800993741
 20
2.6098396302
 30
0.0
 10
4.4799275582
 20
2.6116656658
 30
0.0
 10
4.4797548211
 20
2.6138149893
 30
0.0
 10
4.4795815881
 20
2.6162796928
 30
0.0
 10
4.4794721297
 20
2.6180273942
 30
0.0
 10
4.4794168137
 20
2.6189523118
 30
0.0
  0
SPLINE
  5
30E
100
AcDbEntity
  8
ALL_FEATURES
100
AcDbSpline
 62
7
  6
CONTINUOUS
 70
0
 71
3
 72
31
 73
27
 74
0
 42
0.0000001
 43
0.0000001
 44
0.0000000001
 40
0.0
 40
0.0
 40
0.0
 40
0.0
 40
0.0534179106
 40
0.1164404107
 40
0.1875521592
 40
0.2650411228
 40
0.3470406297
 40
0.4315747765
 40
0.5166063139
 40
0.6000859523
 40
0.6800019476
 40
0.7544288155
 40
0.8215740678
 40
0.851902599
 40
0.8798220866
 40
0.9051622026
 40
0.9277740867
 40
0.947519486
 40
0.9642852706
 40
0.9779706833
 40
0.983635442
 40
0.9885050834
 40
0.9925736373
 40
0.9958399339
 40
0.9983092954
 40
1.0
 40
1.0
 40
1.0
 40
1.0
 10
4.4792616272
 20
2.6216623064
 30
0.0
 10
4.4790981762
 20
2.6246365102
 30
0.0
 10
4.4787840115
 20
2.6311219832
 30
0.0
 10
4.4783511403
 20
2.641571345
 30
0.0
 10
4.4779165233
 20
2.6533639133
 30
0.0
 10
4.4774807112
 20
2.666215274
 30
0.0
 10
4.4770442613
 20
2.6798154766
 30
0.0
 10
4.4766074802
 20
2.6938364639
 30
0.0
 10
4.476170642
 20
2.7079400242
 30
0.0
 10
4.4757339886
 20
2.7217859484
 30
0.0
 10
4.4752978444
 20
2.7350402511
 30
0.0
 10
4.4748624903
 20
2.7473832187
 30
0.0
 10
4.4744894884
 20
2.7569615321
 30
0.0
 10
4.47418606
 20
2.7639471426
 30
0.0
 10
4.4739665221
 20
2.7686030277
 30
0.0
 10
4.4737472831
 20
2.7728281136
 30
0.0
 10
4.4735285294
 20
2.7765967424
 30
0.0
 10
4.4733104671
 20
2.7798864064
 30
0.0
 10
4.4730933698
 20
2.7826770928
 30
0.0
 10
4.472904146
 20
2.7846822882
 30
0.0
 10
4.4727482518
 20
2.7860238447
 30
0.0
 10
4.4726392258
 20
2.7868309085
 30
0.0
 10
4.4725307055
 20
2.7875027345
 30
0.0
 10
4.4724233444
 20
2.7880393007
 30
0.0
 10
4.4723171576
 20
2.7884392215
 30
0.0
 10
4.4722344865
 20
2.7886580195
 30
0.0
 10
4.4721873176
 20
2.7887396484
 30
0.0
  0
SPLINE
  5
30F
100
AcDbEntity
  8
ALL_FEATURES
100
AcDbSpline
 62
7
  6
CONTINUOUS
 70
0
 71
3
 72
47
 73
43
 74
0
 42
0.0000001
 43
0.0000001
 44
0.0000000001
 40
0.0
 40
0.0
 40
0.0
 40
0.0
 40
0.0008979112
 40
0.0017026138
 40
0.0027774262
 40
0.0041301867
 40
0.0057644144
 40
0.0098827695
 40
0.0151339
 40
0.0215081227
 40
0.0289933304
 40
0.0375756424
 40
0.0579477309
 40
0.0824392656
 40
0.1108238074
 40
0.1428410455
 40
0.1781905794
 40
0.2165464294
 40
0.2575477102
 40
0.3008144344
 40
0.3459410225
 40
0.3925083159
 40
0.4882193963
 40
0.5843852662
 40
0.6774280546
 40
0.7216890828
 40
0.7638885317
 40
0.8036320132
 40
0.840548837
 40
0.8742954072
 40
0.9045563569
 40
0.9310534971
 40
0.9535391667
 40
0.9632135072
 40
0.9718112618
 40
0.9793120372
 40
0.985701917
 40
0.9909688557
 40
0.9951031691
 40
0.9981052856
 40
0.9991878601
 40
1.0
 40
1.0
 40
1.0
 40
1.0
 10
4.5361727484
 20
2.8319723933
 30
0.0
 10
4.5361727484
 20
2.8320145325
 30
0.0
 10
4.5362537063
 20
2.832073198
 30
0.0
 10
4.5363669402
 20
2.832122245
 30
0.0
 10
4.5365136815
 20
2.8321703426
 30
0.0
 10
4.5366976026
 20
2.8322170153
 30
0.0
 10
4.5370243912
 20
2.8322858657
 30
0.0
 10
4.5375341491
 20
2.8323681034
 30
0.0
 10
4.5382671518
 20
2.832462235
 30
0.0
 10
4.5391590383
 20
2.8325567822
 30
0.0
 10
4.5402079772
 20
2.832651833
 30
0.0
 10
4.5419127991
 20
2.8327866605
 30
0.0
 10
4.5444157445
 20
2.832950935
 30
0.0
 10
4.5478481331
 20
2.8331399408
 30
0.0
 10
4.5518277114
 20
2.8333296608
 30
0.0
 10
4.5563173332
 20
2.8335199251
 30
0.0
 10
4.5612752737
 20
2.8337105601
 30
0.0
 10
4.5666551134
 20
2.8339014149
 30
0.0
 10
4.5724067193
 20
2.8340924639
 30
0.0
 10
4.5784762392
 20
2.8342836153
 30
0.0
 10
4.584807094
 20
2.8344748675
 30
0.0
 10
4.5935982981
 20
2.8347322809
 30
0.0
 10
4.6047840611
 20
2.8350495336
 30
0.0
 10
4.618150101
 20
2.8354269685
 30
0.0
 10
4.6291022589
 20
2.8357461428
 30
0.0
 10
4.6375224127
 20
2.8360054091
 30
0.0
 10
4.6434421212
 20
2.8361965167
 30
0.0
 10
4.6490169801
 20
2.8363874776
 30
0.0
 10
4.6541949029
 20
2.8365782373
 30
0.0
 10
4.6589274926
 20
2.8367687016
 30
0.0
 10
4.663170672
 20
2.8369587297
 30
0.0
 10
4.6668848036
 20
2.8371481558
 30
0.0
 10
4.6696327697
 20
2.8373122799
 30
0.0
 10
4.6715408581
 20
2.8374463642
 30
0.0
 10
4.6727466442
 20
2.837541638
 30
0.0
 10
4.6737977884
 20
2.8376366377
 30
0.0
 10
4.6746918766
 20
2.837731313
 30
0.0
 10
4.6754271676
 20
2.837825125
 30
0.0
 10
4.6760016971
 20
2.8379183462
 30
0.0
 10
4.6763793969
 20
2.8380000571
 30
0.0
 10
4.676598303
 20
2.8380702608
 30
0.0
 10
4.6766802221
 20
2.838105927
 30
0.0
 10
4.6767132344
 20
2.838124976
 30
0.0
  0
SPLINE
  5
310
100
AcDbEntity
  8
ALL_FEATURES
100
AcDbSpline
 62
7
  6
CONTINUOUS
 70
0
 71
3
 72
29
 73
25
 74
0
 42
0.0000001
 43
0.0000001
 44
0.0000000001
 40
0.0
 40
0.0
 40
0.0
 40
0.0
 40
0.0007549139
 40
0.0018924821
 40
0.0035470004
 40
0.0057595512
 40
0.0085458211
 40
0.0119128059
 40
0.0203995747
 40
0.0312209882
 40
0.0443562241
 40
0.0597797729
 40
0.0774616164
 40
0.1194198982
 40
0.1698387587
 40
0.2282352047
 40
0.2940579042
 40
0.3666680318
 40
0.4453742142
 40
0.5294159054
 40
0.6179852438
 40
0.710217983
 40
0.8052467019
 40
1.0
 40
1.0
 40
1.0
 40
1.0
 10
4.6767977484
 20
2.8171343119
 30
0.0
 10
4.6767977484
 20
2.8171165804
 30
0.0
 10
4.6767738934
 20
2.8170740014
 30
0.0
 10
4.6767034561
 20
2.8170286007
 30
0.0
 10
4.6765956911
 20
2.8169808385
 30
0.0
 10
4.6764465082
 20
2.8169336803
 30
0.0
 10
4.6762559143
 20
2.8168856403
 30
0.0
 10
4.6759190937
 20
2.8168159932
 30
0.0
 10
4.6753929079
 20
2.816732272
 30
0.0
 10
4.6746368388
 20
2.8166367353
 30
0.0
 10
4.6737168199
 20
2.8165406632
 30
0.0
 10
4.6726349947
 20
2.8164441195
 30
0.0
 10
4.6708771981
 20
2.8163071706
 30
0.0
 10
4.6682974321
 20
2.8161403107
 30
0.0
 10
4.6647612407
 20
2.8159483282
 30
0.0
 10
4.6606638472
 20
2.8157556092
 30
0.0
 10
4.6560447521
 20
2.8155623446
 30
0.0
 10
4.6509482623
 20
2.815368702
 30
0.0
 10
4.6454235721
 20
2.8151748346
 30
0.0
 10
4.6395238246
 20
2.8149807759
 30
0.0
 10
4.6333062072
 20
2.8147866139
 30
0.0
 10
4.6268304097
 20
2.8145923575
 30
0.0
 10
4.6178614554
 20
2.8143311478
 30
0.0
 10
4.6110577809
 20
2.8141386927
 30
0.0
 10
4.6064852484
 20
2.8140093168
 30
0.0
  0
SPLINE
  5
311
100
AcDbEntity
  8
ALL_FEATURES
100
AcDbSpline
 62
7
  6
CONTINUOUS
 70
0
 71
3
 72
20
 73
16
 74
0
 42
0.0000001
 43
0.0000001
 44
0.0000000001
 40
0.0
 40
0.0
 40
0.0
 40
0.0
 40
0.0069007642
 40
0.0126490691
 40
0.0202067785
 40
0.0296478603
 40
0.0410077072
 40
0.0695465917
 40
0.1058921507
 40
0.1500240257
 40
0.2613949743
 40
0.4030698262
 40
0.5741500286
 40
0.7735559249
 40
1.0
 40
1.0
 40
1.0
 40
1.0
 10
4.5361727484
 20
2.8444724004
 30
0.0
 10
4.5361727484
 20
2.8445053481
 30
0.0
 10
4.5362258565
 20
2.8445551385
 30
0.0
 10
4.5363085198
 20
2.8445976061
 30
0.0
 10
4.5364109464
 20
2.8446378225
 30
0.0
 10
4.5365401552
 20
2.84467699
 30
0.0
 10
4.5367688742
 20
2.8447345377
 30
0.0
 10
4.5371264095
 20
2.8448034426
 30
0.0
 10
4.5376410077
 20
2.8448822707
 30
0.0
 10
4.5385498539
 20
2.8449968582
 30
0.0
 10
4.539962267
 20
2.8451344173
 30
0.0
 10
4.541981187
 20
2.8452915857
 30
0.0
 10
4.5444214398
 20
2.8454496897
 30
0.0
 10
4.5472670693
 20
2.8456085577
 30
0.0
 10
4.5492978381
 20
2.8457086079
 30
0.0
 10
4.5503778045
 20
2.8457593106
 30
0.0
  0
SPLINE
  5
312
100
AcDbEntity
  8
ALL_FEATURES
100
AcDbSpline
 62
7
  6
CONTINUOUS
 70
0
 71
3
 72
51
 73
47
 74
0
 42
0.0000001
 43
0.0000001
 44
0.0000000001
 40
0.0
 40
0.0
 40
0.0
 40
0.0
 40
0.0003658364
 40
0.0006136943
 40
0.0009192098
 40
0.0017217163
 40
0.0027951309
 40
0.0041471265
 40
0.0057811664
 40
0.0076989088
 40
0.0099005963
 40
0.0151525405
 40
0.0215285821
 40
0.0290178037
 40
0.0376041132
 40
0.0472669913
 40
0.0579854498
 40
0.0824892915
 40
0.1108880779
 40
0.1429186738
 40
0.1782845385
 40
0.2166543836
 40
0.2576718172
 40
0.3009541534
 40
0.3460975348
 40
0.3926818022
 40
0.4884244736
 40
0.5846152508
 40
0.6776699021
 40
0.7219324474
 40
0.7641288321
 40
0.8038664336
 40
0.8407732623
 40
0.8745052893
 40
0.9047495745
 40
0.9312235294
 40
0.9536844608
 40
0.9633434562
 40
0.9719258468
 40
0.9794110888
 40
0.9857832495
 40
0.9910313321
 40
0.9951465383
 40
0.9981278889
 40
0.9991993603
 40
1.0
 40
1.0
 40
1.0
 40
1.0
 10
4.4603078719
 20
2.7995093168
 30
0.0
 10
4.4603328391
 20
2.7995093168
 30
0.0
 10
4.4603735166
 20
2.7994869468
 30
0.0
 10
4.4604142548
 20
2.7994398262
 30
0.0
 10
4.4604645267
 20
2.7993615275
 30
0.0
 10
4.4605234301
 20
2.7992242188
 30
0.0
 10
4.4605904992
 20
2.7990142494
 30
0.0
 10
4.4606578384
 20
2.7987453573
 30
0.0
 10
4.4607256558
 20
2.7984175807
 30
0.0
 10
4.4607936685
 20
2.7980308112
 30
0.0
 10
4.4608903369
 20
2.7973985551
 30
0.0
 10
4.4610081457
 20
2.7964619612
 30
0.0
 10
4.4611435088
 20
2.795164264
 30
0.0
 10
4.4612793281
 20
2.7936379985
 30
0.0
 10
4.4614155481
 20
2.7918866987
 30
0.0
 10
4.4615520492
 20
2.7899144475
 30
0.0
 10
4.4617428936
 20
2.7868571094
 30
0.0
 10
4.4619772225
 20
2.782521432
 30
0.0
 10
4.4622485893
 20
2.7767313363
 30
0.0
 10
4.4625206259
 20
2.7701992533
 30
0.0
 10
4.4627931739
 20
2.7629861734
 30
0.0
 10
4.4630660781
 20
2.7551593834
 30
0.0
 10
4.4633392197
 20
2.7467920233
 30
0.0
 10
4.4636125386
 20
2.737962165
 30
0.0
 10
4.4638859929
 20
2.7287522189
 30
0.0
 10
4.4642540538
 20
2.7159632584
 30
0.0
 10
4.4647076765
 20
2.6996915013
 30
0.0
 10
4.4652473527
 20
2.6802494579
 30
0.0
 10
4.4657037433
 20
2.6643198087
 30
0.0
 10
4.4660744547
 20
2.6520741831
 30
0.0
 10
4.4663477155
 20
2.6434660024
 30
0.0
 10
4.4666207519
 20
2.6353600845
 30
0.0
 10
4.4668934975
 20
2.6278321701
 30
0.0
 10
4.4671658456
 20
2.6209525889
 30
0.0
 10
4.4674375166
 20
2.6147855957
 30
0.0
 10
4.4677084025
 20
2.6093886265
 30
0.0
 10
4.4679430208
 20
2.6053965761
 30
0.0
 10
4.4681347912
 20
2.6026253716
 30
0.0
 10
4.4682710243
 20
2.6008748823
 30
0.0
 10
4.4684068371
 20
2.5993494132
 30
0.0
 10
4.468542206
 20
2.5980525504
 30
0.0
 10
4.4686763246
 20
2.5969868177
 30
0.0
 10
4.4688095432
 20
2.5961550187
 30
0.0
 10
4.4689262981
 20
2.5956088752
 30
0.0
 10
4.469026753
 20
2.5952931321
 30
0.0
 10
4.4690777935
 20
2.5951753166
 30
0.0
 10
4.4691051127
 20
2.5951279952
 30
0.0
  0
SPLINE
  5
313
100
AcDbEntity
  8
ALL_FEATURES
100
AcDbSpline
 62
7
  6
CONTINUOUS
 70
0
 71
3
 72
33
 73
29
 74
0
 42
0.0000001
 43
0.0000001
 44
0.0000000001
 40
0.0
 40
0.0
 40
0.0
 40
0.0
 40
0.0007091679
 40
0.0012696277
 40
0.0019968381
 40
0.0028993478
 40
0.0039814244
 40
0.0066923157
 40
0.0143221443
 40
0.0248861067
 40
0.0383455687
 40
0.0546397564
 40
0.0736899087
 40
0.09540615
 40
0.1196798006
 40
0.1463950277
 40
0.1754179849
 40
0.2066084388
 40
0.274864549
 40
0.3498209308
 40
0.430000947
 40
0.5138265701
 40
0.599647619
 40
0.685771916
 40
0.7705035131
 40
0.8521751026
 40
0.929179468
 40
1.0
 40
1.0
 40
1.0
 40
1.0
 10
4.4748271215
 20
2.5950093168
 30
0.0
 10
4.4747877444
 20
2.5950093168
 30
0.0
 10
4.4747260359
 20
2.5950647882
 30
0.0
 10
4.4746717417
 20
2.5951580207
 30
0.0
 10
4.4746218561
 20
2.595270331
 30
0.0
 10
4.4745730743
 20
2.5954124972
 30
0.0
 10
4.4745016506
 20
2.5956635141
 30
0.0
 10
4.4743668832
 20
2.5962836082
 30
0.0
 10
4.4741975628
 20
2.5974328346
 30
0.0
 10
4.4740043298
 20
2.599179744
 30
0.0
 10
4.4738095535
 20
2.601410132
 30
0.0
 10
4.473612949
 20
2.6041128876
 30
0.0
 10
4.473415607
 20
2.6072751196
 30
0.0
 10
4.4732177191
 20
2.6108811124
 30
0.0
 10
4.4730194376
 20
2.6149132648
 30
0.0
 10
4.4728209305
 20
2.6193515564
 30
0.0
 10
4.4726221931
 20
2.6241742498
 30
0.0
 10
4.4723487741
 20
2.6313023827
 30
0.0
 10
4.472011574
 20
2.6409803928
 30
0.0
 10
4.4716170856
 20
2.6533781664
 30
0.0
 10
4.4712220178
 20
2.6666408369
 30
0.0
 10
4.4708265622
 20
2.6805070166
 30
0.0
 10
4.4704309257
 20
2.6947033815
 30
0.0
 10
4.4700352623
 20
2.7089500698
 30
0.0
 10
4.4696397254
 20
2.7229662705
 30
0.0
 10
4.4692444923
 20
2.7364758834
 30
0.0
 10
4.4688497577
 20
2.7492127416
 30
0.0
 10
4.4685739414
 20
2.7574162139
 30
0.0
 10
4.4684336693
 20
2.7613460749
 30
0.0
  0
SPLINE
  5
314
100
AcDbEntity
  8
ALL_FEATURES
100
AcDbSpline
 62
7
  6
CONTINUOUS
 70
0
 71
3
 72
21
 73
17
 74
0
 42
0.0000001
 43
0.0000001
 44
0.0000000001
 40
0.0
 40
0.0
 40
0.0
 40
0.0
 40
0.2109691716
 40
0.4008650668
 40
0.5675874356
 40
0.6416714521
 40
0.7092940219
 40
0.7702613431
 40
0.8244167681
 40
0.8716127668
 40
0.9117167129
 40
0.9446412302
 40
0.9703188261
 40
0.9887243413
 40
0.9952330986
 40
1.0
 40
1.0
 40
1.0
 40
1.0
 10
4.4684336693
 20
2.7613460749
 30
0.0
 10
4.4683379431
 20
2.7640279373
 30
0.0
 10
4.4681488429
 20
2.7691235266
 30
0.0
 10
4.467851958
 20
2.7763372674
 30
0.0
 10
4.4675964488
 20
2.7818099749
 30
0.0
 10
4.4673888748
 20
2.7857277713
 30
0.0
 10
4.467239549
 20
2.7883015086
 30
0.0
 10
4.4670904074
 20
2.7906212976
 30
0.0
 10
4.4669415476
 20
2.7926806721
 30
0.0
 10
4.4667931861
 20
2.7944739503
 30
0.0
 10
4.4666453099
 20
2.7959960729
 30
0.0
 10
4.4664989175
 20
2.7972433571
 30
0.0
 10
4.4663535136
 20
2.798211905
 30
0.0
 10
4.4662263215
 20
2.7988440029
 30
0.0
 10
4.4661161748
 20
2.7992051945
 30
0.0
 10
4.4660602044
 20
2.7993381255
 30
0.0
 10
4.466029888
 20
2.7993906387
 30
0.0
  0
SPLINE
  5
315
100
AcDbEntity
  8
ALL_FEATURES
100
AcDbSpline
 62
7
  6
CONTINUOUS
 70
0
 71
3
 72
32
 73
28
 74
0
 42
0.0000001
 43
0.0000001
 44
0.0000000001
 40
0.0
 40
0.0
 40
0.0
 40
0.0
 40
0.0018230049
 40
0.0045423463
 40
0.0081770859
 40
0.0127314871
 40
0.0182033476
 40
0.0245836758
 40
0.0400252871
 40
0.0589561639
 40
0.0812359385
 40
0.1067070658
 40
0.135179519
 40
0.1664472568
 40
0.2002781538
 40
0.2746194693
 40
0.3560164122
 40
0.4420727645
 40
0.5302544341
 40
0.6179644818
 40
0.7026199234
 40
0.7817281349
 40
0.8529607145
 40
0.914222834
 40
0.9637166317
 40
0.9835848314
 40
1.0
 40
1.0
 40
1.0
 40
1.0
 10
4.5437044695
 20
2.8402872766
 30
0.0
 10
4.5437688149
 20
2.8403244634
 30
0.0
 10
4.5439444506
 20
2.8403883393
 30
0.0
 10
4.5442671728
 20
2.8404702749
 30
0.0
 10
4.5447045538
 20
2.8405531057
 30
0.0
 10
4.5452550779
 20
2.840636991
 30
0.0
 10
4.5459186831
 20
2.840721258
 30
0.0
 10
4.5470248327
 20
2.8408418703
 30
0.0
 10
4.5486798983
 20
2.8409881607
 30
0.0
 10
4.5509833652
 20
2.8411559777
 30
0.0
 10
4.5536965836
 20
2.8413245697
 30
0.0
 10
4.5567993835
 20
2.8414937082
 30
0.0
 10
4.5602690584
 20
2.8416632267
 30
0.0
 10
4.5640798885
 20
2.8418329833
 30
0.0
 10
4.5697596089
 20
2.8420669841
 30
0.0
 10
4.5774824272
 20
2.8423544674
 30
0.0
 10
4.5873339083
 20
2.8426906726
 30
0.0
 10
4.5977499075
 20
2.8430274075
 30
0.0
 10
4.608423392
 20
2.8433643995
 30
0.0
 10
4.6190397391
 20
2.8437013398
 30
0.0
 10
4.6292860147
 20
2.8440379061
 30
0.0
 10
4.6388601937
 20
2.8443737851
 30
0.0
 10
4.6474801482
 20
2.8447081034
 30
0.0
 10
4.6548918192
 20
2.8450405832
 30
0.0
 10
4.6602093059
 20
2.8453302427
 30
0.0
 10
4.6636978317
 20
2.8455723899
 30
0.0
 10
4.6651719666
 20
2.8456954433
 30
0.0
 10
4.6658381057
 20
2.8457593239
 30
0.0
  0
SPLINE
  5
316
100
AcDbEntity
  8
ALL_FEATURES
100
AcDbSpline
 62
7
  6
CONTINUOUS
 70
0
 71
3
 72
32
 73
28
 74
0
 42
0.0000001
 43
0.0000001
 44
0.0000000001
 40
0.0
 40
0.0
 40
0.0
 40
0.0
 40
0.0007436465
 40
0.0012508657
 40
0.0018777733
 40
0.0035280748
 40
0.0057383678
 40
0.0085239635
 40
0.0118917236
 40
0.0158448661
 40
0.0203836196
 40
0.0312105905
 40
0.0443541948
 40
0.0597907808
 40
0.0774852139
 40
0.0973940596
 40
0.1194729133
 40
0.1699249637
 40
0.2283585529
 40
0.2942115328
 40
0.3668535249
 40
0.4455798913
 40
0.5296315823
 40
0.6181962681
 40
0.7104168393
 40
0.8054050782
 40
1.0
 40
1.0
 40
1.0
 40
1.0
 10
4.4569588734
 20
2.5950093168
 30
0.0
 10
4.4569333952
 20
2.5950093168
 30
0.0
 10
4.4568918917
 20
2.5950326564
 30
0.0
 10
4.4568505849
 20
2.5950813322
 30
0.0
 10
4.4567993922
 20
2.5951624692
 30
0.0
 10
4.4567394919
 20
2.5953046393
 30
0.0
 10
4.4566712495
 20
2.595522015
 30
0.0
 10
4.4566027377
 20
2.5958004076
 30
0.0
 10
4.4565337295
 20
2.5961397748
 30
0.0
 10
4.4564645245
 20
2.596540212
 30
0.0
 10
4.4563661567
 20
2.5971947859
 30
0.0
 10
4.4562462807
 20
2.5981643084
 30
0.0
 10
4.45610854
 20
2.5995074485
 30
0.0
 10
4.4559703384
 20
2.6010868841
 30
0.0
 10
4.4558317243
 20
2.6028988219
 30
0.0
 10
4.4556928258
 20
2.6049388975
 30
0.0
 10
4.4554986698
 20
2.6081000515
 30
0.0
 10
4.4552602577
 20
2.6125807765
 30
0.0
 10
4.4549841451
 20
2.6185611821
 30
0.0
 10
4.4547073345
 20
2.6253025259
 30
0.0
 10
4.4544300069
 20
2.6327396248
 30
0.0
 10
4.4541523177
 20
2.640800616
 30
0.0
 10
4.4538743839
 20
2.6494074291
 30
0.0
 10
4.4535962806
 20
2.6584767908
 30
0.0
 10
4.4533180459
 20
2.6679210152
 30
0.0
 10
4.4529439624
 20
2.6809967059
 30
0.0
 10
4.4526682801
 20
2.6909143315
 30
0.0
 10
4.4524829234
 20
2.6975788026
 30
0.0
  0
LINE
  5
317
100
AcDbEntity
  8
ALL_FEATURES
100
AcDbLine
 62
7
  6
CONTINUOUS
 10
4.4524829234
 20
2.6975788026
 11
4.4521102494
 21
2.7109372217
  0
ENDSEC
  0
SECTION
  2
OBJECTS
  0
DICTIONARY
  5
C
100
AcDbDictionary
280
0
281
1
  3
ACAD_GROUP
350
D
  3
ACAD_MLINESTYLE
350
17
  3
ACAD_LAYOUT
350
1A
  3
ACAD_PLOTSETTINGS
350
19
  3
ACAD_PLOTSTYLENAME
350
E
  0
DICTIONARY
  5
D
102
{ACAD_REACTORS
330
C
102
}
100
AcDbDictionary
280
0
281
1
  0
ACDBDICTIONARYWDFLT
  5
E
102
{ACAD_REACTORS
330
C
102
}
100
AcDbDictionary
281
1
  3
Normal
350
F
100
AcDbDictionaryWithDefault
340
F
  0
DICTIONARY
  5
17
102
{ACAD_REACTORS
330
C
102
}
100
AcDbDictionary
280
0
281
1
  3
Standard
350
18
  0
DICTIONARY
  5
19
102
{ACAD_REACTORS
330
C
102
}
100
AcDbDictionary
281
1
  0
DICTIONARY
  5
1A
102
{ACAD_REACTORS
330
C
102
}
100
AcDbDictionary
281
1
  3
Model
350
318
  3
Layout1
350
319
  0
ACDBPLACEHOLDER
  5
F
102
{ACAD_REACTORS
330
E
102
}
  0
MLINESTYLE
  5
18
102
{ACAD_REACTORS
330
17
102
}
100
AcDbMlineStyle
  2
STANDARD
 70
0
  3

 62
256
 51
90.0
 52
90.0
 71
2
 49
0.5
 62
256
  6
BYLAYER
 49
-0.5
 62
256
  6
BYLAYER
  0
LAYOUT
  5
318
102
{ACAD_REACTORS
330
1A
102
}
100
AcDbPlotSettings
  1

  2
none_device
  4
ANSI_A_(11.00_x_8.50_Inches)
  6

 40
0.0
 41
0.0
 42
0.0
 43
0.0
 44
279.4
 45
215.9
 46
0.0
 47
0.0
 48
0.0
 49
0.0
140
0.0
141
0.0
142
1.0
143
1.0
 70
1024
 72
0
 73
0
 74
0
  7

 75
0
147
1.0
148
0.0
149
0.0
100
AcDbLayout
  1
Model
 70
0
 71
0
 10
0.0
 20
0.0
 11
11.0
 21
8.5
 12
0.0
 22
0.0
 32
0.0
 14
0.0
 24
0.0
 34
0.0
 15
0.0
 25
0.0
 35
0.0
146
0.0
 13
0.0
 23
0.0
 33
0.0
 16
1.0
 26
0.0
 36
0.0
 17
0.0
 27
1.0
 37
0.0
 76
0
330
216
345
0
346
0
  0
LAYOUT
  5
319
102
{ACAD_REACTORS
330
1A
102
}
100
AcDbPlotSettings
  1

  2
none_device
  4
ANSI_A_(11.00_x_8.50_Inches)
  6

 40
0.0
 41
0.0
 42
0.0
 43
0.0
 44
279.4
 45
215.9
 46
0.0
 47
0.0
 48
0.0
 49
0.0
140
0.0
141
0.0
142
1.0
143
1.0
 70
0
 72
0
 73
0
 74
0
  7

 75
0
147
1.0
148
0.0
149
0.0
100
AcDbLayout
  1
Layout1
 70
0
 71
1
 10
0.0
 20
0.0
 11
11.0
 21
8.5
 12
0.0
 22
0.0
 32
0.0
 14
0.0
 24
0.0
 34
0.0
 15
0.0
 25
0.0
 35
0.0
146
0.0
 13
0.0
 23
0.0
 33
0.0
 16
1.0
 26
0.0
 36
0.0
 17
0.0
 27
1.0
 37
0.0
 76
0
330
217
345
0
346
0
  0
ENDSEC
  0
EOF
