999
DXF file: 4774_right.dxf
999
Pro/ENGINEER 2018400 by Parametric Technology Corporation
  0
SECTION
  2
HEADER
  9
$ACADVER
  1
AC1027
  9
$DWGCODEPAGE
  3
ANSI_1252
  9
$EXTMAX
 10
11.0
 20
8.5
 30
0.0
  9
$EXTMIN
 10
0.0
 20
0.0
 30
0.0
  9
$LIMMIN
 10
0.0
 20
0.0
  9
$LIMMAX
 10
11.0
 20
8.5
  9
$VIEWCTR
 10
5.5
 20
4.25
  9
$VIEWSIZE
 40
8.5
  9
$CLAYER
  8
0
  9
$LTSCALE
 40
0.605
  9
$CELTYPE
  6
BYLAYER
  9
$DIMSCALE
 40
1.0
  9
$DIMASZ
 40
0.1
  9
$DIMEXO
 40
0.0625
  9
$DIMDLI
 40
0.418
  9
$DIMEXE
 40
0.125
  9
$DIMCEN
 40
0.099
  9
$DIMLFAC
 40
1.0
  9
$DIMBLK
  1
_FILLED
  9
$DIMALT
 70
1
  9
$DIMALTD
 70
1
  9
$DIMALTTD
 70
2
  9
$DIMALTF
 40
25.4
  9
$DIMTXT
 40
0.08
  9
$DIMTOL
 70
1
  9
$DIMLIM
 70
0
  9
$DIMTFAC
 40
1.0
  9
$DIMTP
 40
0.01
  9
$DIMTM
 40
0.01
  9
$DIMGAP
 40
0.09
  9
$DIMDSEP
 70
46
  9
$AUNITS
 70
0
  9
$PDMODE
 70
3
  9
$PDSIZE
 40
0.3125
  9
$HANDSEED
  5
2C1
  9
$TILEMODE
 70
1
  9
$MEASUREMENT
 70
0
  9
$INSUNITS
 70
1
  0
ENDSEC
  0
SECTION
  2
CLASSES
  0
CLASS
  1
ACDBDICTIONARYWDFLT
  2
AcDbDictionaryWithDefault
  3
AutoCAD 2000
 90
0
 91
1
280
0
281
0
  0
CLASS
  1
ACDBPLACEHOLDER
  2
AcDbPlaceHolder
  3
AutoCAD 2000
 90
0
 91
1
280
0
281
0
  0
CLASS
  1
LAYOUT
  2
AcDbLayout
  3
AutoCAD 2000
 90
0
 91
0
280
0
281
0
  0
ENDSEC
  0
SECTION
  2
TABLES
  0
TABLE
  2
VPORT
  5
8
100
AcDbSymbolTable
 70
2
  0
VPORT
  5
1F4
100
AcDbSymbolTableRecord
100
AcDbViewportTableRecord
  2
*ACTIVE
 70
0
 10
0.0
 20
0.0
 11
1.0
 21
1.0
 12
5.5
 22
4.25
 13
0.0
 23
0.0
 14
1.0
 24
1.0
 15
0.0
 25
0.0
 16
0.0
 26
0.0
 36
1.0
 17
0.0
 27
0.0
 37
0.0
 40
8.5
 41
1.2941176471
 42
50.0
 43
0.0
 44
0.0
 50
0.0
 51
0.0
 71
0
 72
100
 73
1
 74
1
 75
0
 76
0
 77
0
 78
0
  0
ENDTAB
  0
TABLE
  2
LTYPE
  5
5
100
AcDbSymbolTable
 70
6
  0
LTYPE
  5
14
100
AcDbSymbolTableRecord
100
AcDbLinetypeTableRecord
  2
BYBLOCK
 70
0
  3

 72
65
 73
0
 40
0.0
  0
LTYPE
  5
15
100
AcDbSymbolTableRecord
100
AcDbLinetypeTableRecord
  2
BYLAYER
 70
0
  3

 72
65
 73
0
 40
0.0
  0
LTYPE
  5
16
100
AcDbSymbolTableRecord
100
AcDbLinetypeTableRecord
  2
CONTINUOUS
 70
64
  3
Solid line
 72
65
 73
0
 40
0.0
  0
LTYPE
  5
1F5
100
AcDbSymbolTableRecord
100
AcDbLinetypeTableRecord
  2
CENTER
 70
64
  3
____ _ ____ _ ____ _ ____ _ ____ _ ____ _ ____
 72
65
 73
4
 40
0.6
 49
0.375
 74
0
 49
-0.075
 74
0
 49
0.075
 74
0
 49
-0.075
 74
0
  0
LTYPE
  5
1F6
100
AcDbSymbolTableRecord
100
AcDbLinetypeTableRecord
  2
HIDDEN
 70
64
  3
- - - - - - - - - - - - - - - - - - - -
 72
65
 73
2
 40
0.2
 49
0.1
 74
0
 49
-0.1
 74
0
  0
LTYPE
  5
1F7
100
AcDbSymbolTableRecord
100
AcDbLinetypeTableRecord
  2
PHANTOM
 70
64
  3
_____ _ _ _____ _ _ _____ _ _ _____
 72
65
 73
6
 40
0.8
 49
0.45
 74
0
 49
-0.05
 74
0
 49
0.1
 74
0
 49
-0.05
 74
0
 49
0.1
 74
0
 49
-0.05
 74
0
  0
LTYPE
  5
1F8
100
AcDbSymbolTableRecord
100
AcDbLinetypeTableRecord
  2
DOT
 70
64
  3
. . . . . . . . . . . . . . . . . . . .
 72
65
 73
2
 40
0.2
 49
0.1
 74
0
 49
-0.1
 74
0
  0
LTYPE
  5
1F9
100
AcDbSymbolTableRecord
100
AcDbLinetypeTableRecord
  2
DASHED
 70
64
  3
- - - - - - - - - - - - - - - - - - - -
 72
65
 73
2
 40
0.2
 49
0.1
 74
0
 49
-0.1
 74
0
  0
ENDTAB
  0
TABLE
  2
LAYER
  5
2
100
AcDbSymbolTable
 70
36
  0
LAYER
  5
10
100
AcDbSymbolTableRecord
100
AcDbLayerTableRecord
  2
0
 70
0
 62
7
  6
CONTINUOUS
370
-3
390
F
  0
LAYER
  5
1FA
100
AcDbSymbolTableRecord
100
AcDbLayerTableRecord
  2
DEFAULT_1
 70
0
 62
7
  6
CENTER
370
-3
390
F
  0
LAYER
  5
1FB
100
AcDbSymbolTableRecord
100
AcDbLayerTableRecord
  2
DEFAULT_2
 70
0
 62
8
  6
HIDDEN
370
-3
390
F
  0
LAYER
  5
1FC
100
AcDbSymbolTableRecord
100
AcDbLayerTableRecord
  2
DEFAULT_3
 70
0
 62
7
  6
PHANTOM
370
-3
390
F
  0
LAYER
  5
1FD
100
AcDbSymbolTableRecord
100
AcDbLayerTableRecord
  2
ALL_FEATURES
 70
0
 62
7
  6
CONTINUOUS
370
-3
390
F
  0
LAYER
  5
1FE
100
AcDbSymbolTableRecord
100
AcDbLayerTableRecord
  2
AXES_FEATURES
 70
0
 62
7
  6
CONTINUOUS
370
-3
390
F
  0
LAYER
  5
1FF
100
AcDbSymbolTableRecord
100
AcDbLayerTableRecord
  2
CHAMFER_FEATURES
 70
0
 62
7
  6
CONTINUOUS
370
-3
390
F
  0
LAYER
  5
200
100
AcDbSymbolTableRecord
100
AcDbLayerTableRecord
  2
CURVE_1
 70
0
 62
7
  6
CONTINUOUS
370
-3
390
F
  0
LAYER
  5
201
100
AcDbSymbolTableRecord
100
AcDbLayerTableRecord
  2
CURVE_2
 70
0
 62
7
  6
CONTINUOUS
370
-3
390
F
  0
LAYER
  5
202
100
AcDbSymbolTableRecord
100
AcDbLayerTableRecord
  2
CUT_FEATURES
 70
0
 62
7
  6
CONTINUOUS
370
-3
390
F
  0
LAYER
  5
203
100
AcDbSymbolTableRecord
100
AcDbLayerTableRecord
  2
DATUM_PLANES
 70
0
 62
7
  6
CONTINUOUS
370
-3
390
F
  0
LAYER
  5
204
100
AcDbSymbolTableRecord
100
AcDbLayerTableRecord
  2
DEFAULT_COORDINATE_SYSTEM
 70
0
 62
7
  6
CONTINUOUS
370
-3
390
F
  0
LAYER
  5
205
100
AcDbSymbolTableRecord
100
AcDbLayerTableRecord
  2
DEFAULT_DATUM_AXES
 70
0
 62
7
  6
CONTINUOUS
370
-3
390
F
  0
LAYER
  5
206
100
AcDbSymbolTableRecord
100
AcDbLayerTableRecord
  2
DEFAULT_DATUM_CURVES
 70
0
 62
7
  6
CONTINUOUS
370
-3
390
F
  0
LAYER
  5
207
100
AcDbSymbolTableRecord
100
AcDbLayerTableRecord
  2
DEFAULT_DATUM_PLANES
 70
0
 62
7
  6
CONTINUOUS
370
-3
390
F
  0
LAYER
  5
208
100
AcDbSymbolTableRecord
100
AcDbLayerTableRecord
  2
DEFAULT_SURFACES
 70
0
 62
7
  6
CONTINUOUS
370
-3
390
F
  0
LAYER
  5
209
100
AcDbSymbolTableRecord
100
AcDbLayerTableRecord
  2
DIMENSIONS
 70
0
 62
7
  6
CONTINUOUS
370
-3
390
F
  0
LAYER
  5
20A
100
AcDbSymbolTableRecord
100
AcDbLayerTableRecord
  2
HOLE_FEATURES
 70
0
 62
7
  6
CONTINUOUS
370
-3
390
F
  0
LAYER
  5
20B
100
AcDbSymbolTableRecord
100
AcDbLayerTableRecord
  2
NOTES
 70
0
 62
7
  6
CONTINUOUS
370
-3
390
F
  0
LAYER
  5
20C
100
AcDbSymbolTableRecord
100
AcDbLayerTableRecord
  2
PART_REFERENCE_DIMENSIONS
 70
0
 62
7
  6
CONTINUOUS
370
-3
390
F
  0
LAYER
  5
20D
100
AcDbSymbolTableRecord
100
AcDbLayerTableRecord
  2
PLATED_SURFACE
 70
0
 62
7
  6
CONTINUOUS
370
-3
390
F
  0
LAYER
  5
20E
100
AcDbSymbolTableRecord
100
AcDbLayerTableRecord
  2
PROTRUSION_FEATURES
 70
0
 62
7
  6
CONTINUOUS
370
-3
390
F
  0
LAYER
  5
20F
100
AcDbSymbolTableRecord
100
AcDbLayerTableRecord
  2
QUILT
 70
0
 62
7
  6
CONTINUOUS
370
-3
390
F
  0
LAYER
  5
210
100
AcDbSymbolTableRecord
100
AcDbLayerTableRecord
  2
QUILTS
 70
0
 62
7
  6
CONTINUOUS
370
-3
390
F
  0
LAYER
  5
211
100
AcDbSymbolTableRecord
100
AcDbLayerTableRecord
  2
REFERENCE_DIMENSIONS
 70
0
 62
7
  6
CONTINUOUS
370
-3
390
F
  0
LAYER
  5
212
100
AcDbSymbolTableRecord
100
AcDbLayerTableRecord
  2
ROUND_FEATURES
 70
0
 62
7
  6
CONTINUOUS
370
-3
390
F
  0
LAYER
  5
213
100
AcDbSymbolTableRecord
100
AcDbLayerTableRecord
  2
WETTED_SURFACE
 70
0
 62
7
  6
CONTINUOUS
370
-3
390
F
  0
ENDTAB
  0
TABLE
  2
STYLE
  5
3
100
AcDbSymbolTable
 70
1
  0
STYLE
  5
11
100
AcDbSymbolTableRecord
100
AcDbTextStyleTableRecord
  2
STANDARD
 70
0
 40
0.0
 41
0.8
 50
0.0
 71
0
 42
0.2
  3
txt
  4

  0
STYLE
  5
214
100
AcDbSymbolTableRecord
100
AcDbTextStyleTableRecord
  2
TEXTSTYLE_1
 70
0
 40
0.0
 41
0.8
 50
0.0
 71
0
 42
0.2
  3
gdt
  4

  0
ENDTAB
  0
TABLE
  2
VIEW
  5
6
100
AcDbSymbolTable
 70
0
  0
ENDTAB
  0
TABLE
  2
UCS
  5
7
100
AcDbSymbolTable
 70
0
  0
ENDTAB
  0
TABLE
  2
APPID
  5
9
100
AcDbSymbolTable
 70
1
  0
APPID
  5
215
100
AcDbSymbolTableRecord
100
AcDbRegAppTableRecord
  2
ACAD
 70
0
  0
ENDTAB
  0
TABLE
  2
BLOCK_RECORD
  5
1
100
AcDbSymbolTable
 70
0
  0
BLOCK_RECORD
  5
216
100
AcDbSymbolTableRecord
100
AcDbBlockTableRecord
  2
*Model_Space
  0
BLOCK_RECORD
  5
217
100
AcDbSymbolTableRecord
100
AcDbBlockTableRecord
  2
*Paper_Space
  0
BLOCK_RECORD
  5
218
100
AcDbSymbolTableRecord
100
AcDbBlockTableRecord
  2
_FILLED
  0
ENDTAB
  0
TABLE
  2
DIMSTYLE
  5
A
100
AcDbSymbolTable
 70
1
100
AcDbDimStyleTable
 71
0
  0
DIMSTYLE
105
219
100
AcDbSymbolTableRecord
100
AcDbDimStyleTableRecord
  2
STANDARD
 70
0
  3

  4

 40
1.0
 41
0.1
 42
0.0625
 43
0.38
 44
0.125
 45
0.0
 46
0.0
 47
0.01
 48
0.01
140
0.08
141
0.09
142
0.0
143
25.4
144
1.0
145
0.0
146
1.0
147
0.09
 71
1.0
 72
0.0
 73
1
 74
1
 75
0
 76
0
 77
0
 78
4
 79
1
170
1
171
1
172
0
173
0
174
0
175
0
176
0
177
0
178
0
270
2
179
2
271
2
272
2
273
2
274
2
275
0
280
0
281
0
282
0
283
1
284
4
285
0
286
0
287
3
288
0
340
11
278
46
341
218
342
218
343
218
344
218
  0
ENDTAB
  0
ENDSEC
  0
SECTION
  2
BLOCKS
  0
BLOCK
  5
20
100
AcDbEntity
  8
0
100
AcDbBlockBegin
  2
*Model_Space
 70
0
 10
0.0
 20
0.0
 30
0.0
  3
*Model_Space
  1

  0
ENDBLK
  5
21
100
AcDbEntity
  8
0
100
AcDbBlockEnd
  0
BLOCK
  5
1C
100
AcDbEntity
  8
0
100
AcDbBlockBegin
  2
*Paper_Space
 70
0
 10
0.0
 20
0.0
 30
0.0
  3
*Paper_Space
  1

  0
ENDBLK
  5
1D
100
AcDbEntity
  8
0
100
AcDbBlockEnd
  0
BLOCK
  5
21A
100
AcDbEntity
  8
0
100
AcDbBlockBegin
  2
_FILLED
 70
64
 10
0.0
 20
0.0
  3
_FILLED
  1

  0
SOLID
  5
21B
100
AcDbEntity
  8
0
  6
BYBLOCK
 62
0
100
AcDbTrace
 10
0.0
 20
0.0
 11
-1.0
 21
0.2
 12
-1.0
 22
-0.2
 13
-1.0
 23
-0.2
  0
ENDBLK
  5
21C
100
AcDbEntity
  8
0
  6
BYBLOCK
 62
0
100
AcDbBlockEnd
  0
ENDSEC
  0
SECTION
  2
ENTITIES
  0
MTEXT
  5
21D
100
AcDbEntity
  8
0
100
AcDbMText
 62
2
  6
CONTINUOUS
  7
STANDARD
 71
3
 72
1
 10
4.9869153727
 20
0.7389906832
 30
0.0
 11
1.0
 21
0.0
 31
0.0
 73
2
 44
0.9
  1
SCALE  .250
 40
0.08
 41
0.704
  0
LINE
  5
21E
100
AcDbEntity
  8
0
100
AcDbLine
 62
7
  6
CONTINUOUS
 10
0.0
 20
0.0
 11
0.0
 21
8.5
  0
LINE
  5
21F
100
AcDbEntity
  8
0
100
AcDbLine
 62
7
  6
CONTINUOUS
 10
0.0
 20
0.0
 11
11.0
 21
0.0
  0
LINE
  5
220
100
AcDbEntity
  8
0
100
AcDbLine
 62
7
  6
CONTINUOUS
 10
0.0
 20
8.5
 11
11.0
 21
8.5
  0
LINE
  5
221
100
AcDbEntity
  8
0
100
AcDbLine
 62
7
  6
CONTINUOUS
 10
11.0
 20
0.0
 11
11.0
 21
8.5
  0
LINE
  5
222
100
AcDbEntity
  8
ALL_FEATURES
100
AcDbLine
 62
7
  6
CONTINUOUS
 10
4.6523602484
 20
1.3297593168
 11
4.4798602484
 21
1.3297593168
  0
LINE
  5
223
100
AcDbEntity
  8
ALL_FEATURES
100
AcDbLine
 62
7
  6
CONTINUOUS
 10
4.8618526597
 20
1.5696376878
 11
4.2703678372
 21
1.5696376878
  0
LINE
  5
224
100
AcDbEntity
  8
ALL_FEATURES
100
AcDbLine
 62
7
  6
CONTINUOUS
 10
4.8661102484
 20
1.5722593168
 11
4.2661102484
 21
1.5722593168
  0
LINE
  5
225
100
AcDbEntity
  8
ALL_FEATURES
100
AcDbLine
 62
7
  6
CONTINUOUS
 10
4.6973602484
 20
1.8463133892
 11
4.4348602484
 21
1.8463133892
  0
LINE
  5
226
100
AcDbEntity
  8
ALL_FEATURES
100
AcDbLine
 62
7
  6
CONTINUOUS
 10
4.6867162767
 20
1.8522593168
 11
4.4455042202
 21
1.8522593168
  0
LINE
  5
227
100
AcDbEntity
  8
ALL_FEATURES
100
AcDbLine
 62
7
  6
CONTINUOUS
 10
4.2703678372
 20
1.5696376878
 11
4.2661102484
 21
1.5722593168
  0
LINE
  5
228
100
AcDbEntity
  8
ALL_FEATURES
100
AcDbLine
 62
7
  6
CONTINUOUS
 10
4.6664852484
 20
2.5047593168
 11
4.4657352484
 21
2.5047593168
  0
LINE
  5
229
100
AcDbEntity
  8
ALL_FEATURES
100
AcDbLine
 62
7
  6
CONTINUOUS
 10
4.5062165798
 20
2.5772593168
 11
4.5552063454
 21
2.5772593168
  0
LINE
  5
22A
100
AcDbEntity
  8
ALL_FEATURES
100
AcDbLine
 62
7
  6
CONTINUOUS
 10
4.5770141515
 20
2.5772593168
 11
4.6260039171
 21
2.5772593168
  0
LINE
  5
22B
100
AcDbEntity
  8
0
100
AcDbLine
 62
7
  6
CONTINUOUS
 10
4.5293551382
 20
2.5921845182
 11
4.5598602484
 21
2.5745723846
  0
LINE
  5
22C
100
AcDbEntity
  8
0
100
AcDbLine
 62
7
  6
CONTINUOUS
 10
4.6265108835
 20
7.5464580466
 11
4.6163346134
 21
7.5288322296
  0
LINE
  5
22D
100
AcDbEntity
  8
0
100
AcDbLine
 62
7
  6
CONTINUOUS
 10
4.6442352485
 20
2.8457593168
 11
4.4879852484
 21
2.8457593168
  0
LINE
  5
22E
100
AcDbEntity
  8
0
100
AcDbLine
 62
7
  6
CONTINUOUS
 10
4.6442352485
 20
2.9505093168
 11
4.4879852484
 21
2.9505093168
  0
LINE
  5
22F
100
AcDbEntity
  8
ALL_FEATURES
100
AcDbLine
 62
7
  6
CONTINUOUS
 10
4.4958820322
 20
2.8287499753
 11
4.5031410842
 21
2.8245533516
  0
LINE
  5
230
100
AcDbEntity
  8
ALL_FEATURES
100
AcDbLine
 62
7
  6
CONTINUOUS
 10
4.4958820324
 20
2.8412499782
 11
4.5031410844
 21
2.8370533546
  0
LINE
  5
231
100
AcDbEntity
  8
ALL_FEATURES
100
AcDbLine
 62
7
  6
CONTINUOUS
 10
4.3755945778
 20
2.579950178
 11
4.4488011096
 21
2.5067436461
  0
LINE
  5
232
100
AcDbEntity
  8
0
100
AcDbLine
 62
7
  6
CONTINUOUS
 10
4.6028653587
 20
2.8023341153
 11
4.5723602484
 21
2.819946249
  0
LINE
  5
233
100
AcDbEntity
  8
ALL_FEATURES
100
AcDbLine
 62
7
  6
CONTINUOUS
 10
4.6363384647
 20
2.8266067272
 11
4.6290794127
 21
2.8308033509
  0
LINE
  5
234
100
AcDbEntity
  8
ALL_FEATURES
100
AcDbLine
 62
7
  6
CONTINUOUS
 10
4.6363384646
 20
2.8391067366
 11
4.6290794124
 21
2.8433033604
  0
LINE
  5
235
100
AcDbEntity
  8
ALL_FEATURES
100
AcDbLine
 62
7
  6
CONTINUOUS
 10
4.4682911302
 20
2.6682582464
 11
4.5371091781
 21
2.5994401985
  0
LINE
  5
236
100
AcDbEntity
  8
ALL_FEATURES
100
AcDbLine
 62
7
  6
CONTINUOUS
 10
4.8661102484
 20
1.5722593168
 11
4.6973602484
 21
1.8463133892
  0
LINE
  5
237
100
AcDbEntity
  8
ALL_FEATURES
100
AcDbLine
 62
7
  6
CONTINUOUS
 10
4.5951113188
 20
2.795078435
 11
4.6639293667
 21
2.7262603871
  0
LINE
  5
238
100
AcDbEntity
  8
ALL_FEATURES
100
AcDbLine
 62
7
  6
CONTINUOUS
 10
4.6834193872
 20
2.8877749874
 11
4.7566259191
 21
2.8145684556
  0
LINE
  5
239
100
AcDbEntity
  8
ALL_FEATURES
100
AcDbLine
 62
7
  6
CONTINUOUS
 10
4.4958820322
 20
2.8287499753
 11
4.4957977484
 21
2.8288473943
  0
LINE
  5
23A
100
AcDbEntity
  8
ALL_FEATURES
100
AcDbLine
 62
7
  6
CONTINUOUS
 10
4.4958820324
 20
2.8412499782
 11
4.4957977484
 21
2.8413473976
  0
LINE
  5
23B
100
AcDbEntity
  8
ALL_FEATURES
100
AcDbLine
 62
7
  6
CONTINUOUS
 10
4.6363384647
 20
2.8266067272
 11
4.6364227484
 21
2.8265093081
  0
LINE
  5
23C
100
AcDbEntity
  8
ALL_FEATURES
100
AcDbLine
 62
7
  6
CONTINUOUS
 10
4.6363384646
 20
2.8391067366
 11
4.6364227484
 21
2.8390093174
  0
LINE
  5
23D
100
AcDbEntity
  8
ALL_FEATURES
100
AcDbLine
 62
7
  6
CONTINUOUS
 10
4.4542352484
 20
2.7454910119
 11
4.4542352484
 21
2.6490276216
  0
LINE
  5
23E
100
AcDbEntity
  8
0
100
AcDbLine
 62
7
  6
CONTINUOUS
 10
4.4567352484
 20
2.7414642073
 11
4.4567352484
 21
2.6530544262
  0
LINE
  5
23F
100
AcDbEntity
  8
ALL_FEATURES
100
AcDbLine
 62
7
  6
CONTINUOUS
 10
4.4604852484
 20
7.6347593168
 11
4.4604852484
 21
7.6660093168
  0
LINE
  5
240
100
AcDbEntity
  8
ALL_FEATURES
100
AcDbLine
 62
7
  6
CONTINUOUS
 10
4.4657352484
 20
2.5047593168
 11
4.4657352484
 21
2.535646242
  0
LINE
  5
241
100
AcDbEntity
  8
0
100
AcDbLine
 62
7
  6
CONTINUOUS
 10
4.4661102484
 20
7.6347593168
 11
4.4661102484
 21
7.6197593168
  0
LINE
  5
242
100
AcDbEntity
  8
ALL_FEATURES
100
AcDbLine
 62
7
  6
CONTINUOUS
 10
4.4798602484
 20
2.5047593168
 11
4.4798602484
 21
1.8522593168
  0
LINE
  5
243
100
AcDbEntity
  8
ALL_FEATURES
100
AcDbLine
 62
7
  6
CONTINUOUS
 10
4.4798602484
 20
1.5696376878
 11
4.4798602484
 21
1.3297593168
  0
LINE
  5
244
100
AcDbEntity
  8
0
100
AcDbLine
 62
7
  6
CONTINUOUS
 10
4.4879852484
 20
2.8457593168
 11
4.4879852484
 21
2.9505093168
  0
LINE
  5
245
100
AcDbEntity
  8
ALL_FEATURES
100
AcDbLine
 62
7
  6
CONTINUOUS
 10
4.4957977484
 20
2.8452593227
 11
4.4957977484
 21
2.8413473976
  0
LINE
  5
246
100
AcDbEntity
  8
ALL_FEATURES
100
AcDbLine
 62
7
  6
CONTINUOUS
 10
4.4957977484
 20
2.8327593117
 11
4.4957977484
 21
2.8288473943
  0
LINE
  5
247
100
AcDbEntity
  8
0
100
AcDbLine
 62
7
  6
CONTINUOUS
 10
4.5023602484
 20
7.6197593168
 11
4.5023602484
 21
7.5589580466
  0
LINE
  5
248
100
AcDbEntity
  8
0
100
AcDbLine
 62
7
  6
CONTINUOUS
 10
4.5192352484
 20
7.5163322296
 11
4.5192352484
 21
2.9505093168
  0
LINE
  5
249
100
AcDbEntity
  8
0
100
AcDbLine
 62
7
  6
CONTINUOUS
 10
4.5661102484
 20
2.9384233372
 11
4.5661102484
 21
2.8578452963
  0
LINE
  5
24A
100
AcDbEntity
  8
0
100
AcDbLine
 62
7
  6
CONTINUOUS
 10
4.6129852484
 20
7.5163322296
 11
4.6129852484
 21
2.9505093168
  0
LINE
  5
24B
100
AcDbEntity
  8
0
100
AcDbLine
 62
7
  6
CONTINUOUS
 10
4.6298602484
 20
7.6197593168
 11
4.6298602484
 21
7.5589580466
  0
LINE
  5
24C
100
AcDbEntity
  8
ALL_FEATURES
100
AcDbLine
 62
7
  6
CONTINUOUS
 10
4.6364227484
 20
2.8390093174
 11
4.6364227484
 21
2.8350973937
  0
LINE
  5
24D
100
AcDbEntity
  8
ALL_FEATURES
100
AcDbLine
 62
7
  6
CONTINUOUS
 10
4.6364227484
 20
2.8265093081
 11
4.6364227484
 21
2.8257028456
  0
LINE
  5
24E
100
AcDbEntity
  8
0
100
AcDbLine
 62
7
  6
CONTINUOUS
 10
4.6442352484
 20
2.8457593168
 11
4.6442352484
 21
2.9505093168
  0
LINE
  5
24F
100
AcDbEntity
  8
ALL_FEATURES
100
AcDbLine
 62
7
  6
CONTINUOUS
 10
4.6523602484
 20
2.5047593168
 11
4.6523602484
 21
1.8522593168
  0
LINE
  5
250
100
AcDbEntity
  8
ALL_FEATURES
100
AcDbLine
 62
7
  6
CONTINUOUS
 10
4.6523602484
 20
1.5696376878
 11
4.6523602484
 21
1.3297593168
  0
LINE
  5
251
100
AcDbEntity
  8
0
100
AcDbLine
 62
7
  6
CONTINUOUS
 10
4.6661102484
 20
7.6347593168
 11
4.6661102484
 21
7.6197593168
  0
LINE
  5
252
100
AcDbEntity
  8
ALL_FEATURES
100
AcDbLine
 62
7
  6
CONTINUOUS
 10
4.6664852484
 20
2.5047593168
 11
4.6664852484
 21
2.535646242
  0
LINE
  5
253
100
AcDbEntity
  8
ALL_FEATURES
100
AcDbLine
 62
7
  6
CONTINUOUS
 10
4.6717352484
 20
7.6347593168
 11
4.6717352484
 21
7.6660093168
  0
LINE
  5
254
100
AcDbEntity
  8
0
100
AcDbLine
 62
7
  6
CONTINUOUS
 10
4.6754852484
 20
2.6530544262
 11
4.6754852484
 21
2.7414642073
  0
LINE
  5
255
100
AcDbEntity
  8
ALL_FEATURES
100
AcDbLine
 62
7
  6
CONTINUOUS
 10
4.6779852484
 20
2.7454910119
 11
4.6779852484
 21
2.6490276216
  0
LINE
  5
256
100
AcDbEntity
  8
ALL_FEATURES
100
AcDbLine
 62
7
  6
CONTINUOUS
 10
4.4958820322
 20
2.8453567419
 11
4.4957977484
 21
2.8452593227
  0
LINE
  5
257
100
AcDbEntity
  8
ALL_FEATURES
100
AcDbLine
 62
7
  6
CONTINUOUS
 10
4.4958820323
 20
2.8328567309
 11
4.4957977484
 21
2.8327593117
  0
LINE
  5
258
100
AcDbEntity
  8
ALL_FEATURES
100
AcDbLine
 62
7
  6
CONTINUOUS
 10
4.3755945778
 20
2.8145684556
 11
4.4488011096
 21
2.8877749874
  0
LINE
  5
259
100
AcDbEntity
  8
ALL_FEATURES
100
AcDbLine
 62
7
  6
CONTINUOUS
 10
4.2661102484
 20
1.5722593168
 11
4.4348602484
 21
1.8463133892
  0
LINE
  5
25A
100
AcDbEntity
  8
ALL_FEATURES
100
AcDbLine
 62
7
  6
CONTINUOUS
 10
4.6363384646
 20
2.8349999745
 11
4.6364227484
 21
2.8350973937
  0
LINE
  5
25B
100
AcDbEntity
  8
ALL_FEATURES
100
AcDbLine
 62
7
  6
CONTINUOUS
 10
4.4682911302
 20
2.7262603871
 11
4.5371091781
 21
2.795078435
  0
LINE
  5
25C
100
AcDbEntity
  8
ALL_FEATURES
100
AcDbLine
 62
7
  6
CONTINUOUS
 10
4.5951113188
 20
2.5994401985
 11
4.6639293667
 21
2.6682582464
  0
LINE
  5
25D
100
AcDbEntity
  8
ALL_FEATURES
100
AcDbLine
 62
7
  6
CONTINUOUS
 10
4.6834193872
 20
2.5067436461
 11
4.7566259191
 21
2.579950178
  0
LINE
  5
25E
100
AcDbEntity
  8
ALL_FEATURES
100
AcDbLine
 62
7
  6
CONTINUOUS
 10
4.4965784655
 20
2.8457593168
 11
4.4958820322
 21
2.8453567419
  0
LINE
  5
25F
100
AcDbEntity
  8
ALL_FEATURES
100
AcDbLine
 62
7
  6
CONTINUOUS
 10
4.5033294565
 20
2.8371622736
 11
4.5031410844
 21
2.8370533546
  0
LINE
  5
260
100
AcDbEntity
  8
ALL_FEATURES
100
AcDbLine
 62
7
  6
CONTINUOUS
 10
4.5031410844
 20
2.8370533546
 11
4.4958820323
 21
2.8328567309
  0
LINE
  5
261
100
AcDbEntity
  8
ALL_FEATURES
100
AcDbLine
 62
7
  6
CONTINUOUS
 10
4.5033294558
 20
2.8246622703
 11
4.5031410842
 21
2.8245533516
  0
LINE
  5
262
100
AcDbEntity
  8
ALL_FEATURES
100
AcDbLine
 62
7
  6
CONTINUOUS
 10
4.5031410842
 20
2.8245533516
 11
4.4995831205
 21
2.8224962634
  0
LINE
  5
263
100
AcDbEntity
  8
ALL_FEATURES
100
AcDbLine
 62
7
  6
CONTINUOUS
 10
4.6288910401
 20
2.8431944414
 11
4.6290794124
 21
2.8433033604
  0
LINE
  5
264
100
AcDbEntity
  8
ALL_FEATURES
100
AcDbLine
 62
7
  6
CONTINUOUS
 10
4.6290794124
 20
2.8433033604
 11
4.6333273229
 21
2.8457593168
  0
LINE
  5
265
100
AcDbEntity
  8
ALL_FEATURES
100
AcDbLine
 62
7
  6
CONTINUOUS
 10
4.6288910407
 20
2.830694432
 11
4.6290794127
 21
2.8308033509
  0
LINE
  5
266
100
AcDbEntity
  8
ALL_FEATURES
100
AcDbLine
 62
7
  6
CONTINUOUS
 10
4.6290794127
 20
2.8308033509
 11
4.6363384646
 21
2.8349999745
  0
LINE
  5
267
100
AcDbEntity
  8
0
100
AcDbLine
 62
7
  6
CONTINUOUS
 10
4.5598602484
 20
2.819946249
 11
4.5293551378
 21
2.8023341151
  0
LINE
  5
268
100
AcDbEntity
  8
0
100
AcDbLine
 62
7
  6
CONTINUOUS
 10
4.5057096134
 20
7.5464580466
 11
4.5158858835
 21
7.5288322296
  0
LINE
  5
269
100
AcDbEntity
  8
0
100
AcDbLine
 62
7
  6
CONTINUOUS
 10
4.5723602484
 20
2.5745723846
 11
4.6028653591
 21
2.5921845184
  0
LINE
  5
26A
100
AcDbEntity
  8
ALL_FEATURES
100
AcDbLine
 62
7
  6
CONTINUOUS
 10
4.8618526597
 20
1.5696376878
 11
4.8661102484
 21
1.5722593168
  0
LINE
  5
26B
100
AcDbEntity
  8
0
100
AcDbLine
 62
7
  6
CONTINUOUS
 10
4.5192352484
 20
7.5163322296
 11
4.6129852484
 21
7.5163322296
  0
LINE
  5
26C
100
AcDbEntity
  8
0
100
AcDbLine
 62
7
  6
CONTINUOUS
 10
4.5287815611
 20
7.5288305956
 11
4.6163346134
 21
7.5288322296
  0
LINE
  5
26D
100
AcDbEntity
  8
0
100
AcDbLine
 62
7
  6
CONTINUOUS
 10
4.6265108835
 20
7.5464580466
 11
4.5057096134
 21
7.5464580466
  0
LINE
  5
26E
100
AcDbEntity
  8
0
100
AcDbLine
 62
7
  6
CONTINUOUS
 10
4.6298602484
 20
7.5589580466
 11
4.5023602484
 21
7.5589580466
  0
LINE
  5
26F
100
AcDbEntity
  8
0
100
AcDbLine
 62
7
  6
CONTINUOUS
 10
4.6661102484
 20
7.6197593168
 11
4.4661102484
 21
7.6197593168
  0
LINE
  5
270
100
AcDbEntity
  8
ALL_FEATURES
100
AcDbLine
 62
7
  6
CONTINUOUS
 10
4.4604852484
 20
7.6347593168
 11
4.6717352484
 21
7.6347593168
  0
LINE
  5
271
100
AcDbEntity
  8
ALL_FEATURES
100
AcDbLine
 62
7
  6
CONTINUOUS
 10
4.4604852484
 20
7.6660093168
 11
4.6717352484
 21
7.6660093168
  0
LINE
  5
272
100
AcDbEntity
  8
0
100
AcDbLine
 62
7
  6
CONTINUOUS
 10
4.5158858835
 20
7.5288322296
 11
4.5287815611
 21
7.5288305956
  0
ARC
  5
273
100
AcDbEntity
  8
ALL_FEATURES
100
AcDbCircle
 62
7
  6
CONTINUOUS
 10
4.5121300361
 20
2.9685620282
 40
0.1893847612
100
AcDbArc
 50
298.1588150726
 51
334.7495244142
  0
ARC
  5
274
100
AcDbEntity
  8
ALL_FEATURES
100
AcDbCircle
 62
7
  6
CONTINUOUS
 10
4.5121300361
 20
2.4259566054
 40
0.1893847612
100
AcDbArc
 50
25.2504755858
 51
61.8411523251
  0
ARC
  5
275
100
AcDbEntity
  8
ALL_FEATURES
100
AcDbCircle
 62
7
  6
CONTINUOUS
 10
4.294807537
 20
2.7512395291
 40
0.1893847612
100
AcDbArc
 50
295.2504853095
 51
331.8411523251
  0
ARC
  5
276
100
AcDbEntity
  8
ALL_FEATURES
100
AcDbCircle
 62
7
  6
CONTINUOUS
 10
4.294807537
 20
2.6432791044
 40
0.1893847612
100
AcDbArc
 50
28.1588150726
 51
64.7495146939
  0
ARC
  5
277
100
AcDbEntity
  8
ALL_FEATURES
100
AcDbCircle
 62
7
  6
CONTINUOUS
 10
4.3956540644
 20
2.6972593168
 40
0.0749999723
100
AcDbArc
 50
331.8411523252
 51
28.1587653497
  0
ARC
  5
278
100
AcDbEntity
  8
0
100
AcDbCircle
 62
7
  6
CONTINUOUS
 10
4.5660818562
 20
2.867112089
 40
0.0743965377
100
AcDbArc
 50
264.5974736581
 51
269.9994401172
  0
ARC
  5
279
100
AcDbEntity
  8
ALL_FEATURES
100
AcDbCircle
 62
7
  6
CONTINUOUS
 10
4.3990562714
 20
2.5302053397
 40
0.055
100
AcDbArc
 50
115.2504755858
 51
334.7495244142
  0
ARC
  5
27A
100
AcDbEntity
  8
ALL_FEATURES
100
AcDbCircle
 62
7
  6
CONTINUOUS
 10
4.3990562714
 20
2.8643132938
 40
0.055
100
AcDbArc
 50
25.2504755858
 51
244.7495244142
  0
ARC
  5
27B
100
AcDbEntity
  8
ALL_FEATURES
100
AcDbCircle
 62
7
  6
CONTINUOUS
 10
4.4455042202
 20
1.8397593168
 40
0.0125
100
AcDbArc
 50
90.0
 51
148.3771329645
  0
ARC
  5
27C
100
AcDbEntity
  8
0
100
AcDbCircle
 62
7
  6
CONTINUOUS
 10
4.5273602484
 20
7.5589580466
 40
0.025
100
AcDbArc
 50
180.0
 51
210.000000283
  0
ARC
  5
27D
100
AcDbEntity
  8
0
100
AcDbCircle
 62
7
  6
CONTINUOUS
 10
4.4942352484
 20
7.5163322296
 40
0.025
100
AcDbArc
 50
0.0
 51
30.000000539
  0
ARC
  5
27E
100
AcDbEntity
  8
ALL_FEATURES
100
AcDbCircle
 62
7
  6
CONTINUOUS
 10
4.8374129598
 20
2.6432791044
 40
0.1893847612
100
AcDbArc
 50
115.2504755858
 51
151.8411723929
  0
ARC
  5
27F
100
AcDbEntity
  8
ALL_FEATURES
100
AcDbCircle
 62
7
  6
CONTINUOUS
 10
4.8374129598
 20
2.7512395291
 40
0.1893847612
100
AcDbArc
 50
208.1588515003
 51
244.7495244142
  0
ARC
  5
280
100
AcDbEntity
  8
ALL_FEATURES
100
AcDbCircle
 62
7
  6
CONTINUOUS
 10
4.6200904608
 20
2.4259566054
 40
0.1893847612
100
AcDbArc
 50
118.1588150726
 51
154.7495146939
  0
ARC
  5
281
100
AcDbEntity
  8
ALL_FEATURES
100
AcDbCircle
 62
7
  6
CONTINUOUS
 10
4.6200904608
 20
2.9685620282
 40
0.1893847612
100
AcDbArc
 50
205.2504853095
 51
241.8411523251
  0
ARC
  5
282
100
AcDbEntity
  8
ALL_FEATURES
100
AcDbCircle
 62
7
  6
CONTINUOUS
 10
4.7365664486
 20
2.6972593168
 40
0.07499998
100
AcDbArc
 50
151.8412088343
 51
208.1588515005
  0
ARC
  5
283
100
AcDbEntity
  8
ALL_FEATURES
100
AcDbCircle
 62
7
  6
CONTINUOUS
 10
4.5661102484
 20
2.8677155008
 40
0.0749999723
100
AcDbArc
 50
241.8411523252
 51
264.6192824556
  0
ARC
  5
284
100
AcDbEntity
  8
ALL_FEATURES
100
AcDbCircle
 62
7
  6
CONTINUOUS
 10
4.5661102484
 20
2.8677155008
 40
0.0749999723
100
AcDbArc
 50
269.977754336
 51
298.1587653497
  0
ARC
  5
285
100
AcDbEntity
  8
ALL_FEATURES
100
AcDbCircle
 62
7
  6
CONTINUOUS
 10
4.5661102484
 20
2.5268031328
 40
0.0749999723
100
AcDbArc
 50
61.8411523252
 51
118.1587653497
  0
CIRCLE
  5
286
100
AcDbEntity
  8
ALL_FEATURES
100
AcDbCircle
 62
7
  6
CONTINUOUS
 10
4.5661102484
 20
2.6972593168
 40
0.058
  0
ARC
  5
287
100
AcDbEntity
  8
ALL_FEATURES
100
AcDbCircle
 62
7
  6
CONTINUOUS
 10
4.7331642255
 20
2.8643132938
 40
0.055
100
AcDbArc
 50
295.2504755858
 51
154.7495244142
  0
ARC
  5
288
100
AcDbEntity
  8
ALL_FEATURES
100
AcDbCircle
 62
7
  6
CONTINUOUS
 10
4.7331642255
 20
2.5302053397
 40
0.055
100
AcDbArc
 50
205.2504755858
 51
64.7495244142
  0
CIRCLE
  5
289
100
AcDbEntity
  8
ALL_FEATURES
100
AcDbCircle
 62
7
  6
CONTINUOUS
 10
4.5661102484
 20
2.6972593168
 40
0.04375
  0
ARC
  5
28A
100
AcDbEntity
  8
0
100
AcDbCircle
 62
7
  6
CONTINUOUS
 10
4.5661102484
 20
2.5853977021
 40
0.0125
100
AcDbArc
 50
240.0
 51
300.0
  0
ARC
  5
28B
100
AcDbEntity
  8
0
100
AcDbCircle
 62
7
  6
CONTINUOUS
 10
4.5661102484
 20
2.8091209314
 40
0.0125
100
AcDbArc
 50
60.0
 51
120.0
  0
ARC
  5
28C
100
AcDbEntity
  8
ALL_FEATURES
100
AcDbCircle
 62
7
  6
CONTINUOUS
 10
4.6867162767
 20
1.8397593168
 40
0.0125
100
AcDbArc
 50
31.6228670355
 51
90.0
  0
ARC
  5
28D
100
AcDbEntity
  8
0
100
AcDbCircle
 62
7
  6
CONTINUOUS
 10
4.6048602484
 20
7.5589580466
 40
0.025
100
AcDbArc
 50
329.999999717
 51
360.0
  0
ARC
  5
28E
100
AcDbEntity
  8
0
100
AcDbCircle
 62
7
  6
CONTINUOUS
 10
4.6379852484
 20
7.5163322296
 40
0.025
100
AcDbArc
 50
149.999999461
 51
180.0
  0
SPLINE
  5
28F
100
AcDbEntity
  8
0
100
AcDbSpline
 62
7
  6
CONTINUOUS
 70
0
 71
3
 72
16
 73
12
 74
0
 42
0.0000001
 43
0.0000001
 44
0.0000000001
 40
0.0
 40
0.0
 40
0.0
 40
0.0
 40
0.1233443788
 40
0.2469207542
 40
0.3709071582
 40
0.495450665
 40
0.5579628683
 40
0.6206375645
 40
0.7464604167
 40
0.8729307679
 40
1.0
 40
1.0
 40
1.0
 40
1.0
 10
4.5270477484
 20
2.8457593168
 30
0.0
 10
4.5287485051
 20
2.8457593168
 30
0.0
 10
4.532155032
 20
2.8459083046
 30
0.0
 10
4.537232219
 20
2.846569245
 30
0.0
 10
4.5422548483
 20
2.8476426877
 30
0.0
 10
4.546374445
 20
2.848849187
 30
0.0
 10
4.5496271724
 20
2.8499807105
 30
0.0
 10
4.5528594936
 20
2.8512195526
 30
0.0
 10
4.5568448546
 20
2.8529514427
 30
0.0
 10
4.5615318423
 20
2.8552781037
 30
0.0
 10
4.5645928702
 20
2.8569692376
 30
0.0
 10
4.5661102484
 20
2.8578452963
 30
0.0
  0
SPLINE
  5
290
100
AcDbEntity
  8
0
100
AcDbSpline
 62
7
  6
CONTINUOUS
 70
0
 71
3
 72
16
 73
12
 74
0
 42
0.0000001
 43
0.0000001
 44
0.0000000001
 40
0.0
 40
0.0
 40
0.0
 40
0.0
 40
0.1270692381
 40
0.253539593
 40
0.3793624411
 40
0.4420371305
 40
0.5045493276
 40
0.6290928215
 40
0.7530792198
 40
0.8766556084
 40
1.0
 40
1.0
 40
1.0
 40
1.0
 10
4.4879852484
 20
2.8578452963
 30
0.0
 10
4.4895026268
 20
2.8569692375
 30
0.0
 10
4.4925636548
 20
2.8552781035
 30
0.0
 10
4.4972506426
 20
2.8529514426
 30
0.0
 10
4.5012360034
 20
2.8512195525
 30
0.0
 10
4.5044683244
 20
2.8499807105
 30
0.0
 10
4.5077210515
 20
2.8488491872
 30
0.0
 10
4.5118406478
 20
2.8476426878
 30
0.0
 10
4.5168632771
 20
2.8465692452
 30
0.0
 10
4.5219404644
 20
2.8459083049
 30
0.0
 10
4.5253469916
 20
2.8457593168
 30
0.0
 10
4.5270477484
 20
2.8457593168
 30
0.0
  0
SPLINE
  5
291
100
AcDbEntity
  8
0
100
AcDbSpline
 62
7
  6
CONTINUOUS
 70
0
 71
3
 72
16
 73
12
 74
0
 42
0.0000001
 43
0.0000001
 44
0.0000000001
 40
0.0
 40
0.0
 40
0.0
 40
0.0
 40
0.1270692381
 40
0.253539593
 40
0.3793624411
 40
0.4420371305
 40
0.5045493276
 40
0.6290928215
 40
0.7530792198
 40
0.8766556084
 40
1.0
 40
1.0
 40
1.0
 40
1.0
 10
4.4879852484
 20
2.9384233372
 30
0.0
 10
4.4895026268
 20
2.939299396
 30
0.0
 10
4.4925636548
 20
2.94099053
 30
0.0
 10
4.4972506426
 20
2.9433171909
 30
0.0
 10
4.5012360034
 20
2.945049081
 30
0.0
 10
4.5044683244
 20
2.946287923
 30
0.0
 10
4.5077210515
 20
2.9474194464
 30
0.0
 10
4.5118406478
 20
2.9486259457
 30
0.0
 10
4.5168632771
 20
2.9496993884
 30
0.0
 10
4.5219404644
 20
2.9503603287
 30
0.0
 10
4.5253469916
 20
2.9505093168
 30
0.0
 10
4.5270477484
 20
2.9505093168
 30
0.0
  0
SPLINE
  5
292
100
AcDbEntity
  8
0
100
AcDbSpline
 62
7
  6
CONTINUOUS
 70
0
 71
3
 72
16
 73
12
 74
0
 42
0.0000001
 43
0.0000001
 44
0.0000000001
 40
0.0
 40
0.0
 40
0.0
 40
0.0
 40
0.1270692381
 40
0.253539593
 40
0.3793624411
 40
0.4420371305
 40
0.5045493276
 40
0.6290928215
 40
0.7530792198
 40
0.8766556084
 40
1.0
 40
1.0
 40
1.0
 40
1.0
 10
4.5661102484
 20
2.9384233372
 30
0.0
 10
4.5676276268
 20
2.939299396
 30
0.0
 10
4.5706886548
 20
2.94099053
 30
0.0
 10
4.5753756426
 20
2.9433171909
 30
0.0
 10
4.5793610034
 20
2.945049081
 30
0.0
 10
4.5825933244
 20
2.946287923
 30
0.0
 10
4.5858460515
 20
2.9474194464
 30
0.0
 10
4.5899656478
 20
2.9486259457
 30
0.0
 10
4.5949882771
 20
2.9496993884
 30
0.0
 10
4.6000654644
 20
2.9503603287
 30
0.0
 10
4.6034719916
 20
2.9505093168
 30
0.0
 10
4.6051727484
 20
2.9505093168
 30
0.0
  0
SPLINE
  5
293
100
AcDbEntity
  8
0
100
AcDbSpline
 62
7
  6
CONTINUOUS
 70
0
 71
3
 72
16
 73
12
 74
0
 42
0.0000001
 43
0.0000001
 44
0.0000000001
 40
0.0
 40
0.0
 40
0.0
 40
0.0
 40
0.1233443788
 40
0.2469207542
 40
0.3709071582
 40
0.495450665
 40
0.5579628683
 40
0.6206375645
 40
0.7464604167
 40
0.8729307679
 40
1.0
 40
1.0
 40
1.0
 40
1.0
 10
4.6051727484
 20
2.9505093168
 30
0.0
 10
4.6068735051
 20
2.9505093168
 30
0.0
 10
4.610280032
 20
2.9503603289
 30
0.0
 10
4.615357219
 20
2.9496993885
 30
0.0
 10
4.6203798483
 20
2.9486259458
 30
0.0
 10
4.624499445
 20
2.9474194465
 30
0.0
 10
4.6277521724
 20
2.946287923
 30
0.0
 10
4.6309844936
 20
2.9450490809
 30
0.0
 10
4.6349698546
 20
2.9433171909
 30
0.0
 10
4.6396568423
 20
2.9409905298
 30
0.0
 10
4.6427178702
 20
2.939299396
 30
0.0
 10
4.6442352484
 20
2.9384233372
 30
0.0
  0
SPLINE
  5
294
100
AcDbEntity
  8
0
100
AcDbSpline
 62
7
  6
CONTINUOUS
 70
0
 71
3
 72
16
 73
12
 74
0
 42
0.0000001
 43
0.0000001
 44
0.0000000001
 40
0.0
 40
0.0
 40
0.0
 40
0.0
 40
0.1233443788
 40
0.2469207542
 40
0.3709071582
 40
0.495450665
 40
0.5579628683
 40
0.6206375645
 40
0.7464604167
 40
0.8729307679
 40
1.0
 40
1.0
 40
1.0
 40
1.0
 10
4.5270477484
 20
2.9505093168
 30
0.0
 10
4.5287485051
 20
2.9505093168
 30
0.0
 10
4.532155032
 20
2.9503603289
 30
0.0
 10
4.537232219
 20
2.9496993885
 30
0.0
 10
4.5422548483
 20
2.9486259458
 30
0.0
 10
4.546374445
 20
2.9474194465
 30
0.0
 10
4.5496271724
 20
2.946287923
 30
0.0
 10
4.5528594936
 20
2.9450490809
 30
0.0
 10
4.5568448546
 20
2.9433171909
 30
0.0
 10
4.5615318423
 20
2.9409905298
 30
0.0
 10
4.5645928702
 20
2.939299396
 30
0.0
 10
4.5661102484
 20
2.9384233372
 30
0.0
  0
SPLINE
  5
295
100
AcDbEntity
  8
0
100
AcDbSpline
 62
7
  6
CONTINUOUS
 70
0
 71
3
 72
16
 73
12
 74
0
 42
0.0000001
 43
0.0000001
 44
0.0000000001
 40
0.0
 40
0.0
 40
0.0
 40
0.0
 40
0.1233443788
 40
0.2469207542
 40
0.3709071582
 40
0.495450665
 40
0.5579628683
 40
0.6206375645
 40
0.7464604167
 40
0.8729307679
 40
1.0
 40
1.0
 40
1.0
 40
1.0
 10
4.6051727484
 20
2.8457593168
 30
0.0
 10
4.6068735051
 20
2.8457593168
 30
0.0
 10
4.610280032
 20
2.8459083046
 30
0.0
 10
4.615357219
 20
2.846569245
 30
0.0
 10
4.6203798483
 20
2.8476426877
 30
0.0
 10
4.624499445
 20
2.848849187
 30
0.0
 10
4.6277521724
 20
2.8499807105
 30
0.0
 10
4.6309844936
 20
2.8512195526
 30
0.0
 10
4.6349698546
 20
2.8529514427
 30
0.0
 10
4.6396568423
 20
2.8552781037
 30
0.0
 10
4.6427178702
 20
2.8569692376
 30
0.0
 10
4.6442352484
 20
2.8578452963
 30
0.0
  0
SPLINE
  5
296
100
AcDbEntity
  8
0
100
AcDbSpline
 62
7
  6
CONTINUOUS
 70
0
 71
3
 72
16
 73
12
 74
0
 42
0.0000001
 43
0.0000001
 44
0.0000000001
 40
0.0
 40
0.0
 40
0.0
 40
0.0
 40
0.1270692381
 40
0.253539593
 40
0.3793624411
 40
0.4420371305
 40
0.5045493276
 40
0.6290928215
 40
0.7530792198
 40
0.8766556084
 40
1.0
 40
1.0
 40
1.0
 40
1.0
 10
4.5661102484
 20
2.8578452963
 30
0.0
 10
4.5676276268
 20
2.8569692375
 30
0.0
 10
4.5706886548
 20
2.8552781035
 30
0.0
 10
4.5753756426
 20
2.8529514426
 30
0.0
 10
4.5793610034
 20
2.8512195525
 30
0.0
 10
4.5825933244
 20
2.8499807105
 30
0.0
 10
4.5858460515
 20
2.8488491872
 30
0.0
 10
4.5899656478
 20
2.8476426878
 30
0.0
 10
4.5949882771
 20
2.8465692452
 30
0.0
 10
4.6000654644
 20
2.8459083049
 30
0.0
 10
4.6034719916
 20
2.8457593168
 30
0.0
 10
4.6051727484
 20
2.8457593168
 30
0.0
  0
LINE
  5
297
100
AcDbEntity
  8
ALL_FEATURES
100
AcDbLine
 62
7
  6
CONTINUOUS
 10
4.6639293667
 20
2.6682582464
 11
4.6704432017
 21
2.661865558
  0
SPLINE
  5
298
100
AcDbEntity
  8
ALL_FEATURES
100
AcDbSpline
 62
7
  6
CONTINUOUS
 70
0
 71
3
 72
15
 73
11
 74
0
 42
0.0000001
 43
0.0000001
 44
0.0000000001
 40
0.0
 40
0.0
 40
0.0
 40
0.0
 40
0.1244885994
 40
0.2494269304
 40
0.3746351566
 40
0.4999999989
 40
0.6253648413
 40
0.7505730678
 40
0.8755113995
 40
1.0
 40
1.0
 40
1.0
 40
1.0
 10
4.6639293714
 20
2.6682582485
 30
0.0
 10
4.6630284176
 20
2.6705502741
 30
0.0
 10
4.6614404954
 20
2.6752313257
 30
0.0
 10
4.6597261958
 20
2.6824522985
 30
0.0
 10
4.6586909882
 20
2.6898195341
 30
0.0
 10
4.6583446297
 20
2.6972593173
 30
0.0
 10
4.6586909868
 20
2.7046991007
 30
0.0
 10
4.659726193
 20
2.7120663365
 30
0.0
 10
4.6614404915
 20
2.7192873096
 30
0.0
 10
4.663028413
 20
2.7239683615
 30
0.0
 10
4.6639293666
 20
2.7262603872
 30
0.0
  0
LINE
  5
299
100
AcDbEntity
  8
ALL_FEATURES
100
AcDbLine
 62
7
  6
CONTINUOUS
 10
4.6639293667
 20
2.7262603871
 11
4.6704431763
 21
2.7326530278
  0
LINE
  5
29A
100
AcDbEntity
  8
ALL_FEATURES
100
AcDbLine
 62
7
  6
CONTINUOUS
 10
4.5307165566
 20
2.8015922127
 11
4.5371091781
 21
2.795078435
  0
SPLINE
  5
29B
100
AcDbEntity
  8
ALL_FEATURES
100
AcDbSpline
 62
7
  6
CONTINUOUS
 70
0
 71
3
 72
11
 73
7
 74
0
 42
0.0000001
 43
0.0000001
 44
0.0000000001
 40
0.0
 40
0.0
 40
0.0
 40
0.0
 40
0.2536513062
 40
0.5058677739
 40
0.75517127
 40
1.0
 40
1.0
 40
1.0
 40
1.0
 10
4.5661099354
 20
2.6972606084
 30
0.0
 10
4.5697028589
 20
2.6963802587
 30
0.0
 10
4.5768691197
 20
2.6946275562
 30
0.0
 10
4.587560249
 20
2.6919831704
 30
0.0
 10
4.598112251
 20
2.6893126681
 30
0.0
 10
4.6050836881
 20
2.6874871945
 30
0.0
 10
4.6085325623
 20
2.6865630697
 30
0.0
  0
SPLINE
  5
29C
100
AcDbEntity
  8
ALL_FEATURES
100
AcDbSpline
 62
7
  6
CONTINUOUS
 70
0
 71
3
 72
11
 73
7
 74
0
 42
0.0000001
 43
0.0000001
 44
0.0000000001
 40
0.0
 40
0.0
 40
0.0
 40
0.0
 40
0.2536513466
 40
0.5058676885
 40
0.7551711926
 40
1.0
 40
1.0
 40
1.0
 40
1.0
 10
4.5661102564
 20
2.6972593187
 30
0.0
 10
4.5697031296
 20
2.698139656
 30
0.0
 10
4.5768696944
 20
2.6998906749
 30
0.0
 10
4.5875605032
 20
2.7025357065
 30
0.0
 10
4.5981124194
 20
2.7052059147
 30
0.0
 10
4.605083707
 20
2.7070315608
 30
0.0
 10
4.6085325588
 20
2.7079555781
 30
0.0
  0
LINE
  5
29D
100
AcDbEntity
  8
ALL_FEATURES
100
AcDbLine
 62
7
  6
CONTINUOUS
 10
4.4617773525
 20
2.6618656249
 11
4.4682911302
 21
2.6682582464
  0
SPLINE
  5
29E
100
AcDbEntity
  8
ALL_FEATURES
100
AcDbSpline
 62
7
  6
CONTINUOUS
 70
0
 71
3
 72
11
 73
7
 74
0
 42
0.0000001
 43
0.0000001
 44
0.0000000001
 40
0.0
 40
0.0
 40
0.0
 40
0.0
 40
0.2964383407
 40
0.5704915121
 40
0.8116719324
 40
1.0
 40
1.0
 40
1.0
 40
1.0
 10
4.6222666725
 20
2.6827522139
 30
0.0
 10
4.6264577743
 20
2.6815439427
 30
0.0
 10
4.6344996885
 20
2.6791342514
 30
0.0
 10
4.6458415005
 20
2.6753866886
 30
0.0
 10
4.6555540533
 20
2.6717971366
 30
0.0
 10
4.6613935753
 20
2.6693756249
 30
0.0
 10
4.6639293667
 20
2.6682582464
 30
0.0
  0
LINE
  5
29F
100
AcDbEntity
  8
ALL_FEATURES
100
AcDbLine
 62
7
  6
CONTINUOUS
 10
4.6015039403
 20
2.5929264209
 11
4.5951113188
 21
2.5994401985
  0
SPLINE
  5
2A0
100
AcDbEntity
  8
ALL_FEATURES
100
AcDbSpline
 62
7
  6
CONTINUOUS
 70
0
 71
3
 72
13
 73
9
 74
0
 42
0.0000001
 43
0.0000001
 44
0.0000000001
 40
0.0
 40
0.0
 40
0.0
 40
0.0
 40
0.2964272155
 40
0.5704783905
 40
0.6961054085
 40
0.8116618538
 40
0.9143243967
 40
1.0
 40
1.0
 40
1.0
 40
1.0
 10
4.6222666913
 20
2.7117663498
 30
0.0
 10
4.6264577741
 20
2.7129744047
 30
0.0
 10
4.6344995191
 20
2.7153843139
 30
0.0
 10
4.6442269027
 20
2.7185984565
 30
0.0
 10
4.6513586423
 20
2.7211715337
 30
0.0
 10
4.6560844588
 20
2.7229793404
 30
0.0
 10
4.6602282898
 20
2.7246605056
 30
0.0
 10
4.6627758938
 20
2.7257517091
 30
0.0
 10
4.6639293667
 20
2.7262603871
 30
0.0
  0
LINE
  5
2A1
100
AcDbEntity
  8
ALL_FEATURES
100
AcDbLine
 62
7
  6
CONTINUOUS
 10
4.6015039417
 20
2.8015922137
 11
4.5951113188
 21
2.795078435
  0
SPLINE
  5
2A2
100
AcDbEntity
  8
ALL_FEATURES
100
AcDbSpline
 62
7
  6
CONTINUOUS
 70
0
 71
3
 72
11
 73
7
 74
0
 42
0.0000001
 43
0.0000001
 44
0.0000000001
 40
0.0
 40
0.0
 40
0.0
 40
0.0
 40
0.2448283365
 40
0.4941311604
 40
0.7463477563
 40
1.0
 40
1.0
 40
1.0
 40
1.0
 10
4.5554139836
 20
2.6548370074
 30
0.0
 10
4.5563380164
 20
2.658285902
 30
0.0
 10
4.5581636484
 20
2.6652572842
 30
0.0
 10
4.5608340607
 20
2.6758093009
 30
0.0
 10
4.5634784645
 20
2.6865004364
 30
0.0
 10
4.5652311989
 20
2.693666709
 30
0.0
 10
4.5661115822
 20
2.6972596401
 30
0.0
  0
SPLINE
  5
2A3
100
AcDbEntity
  8
ALL_FEATURES
100
AcDbSpline
 62
7
  6
CONTINUOUS
 70
0
 71
3
 72
11
 73
7
 74
0
 42
0.0000001
 43
0.0000001
 44
0.0000000001
 40
0.0
 40
0.0
 40
0.0
 40
0.0
 40
0.2448283359
 40
0.4941311644
 40
0.7463477459
 40
1.0
 40
1.0
 40
1.0
 40
1.0
 10
4.5768064968
 20
2.6548370034
 30
0.0
 10
4.575882356
 20
2.6582859279
 30
0.0
 10
4.5740568325
 20
2.6652574587
 30
0.0
 10
4.5713864295
 20
2.6758096542
 30
0.0
 10
4.5687414019
 20
2.6865008182
 30
0.0
 10
4.5669903329
 20
2.6936676199
 30
0.0
 10
4.5661099354
 20
2.6972606084
 30
0.0
  0
SPLINE
  5
2A4
100
AcDbEntity
  8
ALL_FEATURES
100
AcDbSpline
 62
7
  6
CONTINUOUS
 70
0
 71
3
 72
11
 73
7
 74
0
 42
0.0000001
 43
0.0000001
 44
0.0000000001
 40
0.0
 40
0.0
 40
0.0
 40
0.0
 40
0.1883348386
 40
0.4295133586
 40
0.7035678805
 40
1.0
 40
1.0
 40
1.0
 40
1.0
 10
4.5951113188
 20
2.5994401985
 30
0.0
 10
4.5939939415
 20
2.6019760992
 30
0.0
 10
4.5915724757
 20
2.6078157159
 30
0.0
 10
4.5879827797
 20
2.6175283104
 30
0.0
 10
4.5842351446
 20
2.6288699964
 30
0.0
 10
4.581825599
 20
2.6369118794
 30
0.0
 10
4.5806173585
 20
2.6411028947
 30
0.0
  0
SPLINE
  5
2A5
100
AcDbEntity
  8
ALL_FEATURES
100
AcDbSpline
 62
7
  6
CONTINUOUS
 70
0
 71
3
 72
15
 73
11
 74
0
 42
0.0000001
 43
0.0000001
 44
0.0000000001
 40
0.0
 40
0.0
 40
0.0
 40
0.0
 40
0.1244886014
 40
0.2494269337
 40
0.3746351604
 40
0.5000000025
 40
0.625364844
 40
0.7505730693
 40
0.8755114
 40
1.0
 40
1.0
 40
1.0
 40
1.0
 10
4.5951113287
 20
2.5994402205
 30
0.0
 10
4.5928193026
 20
2.6003411758
 30
0.0
 10
4.5881382499
 20
2.6019291003
 30
0.0
 10
4.5809172746
 20
2.6036434018
 30
0.0
 10
4.5735500362
 20
2.6046786095
 30
0.0
 10
4.5661102501
 20
2.6050249663
 30
0.0
 10
4.5586704642
 20
2.6046786058
 30
0.0
 10
4.5513032263
 20
2.6036433945
 30
0.0
 10
4.544082252
 20
2.6019290897
 30
0.0
 10
4.5394012
 20
2.6003411631
 30
0.0
 10
4.5371091744
 20
2.5994402069
 30
0.0
  0
SPLINE
  5
2A6
100
AcDbEntity
  8
ALL_FEATURES
100
AcDbSpline
 62
7
  6
CONTINUOUS
 70
0
 71
3
 72
14
 73
10
 74
0
 42
0.0000001
 43
0.0000001
 44
0.0000000001
 40
0.0
 40
0.0
 40
0.0
 40
0.0
 40
0.0856714514
 40
0.1883329644
 40
0.3038913049
 40
0.4295163729
 40
0.7035623262
 40
0.8494621869
 40
1.0
 40
1.0
 40
1.0
 40
1.0
 10
4.5371091781
 20
2.5994401985
 30
0.0
 10
4.5376178057
 20
2.6005936352
 30
0.0
 10
4.5387089834
 20
2.6031411825
 30
0.0
 10
4.5403907384
 20
2.6072847505
 30
0.0
 10
4.5421984347
 20
2.612010635
 30
0.0
 10
4.5447708575
 20
2.6191425534
 30
0.0
 10
4.5472898955
 20
2.6267665695
 30
0.0
 10
4.5497587965
 20
2.6347896975
 30
0.0
 10
4.5509897087
 20
2.6389744594
 30
0.0
 10
4.551603204
 20
2.641102877
 30
0.0
  0
LINE
  5
2A7
100
AcDbEntity
  8
ALL_FEATURES
100
AcDbLine
 62
7
  6
CONTINUOUS
 10
4.5307165552
 20
2.5929264198
 11
4.5371091781
 21
2.5994401985
  0
LINE
  5
2A8
100
AcDbEntity
  8
ALL_FEATURES
100
AcDbLine
 62
7
  6
CONTINUOUS
 10
4.4617773515
 20
2.73265301
 11
4.4682911302
 21
2.7262603871
  0
SPLINE
  5
2A9
100
AcDbEntity
  8
ALL_FEATURES
100
AcDbSpline
 62
7
  6
CONTINUOUS
 70
0
 71
3
 72
11
 73
7
 74
0
 42
0.0000001
 43
0.0000001
 44
0.0000000001
 40
0.0
 40
0.0
 40
0.0
 40
0.0
 40
0.244828349
 40
0.4941311818
 40
0.746347788
 40
1.0
 40
1.0
 40
1.0
 40
1.0
 10
4.5236879421
 20
2.7079555927
 30
0.0
 10
4.5271368146
 20
2.7070315582
 30
0.0
 10
4.5341081554
 20
2.7052059341
 30
0.0
 10
4.5446601089
 20
2.7025355327
 30
0.0
 10
4.5553511745
 20
2.6998911167
 30
0.0
 10
4.5625174593
 20
2.6981386159
 30
0.0
 10
4.5661104397
 20
2.6972585276
 30
0.0
  0
SPLINE
  5
2AA
100
AcDbEntity
  8
ALL_FEATURES
100
AcDbSpline
 62
7
  6
CONTINUOUS
 70
0
 71
3
 72
12
 73
8
 74
0
 42
0.0000001
 43
0.0000001
 44
0.0000000001
 40
0.0
 40
0.0
 40
0.0
 40
0.0
 40
0.2448175518
 40
0.4941313691
 40
0.6199675247
 40
0.7463599156
 40
1.0
 40
1.0
 40
1.0
 40
1.0
 10
4.5236879367
 20
2.686563063
 30
0.0
 10
4.5271367117
 20
2.6874871693
 30
0.0
 10
4.5341083938
 20
2.6893121517
 30
0.0
 10
4.5428735598
 20
2.6915312395
 30
0.0
 10
4.5499716549
 20
2.693297446
 30
0.0
 10
4.5571349121
 20
2.6950629968
 30
0.0
 10
4.5625188706
 20
2.6963788418
 30
0.0
 10
4.5661115822
 20
2.6972596401
 30
0.0
  0
SPLINE
  5
2AB
100
AcDbEntity
  8
ALL_FEATURES
100
AcDbSpline
 62
7
  6
CONTINUOUS
 70
0
 71
3
 72
11
 73
7
 74
0
 42
0.0000001
 43
0.0000001
 44
0.0000000001
 40
0.0
 40
0.0
 40
0.0
 40
0.0
 40
0.1883341925
 40
0.4295127469
 40
0.7035666187
 40
1.0
 40
1.0
 40
1.0
 40
1.0
 10
4.4682911302
 20
2.6682582464
 30
0.0
 10
4.4708270147
 20
2.6693756369
 30
0.0
 10
4.4766666457
 20
2.6717970451
 30
0.0
 10
4.4863791994
 20
2.6753867936
 30
0.0
 10
4.4977209096
 20
2.679134387
 30
0.0
 10
4.5057627889
 20
2.6815439751
 30
0.0
 10
4.5099538301
 20
2.6827521923
 30
0.0
  0
SPLINE
  5
2AC
100
AcDbEntity
  8
ALL_FEATURES
100
AcDbSpline
 62
7
  6
CONTINUOUS
 70
0
 71
3
 72
15
 73
11
 74
0
 42
0.0000001
 43
0.0000001
 44
0.0000000001
 40
0.0
 40
0.0
 40
0.0
 40
0.0
 40
0.1244886016
 40
0.249426934
 40
0.3746351607
 40
0.5000000027
 40
0.6253648442
 40
0.7505730694
 40
0.8755114
 40
1.0
 40
1.0
 40
1.0
 40
1.0
 10
4.4682911538
 20
2.6682582359
 30
0.0
 10
4.4691921092
 20
2.6705502619
 30
0.0
 10
4.4707800339
 20
2.6752313147
 30
0.0
 10
4.4724943355
 20
2.6824522901
 30
0.0
 10
4.4735295431
 20
2.6898195287
 30
0.0
 10
4.4738758998
 20
2.697259315
 30
0.0
 10
4.473529539
 20
2.704699101
 30
0.0
 10
4.4724943274
 20
2.7120663389
 30
0.0
 10
4.4707800221
 20
2.7192873133
 30
0.0
 10
4.4691920951
 20
2.7239683653
 30
0.0
 10
4.4682911387
 20
2.7262603909
 30
0.0
  0
SPLINE
  5
2AD
100
AcDbEntity
  8
ALL_FEATURES
100
AcDbSpline
 62
7
  6
CONTINUOUS
 70
0
 71
3
 72
15
 73
11
 74
0
 42
0.0000001
 43
0.0000001
 44
0.0000000001
 40
0.0
 40
0.0
 40
0.0
 40
0.0
 40
0.0856714958
 40
0.1351693296
 40
0.1883276352
 40
0.3038819285
 40
0.4295121351
 40
0.7035603443
 40
0.8494558327
 40
1.0
 40
1.0
 40
1.0
 40
1.0
 10
4.4682911302
 20
2.7262603871
 30
0.0
 10
4.4694445712
 20
2.7257517638
 30
0.0
 10
4.4712729655
 20
2.7249685251
 30
0.0
 10
4.4738349186
 20
2.7239122533
 30
0.0
 10
4.4768159451
 20
2.7227192331
 30
0.0
 10
4.4808615047
 20
2.7211718645
 30
0.0
 10
4.4879929026
 20
2.7185978393
 30
0.0
 10
4.4956173112
 20
2.7160797263
 30
0.0
 10
4.5036405623
 20
2.713611012
 30
0.0
 10
4.5078252955
 20
2.7123798742
 30
0.0
 10
4.5099538168
 20
2.711766391
 30
0.0
  0
SPLINE
  5
2AE
100
AcDbEntity
  8
ALL_FEATURES
100
AcDbSpline
 62
7
  6
CONTINUOUS
 70
0
 71
3
 72
11
 73
7
 74
0
 42
0.0000001
 43
0.0000001
 44
0.0000000001
 40
0.0
 40
0.0
 40
0.0
 40
0.0
 40
0.2448176152
 40
0.4941314431
 40
0.7463598262
 40
1.0
 40
1.0
 40
1.0
 40
1.0
 10
4.5768065243
 20
2.7396816231
 30
0.0
 10
4.5758825383
 20
2.7362329317
 30
0.0
 10
4.5740574965
 20
2.7292615005
 30
0.0
 10
4.5713860166
 20
2.7187097378
 30
0.0
 10
4.5687421483
 20
2.7080184703
 30
0.0
 10
4.5669905369
 20
2.7008520383
 30
0.0
 10
4.5661102564
 20
2.6972593187
 30
0.0
  0
SPLINE
  5
2AF
100
AcDbEntity
  8
ALL_FEATURES
100
AcDbSpline
 62
7
  6
CONTINUOUS
 70
0
 71
3
 72
11
 73
7
 74
0
 42
0.0000001
 43
0.0000001
 44
0.0000000001
 40
0.0
 40
0.0
 40
0.0
 40
0.0
 40
0.24481761
 40
0.4941314197
 40
0.7463598549
 40
1.0
 40
1.0
 40
1.0
 40
1.0
 10
4.5554139947
 20
2.7396816285
 30
0.0
 10
4.5563380893
 20
2.7362328973
 30
0.0
 10
4.5581630684
 20
2.7292613102
 30
0.0
 10
4.5608345419
 20
2.718709337
 30
0.0
 10
4.5634785121
 20
2.708017883
 30
0.0
 10
4.5652301411
 20
2.7008513133
 30
0.0
 10
4.5661104397
 20
2.6972585276
 30
0.0
  0
SPLINE
  5
2B0
100
AcDbEntity
  8
ALL_FEATURES
100
AcDbSpline
 62
7
  6
CONTINUOUS
 70
0
 71
3
 72
11
 73
7
 74
0
 42
0.0000001
 43
0.0000001
 44
0.0000000001
 40
0.0
 40
0.0
 40
0.0
 40
0.0
 40
0.1883341977
 40
0.4295127706
 40
0.7035666606
 40
1.0
 40
1.0
 40
1.0
 40
1.0
 10
4.5371091781
 20
2.795078435
 30
0.0
 10
4.5382265687
 20
2.7925425505
 30
0.0
 10
4.540647977
 20
2.7867029191
 30
0.0
 10
4.5442377254
 20
2.7769903647
 30
0.0
 10
4.5479853193
 20
2.7656486548
 30
0.0
 10
4.5503949067
 20
2.7576067757
 30
0.0
 10
4.5516031239
 20
2.7534157351
 30
0.0
  0
SPLINE
  5
2B1
100
AcDbEntity
  8
ALL_FEATURES
100
AcDbSpline
 62
7
  6
CONTINUOUS
 70
0
 71
3
 72
15
 73
11
 74
0
 42
0.0000001
 43
0.0000001
 44
0.0000000001
 40
0.0
 40
0.0
 40
0.0
 40
0.0
 40
0.1244886016
 40
0.249426934
 40
0.3746351607
 40
0.5000000027
 40
0.6253648442
 40
0.7505730694
 40
0.8755114
 40
1.0
 40
1.0
 40
1.0
 40
1.0
 10
4.5371091675
 20
2.7950784114
 30
0.0
 10
4.5394011936
 20
2.7941774561
 30
0.0
 10
4.5440822464
 20
2.7925895314
 30
0.0
 10
4.5513032218
 20
2.7908752297
 30
0.0
 10
4.5586704604
 20
2.7898400221
 30
0.0
 10
4.5661102466
 20
2.7894936654
 30
0.0
 10
4.5735500327
 20
2.7898400262
 30
0.0
 10
4.5809172706
 20
2.7908752378
 30
0.0
 10
4.588138245
 20
2.7925895431
 30
0.0
 10
4.592819297
 20
2.7941774701
 30
0.0
 10
4.5951113226
 20
2.7950784265
 30
0.0
  0
SPLINE
  5
2B2
100
AcDbEntity
  8
ALL_FEATURES
100
AcDbSpline
 62
7
  6
CONTINUOUS
 70
0
 71
3
 72
13
 73
9
 74
0
 42
0.0000001
 43
0.0000001
 44
0.0000000001
 40
0.0
 40
0.0
 40
0.0
 40
0.0
 40
0.0856763921
 40
0.1883359599
 40
0.3038935974
 40
0.4295216601
 40
0.7035718742
 40
1.0
 40
1.0
 40
1.0
 40
1.0
 10
4.5951113188
 20
2.795078435
 30
0.0
 10
4.5946026701
 20
2.7939249366
 30
0.0
 10
4.5935113677
 20
2.7913774104
 30
0.0
 10
4.5918303549
 20
2.7872335325
 30
0.0
 10
4.5900224802
 20
2.7825077557
 30
0.0
 10
4.5874494125
 20
2.7753759915
 30
0.0
 10
4.5842353479
 20
2.7656485705
 30
0.0
 10
4.5818252898
 20
2.7576068701
 30
0.0
 10
4.5806173228
 20
2.7534157484
 30
0.0
  0
LINE
  5
2B3
100
AcDbEntity
  8
ALL_FEATURES
100
AcDbLine
 62
7
  6
CONTINUOUS
 10
4.5661102484
 20
2.8444724004
 11
4.6045988836
 21
2.8456247791
  0
LINE
  5
2B4
100
AcDbEntity
  8
ALL_FEATURES
100
AcDbLine
 62
7
  6
CONTINUOUS
 10
4.6045988836
 20
2.8456247791
 11
4.6051859634
 21
2.8456446938
  0
LINE
  5
2B5
100
AcDbEntity
  8
ALL_FEATURES
100
AcDbLine
 62
7
  6
CONTINUOUS
 10
4.4980067901
 20
2.8457593114
 11
4.4958821507
 21
2.8453567422
  0
SPLINE
  5
2B6
100
AcDbEntity
  8
ALL_FEATURES
100
AcDbSpline
 62
7
  6
CONTINUOUS
 70
0
 71
3
 72
29
 73
25
 74
0
 42
0.0000001
 43
0.0000001
 44
0.0000000001
 40
0.0
 40
0.0
 40
0.0
 40
0.0
 40
0.0007555841
 40
0.0018934928
 40
0.0035482422
 40
0.0057609858
 40
0.0085474195
 40
0.0119145252
 40
0.0204014103
 40
0.0312232753
 40
0.0443590781
 40
0.059782923
 40
0.0774648952
 40
0.1194238606
 40
0.1698429978
 40
0.2282393452
 40
0.294060113
 40
0.366666533
 40
0.4453672341
 40
0.5294057742
 40
0.6179748011
 40
0.7102104693
 40
0.805243915
 40
1.0
 40
1.0
 40
1.0
 40
1.0
 10
4.4957977484
 20
2.8288473943
 30
0.0
 10
4.4957977485
 20
2.8288651415
 30
0.0
 10
4.4958215924
 20
2.8289077529
 30
0.0
 10
4.4958920536
 20
2.8289531837
 30
0.0
 10
4.4959998353
 20
2.8290009478
 30
0.0
 10
4.4961490368
 20
2.8290480968
 30
0.0
 10
4.4963396467
 20
2.8290961184
 30
0.0
 10
4.4966764837
 20
2.8291657341
 30
0.0
 10
4.4972026892
 20
2.8292494324
 30
0.0
 10
4.497958786
 20
2.8293449654
 30
0.0
 10
4.4988788355
 20
2.8294410463
 30
0.0
 10
4.4999606835
 20
2.8295376034
 30
0.0
 10
4.5017185066
 20
2.8296745598
 30
0.0
 10
4.5042983004
 20
2.829841409
 30
0.0
 10
4.507834514
 20
2.8300333903
 30
0.0
 10
4.5119318686
 20
2.8302261076
 30
0.0
 10
4.5165508316
 20
2.8304193674
 30
0.0
 10
4.5216470632
 20
2.8306129988
 30
0.0
 10
4.5271714666
 20
2.830806859
 30
0.0
 10
4.5330710074
 20
2.8310009103
 30
0.0
 10
4.5392886156
 20
2.8311950747
 30
0.0
 10
4.5457645891
 20
2.8313893366
 30
0.0
 10
4.5547337934
 20
2.8316505548
 30
0.0
 10
4.5615376481
 20
2.8318430152
 30
0.0
 10
4.5661102484
 20
2.8319723933
 30
0.0
  0
SPLINE
  5
2B7
100
AcDbEntity
  8
ALL_FEATURES
100
AcDbSpline
 62
7
  6
CONTINUOUS
 70
0
 71
3
 72
13
 73
9
 74
0
 42
0.0000001
 43
0.0000001
 44
0.0000000001
 40
0.0
 40
0.0
 40
0.0
 40
0.0
 40
0.3132843403
 40
0.5998967622
 40
0.725436846
 40
0.8354688271
 40
0.9276423013
 40
1.0
 40
1.0
 40
1.0
 40
1.0
 10
4.5661102484
 20
2.8233843078
 30
0.0
 10
4.5593431977
 20
2.8231928395
 30
0.0
 10
4.5463852298
 20
2.8228261367
 30
0.0
 10
4.5307165517
 20
2.8223462496
 30
0.0
 10
4.5194397371
 20
2.8219464364
 30
0.0
 10
4.5123631623
 20
2.8216614495
 30
0.0
 10
4.5064368549
 20
2.8213785
 30
0.0
 10
4.5028875529
 20
2.8211671112
 30
0.0
 10
4.5013281004
 20
2.821053618
 30
0.0
  0
SPLINE
  5
2B8
100
AcDbEntity
  8
ALL_FEATURES
100
AcDbSpline
 62
7
  6
CONTINUOUS
 70
0
 71
3
 72
29
 73
25
 74
0
 42
0.0000001
 43
0.0000001
 44
0.0000000001
 40
0.0
 40
0.0
 40
0.0
 40
0.0
 40
0.0007555856
 40
0.0018934944
 40
0.0035482418
 40
0.0057609816
 40
0.0085474104
 40
0.0119145106
 40
0.0204013832
 40
0.0312232262
 40
0.0443590076
 40
0.0597828466
 40
0.0774648319
 40
0.1194239457
 40
0.1698436206
 40
0.2282404245
 40
0.2940609266
 40
0.3666669573
 40
0.4453675523
 40
0.5294060777
 40
0.6179750608
 40
0.710210674
 40
0.805244041
 40
1.0
 40
1.0
 40
1.0
 40
1.0
 10
4.4957977484
 20
2.8413473976
 30
0.0
 10
4.4957977486
 20
2.8413651448
 30
0.0
 10
4.4958215926
 20
2.8414077561
 30
0.0
 10
4.4958920538
 20
2.841453187
 30
0.0
 10
4.4959998353
 20
2.8415009511
 30
0.0
 10
4.4961490365
 20
2.8415481002
 30
0.0
 10
4.496339646
 20
2.8415961218
 30
0.0
 10
4.4966764824
 20
2.8416657376
 30
0.0
 10
4.497202687
 20
2.8417494359
 30
0.0
 10
4.4979587825
 20
2.841844969
 30
0.0
 10
4.4988788308
 20
2.8419410499
 30
0.0
 10
4.4999606784
 20
2.8420376072
 30
0.0
 10
4.5017185052
 20
2.8421745641
 30
0.0
 10
4.5042983154
 20
2.8423414147
 30
0.0
 10
4.5078345558
 20
2.842533397
 30
0.0
 10
4.5119319275
 20
2.8427261152
 30
0.0
 10
4.5165508858
 20
2.8429193753
 30
0.0
 10
4.5216470996
 20
2.8431130056
 30
0.0
 10
4.527171491
 20
2.8433068656
 30
0.0
 10
4.533071028
 20
2.8435009171
 30
0.0
 10
4.5392886335
 20
2.8436950816
 30
0.0
 10
4.5457646029
 20
2.8438893435
 30
0.0
 10
4.5547338012
 20
2.8441505619
 30
0.0
 10
4.5615376511
 20
2.8443430223
 30
0.0
 10
4.5661102484
 20
2.8444724004
 30
0.0
  0
SPLINE
  5
2B9
100
AcDbEntity
  8
ALL_FEATURES
100
AcDbSpline
 62
7
  6
CONTINUOUS
 70
0
 71
3
 72
39
 73
35
 74
0
 42
0.0000001
 43
0.0000001
 44
0.0000000001
 40
0.0
 40
0.0
 40
0.0
 40
0.0
 40
0.0020009419
 40
0.0050643508
 40
0.0092134944
 40
0.0144489515
 40
0.0207623794
 40
0.0281431198
 40
0.0460491373
 40
0.0680102121
 40
0.0938386455
 40
0.1233007576
 40
0.1561382934
 40
0.1920541546
 40
0.2307303665
 40
0.3149513218
 40
0.4057906338
 40
0.4999996942
 40
0.594208819
 40
0.6850483093
 40
0.7692695145
 40
0.8079442742
 40
0.8438618444
 40
0.8766974062
 40
0.9061616788
 40
0.931987771
 40
0.9539512364
 40
0.9718548315
 40
0.9792373745
 40
0.9855513168
 40
0.9907849255
 40
0.9949337375
 40
0.9979990902
 40
1.0
 40
1.0
 40
1.0
 40
1.0
 10
4.5033296169
 20
2.8371622738
 30
0.0
 10
4.5034022535
 20
2.8372042542
 30
0.0
 10
4.5036049977
 20
2.8372744936
 30
0.0
 10
4.5039799687
 20
2.8373646197
 30
0.0
 10
4.5044945125
 20
2.8374555795
 30
0.0
 10
4.5051460948
 20
2.8375479532
 30
0.0
 10
4.5059344385
 20
2.8376407936
 30
0.0
 10
4.5072526902
 20
2.8377738237
 30
0.0
 10
4.5092273004
 20
2.8379348944
 30
0.0
 10
4.5119755955
 20
2.8381198428
 30
0.0
 10
4.515209316
 20
2.8383055165
 30
0.0
 10
4.5188996574
 20
2.8384919297
 30
0.0
 10
4.5230134091
 20
2.8386786784
 30
0.0
 10
4.5275138327
 20
2.8388657573
 30
0.0
 10
4.5341675819
 20
2.8391227596
 30
0.0
 10
4.5431235777
 20
2.8394382675
 30
0.0
 10
4.5544074305
 20
2.839808097
 30
0.0
 10
4.5661102674
 20
2.8401783581
 30
0.0
 10
4.5778131118
 20
2.8405486173
 30
0.0
 10
4.5890969851
 20
2.8409184518
 30
0.0
 10
4.5980529387
 20
2.841233943
 30
0.0
 10
4.604706708
 20
2.8414909713
 30
0.0
 10
4.6092070609
 20
2.841678019
 30
0.0
 10
4.6133208902
 20
2.8418648084
 30
0.0
 10
4.617011144
 20
2.8420511704
 30
0.0
 10
4.6202449532
 20
2.8422369078
 30
0.0
 10
4.6229931544
 20
2.842421778
 30
0.0
 10
4.6249678323
 20
2.8425829292
 30
0.0
 10
4.6262860835
 20
2.8427159159
 30
0.0
 10
4.6270744499
 20
2.8428087378
 30
0.0
 10
4.6277259562
 20
2.8429011438
 30
0.0
 10
4.6282404873
 20
2.8429921355
 30
0.0
 10
4.6286155261
 20
2.8430822099
 30
0.0
 10
4.6288183826
 20
2.8431524214
 30
0.0
 10
4.6288909947
 20
2.8431944416
 30
0.0
  0
SPLINE
  5
2BA
100
AcDbEntity
  8
ALL_FEATURES
100
AcDbSpline
 62
7
  6
CONTINUOUS
 70
0
 71
3
 72
26
 73
22
 74
0
 42
0.0000001
 43
0.0000001
 44
0.0000000001
 40
0.0
 40
0.0
 40
0.0
 40
0.0
 40
0.1891151343
 40
0.3714072998
 40
0.4579298327
 40
0.5403166393
 40
0.6178201512
 40
0.6897433877
 40
0.7554425565
 40
0.814320113
 40
0.8658531677
 40
0.9095725407
 40
0.9283819222
 40
0.9450986583
 40
0.9596856829
 40
0.9721170032
 40
0.9823694015
 40
0.9904246649
 40
0.9962852843
 40
0.9984046288
 40
1.0
 40
1.0
 40
1.0
 40
1.0
 10
4.5661102484
 20
2.8358843144
 30
0.0
 10
4.5616784717
 20
2.8357589207
 30
0.0
 10
4.5529748097
 20
2.8355126653
 30
0.0
 10
4.5422438612
 20
2.8351981757
 30
0.0
 10
4.5340143729
 20
2.8349427902
 30
0.0
 10
4.5282406147
 20
2.8347546907
 30
0.0
 10
4.5228093033
 20
2.8345667479
 30
0.0
 10
4.5177694533
 20
2.8343789974
 30
0.0
 10
4.5131665796
 20
2.834191547
 30
0.0
 10
4.5090421397
 20
2.8340045057
 30
0.0
 10
4.5054335567
 20
2.8338180638
 30
0.0
 10
4.5027643496
 20
2.833656518
 30
0.0
 10
4.5009112186
 20
2.8335245546
 30
0.0
 10
4.4997401164
 20
2.8334307744
 30
0.0
 10
4.4987190397
 20
2.8333372576
 30
0.0
 10
4.4978502451
 20
2.833244065
 30
0.0
 10
4.4971353861
 20
2.8331517209
 30
0.0
 10
4.4965763157
 20
2.8330599759
 30
0.0
 10
4.4962083803
 20
2.8329795566
 30
0.0
 10
4.4959946943
 20
2.8329105176
 30
0.0
 10
4.4959145383
 20
2.8328754365
 30
0.0
 10
4.4958821505
 20
2.8328567312
 30
0.0
  0
SPLINE
  5
2BB
100
AcDbEntity
  8
ALL_FEATURES
100
AcDbSpline
 62
7
  6
CONTINUOUS
 70
0
 71
3
 72
26
 73
22
 74
0
 42
0.0000001
 43
0.0000001
 44
0.0000000001
 40
0.0
 40
0.0
 40
0.0
 40
0.0
 40
0.1891125931
 40
0.3713968603
 40
0.4579168418
 40
0.5403021302
 40
0.6178071378
 40
0.6897332504
 40
0.7554367162
 40
0.814317686
 40
0.8658535062
 40
0.9095739257
 40
0.928383415
 40
0.9451003306
 40
0.9596871736
 40
0.9721180527
 40
0.9823701115
 40
0.9904252734
 40
0.996285586
 40
0.9984047623
 40
1.0
 40
1.0
 40
1.0
 40
1.0
 10
4.5661102484
 20
2.8319723933
 30
0.0
 10
4.5705419658
 20
2.8320977852
 30
0.0
 10
4.5792453834
 20
2.8323440331
 30
0.0
 10
4.5899760277
 20
2.8326585141
 30
0.0
 10
4.5982052359
 20
2.8329138876
 30
0.0
 10
4.603978934
 20
2.8331019852
 30
0.0
 10
4.6094103125
 20
2.8332899258
 30
0.0
 10
4.6144503658
 20
2.8334776838
 30
0.0
 10
4.6190534878
 20
2.8336651396
 30
0.0
 10
4.6231781732
 20
2.8338521925
 30
0.0
 10
4.6267869255
 20
2.8340386406
 30
0.0
 10
4.6294562245
 20
2.8342001925
 30
0.0
 10
4.6313093865
 20
2.8343321605
 30
0.0
 10
4.6324804912
 20
2.83442594
 30
0.0
 10
4.6335015575
 20
2.8345194572
 30
0.0
 10
4.6343703295
 20
2.8346126504
 30
0.0
 10
4.6350851675
 20
2.8347049951
 30
0.0
 10
4.635644221
 20
2.8347967347
 30
0.0
 10
4.6360121431
 20
2.8348771523
 30
0.0
 10
4.6362258145
 20
2.8349461898
 30
0.0
 10
4.6363059633
 20
2.8349812698
 30
0.0
 10
4.636338348
 20
2.8349999742
 30
0.0
  0
SPLINE
  5
2BC
100
AcDbEntity
  8
ALL_FEATURES
100
AcDbSpline
 62
7
  6
CONTINUOUS
 70
0
 71
3
 72
39
 73
35
 74
0
 42
0.0000001
 43
0.0000001
 44
0.0000000001
 40
0.0
 40
0.0
 40
0.0
 40
0.0
 40
0.002000107
 40
0.005064889
 40
0.009214545
 40
0.0144487328
 40
0.0207615949
 40
0.02814391
 40
0.046048743
 40
0.0680111464
 40
0.0938381717
 40
0.1233017104
 40
0.1561378493
 40
0.1920550345
 40
0.2307300554
 40
0.3149512217
 40
0.4057907778
 40
0.5000000543
 40
0.5942093061
 40
0.6850488039
 40
0.7692699036
 40
0.8079453323
 40
0.8438620552
 40
0.8766987344
 40
0.9061617049
 40
0.9319893636
 40
0.9539511397
 40
0.9718566375
 40
0.9792383891
 40
0.9855511914
 40
0.9907858412
 40
0.9949356533
 40
0.9979998088
 40
1.0
 40
1.0
 40
1.0
 40
1.0
 10
4.5033295959
 20
2.8246622701
 30
0.0
 10
4.5034021814
 20
2.8247042689
 30
0.0
 10
4.5036049533
 20
2.8247745286
 30
0.0
 10
4.5039799802
 20
2.8248645886
 30
0.0
 10
4.5044945475
 20
2.8249555617
 30
0.0
 10
4.5051460701
 20
2.825047958
 30
0.0
 10
4.5059344017
 20
2.8251408055
 30
0.0
 10
4.50725265
 20
2.8252737864
 30
0.0
 10
4.5092273257
 20
2.825434917
 30
0.0
 10
4.5119755695
 20
2.8256198162
 30
0.0
 10
4.5152093417
 20
2.8258055293
 30
0.0
 10
4.5188996245
 20
2.825991909
 30
0.0
 10
4.5230134287
 20
2.8261786857
 30
0.0
 10
4.5275137971
 20
2.8263657412
 30
0.0
 10
4.5341675551
 20
2.8266227635
 30
0.0
 10
4.5431235143
 20
2.826938258
 30
0.0
 10
4.5544073871
 20
2.827308091
 30
0.0
 10
4.5661102404
 20
2.8276783503
 30
0.0
 10
4.5778130912
 20
2.8280486101
 30
0.0
 10
4.5890969578
 20
2.8284184418
 30
0.0
 10
4.5980529286
 20
2.828733941
 30
0.0
 10
4.6047066819
 20
2.8289909563
 30
0.0
 10
4.6092070703
 20
2.8291780204
 30
0.0
 10
4.6133208545
 20
2.8293647862
 30
0.0
 10
4.6170111618
 20
2.8295511798
 30
0.0
 10
4.6202449116
 20
2.8297368756
 30
0.0
 10
4.622993182
 20
2.8299217968
 30
0.0
 10
4.6249678376
 20
2.8300829031
 30
0.0
 10
4.6262860861
 20
2.8302158998
 30
0.0
 10
4.6270744107
 20
2.8303087484
 30
0.0
 10
4.6277259573
 20
2.8304011409
 30
0.0
 10
4.628240527
 20
2.8304920977
 30
0.0
 10
4.628615534
 20
2.8305821826
 30
0.0
 10
4.6288182777
 20
2.8306524419
 30
0.0
 10
4.6288908722
 20
2.8306944321
 30
0.0
  0
SPLINE
  5
2BD
100
AcDbEntity
  8
ALL_FEATURES
100
AcDbSpline
 62
7
  6
CONTINUOUS
 70
0
 71
3
 72
29
 73
25
 74
0
 42
0.0000001
 43
0.0000001
 44
0.0000000001
 40
0.0
 40
0.0
 40
0.0
 40
0.0
 40
0.000755553
 40
0.0018933506
 40
0.0035479154
 40
0.0057604368
 40
0.0085466489
 40
0.0119135721
 40
0.0204002583
 40
0.0312216485
 40
0.0443569266
 40
0.0597806085
 40
0.0774627208
 40
0.1194222836
 40
0.1698442749
 40
0.2282444345
 40
0.294069165
 40
0.3666787042
 40
0.4453812424
 40
0.529418782
 40
0.6179853562
 40
0.710217324
 40
0.8052465406
 40
1.0
 40
1.0
 40
1.0
 40
1.0
 10
4.6364227484
 20
2.8265093081
 30
0.0
 10
4.6364227468
 20
2.8264915616
 30
0.0
 10
4.6363989063
 20
2.8264489542
 30
0.0
 10
4.6363284539
 20
2.826403523
 30
0.0
 10
4.6362206847
 20
2.8263557608
 30
0.0
 10
4.6360714983
 20
2.826308613
 30
0.0
 10
4.6358809032
 20
2.8262605928
 30
0.0
 10
4.6355440805
 20
2.8261909781
 30
0.0
 10
4.6350178946
 20
2.8261072844
 30
0.0
 10
4.6342618264
 20
2.8260117501
 30
0.0
 10
4.6333418044
 20
2.8259156684
 30
0.0
 10
4.6322599693
 20
2.8258191112
 30
0.0
 10
4.6305021328
 20
2.8256821533
 30
0.0
 10
4.6279222551
 20
2.8255152942
 30
0.0
 10
4.6243858708
 20
2.8253233069
 30
0.0
 10
4.6202882669
 20
2.8251305773
 30
0.0
 10
4.6156690481
 20
2.8249373096
 30
0.0
 10
4.6105726071
 20
2.8247436719
 30
0.0
 10
4.6050481106
 20
2.8245498117
 30
0.0
 10
4.5991486077
 20
2.8243557619
 30
0.0
 10
4.5929311674
 20
2.824161605
 30
0.0
 10
4.5864554376
 20
2.8239673505
 30
0.0
 10
4.577486481
 20
2.8237061401
 30
0.0
 10
4.5706827872
 20
2.8235136842
 30
0.0
 10
4.5661102484
 20
2.8233843078
 30
0.0
  0
SPLINE
  5
2BE
100
AcDbEntity
  8
ALL_FEATURES
100
AcDbSpline
 62
7
  6
CONTINUOUS
 70
0
 71
3
 72
29
 73
25
 74
0
 42
0.0000001
 43
0.0000001
 44
0.0000000001
 40
0.0
 40
0.0
 40
0.0
 40
0.0
 40
0.0007555712
 40
0.0018933974
 40
0.0035479902
 40
0.0057605369
 40
0.0085467714
 40
0.0119137147
 40
0.02040044
 40
0.0312218894
 40
0.0443572272
 40
0.0597809419
 40
0.0774630589
 40
0.119422608
 40
0.1698445305
 40
0.2282445937
 40
0.2940691886
 40
0.3666785708
 40
0.4453808849
 40
0.5294179778
 40
0.6179839606
 40
0.7102161071
 40
0.8052461737
 40
1.0
 40
1.0
 40
1.0
 40
1.0
 10
4.6364227483
 20
2.8390093173
 30
0.0
 10
4.6364227456
 20
2.8389915705
 30
0.0
 10
4.6363989029
 20
2.8389489633
 30
0.0
 10
4.6363284489
 20
2.8389035318
 30
0.0
 10
4.6362206777
 20
2.8388557692
 30
0.0
 10
4.6360714897
 20
2.8388086209
 30
0.0
 10
4.635880893
 20
2.8387606004
 30
0.0
 10
4.6355440684
 20
2.8386909852
 30
0.0
 10
4.6350178798
 20
2.838607291
 30
0.0
 10
4.6342618079
 20
2.8385117567
 30
0.0
 10
4.6333417823
 20
2.8384156751
 30
0.0
 10
4.632259945
 20
2.8383191179
 30
0.0
 10
4.6305021079
 20
2.8381821602
 30
0.0
 10
4.627922232
 20
2.8380153015
 30
0.0
 10
4.6243858521
 20
2.8378233143
 30
0.0
 10
4.6202882553
 20
2.837630585
 30
0.0
 10
4.6156690458
 20
2.8374373176
 30
0.0
 10
4.610572617
 20
2.8372436802
 30
0.0
 10
4.6050481401
 20
2.8370498205
 30
0.0
 10
4.599148667
 20
2.8368557714
 30
0.0
 10
4.5929312469
 20
2.8366616147
 30
0.0
 10
4.586455507
 20
2.8364673598
 30
0.0
 10
4.5774865179
 20
2.836206148
 30
0.0
 10
4.5706827957
 20
2.8360136911
 30
0.0
 10
4.5661102484
 20
2.8358843144
 30
0.0
  0
ENDSEC
  0
SECTION
  2
OBJECTS
  0
DICTIONARY
  5
C
100
AcDbDictionary
280
0
281
1
  3
ACAD_GROUP
350
D
  3
ACAD_MLINESTYLE
350
17
  3
ACAD_LAYOUT
350
1A
  3
ACAD_PLOTSETTINGS
350
19
  3
ACAD_PLOTSTYLENAME
350
E
  0
DICTIONARY
  5
D
102
{ACAD_REACTORS
330
C
102
}
100
AcDbDictionary
280
0
281
1
  0
ACDBDICTIONARYWDFLT
  5
E
102
{ACAD_REACTORS
330
C
102
}
100
AcDbDictionary
281
1
  3
Normal
350
F
100
AcDbDictionaryWithDefault
340
F
  0
DICTIONARY
  5
17
102
{ACAD_REACTORS
330
C
102
}
100
AcDbDictionary
280
0
281
1
  3
Standard
350
18
  0
DICTIONARY
  5
19
102
{ACAD_REACTORS
330
C
102
}
100
AcDbDictionary
281
1
  0
DICTIONARY
  5
1A
102
{ACAD_REACTORS
330
C
102
}
100
AcDbDictionary
281
1
  3
Model
350
2BF
  3
Layout1
350
2C0
  0
ACDBPLACEHOLDER
  5
F
102
{ACAD_REACTORS
330
E
102
}
  0
MLINESTYLE
  5
18
102
{ACAD_REACTORS
330
17
102
}
100
AcDbMlineStyle
  2
STANDARD
 70
0
  3

 62
256
 51
90.0
 52
90.0
 71
2
 49
0.5
 62
256
  6
BYLAYER
 49
-0.5
 62
256
  6
BYLAYER
  0
LAYOUT
  5
2BF
102
{ACAD_REACTORS
330
1A
102
}
100
AcDbPlotSettings
  1

  2
none_device
  4
ANSI_A_(11.00_x_8.50_Inches)
  6

 40
0.0
 41
0.0
 42
0.0
 43
0.0
 44
279.4
 45
215.9
 46
0.0
 47
0.0
 48
0.0
 49
0.0
140
0.0
141
0.0
142
1.0
143
1.0
 70
1024
 72
0
 73
0
 74
0
  7

 75
0
147
1.0
148
0.0
149
0.0
100
AcDbLayout
  1
Model
 70
0
 71
0
 10
0.0
 20
0.0
 11
11.0
 21
8.5
 12
0.0
 22
0.0
 32
0.0
 14
0.0
 24
0.0
 34
0.0
 15
0.0
 25
0.0
 35
0.0
146
0.0
 13
0.0
 23
0.0
 33
0.0
 16
1.0
 26
0.0
 36
0.0
 17
0.0
 27
1.0
 37
0.0
 76
0
330
216
345
0
346
0
  0
LAYOUT
  5
2C0
102
{ACAD_REACTORS
330
1A
102
}
100
AcDbPlotSettings
  1

  2
none_device
  4
ANSI_A_(11.00_x_8.50_Inches)
  6

 40
0.0
 41
0.0
 42
0.0
 43
0.0
 44
279.4
 45
215.9
 46
0.0
 47
0.0
 48
0.0
 49
0.0
140
0.0
141
0.0
142
1.0
143
1.0
 70
0
 72
0
 73
0
 74
0
  7

 75
0
147
1.0
148
0.0
149
0.0
100
AcDbLayout
  1
Layout1
 70
0
 71
1
 10
0.0
 20
0.0
 11
11.0
 21
8.5
 12
0.0
 22
0.0
 32
0.0
 14
0.0
 24
0.0
 34
0.0
 15
0.0
 25
0.0
 35
0.0
146
0.0
 13
0.0
 23
0.0
 33
0.0
 16
1.0
 26
0.0
 36
0.0
 17
0.0
 27
1.0
 37
0.0
 76
0
330
217
345
0
346
0
  0
ENDSEC
  0
EOF
