999
DXF file: 4775_front.dxf
999
Pro/ENGINEER 2018400 by Parametric Technology Corporation
  0
SECTION
  2
HEADER
  9
$ACADVER
  1
AC1027
  9
$DWGCODEPAGE
  3
ANSI_1252
  9
$EXTMAX
 10
11.0
 20
8.5
 30
0.0
  9
$EXTMIN
 10
0.0
 20
0.0
 30
0.0
  9
$LIMMIN
 10
0.0
 20
0.0
  9
$LIMMAX
 10
11.0
 20
8.5
  9
$VIEWCTR
 10
5.5
 20
4.25
  9
$VIEWSIZE
 40
8.5
  9
$CLAYER
  8
0
  9
$LTSCALE
 40
0.605
  9
$CELTYPE
  6
BYLAYER
  9
$DIMSCALE
 40
1.0
  9
$DIMASZ
 40
0.1
  9
$DIMEXO
 40
0.0625
  9
$DIMDLI
 40
0.418
  9
$DIMEXE
 40
0.125
  9
$DIMCEN
 40
0.099
  9
$DIMLFAC
 40
1.0
  9
$DIMBLK
  1
_FILLED
  9
$DIMALT
 70
1
  9
$DIMALTD
 70
1
  9
$DIMALTTD
 70
2
  9
$DIMALTF
 40
25.4
  9
$DIMTXT
 40
0.08
  9
$DIMTOL
 70
1
  9
$DIMLIM
 70
0
  9
$DIMTFAC
 40
1.0
  9
$DIMTP
 40
0.01
  9
$DIMTM
 40
0.01
  9
$DIMGAP
 40
0.09
  9
$DIMDSEP
 70
46
  9
$AUNITS
 70
0
  9
$PDMODE
 70
3
  9
$PDSIZE
 40
0.3125
  9
$HANDSEED
  5
2E8
  9
$TILEMODE
 70
1
  9
$MEASUREMENT
 70
0
  9
$INSUNITS
 70
1
  0
ENDSEC
  0
SECTION
  2
CLASSES
  0
CLASS
  1
ACDBDICTIONARYWDFLT
  2
AcDbDictionaryWithDefault
  3
AutoCAD 2000
 90
0
 91
1
280
0
281
0
  0
CLASS
  1
ACDBPLACEHOLDER
  2
AcDbPlaceHolder
  3
AutoCAD 2000
 90
0
 91
1
280
0
281
0
  0
CLASS
  1
LAYOUT
  2
AcDbLayout
  3
AutoCAD 2000
 90
0
 91
0
280
0
281
0
  0
ENDSEC
  0
SECTION
  2
TABLES
  0
TABLE
  2
VPORT
  5
8
100
AcDbSymbolTable
 70
2
  0
VPORT
  5
1F4
100
AcDbSymbolTableRecord
100
AcDbViewportTableRecord
  2
*ACTIVE
 70
0
 10
0.0
 20
0.0
 11
1.0
 21
1.0
 12
5.5
 22
4.25
 13
0.0
 23
0.0
 14
1.0
 24
1.0
 15
0.0
 25
0.0
 16
0.0
 26
0.0
 36
1.0
 17
0.0
 27
0.0
 37
0.0
 40
8.5
 41
1.2941176471
 42
50.0
 43
0.0
 44
0.0
 50
0.0
 51
0.0
 71
0
 72
100
 73
1
 74
1
 75
0
 76
0
 77
0
 78
0
  0
ENDTAB
  0
TABLE
  2
LTYPE
  5
5
100
AcDbSymbolTable
 70
6
  0
LTYPE
  5
14
100
AcDbSymbolTableRecord
100
AcDbLinetypeTableRecord
  2
BYBLOCK
 70
0
  3

 72
65
 73
0
 40
0.0
  0
LTYPE
  5
15
100
AcDbSymbolTableRecord
100
AcDbLinetypeTableRecord
  2
BYLAYER
 70
0
  3

 72
65
 73
0
 40
0.0
  0
LTYPE
  5
16
100
AcDbSymbolTableRecord
100
AcDbLinetypeTableRecord
  2
CONTINUOUS
 70
64
  3
Solid line
 72
65
 73
0
 40
0.0
  0
LTYPE
  5
1F5
100
AcDbSymbolTableRecord
100
AcDbLinetypeTableRecord
  2
CENTER
 70
64
  3
____ _ ____ _ ____ _ ____ _ ____ _ ____ _ ____
 72
65
 73
4
 40
0.6
 49
0.375
 74
0
 49
-0.075
 74
0
 49
0.075
 74
0
 49
-0.075
 74
0
  0
LTYPE
  5
1F6
100
AcDbSymbolTableRecord
100
AcDbLinetypeTableRecord
  2
HIDDEN
 70
64
  3
- - - - - - - - - - - - - - - - - - - -
 72
65
 73
2
 40
0.2
 49
0.1
 74
0
 49
-0.1
 74
0
  0
LTYPE
  5
1F7
100
AcDbSymbolTableRecord
100
AcDbLinetypeTableRecord
  2
PHANTOM
 70
64
  3
_____ _ _ _____ _ _ _____ _ _ _____
 72
65
 73
6
 40
0.8
 49
0.45
 74
0
 49
-0.05
 74
0
 49
0.1
 74
0
 49
-0.05
 74
0
 49
0.1
 74
0
 49
-0.05
 74
0
  0
LTYPE
  5
1F8
100
AcDbSymbolTableRecord
100
AcDbLinetypeTableRecord
  2
DOT
 70
64
  3
. . . . . . . . . . . . . . . . . . . .
 72
65
 73
2
 40
0.2
 49
0.1
 74
0
 49
-0.1
 74
0
  0
LTYPE
  5
1F9
100
AcDbSymbolTableRecord
100
AcDbLinetypeTableRecord
  2
DASHED
 70
64
  3
- - - - - - - - - - - - - - - - - - - -
 72
65
 73
2
 40
0.2
 49
0.1
 74
0
 49
-0.1
 74
0
  0
ENDTAB
  0
TABLE
  2
LAYER
  5
2
100
AcDbSymbolTable
 70
36
  0
LAYER
  5
10
100
AcDbSymbolTableRecord
100
AcDbLayerTableRecord
  2
0
 70
0
 62
7
  6
CONTINUOUS
370
-3
390
F
  0
LAYER
  5
1FA
100
AcDbSymbolTableRecord
100
AcDbLayerTableRecord
  2
DEFAULT_1
 70
0
 62
7
  6
CENTER
370
-3
390
F
  0
LAYER
  5
1FB
100
AcDbSymbolTableRecord
100
AcDbLayerTableRecord
  2
DEFAULT_2
 70
0
 62
8
  6
HIDDEN
370
-3
390
F
  0
LAYER
  5
1FC
100
AcDbSymbolTableRecord
100
AcDbLayerTableRecord
  2
DEFAULT_3
 70
0
 62
7
  6
PHANTOM
370
-3
390
F
  0
LAYER
  5
1FD
100
AcDbSymbolTableRecord
100
AcDbLayerTableRecord
  2
ALL_ASSEMBLY_MEMBERS
 70
0
 62
7
  6
CONTINUOUS
370
-3
390
F
  0
LAYER
  5
1FE
100
AcDbSymbolTableRecord
100
AcDbLayerTableRecord
  2
ALL_FEATURES
 70
0
 62
7
  6
CONTINUOUS
370
-3
390
F
  0
LAYER
  5
1FF
100
AcDbSymbolTableRecord
100
AcDbLayerTableRecord
  2
AXES_FEATURES
 70
0
 62
7
  6
CONTINUOUS
370
-3
390
F
  0
LAYER
  5
200
100
AcDbSymbolTableRecord
100
AcDbLayerTableRecord
  2
CHAMFER_FEATURES
 70
0
 62
7
  6
CONTINUOUS
370
-3
390
F
  0
LAYER
  5
201
100
AcDbSymbolTableRecord
100
AcDbLayerTableRecord
  2
CURVE_1
 70
0
 62
7
  6
CONTINUOUS
370
-3
390
F
  0
LAYER
  5
202
100
AcDbSymbolTableRecord
100
AcDbLayerTableRecord
  2
CURVE_2
 70
0
 62
7
  6
CONTINUOUS
370
-3
390
F
  0
LAYER
  5
203
100
AcDbSymbolTableRecord
100
AcDbLayerTableRecord
  2
CUT_FEATURES
 70
0
 62
7
  6
CONTINUOUS
370
-3
390
F
  0
LAYER
  5
204
100
AcDbSymbolTableRecord
100
AcDbLayerTableRecord
  2
DATUM_PLANES
 70
0
 62
7
  6
CONTINUOUS
370
-3
390
F
  0
LAYER
  5
205
100
AcDbSymbolTableRecord
100
AcDbLayerTableRecord
  2
DEFAULT_COORDINATE_SYSTEM
 70
0
 62
7
  6
CONTINUOUS
370
-3
390
F
  0
LAYER
  5
206
100
AcDbSymbolTableRecord
100
AcDbLayerTableRecord
  2
DEFAULT_DATUM_AXES
 70
0
 62
7
  6
CONTINUOUS
370
-3
390
F
  0
LAYER
  5
207
100
AcDbSymbolTableRecord
100
AcDbLayerTableRecord
  2
DEFAULT_DATUM_CURVES
 70
0
 62
7
  6
CONTINUOUS
370
-3
390
F
  0
LAYER
  5
208
100
AcDbSymbolTableRecord
100
AcDbLayerTableRecord
  2
DEFAULT_DATUM_PLANES
 70
0
 62
7
  6
CONTINUOUS
370
-3
390
F
  0
LAYER
  5
209
100
AcDbSymbolTableRecord
100
AcDbLayerTableRecord
  2
DEFAULT_SURFACES
 70
0
 62
7
  6
CONTINUOUS
370
-3
390
F
  0
LAYER
  5
20A
100
AcDbSymbolTableRecord
100
AcDbLayerTableRecord
  2
DIMENSIONS
 70
0
 62
7
  6
CONTINUOUS
370
-3
390
F
  0
LAYER
  5
20B
100
AcDbSymbolTableRecord
100
AcDbLayerTableRecord
  2
HOLE_FEATURES
 70
0
 62
7
  6
CONTINUOUS
370
-3
390
F
  0
LAYER
  5
20C
100
AcDbSymbolTableRecord
100
AcDbLayerTableRecord
  2
NOTES
 70
0
 62
7
  6
CONTINUOUS
370
-3
390
F
  0
LAYER
  5
20D
100
AcDbSymbolTableRecord
100
AcDbLayerTableRecord
  2
PART_REFERENCE_DIMENSIONS
 70
0
 62
7
  6
CONTINUOUS
370
-3
390
F
  0
LAYER
  5
20E
100
AcDbSymbolTableRecord
100
AcDbLayerTableRecord
  2
PLATED_SURFACE
 70
0
 62
7
  6
CONTINUOUS
370
-3
390
F
  0
LAYER
  5
20F
100
AcDbSymbolTableRecord
100
AcDbLayerTableRecord
  2
PROTRUSION_FEATURES
 70
0
 62
7
  6
CONTINUOUS
370
-3
390
F
  0
LAYER
  5
210
100
AcDbSymbolTableRecord
100
AcDbLayerTableRecord
  2
QUILT
 70
0
 62
7
  6
CONTINUOUS
370
-3
390
F
  0
LAYER
  5
211
100
AcDbSymbolTableRecord
100
AcDbLayerTableRecord
  2
QUILTS
 70
0
 62
7
  6
CONTINUOUS
370
-3
390
F
  0
LAYER
  5
212
100
AcDbSymbolTableRecord
100
AcDbLayerTableRecord
  2
REFERENCE_DIMENSIONS
 70
0
 62
7
  6
CONTINUOUS
370
-3
390
F
  0
LAYER
  5
213
100
AcDbSymbolTableRecord
100
AcDbLayerTableRecord
  2
ROUND_FEATURES
 70
0
 62
7
  6
CONTINUOUS
370
-3
390
F
  0
LAYER
  5
214
100
AcDbSymbolTableRecord
100
AcDbLayerTableRecord
  2
WETTED_SURFACE
 70
0
 62
7
  6
CONTINUOUS
370
-3
390
F
  0
ENDTAB
  0
TABLE
  2
STYLE
  5
3
100
AcDbSymbolTable
 70
1
  0
STYLE
  5
11
100
AcDbSymbolTableRecord
100
AcDbTextStyleTableRecord
  2
STANDARD
 70
0
 40
0.0
 41
0.8
 50
0.0
 71
0
 42
0.2
  3
txt
  4

  0
STYLE
  5
215
100
AcDbSymbolTableRecord
100
AcDbTextStyleTableRecord
  2
TEXTSTYLE_1
 70
0
 40
0.0
 41
0.8
 50
0.0
 71
0
 42
0.2
  3
gdt
  4

  0
ENDTAB
  0
TABLE
  2
VIEW
  5
6
100
AcDbSymbolTable
 70
0
  0
ENDTAB
  0
TABLE
  2
UCS
  5
7
100
AcDbSymbolTable
 70
0
  0
ENDTAB
  0
TABLE
  2
APPID
  5
9
100
AcDbSymbolTable
 70
1
  0
APPID
  5
216
100
AcDbSymbolTableRecord
100
AcDbRegAppTableRecord
  2
ACAD
 70
0
  0
ENDTAB
  0
TABLE
  2
BLOCK_RECORD
  5
1
100
AcDbSymbolTable
 70
0
  0
BLOCK_RECORD
  5
217
100
AcDbSymbolTableRecord
100
AcDbBlockTableRecord
  2
*Model_Space
  0
BLOCK_RECORD
  5
218
100
AcDbSymbolTableRecord
100
AcDbBlockTableRecord
  2
*Paper_Space
  0
BLOCK_RECORD
  5
219
100
AcDbSymbolTableRecord
100
AcDbBlockTableRecord
  2
_FILLED
  0
ENDTAB
  0
TABLE
  2
DIMSTYLE
  5
A
100
AcDbSymbolTable
 70
1
100
AcDbDimStyleTable
 71
0
  0
DIMSTYLE
105
21A
100
AcDbSymbolTableRecord
100
AcDbDimStyleTableRecord
  2
STANDARD
 70
0
  3

  4

 40
1.0
 41
0.1
 42
0.0625
 43
0.38
 44
0.125
 45
0.0
 46
0.0
 47
0.01
 48
0.01
140
0.08
141
0.09
142
0.0
143
25.4
144
1.0
145
0.0
146
1.0
147
0.09
 71
1.0
 72
0.0
 73
1
 74
1
 75
0
 76
0
 77
0
 78
4
 79
1
170
1
171
1
172
0
173
0
174
0
175
0
176
0
177
0
178
0
270
2
179
2
271
2
272
2
273
2
274
2
275
0
280
0
281
0
282
0
283
1
284
4
285
0
286
0
287
3
288
0
340
11
278
46
341
219
342
219
343
219
344
219
  0
ENDTAB
  0
ENDSEC
  0
SECTION
  2
BLOCKS
  0
BLOCK
  5
20
100
AcDbEntity
  8
0
100
AcDbBlockBegin
  2
*Model_Space
 70
0
 10
0.0
 20
0.0
 30
0.0
  3
*Model_Space
  1

  0
ENDBLK
  5
21
100
AcDbEntity
  8
0
100
AcDbBlockEnd
  0
BLOCK
  5
1C
100
AcDbEntity
  8
0
100
AcDbBlockBegin
  2
*Paper_Space
 70
0
 10
0.0
 20
0.0
 30
0.0
  3
*Paper_Space
  1

  0
ENDBLK
  5
1D
100
AcDbEntity
  8
0
100
AcDbBlockEnd
  0
BLOCK
  5
21B
100
AcDbEntity
  8
0
100
AcDbBlockBegin
  2
_FILLED
 70
64
 10
0.0
 20
0.0
  3
_FILLED
  1

  0
SOLID
  5
21C
100
AcDbEntity
  8
0
  6
BYBLOCK
 62
0
100
AcDbTrace
 10
0.0
 20
0.0
 11
-1.0
 21
0.2
 12
-1.0
 22
-0.2
 13
-1.0
 23
-0.2
  0
ENDBLK
  5
21D
100
AcDbEntity
  8
0
  6
BYBLOCK
 62
0
100
AcDbBlockEnd
  0
ENDSEC
  0
SECTION
  2
ENTITIES
  0
MTEXT
  5
21E
100
AcDbEntity
  8
0
100
AcDbMText
 62
2
  6
CONTINUOUS
  7
STANDARD
 71
3
 72
1
 10
5.0157608696
 20
1.0757686335
 30
0.0
 11
1.0
 21
0.0
 31
0.0
 73
2
 44
0.9
  1
SCALE  .250
 40
0.08
 41
0.704
  0
LINE
  5
21F
100
AcDbEntity
  8
0
100
AcDbLine
 62
7
  6
CONTINUOUS
 10
0.0
 20
0.0
 11
0.0
 21
8.5
  0
LINE
  5
220
100
AcDbEntity
  8
0
100
AcDbLine
 62
7
  6
CONTINUOUS
 10
0.0
 20
0.0
 11
11.0
 21
0.0
  0
LINE
  5
221
100
AcDbEntity
  8
0
100
AcDbLine
 62
7
  6
CONTINUOUS
 10
0.0
 20
8.5
 11
11.0
 21
8.5
  0
LINE
  5
222
100
AcDbEntity
  8
0
100
AcDbLine
 62
7
  6
CONTINUOUS
 10
11.0
 20
0.0
 11
11.0
 21
8.5
  0
LINE
  5
223
100
AcDbEntity
  8
0
100
AcDbLine
 62
7
  6
CONTINUOUS
 10
4.4849227134
 20
1.9232142857
 11
4.507627455
 21
1.9232142857
  0
LINE
  5
224
100
AcDbEntity
  8
0
100
AcDbLine
 62
7
  6
CONTINUOUS
 10
4.5554160233
 20
1.9232142857
 11
4.5781207649
 21
1.9232142857
  0
LINE
  5
225
100
AcDbEntity
  8
0
100
AcDbLine
 62
7
  6
CONTINUOUS
 10
4.5315217391
 20
2.1605543615
 11
4.5252225799
 21
2.1604056252
  0
LINE
  5
226
100
AcDbEntity
  8
0
100
AcDbLine
 62
7
  6
CONTINUOUS
 10
4.5781207649
 20
2.1482142857
 11
4.5554160233
 21
2.1482142857
  0
LINE
  5
227
100
AcDbEntity
  8
0
100
AcDbLine
 62
7
  6
CONTINUOUS
 10
4.507627455
 20
2.1482142857
 11
4.4849227134
 21
2.1482142857
  0
LINE
  5
228
100
AcDbEntity
  8
0
100
AcDbLine
 62
7
  6
CONTINUOUS
 10
4.6096467392
 20
2.1857142857
 11
4.4533967391
 21
2.1857142857
  0
LINE
  5
229
100
AcDbEntity
  8
0
100
AcDbLine
 62
7
  6
CONTINUOUS
 10
4.4947666289
 20
1.9306394871
 11
4.5252717391
 21
1.9130273535
  0
LINE
  5
22A
100
AcDbEntity
  8
0
100
AcDbLine
 62
7
  6
CONTINUOUS
 10
4.6096467392
 20
2.2904642857
 11
4.4533967391
 21
2.2904642857
  0
LINE
  5
22B
100
AcDbEntity
  8
ALL_FEATURES
100
AcDbLine
 62
7
  6
CONTINUOUS
 10
4.4827717391
 20
2.3057142857
 11
4.5802717391
 21
2.3057142857
  0
LINE
  5
22C
100
AcDbEntity
  8
0
100
AcDbLine
 62
7
  6
CONTINUOUS
 10
4.46126781
 20
2.166517156
 11
4.467623608
 21
2.1628442714
  0
LINE
  5
22D
100
AcDbEntity
  8
0
100
AcDbLine
 62
7
  6
CONTINUOUS
 10
4.46126781
 20
2.176934656
 11
4.467623608
 21
2.1732617714
  0
LINE
  5
22E
100
AcDbEntity
  8
0
100
AcDbLine
 62
7
  6
CONTINUOUS
 10
4.4641022205
 20
2.1857142857
 11
4.467623608
 21
2.1836792714
  0
LINE
  5
22F
100
AcDbEntity
  8
0
100
AcDbLine
 62
7
  6
CONTINUOUS
 10
4.5682768494
 20
2.1407890843
 11
4.5377717391
 21
2.1584012179
  0
LINE
  5
230
100
AcDbEntity
  8
0
100
AcDbLine
 62
7
  6
CONTINUOUS
 10
4.6017756683
 20
2.1840614154
 11
4.598915299
 21
2.1857142857
  0
LINE
  5
231
100
AcDbEntity
  8
0
100
AcDbLine
 62
7
  6
CONTINUOUS
 10
4.6011705903
 20
2.1635760521
 11
4.5954198702
 21
2.1668993
  0
LINE
  5
232
100
AcDbEntity
  8
0
100
AcDbLine
 62
7
  6
CONTINUOUS
 10
4.6017756683
 20
2.1736439154
 11
4.5954198702
 21
2.1773168
  0
LINE
  5
233
100
AcDbEntity
  8
ALL_FEATURES
100
AcDbLine
 62
7
  6
CONTINUOUS
 10
4.3410060685
 20
1.9184051469
 11
4.4142126003
 21
1.8451986151
  0
LINE
  5
234
100
AcDbEntity
  8
0
100
AcDbLine
 62
7
  6
CONTINUOUS
 10
4.4849227134
 20
1.9232142857
 11
4.4839117399
 21
1.9242252592
  0
LINE
  5
235
100
AcDbEntity
  8
0
100
AcDbLine
 62
7
  6
CONTINUOUS
 10
4.4200327126
 20
1.9881042865
 11
4.4190217391
 21
1.9891152599
  0
LINE
  5
236
100
AcDbEntity
  8
ALL_FEATURES
100
AcDbLine
 62
7
  6
CONTINUOUS
 10
4.4337026209
 20
2.0067132153
 11
4.5025206688
 21
1.9378951675
  0
LINE
  5
237
100
AcDbEntity
  8
ALL_FEATURES
100
AcDbLine
 62
7
  6
CONTINUOUS
 10
4.5605228095
 20
2.1335334039
 11
4.6293408574
 21
2.0647153561
  0
LINE
  5
238
100
AcDbEntity
  8
0
100
AcDbLine
 62
7
  6
CONTINUOUS
 10
4.5781207649
 20
2.1482142857
 11
4.5791317384
 21
2.1472033122
  0
LINE
  5
239
100
AcDbEntity
  8
0
100
AcDbLine
 62
7
  6
CONTINUOUS
 10
4.6430107657
 20
2.083324285
 11
4.6440217391
 21
2.0823133115
  0
LINE
  5
23A
100
AcDbEntity
  8
ALL_FEATURES
100
AcDbLine
 62
7
  6
CONTINUOUS
 10
4.6488308779
 20
2.2262299564
 11
4.7220374098
 21
2.1530234245
  0
LINE
  5
23B
100
AcDbEntity
  8
0
100
AcDbLine
 62
7
  6
CONTINUOUS
 10
4.6017756683
 20
2.1736439154
 11
4.6018342391
 21
2.1735762365
  0
LINE
  5
23C
100
AcDbEntity
  8
0
100
AcDbLine
 62
7
  6
CONTINUOUS
 10
4.6017756683
 20
2.1840614154
 11
4.6018342391
 21
2.1839937365
  0
LINE
  5
23D
100
AcDbEntity
  8
0
100
AcDbLine
 62
7
  6
CONTINUOUS
 10
4.581746104
 20
6.8922871985
 11
4.5919223742
 21
6.9099130155
  0
LINE
  5
23E
100
AcDbEntity
  8
ALL_FEATURES
100
AcDbLine
 62
7
  6
CONTINUOUS
 10
4.5802717391
 20
2.3057142857
 11
4.5847196558
 21
2.2904642857
  0
LINE
  5
23F
100
AcDbEntity
  8
0
100
AcDbLine
 62
7
  6
CONTINUOUS
 10
4.4190217391
 20
2.0823133115
 11
4.4190217391
 21
1.9891152599
  0
LINE
  5
240
100
AcDbEntity
  8
0
100
AcDbLine
 62
7
  6
CONTINUOUS
 10
4.4221467391
 20
2.0799191763
 11
4.4221467391
 21
1.9915093952
  0
LINE
  5
241
100
AcDbEntity
  8
ALL_FEATURES
100
AcDbLine
 62
7
  6
CONTINUOUS
 10
4.4258967391
 20
7.0294642857
 11
4.4258967391
 21
6.9982142857
  0
LINE
  5
242
100
AcDbEntity
  8
0
100
AcDbLine
 62
7
  6
CONTINUOUS
 10
4.4315217391
 20
6.9832142857
 11
4.4315217391
 21
6.9982142857
  0
LINE
  5
243
100
AcDbEntity
  8
0
100
AcDbLine
 62
7
  6
CONTINUOUS
 10
4.4533967391
 20
2.1857142857
 11
4.4533967391
 21
2.2904642857
  0
LINE
  5
244
100
AcDbEntity
  8
0
100
AcDbLine
 62
7
  6
CONTINUOUS
 10
4.4612092391
 20
2.1665848349
 11
4.4612092391
 21
2.1683674865
  0
LINE
  5
245
100
AcDbEntity
  8
0
100
AcDbLine
 62
7
  6
CONTINUOUS
 10
4.4612092391
 20
2.1770023349
 11
4.4612092391
 21
2.1787849865
  0
LINE
  5
246
100
AcDbEntity
  8
0
100
AcDbLine
 62
7
  6
CONTINUOUS
 10
4.4675592391
 20
2.1837536607
 11
4.4675592391
 21
2.1824511607
  0
LINE
  5
247
100
AcDbEntity
  8
0
100
AcDbLine
 62
7
  6
CONTINUOUS
 10
4.4675592391
 20
2.1733361607
 11
4.4675592391
 21
2.1720336607
  0
LINE
  5
248
100
AcDbEntity
  8
0
100
AcDbLine
 62
7
  6
CONTINUOUS
 10
4.4675592391
 20
2.1629186607
 11
4.4675592391
 21
2.1616161607
  0
LINE
  5
249
100
AcDbEntity
  8
0
100
AcDbLine
 62
7
  6
CONTINUOUS
 10
4.4677717391
 20
6.9224130155
 11
4.4677717391
 21
6.9832142857
  0
LINE
  5
24A
100
AcDbEntity
  8
0
100
AcDbLine
 62
7
  6
CONTINUOUS
 10
4.4846467391
 20
2.3057142857
 11
4.4846467391
 21
6.8797871985
  0
LINE
  5
24B
100
AcDbEntity
  8
0
100
AcDbLine
 62
7
  6
CONTINUOUS
 10
4.5315217391
 20
2.2783783062
 11
4.5315217391
 21
2.1978002653
  0
LINE
  5
24C
100
AcDbEntity
  8
0
100
AcDbLine
 62
7
  6
CONTINUOUS
 10
4.5783967391
 20
2.3057142857
 11
4.5783967391
 21
6.8797871985
  0
LINE
  5
24D
100
AcDbEntity
  8
0
100
AcDbLine
 62
7
  6
CONTINUOUS
 10
4.5952717391
 20
6.9224130155
 11
4.5952717391
 21
6.9832142857
  0
LINE
  5
24E
100
AcDbEntity
  8
0
100
AcDbLine
 62
7
  6
CONTINUOUS
 10
4.5954842391
 20
2.1668249107
 11
4.5954842391
 21
2.1681239157
  0
LINE
  5
24F
100
AcDbEntity
  8
0
100
AcDbLine
 62
7
  6
CONTINUOUS
 10
4.5954842391
 20
2.1772424107
 11
4.5954842391
 21
2.1785449107
  0
LINE
  5
250
100
AcDbEntity
  8
0
100
AcDbLine
 62
7
  6
CONTINUOUS
 10
4.6018342391
 20
2.1717935849
 11
4.6018342391
 21
2.1735762365
  0
LINE
  5
251
100
AcDbEntity
  8
0
100
AcDbLine
 62
7
  6
CONTINUOUS
 10
4.6018342391
 20
2.1822110849
 11
4.6018342391
 21
2.1839937365
  0
LINE
  5
252
100
AcDbEntity
  8
0
100
AcDbLine
 62
7
  6
CONTINUOUS
 10
4.6096467391
 20
2.1857142857
 11
4.6096467391
 21
2.2904642857
  0
LINE
  5
253
100
AcDbEntity
  8
0
100
AcDbLine
 62
7
  6
CONTINUOUS
 10
4.6315217391
 20
6.9832142857
 11
4.6315217391
 21
6.9982142857
  0
LINE
  5
254
100
AcDbEntity
  8
ALL_FEATURES
100
AcDbLine
 62
7
  6
CONTINUOUS
 10
4.6371467391
 20
7.0294642857
 11
4.6371467391
 21
6.9982142857
  0
LINE
  5
255
100
AcDbEntity
  8
0
100
AcDbLine
 62
7
  6
CONTINUOUS
 10
4.6408967391
 20
1.9915093952
 11
4.6408967391
 21
2.0799191763
  0
LINE
  5
256
100
AcDbEntity
  8
0
100
AcDbLine
 62
7
  6
CONTINUOUS
 10
4.6440217391
 20
1.9891152599
 11
4.6440217391
 21
2.0823133115
  0
LINE
  5
257
100
AcDbEntity
  8
ALL_FEATURES
100
AcDbLine
 62
7
  6
CONTINUOUS
 10
4.4827717391
 20
2.3057142857
 11
4.4783238225
 21
2.2904642857
  0
LINE
  5
258
100
AcDbEntity
  8
0
100
AcDbLine
 62
7
  6
CONTINUOUS
 10
4.4812973742
 20
6.8922871985
 11
4.471121104
 21
6.9099130155
  0
LINE
  5
259
100
AcDbEntity
  8
0
100
AcDbLine
 62
7
  6
CONTINUOUS
 10
4.46126781
 20
2.1788526654
 11
4.4612092391
 21
2.1787849865
  0
LINE
  5
25A
100
AcDbEntity
  8
0
100
AcDbLine
 62
7
  6
CONTINUOUS
 10
4.46126781
 20
2.1684351654
 11
4.4612092391
 21
2.1683674865
  0
LINE
  5
25B
100
AcDbEntity
  8
ALL_FEATURES
100
AcDbLine
 62
7
  6
CONTINUOUS
 10
4.3410060685
 20
2.1530234245
 11
4.4142126003
 21
2.2262299564
  0
LINE
  5
25C
100
AcDbEntity
  8
0
100
AcDbLine
 62
7
  6
CONTINUOUS
 10
4.4190217391
 20
2.0823133115
 11
4.4200327126
 21
2.083324285
  0
LINE
  5
25D
100
AcDbEntity
  8
0
100
AcDbLine
 62
7
  6
CONTINUOUS
 10
4.4839117399
 20
2.1472033122
 11
4.4849227134
 21
2.1482142857
  0
LINE
  5
25E
100
AcDbEntity
  8
ALL_FEATURES
100
AcDbLine
 62
7
  6
CONTINUOUS
 10
4.4337026209
 20
2.0647153561
 11
4.5025206688
 21
2.1335334039
  0
LINE
  5
25F
100
AcDbEntity
  8
ALL_FEATURES
100
AcDbLine
 62
7
  6
CONTINUOUS
 10
4.5605228095
 20
1.9378951675
 11
4.6293408574
 21
2.0067132153
  0
LINE
  5
260
100
AcDbEntity
  8
0
100
AcDbLine
 62
7
  6
CONTINUOUS
 10
4.6440217391
 20
1.9891152599
 11
4.6430107657
 21
1.9881042865
  0
LINE
  5
261
100
AcDbEntity
  8
0
100
AcDbLine
 62
7
  6
CONTINUOUS
 10
4.5791317384
 20
1.9242252592
 11
4.5781207649
 21
1.9232142857
  0
LINE
  5
262
100
AcDbEntity
  8
ALL_FEATURES
100
AcDbLine
 62
7
  6
CONTINUOUS
 10
4.6488308779
 20
1.8451986151
 11
4.7220374098
 21
1.9184051469
  0
LINE
  5
263
100
AcDbEntity
  8
0
100
AcDbLine
 62
7
  6
CONTINUOUS
 10
4.467623608
 20
2.18252555
 11
4.4664867878
 21
2.1818685569
  0
LINE
  5
264
100
AcDbEntity
  8
0
100
AcDbLine
 62
7
  6
CONTINUOUS
 10
4.4664867878
 20
2.1818685569
 11
4.46126781
 21
2.1788526654
  0
LINE
  5
265
100
AcDbEntity
  8
0
100
AcDbLine
 62
7
  6
CONTINUOUS
 10
4.467623608
 20
2.17210805
 11
4.4664867878
 21
2.1714510569
  0
LINE
  5
266
100
AcDbEntity
  8
0
100
AcDbLine
 62
7
  6
CONTINUOUS
 10
4.4664867878
 20
2.1714510569
 11
4.46126781
 21
2.1684351654
  0
LINE
  5
267
100
AcDbEntity
  8
0
100
AcDbLine
 62
7
  6
CONTINUOUS
 10
4.467623608
 20
2.16169055
 11
4.4664867878
 21
2.1610335569
  0
LINE
  5
268
100
AcDbEntity
  8
0
100
AcDbLine
 62
7
  6
CONTINUOUS
 10
4.4664867878
 20
2.1610335569
 11
4.465552531
 21
2.160493648
  0
LINE
  5
269
100
AcDbEntity
  8
0
100
AcDbLine
 62
7
  6
CONTINUOUS
 10
4.5954198702
 20
2.1784705214
 11
4.5967398987
 21
2.1792333925
  0
LINE
  5
26A
100
AcDbEntity
  8
0
100
AcDbLine
 62
7
  6
CONTINUOUS
 10
4.5967398987
 20
2.1792333925
 11
4.6017756683
 21
2.182143406
  0
LINE
  5
26B
100
AcDbEntity
  8
0
100
AcDbLine
 62
7
  6
CONTINUOUS
 10
4.5954198702
 20
2.1680530214
 11
4.5967398987
 21
2.1688158925
  0
LINE
  5
26C
100
AcDbEntity
  8
0
100
AcDbLine
 62
7
  6
CONTINUOUS
 10
4.5967398987
 20
2.1688158925
 11
4.6017756683
 21
2.171725906
  0
LINE
  5
26D
100
AcDbEntity
  8
0
100
AcDbLine
 62
7
  6
CONTINUOUS
 10
4.5252717391
 20
2.1584012179
 11
4.4947666285
 21
2.1407890841
  0
LINE
  5
26E
100
AcDbEntity
  8
0
100
AcDbLine
 62
7
  6
CONTINUOUS
 10
4.5377717391
 20
1.9130273535
 11
4.5682768498
 21
1.9306394873
  0
LINE
  5
26F
100
AcDbEntity
  8
0
100
AcDbLine
 62
7
  6
CONTINUOUS
 10
4.4846467391
 20
6.8797871985
 11
4.5783967391
 21
6.8797871985
  0
LINE
  5
270
100
AcDbEntity
  8
0
100
AcDbLine
 62
7
  6
CONTINUOUS
 10
4.4812981024
 20
6.8922859373
 11
4.5315217391
 21
6.8922871985
  0
LINE
  5
271
100
AcDbEntity
  8
0
100
AcDbLine
 62
7
  6
CONTINUOUS
 10
4.5315217391
 20
6.8922871985
 11
4.5817453759
 21
6.8922859373
  0
LINE
  5
272
100
AcDbEntity
  8
0
100
AcDbLine
 62
7
  6
CONTINUOUS
 10
4.5919223732
 20
6.9099130137
 11
4.4711211051
 21
6.9099130137
  0
LINE
  5
273
100
AcDbEntity
  8
0
100
AcDbLine
 62
7
  6
CONTINUOUS
 10
4.5952717391
 20
6.9224130131
 11
4.4677717391
 21
6.9224130131
  0
LINE
  5
274
100
AcDbEntity
  8
0
100
AcDbLine
 62
7
  6
CONTINUOUS
 10
4.4315217391
 20
6.9832142857
 11
4.6315217391
 21
6.9832142857
  0
LINE
  5
275
100
AcDbEntity
  8
ALL_FEATURES
100
AcDbLine
 62
7
  6
CONTINUOUS
 10
4.4258967391
 20
6.9982142857
 11
4.6371467391
 21
6.9982142857
  0
LINE
  5
276
100
AcDbEntity
  8
ALL_FEATURES
100
AcDbLine
 62
7
  6
CONTINUOUS
 10
4.4258967391
 20
7.0294642857
 11
4.6371467391
 21
7.0294642857
  0
ARC
  5
277
100
AcDbEntity
  8
ALL_FEATURES
100
AcDbCircle
 62
7
  6
CONTINUOUS
 10
4.2602190277
 20
2.0896944981
 40
0.1893847612
100
AcDbArc
 50
295.2504755858
 51
331.8411723929
  0
ARC
  5
278
100
AcDbEntity
  8
ALL_FEATURES
100
AcDbCircle
 62
7
  6
CONTINUOUS
 10
4.2602190277
 20
1.9817340733
 40
0.1893847612
100
AcDbArc
 50
28.1588515003
 51
64.7495244142
  0
ARC
  5
279
100
AcDbEntity
  8
ALL_FEATURES
100
AcDbCircle
 62
7
  6
CONTINUOUS
 10
4.4775415268
 20
2.3070169971
 40
0.1893847612
100
AcDbArc
 50
298.1588150726
 51
334.7495146939
  0
ARC
  5
27A
100
AcDbEntity
  8
ALL_FEATURES
100
AcDbCircle
 62
7
  6
CONTINUOUS
 10
4.4775415268
 20
1.7644115743
 40
0.1893847612
100
AcDbArc
 50
25.2504853095
 51
61.8411523251
  0
ARC
  5
27B
100
AcDbEntity
  8
ALL_FEATURES
100
AcDbCircle
 62
7
  6
CONTINUOUS
 10
4.3610655389
 20
2.0357142857
 40
0.07499998
100
AcDbArc
 50
331.8412088343
 51
28.1588515005
  0
ARC
  5
27C
100
AcDbEntity
  8
ALL_FEATURES
100
AcDbCircle
 62
7
  6
CONTINUOUS
 10
4.3644677621
 20
1.8686603087
 40
0.055
100
AcDbArc
 50
115.2504755858
 51
334.7495244142
  0
ARC
  5
27D
100
AcDbEntity
  8
ALL_FEATURES
100
AcDbCircle
 62
7
  6
CONTINUOUS
 10
4.3644677621
 20
2.2027682628
 40
0.055
100
AcDbArc
 50
25.2504755858
 51
244.7495244142
  0
ARC
  5
27E
100
AcDbEntity
  8
0
100
AcDbCircle
 62
7
  6
CONTINUOUS
 10
4.4623679645
 20
2.1737480855
 40
0.0035140657
100
AcDbArc
 50
102.3371078301
 51
103.4875746175
  0
ARC
  5
27F
100
AcDbEntity
  8
0
100
AcDbCircle
 62
7
  6
CONTINUOUS
 10
4.4927717391
 20
6.9224130155
 40
0.025
100
AcDbArc
 50
180.0
 51
210.0
  0
ARC
  5
280
100
AcDbEntity
  8
0
100
AcDbCircle
 62
7
  6
CONTINUOUS
 10
4.4596467391
 20
6.8797871985
 40
0.025
100
AcDbArc
 50
0.0
 51
30.0
  0
ARC
  5
281
100
AcDbEntity
  8
ALL_FEATURES
100
AcDbCircle
 62
7
  6
CONTINUOUS
 10
4.5855019515
 20
1.7644115743
 40
0.1893847612
100
AcDbArc
 50
118.1588150726
 51
154.7495244142
  0
ARC
  5
282
100
AcDbEntity
  8
ALL_FEATURES
100
AcDbCircle
 62
7
  6
CONTINUOUS
 10
4.5315217391
 20
1.8652581017
 40
0.0749999723
100
AcDbArc
 50
61.8411523252
 51
84.6192824556
  0
ARC
  5
283
100
AcDbEntity
  8
ALL_FEATURES
100
AcDbCircle
 62
7
  6
CONTINUOUS
 10
4.5315217391
 20
1.8652581017
 40
0.0749999723
100
AcDbArc
 50
89.977754336
 51
118.1587653497
  0
ARC
  5
284
100
AcDbEntity
  8
0
100
AcDbCircle
 62
7
  6
CONTINUOUS
 10
4.5315501314
 20
1.8658615135
 40
0.0743965377
100
AcDbArc
 50
84.5974736582
 51
89.9994401172
  0
ARC
  5
285
100
AcDbEntity
  8
0
100
AcDbCircle
 62
7
  6
CONTINUOUS
 10
4.5315217391
 20
1.9238526711
 40
0.0125
100
AcDbArc
 50
240.0
 51
300.0
  0
ARC
  5
286
100
AcDbEntity
  8
ALL_FEATURES
100
AcDbCircle
 62
7
  6
CONTINUOUS
 10
4.5315217391
 20
2.0357142857
 40
0.3
100
AcDbArc
 50
98.9906808437
 51
81.0093191563
  0
ARC
  5
287
100
AcDbEntity
  8
ALL_FEATURES
100
AcDbCircle
 62
7
  6
CONTINUOUS
 10
4.5855019515
 20
2.3070169971
 40
0.1893847612
100
AcDbArc
 50
205.2504755858
 51
241.8411523251
  0
ARC
  5
288
100
AcDbEntity
  8
ALL_FEATURES
100
AcDbCircle
 62
7
  6
CONTINUOUS
 10
4.5315217391
 20
2.0357142857
 40
0.13125
100
AcDbArc
 50
154.1185296402
 51
205.8814703598
  0
ARC
  5
289
100
AcDbEntity
  8
ALL_FEATURES
100
AcDbCircle
 62
7
  6
CONTINUOUS
 10
4.5315217391
 20
2.0357142857
 40
0.13125
100
AcDbArc
 50
244.1260475698
 51
295.8739524302
  0
ARC
  5
28A
100
AcDbEntity
  8
ALL_FEATURES
100
AcDbCircle
 62
7
  6
CONTINUOUS
 10
4.5315217391
 20
2.0357142857
 40
0.13125
100
AcDbArc
 50
334.1185296402
 51
25.8814703598
  0
ARC
  5
28B
100
AcDbEntity
  8
ALL_FEATURES
100
AcDbCircle
 62
7
  6
CONTINUOUS
 10
4.5315217391
 20
2.0357142857
 40
0.1206060282
100
AcDbArc
 50
248.8916879651
 51
264.8922098753
  0
ARC
  5
28C
100
AcDbEntity
  8
ALL_FEATURES
100
AcDbCircle
 62
7
  6
CONTINUOUS
 10
4.5315217391
 20
2.0357142857
 40
0.1206060282
100
AcDbArc
 50
275.1077901247
 51
291.1083120349
  0
ARC
  5
28D
100
AcDbEntity
  8
ALL_FEATURES
100
AcDbCircle
 62
7
  6
CONTINUOUS
 10
4.5315217391
 20
2.0357142857
 40
0.1206060282
100
AcDbArc
 50
158.918809063
 51
201.081190937
  0
ARC
  5
28E
100
AcDbEntity
  8
ALL_FEATURES
100
AcDbCircle
 62
7
  6
CONTINUOUS
 10
4.5315217391
 20
2.0357142857
 40
0.1206060282
100
AcDbArc
 50
338.918809063
 51
21.081190937
  0
ARC
  5
28F
100
AcDbEntity
  8
ALL_FEATURES
100
AcDbCircle
 62
7
  6
CONTINUOUS
 10
4.5315217391
 20
2.2061704697
 40
0.0749999723
100
AcDbArc
 50
241.8411523252
 51
298.1587653497
  0
CIRCLE
  5
290
100
AcDbEntity
  8
ALL_FEATURES
100
AcDbCircle
 62
7
  6
CONTINUOUS
 10
4.5315217391
 20
2.0357142857
 40
0.058
  0
CIRCLE
  5
291
100
AcDbEntity
  8
ALL_FEATURES
100
AcDbCircle
 62
7
  6
CONTINUOUS
 10
4.5315217391
 20
2.0357142857
 40
0.04375
  0
ARC
  5
292
100
AcDbEntity
  8
0
100
AcDbCircle
 62
7
  6
CONTINUOUS
 10
4.5315217391
 20
2.1475759004
 40
0.0125
100
AcDbArc
 50
60.0
 51
120.0
  0
ARC
  5
293
100
AcDbEntity
  8
ALL_FEATURES
100
AcDbCircle
 62
7
  6
CONTINUOUS
 10
4.8028244505
 20
1.9817340733
 40
0.1893847612
100
AcDbArc
 50
115.2504853095
 51
151.8411523251
  0
ARC
  5
294
100
AcDbEntity
  8
ALL_FEATURES
100
AcDbCircle
 62
7
  6
CONTINUOUS
 10
4.6985757162
 20
1.8686603087
 40
0.055
100
AcDbArc
 50
205.2504755858
 51
64.7495244142
  0
ARC
  5
295
100
AcDbEntity
  8
ALL_FEATURES
100
AcDbCircle
 62
7
  6
CONTINUOUS
 10
4.8028244505
 20
2.0896944981
 40
0.1893847612
100
AcDbArc
 50
208.1588150726
 51
244.7495146939
  0
ARC
  5
296
100
AcDbEntity
  8
ALL_FEATURES
100
AcDbCircle
 62
7
  6
CONTINUOUS
 10
4.7019779231
 20
2.0357142857
 40
0.0749999723
100
AcDbArc
 50
151.8411523252
 51
208.1587653497
  0
ARC
  5
297
100
AcDbEntity
  8
ALL_FEATURES
100
AcDbCircle
 62
7
  6
CONTINUOUS
 10
4.6985757162
 20
2.2027682628
 40
0.055
100
AcDbArc
 50
295.2504755858
 51
154.7495244142
  0
ARC
  5
298
100
AcDbEntity
  8
0
100
AcDbCircle
 62
7
  6
CONTINUOUS
 10
4.5702717391
 20
6.9224130155
 40
0.025
100
AcDbArc
 50
330.0
 51
360.0
  0
ARC
  5
299
100
AcDbEntity
  8
0
100
AcDbCircle
 62
7
  6
CONTINUOUS
 10
4.6033967391
 20
6.8797871985
 40
0.025
100
AcDbArc
 50
150.0
 51
180.0
  0
SPLINE
  5
29A
100
AcDbEntity
  8
0
100
AcDbSpline
 62
7
  6
CONTINUOUS
 70
0
 71
3
 72
16
 73
12
 74
0
 42
0.0000001
 43
0.0000001
 44
0.0000000001
 40
0.0
 40
0.0
 40
0.0
 40
0.0
 40
0.1270692381
 40
0.253539593
 40
0.3793624411
 40
0.4420371305
 40
0.5045493276
 40
0.6290928215
 40
0.7530792198
 40
0.8766556084
 40
1.0
 40
1.0
 40
1.0
 40
1.0
 10
4.5315217391
 20
2.2783783062
 30
0.0
 10
4.5330391175
 20
2.2792543649
 30
0.0
 10
4.5361001454
 20
2.280945499
 30
0.0
 10
4.5407871333
 20
2.2832721599
 30
0.0
 10
4.5447724941
 20
2.28500405
 30
0.0
 10
4.5480048151
 20
2.2862428919
 30
0.0
 10
4.5512575422
 20
2.2873744153
 30
0.0
 10
4.5553771385
 20
2.2885809147
 30
0.0
 10
4.5603997678
 20
2.2896543573
 30
0.0
 10
4.5654769551
 20
2.2903152976
 30
0.0
 10
4.5688834823
 20
2.2904642857
 30
0.0
 10
4.5705842391
 20
2.2904642857
 30
0.0
  0
SPLINE
  5
29B
100
AcDbEntity
  8
0
100
AcDbSpline
 62
7
  6
CONTINUOUS
 70
0
 71
3
 72
16
 73
12
 74
0
 42
0.0000001
 43
0.0000001
 44
0.0000000001
 40
0.0
 40
0.0
 40
0.0
 40
0.0
 40
0.1233443788
 40
0.2469207542
 40
0.3709071582
 40
0.495450665
 40
0.5579628683
 40
0.6206375645
 40
0.7464604167
 40
0.8729307679
 40
1.0
 40
1.0
 40
1.0
 40
1.0
 10
4.5705842391
 20
2.2904642857
 30
0.0
 10
4.5722849958
 20
2.2904642857
 30
0.0
 10
4.5756915226
 20
2.2903152978
 30
0.0
 10
4.5807687097
 20
2.2896543575
 30
0.0
 10
4.585791339
 20
2.2885809148
 30
0.0
 10
4.5899109357
 20
2.2873744155
 30
0.0
 10
4.5931636631
 20
2.2862428919
 30
0.0
 10
4.5963959843
 20
2.2850040499
 30
0.0
 10
4.6003813453
 20
2.2832721598
 30
0.0
 10
4.605068333
 20
2.2809454988
 30
0.0
 10
4.6081293609
 20
2.2792543649
 30
0.0
 10
4.6096467391
 20
2.2783783062
 30
0.0
  0
SPLINE
  5
29C
100
AcDbEntity
  8
0
100
AcDbSpline
 62
7
  6
CONTINUOUS
 70
0
 71
3
 72
16
 73
12
 74
0
 42
0.0000001
 43
0.0000001
 44
0.0000000001
 40
0.0
 40
0.0
 40
0.0
 40
0.0
 40
0.1233443788
 40
0.2469207542
 40
0.3709071582
 40
0.495450665
 40
0.5579628683
 40
0.6206375645
 40
0.7464604167
 40
0.8729307679
 40
1.0
 40
1.0
 40
1.0
 40
1.0
 10
4.4924592391
 20
2.1857142857
 30
0.0
 10
4.4941599958
 20
2.1857142857
 30
0.0
 10
4.4975665226
 20
2.1858632736
 30
0.0
 10
4.5026437097
 20
2.186524214
 30
0.0
 10
4.507666339
 20
2.1875976567
 30
0.0
 10
4.5117859357
 20
2.1888041559
 30
0.0
 10
4.5150386631
 20
2.1899356795
 30
0.0
 10
4.5182709843
 20
2.1911745215
 30
0.0
 10
4.5222563453
 20
2.1929064116
 30
0.0
 10
4.526943333
 20
2.1952330726
 30
0.0
 10
4.5300043609
 20
2.1969242065
 30
0.0
 10
4.5315217391
 20
2.1978002653
 30
0.0
  0
SPLINE
  5
29D
100
AcDbEntity
  8
0
100
AcDbSpline
 62
7
  6
CONTINUOUS
 70
0
 71
3
 72
16
 73
12
 74
0
 42
0.0000001
 43
0.0000001
 44
0.0000000001
 40
0.0
 40
0.0
 40
0.0
 40
0.0
 40
0.1270692381
 40
0.253539593
 40
0.3793624411
 40
0.4420371305
 40
0.5045493276
 40
0.6290928215
 40
0.7530792198
 40
0.8766556084
 40
1.0
 40
1.0
 40
1.0
 40
1.0
 10
4.4533967391
 20
2.1978002653
 30
0.0
 10
4.4549141175
 20
2.1969242065
 30
0.0
 10
4.4579751454
 20
2.1952330724
 30
0.0
 10
4.4626621333
 20
2.1929064116
 30
0.0
 10
4.4666474941
 20
2.1911745215
 30
0.0
 10
4.4698798151
 20
2.1899356795
 30
0.0
 10
4.4731325422
 20
2.1888041561
 30
0.0
 10
4.4772521385
 20
2.1875976567
 30
0.0
 10
4.4822747678
 20
2.1865242141
 30
0.0
 10
4.4873519551
 20
2.1858632738
 30
0.0
 10
4.4907584823
 20
2.1857142857
 30
0.0
 10
4.4924592391
 20
2.1857142857
 30
0.0
  0
SPLINE
  5
29E
100
AcDbEntity
  8
0
100
AcDbSpline
 62
7
  6
CONTINUOUS
 70
0
 71
3
 72
16
 73
12
 74
0
 42
0.0000001
 43
0.0000001
 44
0.0000000001
 40
0.0
 40
0.0
 40
0.0
 40
0.0
 40
0.1270692381
 40
0.253539593
 40
0.3793624411
 40
0.4420371305
 40
0.5045493276
 40
0.6290928215
 40
0.7530792198
 40
0.8766556084
 40
1.0
 40
1.0
 40
1.0
 40
1.0
 10
4.4533967391
 20
2.2783783062
 30
0.0
 10
4.4549141175
 20
2.2792543649
 30
0.0
 10
4.4579751454
 20
2.280945499
 30
0.0
 10
4.4626621333
 20
2.2832721599
 30
0.0
 10
4.4666474941
 20
2.28500405
 30
0.0
 10
4.4698798151
 20
2.2862428919
 30
0.0
 10
4.4731325422
 20
2.2873744153
 30
0.0
 10
4.4772521385
 20
2.2885809147
 30
0.0
 10
4.4822747678
 20
2.2896543573
 30
0.0
 10
4.4873519551
 20
2.2903152976
 30
0.0
 10
4.4907584823
 20
2.2904642857
 30
0.0
 10
4.4924592391
 20
2.2904642857
 30
0.0
  0
SPLINE
  5
29F
100
AcDbEntity
  8
0
100
AcDbSpline
 62
7
  6
CONTINUOUS
 70
0
 71
3
 72
16
 73
12
 74
0
 42
0.0000001
 43
0.0000001
 44
0.0000000001
 40
0.0
 40
0.0
 40
0.0
 40
0.0
 40
0.1233443788
 40
0.2469207542
 40
0.3709071582
 40
0.495450665
 40
0.5579628683
 40
0.6206375645
 40
0.7464604167
 40
0.8729307679
 40
1.0
 40
1.0
 40
1.0
 40
1.0
 10
4.4924592391
 20
2.2904642857
 30
0.0
 10
4.4941599958
 20
2.2904642857
 30
0.0
 10
4.4975665226
 20
2.2903152978
 30
0.0
 10
4.5026437097
 20
2.2896543575
 30
0.0
 10
4.507666339
 20
2.2885809148
 30
0.0
 10
4.5117859357
 20
2.2873744155
 30
0.0
 10
4.5150386631
 20
2.2862428919
 30
0.0
 10
4.5182709843
 20
2.2850040499
 30
0.0
 10
4.5222563453
 20
2.2832721598
 30
0.0
 10
4.526943333
 20
2.2809454988
 30
0.0
 10
4.5300043609
 20
2.2792543649
 30
0.0
 10
4.5315217391
 20
2.2783783062
 30
0.0
  0
SPLINE
  5
2A0
100
AcDbEntity
  8
0
100
AcDbSpline
 62
7
  6
CONTINUOUS
 70
0
 71
3
 72
16
 73
12
 74
0
 42
0.0000001
 43
0.0000001
 44
0.0000000001
 40
0.0
 40
0.0
 40
0.0
 40
0.0
 40
0.1233443788
 40
0.2469207542
 40
0.3709071582
 40
0.495450665
 40
0.5579628683
 40
0.6206375645
 40
0.7464604167
 40
0.8729307679
 40
1.0
 40
1.0
 40
1.0
 40
1.0
 10
4.5705842391
 20
2.1857142857
 30
0.0
 10
4.5722849958
 20
2.1857142857
 30
0.0
 10
4.5756915226
 20
2.1858632736
 30
0.0
 10
4.5807687097
 20
2.186524214
 30
0.0
 10
4.585791339
 20
2.1875976567
 30
0.0
 10
4.5899109357
 20
2.1888041559
 30
0.0
 10
4.5931636631
 20
2.1899356795
 30
0.0
 10
4.5963959843
 20
2.1911745215
 30
0.0
 10
4.6003813453
 20
2.1929064116
 30
0.0
 10
4.605068333
 20
2.1952330726
 30
0.0
 10
4.6081293609
 20
2.1969242065
 30
0.0
 10
4.6096467391
 20
2.1978002653
 30
0.0
  0
SPLINE
  5
2A1
100
AcDbEntity
  8
0
100
AcDbSpline
 62
7
  6
CONTINUOUS
 70
0
 71
3
 72
16
 73
12
 74
0
 42
0.0000001
 43
0.0000001
 44
0.0000000001
 40
0.0
 40
0.0
 40
0.0
 40
0.0
 40
0.1270692381
 40
0.253539593
 40
0.3793624411
 40
0.4420371305
 40
0.5045493276
 40
0.6290928215
 40
0.7530792198
 40
0.8766556084
 40
1.0
 40
1.0
 40
1.0
 40
1.0
 10
4.5315217391
 20
2.1978002653
 30
0.0
 10
4.5330391175
 20
2.1969242065
 30
0.0
 10
4.5361001454
 20
2.1952330724
 30
0.0
 10
4.5407871333
 20
2.1929064116
 30
0.0
 10
4.5447724941
 20
2.1911745215
 30
0.0
 10
4.5480048151
 20
2.1899356795
 30
0.0
 10
4.5512575422
 20
2.1888041561
 30
0.0
 10
4.5553771385
 20
2.1875976567
 30
0.0
 10
4.5603997678
 20
2.1865242141
 30
0.0
 10
4.5654769551
 20
2.1858632738
 30
0.0
 10
4.5688834823
 20
2.1857142857
 30
0.0
 10
4.5705842391
 20
2.1857142857
 30
0.0
  0
SPLINE
  5
2A2
100
AcDbEntity
  8
0
100
AcDbSpline
 62
7
  6
CONTINUOUS
 70
0
 71
3
 72
9
 73
5
 74
0
 42
0.0000001
 43
0.0000001
 44
0.0000000001
 40
0.0
 40
0.0
 40
0.0
 40
0.0
 40
0.3365304735
 40
1.0
 40
1.0
 40
1.0
 40
1.0
 10
4.4612678868
 20
2.1665171562
 30
0.0
 10
4.461259032
 20
2.1665222769
 30
0.0
 10
4.4612341273
 20
2.1665379479
 30
0.0
 10
4.4612093705
 20
2.1665646688
 30
0.0
 10
4.461209369
 20
2.1665848349
 30
0.0
  0
SPLINE
  5
2A3
100
AcDbEntity
  8
0
100
AcDbSpline
 62
7
  6
CONTINUOUS
 70
0
 71
3
 72
9
 73
5
 74
0
 42
0.0000001
 43
0.0000001
 44
0.0000000001
 40
0.0
 40
0.0
 40
0.0
 40
0.0
 40
0.1880556284
 40
1.0
 40
1.0
 40
1.0
 40
1.0
 10
4.461209377
 20
2.1770023349
 30
0.0
 10
4.4612093782
 20
2.1769965645
 30
0.0
 10
4.4612170816
 20
2.1769657801
 30
0.0
 10
4.4612463329
 20
2.1769471288
 30
0.0
 10
4.4612679001
 20
2.1769346562
 30
0.0
  0
SPLINE
  5
2A4
100
AcDbEntity
  8
0
100
AcDbSpline
 62
7
  6
CONTINUOUS
 70
0
 71
3
 72
9
 73
5
 74
0
 42
0.0000001
 43
0.0000001
 44
0.0000000001
 40
0.0
 40
0.0
 40
0.0
 40
0.0
 40
0.1880670961
 40
1.0
 40
1.0
 40
1.0
 40
1.0
 10
4.6018341087
 20
2.182211085
 30
0.0
 10
4.6018341144
 20
2.182205316
 30
0.0
 10
4.6018264484
 20
2.1821745298
 30
0.0
 10
4.6017971971
 20
2.1821558749
 30
0.0
 10
4.6017756366
 20
2.1821434062
 30
0.0
  0
SPLINE
  5
2A5
100
AcDbEntity
  8
0
100
AcDbSpline
 62
7
  6
CONTINUOUS
 70
0
 71
3
 72
9
 73
5
 74
0
 42
0.0000001
 43
0.0000001
 44
0.0000000001
 40
0.0
 40
0.0
 40
0.0
 40
0.0
 40
0.1880560755
 40
1.0
 40
1.0
 40
1.0
 40
1.0
 10
4.6018341052
 20
2.1717935849
 30
0.0
 10
4.6018341044
 20
2.1717878146
 30
0.0
 10
4.6018264032
 20
2.17175703
 30
0.0
 10
4.6017971518
 20
2.1717383785
 30
0.0
 10
4.6017755849
 20
2.1717259062
 30
0.0
  0
SPLINE
  5
2A6
100
AcDbEntity
  8
0
100
AcDbSpline
 62
7
  6
CONTINUOUS
 70
0
 71
3
 72
26
 73
22
 74
0
 42
0.0000001
 43
0.0000001
 44
0.0000000001
 40
0.0
 40
0.0
 40
0.0
 40
0.0
 40
0.0013801548
 40
0.003295402
 40
0.0087814024
 40
0.0164959123
 40
0.0264361303
 40
0.0385899688
 40
0.0529327193
 40
0.0694311038
 40
0.0880508568
 40
0.1314868854
 40
0.1828433813
 40
0.2416574365
 40
0.3073935657
 40
0.3794505863
 40
0.4571745969
 40
0.5398555968
 40
0.626741908
 40
0.8099026588
 40
1.0
 40
1.0
 40
1.0
 40
1.0
 10
4.6017755849
 20
2.1717259062
 30
0.0
 10
4.6017475765
 20
2.1717097086
 30
0.0
 10
4.6016757007
 20
2.1716801055
 30
0.0
 10
4.6014782473
 20
2.1716218521
 30
0.0
 10
4.6011295555
 20
2.1715549717
 30
0.0
 10
4.6005926289
 20
2.1714782683
 30
0.0
 10
4.5998979433
 20
2.17140108
 30
0.0
 10
4.5990473275
 20
2.1713230756
 30
0.0
 10
4.5980424086
 20
2.1712448028
 30
0.0
 10
4.5968855548
 20
2.1711662474
 30
0.0
 10
4.5950473295
 20
2.1710555626
 30
0.0
 10
4.5923920132
 20
2.1709202247
 30
0.0
 10
4.588794396
 20
2.1707640423
 30
0.0
 10
4.5846735898
 20
2.1706073915
 30
0.0
 10
4.5800672102
 20
2.1704503526
 30
0.0
 10
4.5750173011
 20
2.1702930663
 30
0.0
 10
4.5695699832
 20
2.1701356151
 30
0.0
 10
4.563774892
 20
2.1699780221
 30
0.0
 10
4.5555086829
 20
2.1697640233
 30
0.0
 10
4.5447247671
 20
2.1695005349
 30
0.0
 10
4.5359769381
 20
2.1692942653
 30
0.0
 10
4.5315217391
 20
2.1691892099
 30
0.0
  0
LINE
  5
2A7
100
AcDbEntity
  8
0
100
AcDbLine
 62
7
  6
CONTINUOUS
 10
4.5857511547
 20
2.1515972654
 11
4.5512702785
 21
2.1506088909
  0
SPLINE
  5
2A8
100
AcDbEntity
  8
0
100
AcDbSpline
 62
7
  6
CONTINUOUS
 70
0
 71
3
 72
23
 73
19
 74
0
 42
0.0000001
 43
0.0000001
 44
0.0000000001
 40
0.0
 40
0.0
 40
0.0
 40
0.0
 40
0.1620529812
 40
0.3305063141
 40
0.4962059708
 40
0.5751908755
 40
0.6501488529
 40
0.7200596901
 40
0.7839723991
 40
0.8410136
 40
0.8904103526
 40
0.9314938166
 40
0.9487377609
 40
0.9637067806
 40
0.9763517118
 40
0.9866292055
 40
0.9945155138
 40
1.0
 40
1.0
 40
1.0
 40
1.0
 10
4.5562718801
 20
2.1857142909
 30
0.0
 10
4.551494468
 20
2.1855799936
 30
0.0
 10
4.5417505831
 20
2.1853195055
 30
0.0
 10
4.5271212398
 20
2.1849423495
 30
0.0
 10
4.5149410615
 20
2.1846235304
 30
0.0
 10
4.5055176966
 20
2.1843630358
 30
0.0
 10
4.4989185498
 20
2.1841709353
 30
0.0
 10
4.492764106
 20
2.1839790868
 30
0.0
 10
4.4871383334
 20
2.1837875936
 30
0.0
 10
4.4821179229
 20
2.183596697
 30
0.0
 10
4.477771328
 20
2.1834065374
 30
0.0
 10
4.4745985213
 20
2.1832413352
 30
0.0
 10
4.4724411124
 20
2.1831053631
 30
0.0
 10
4.4711215724
 20
2.1830097593
 30
0.0
 10
4.4700081316
 20
2.1829145735
 30
0.0
 10
4.4691042109
 20
2.1828204493
 30
0.0
 10
4.4684131559
 20
2.1827271227
 30
0.0
 10
4.4680246529
 20
2.1826554957
 30
0.0
 10
4.4678682622
 20
2.1826142053
 30
0.0
  0
LINE
  5
2A9
100
AcDbEntity
  8
0
100
AcDbLine
 62
7
  6
CONTINUOUS
 10
4.4678682622
 20
2.1826142053
 11
4.4676237238
 21
2.1825255498
  0
LINE
  5
2AA
100
AcDbEntity
  8
0
100
AcDbLine
 62
7
  6
CONTINUOUS
 10
4.5954197118
 20
2.1680530214
 11
4.5943106811
 21
2.167809334
  0
SPLINE
  5
2AB
100
AcDbEntity
  8
0
100
AcDbSpline
 62
7
  6
CONTINUOUS
 70
0
 71
3
 72
40
 73
36
 74
0
 42
0.0000001
 43
0.0000001
 44
0.0000000001
 40
0.0
 40
0.0
 40
0.0
 40
0.0
 40
0.0110107629
 40
0.0261127029
 40
0.0451829223
 40
0.0680668728
 40
0.0945689201
 40
0.1244691937
 40
0.1934184057
 40
0.272583238
 40
0.3592841327
 40
0.450585265
 40
0.5433945055
 40
0.6345684928
 40
0.6785719498
 40
0.7210194055
 40
0.7615493298
 40
0.7998198821
 40
0.8355041911
 40
0.8683027347
 40
0.8979344182
 40
0.9241524383
 40
0.9467316065
 40
0.9654868244
 40
0.9733784894
 40
0.9802590327
 40
0.9861155455
 40
0.9909360449
 40
0.9947138173
 40
0.9962122487
 40
0.9974517203
 40
0.9984350601
 40
0.99916884
 40
0.999670692
 40
1.0
 40
1.0
 40
1.0
 40
1.0
 10
4.5943106811
 20
2.167809334
 30
0.0
 10
4.5938491006
 20
2.1677465932
 30
0.0
 10
4.5927497003
 20
2.1676340309
 30
0.0
 10
4.5908439095
 20
2.1674863068
 30
0.0
 10
4.5884345721
 20
2.1673372583
 30
0.0
 10
4.5855423308
 20
2.167186957
 30
0.0
 10
4.5821913908
 20
2.1670360492
 30
0.0
 10
4.5768924501
 20
2.1668241308
 30
0.0
 10
4.5693656843
 20
2.1665662083
 30
0.0
 10
4.5594360121
 20
2.1662673669
 30
0.0
 10
4.5485603492
 20
2.1659675809
 30
0.0
 10
4.5371072563
 20
2.1656672024
 30
0.0
 10
4.5254648644
 20
2.1653666607
 30
0.0
 10
4.5158229064
 20
2.1651134799
 30
0.0
 10
4.5083110514
 20
2.1649082351
 30
0.0
 10
4.5029411095
 20
2.164756177
 30
0.0
 10
4.497813805
 20
2.1646041845
 30
0.0
 10
4.4929727526
 20
2.1644523076
 30
0.0
 10
4.4884589536
 20
2.1643005497
 30
0.0
 10
4.4843108468
 20
2.1641490157
 30
0.0
 10
4.480563507
 20
2.163997719
 30
0.0
 10
4.4772488754
 20
2.1638469147
 30
0.0
 10
4.4743949118
 20
2.1636966137
 30
0.0
 10
4.4723163642
 20
2.1635660256
 30
0.0
 10
4.4709019806
 20
2.1634587666
 30
0.0
 10
4.4700325124
 20
2.1633832117
 30
0.0
 10
4.4692934839
 20
2.1633080411
 30
0.0
 10
4.4686865023
 20
2.1632332803
 30
0.0
 10
4.4682642402
 20
2.1631677608
 30
0.0
 10
4.4679939575
 20
2.1631132932
 30
0.0
 10
4.4678410288
 20
2.1630757148
 30
0.0
 10
4.4677213511
 20
2.1630388671
 30
0.0
 10
4.4676349534
 20
2.1630014746
 30
0.0
 10
4.4675785565
 20
2.1629661644
 30
0.0
 10
4.4675592616
 20
2.1629325923
 30
0.0
 10
4.4675592836
 20
2.1629186605
 30
0.0
  0
SPLINE
  5
2AC
100
AcDbEntity
  8
0
100
AcDbSpline
 62
7
  6
CONTINUOUS
 70
0
 71
3
 72
13
 73
9
 74
0
 42
0.0000001
 43
0.0000001
 44
0.0000000001
 40
0.0
 40
0.0
 40
0.0
 40
0.0
 40
0.0696662469
 40
0.1585758436
 40
0.2653380422
 40
0.388280793
 40
0.67475314
 40
1.0
 40
1.0
 40
1.0
 40
1.0
 10
4.5915783162
 20
2.155824996
 30
0.0
 10
4.5905018996
 20
2.1557439134
 30
0.0
 10
4.5880492932
 20
2.1555924321
 30
0.0
 10
4.5839429046
 20
2.1553897255
 30
0.0
 10
4.5790102036
 20
2.155185588
 30
0.0
 10
4.5710173134
 20
2.1548971239
 30
0.0
 10
4.5596390882
 20
2.154549812
 30
0.0
 10
4.5501641146
 20
2.1542920458
 30
0.0
 10
4.5451262447
 20
2.1541583982
 30
0.0
  0
SPLINE
  5
2AD
100
AcDbEntity
  8
0
100
AcDbSpline
 62
7
  6
CONTINUOUS
 70
0
 71
3
 72
14
 73
10
 74
0
 42
0.0000001
 43
0.0000001
 44
0.0000000001
 40
0.0
 40
0.0
 40
0.0
 40
0.0
 40
0.3244241806
 40
0.475368229
 40
0.6145245596
 40
0.7389823157
 40
0.8461391313
 40
0.9337534179
 40
1.0
 40
1.0
 40
1.0
 40
1.0
 10
4.5368109324
 20
2.1588965494
 30
0.0
 10
4.5434199155
 20
2.1590528349
 30
0.0
 10
4.5531038049
 20
2.1592837782
 30
0.0
 10
4.5656218511
 20
2.1596080609
 30
0.0
 10
4.5740660452
 20
2.1598448589
 30
0.0
 10
4.5816176097
 20
2.1600808799
 30
0.0
 10
4.5881184189
 20
2.1603152021
 30
0.0
 10
4.5934321288
 20
2.1605476293
 30
0.0
 10
4.596562725
 20
2.1607231083
 30
0.0
 10
4.5979091945
 20
2.1608194897
 30
0.0
  0
SPLINE
  5
2AE
100
AcDbEntity
  8
0
100
AcDbSpline
 62
7
  6
CONTINUOUS
 70
0
 71
3
 72
26
 73
22
 74
0
 42
0.0000001
 43
0.0000001
 44
0.0000000001
 40
0.0
 40
0.0
 40
0.0
 40
0.0
 40
0.0013805217
 40
0.0032966799
 40
0.0087829024
 40
0.0164965505
 40
0.0264369727
 40
0.0385919634
 40
0.0529342936
 40
0.0694322645
 40
0.0880530117
 40
0.1314883573
 40
0.1828454199
 40
0.2416588703
 40
0.3073962022
 40
0.3794535839
 40
0.4571780241
 40
0.5398593508
 40
0.6267451402
 40
0.8099036854
 40
1.0
 40
1.0
 40
1.0
 40
1.0
 10
4.6017756366
 20
2.1821434062
 30
0.0
 10
4.6017476207
 20
2.1821272042
 30
0.0
 10
4.601675711
 20
2.1820976017
 30
0.0
 10
4.6014782159
 20
2.1820393694
 30
0.0
 10
4.6011295228
 20
2.1819724686
 30
0.0
 10
4.6005926058
 20
2.18189576
 30
0.0
 10
4.5998979082
 20
2.1818185728
 30
0.0
 10
4.5990472688
 20
2.1817405778
 30
0.0
 10
4.5980423425
 20
2.1816622972
 30
0.0
 10
4.5968854842
 20
2.1815837392
 30
0.0
 10
4.5950472595
 20
2.1814730646
 30
0.0
 10
4.5923919214
 20
2.1813377157
 30
0.0
 10
4.5887943182
 20
2.181181543
 30
0.0
 10
4.5846734823
 20
2.1810248849
 30
0.0
 10
4.5800670769
 20
2.1808678502
 30
0.0
 10
4.5750171179
 20
2.18071056
 30
0.0
 10
4.5695697701
 20
2.1805531094
 30
0.0
 10
4.5637746695
 20
2.1803955165
 30
0.0
 10
4.5555085111
 20
2.1801815189
 30
0.0
 10
4.5447246762
 20
2.1799180327
 30
0.0
 10
4.535976917
 20
2.1797117648
 30
0.0
 10
4.5315217391
 20
2.1796067099
 30
0.0
  0
LINE
  5
2AF
100
AcDbEntity
  8
0
100
AcDbLine
 62
7
  6
CONTINUOUS
 10
4.5954197441
 20
2.1784705216
 11
4.593920489
 21
2.1781775514
  0
SPLINE
  5
2B0
100
AcDbEntity
  8
0
100
AcDbSpline
 62
7
  6
CONTINUOUS
 70
0
 71
3
 72
38
 73
34
 74
0
 42
0.0000001
 43
0.0000001
 44
0.0000000001
 40
0.0
 40
0.0
 40
0.0
 40
0.0
 40
0.0122335976
 40
0.0284561373
 40
0.0485373062
 40
0.0723143634
 40
0.1301408864
 40
0.2000243932
 40
0.2796486409
 40
0.3663722163
 40
0.4573171416
 40
0.5494648775
 40
0.6397568386
 40
0.683264839
 40
0.7251962248
 40
0.7652007744
 40
0.8029478305
 40
0.8381218867
 40
0.8704327115
 40
0.8996104738
 40
0.9254149321
 40
0.9476316795
 40
0.9660790323
 40
0.9738405574
 40
0.9806076108
 40
0.9863663579
 40
0.9911054978
 40
0.9948208701
 40
0.9962949495
 40
0.9975144393
 40
0.9984820291
 40
0.9992041877
 40
1.0
 40
1.0
 40
1.0
 40
1.0
 10
4.593920489
 20
2.1781775514
 30
0.0
 10
4.5934081004
 20
2.1781171045
 30
0.0
 10
4.5922128587
 20
2.1780060948
 30
0.0
 10
4.5901710988
 20
2.1778592171
 30
0.0
 10
4.5876414981
 20
2.1777111472
 30
0.0
 10
4.5833582886
 20
2.177498314
 30
0.0
 10
4.5769744558
 20
2.1772423704
 30
0.0
 10
4.5682352516
 20
2.1769478916
 30
0.0
 10
4.5582767655
 20
2.1766519805
 30
0.0
 10
4.5474297213
 20
2.1763549581
 30
0.0
 10
4.5360543334
 20
2.1760574918
 30
0.0
 10
4.5245284071
 20
2.1757598739
 30
0.0
 10
4.5150025508
 20
2.1755090543
 30
0.0
 10
4.5075940155
 20
2.175305755
 30
0.0
 10
4.5023056628
 20
2.175155222
 30
0.0
 10
4.4972603736
 20
2.1750047548
 30
0.0
 10
4.4925001986
 20
2.1748543999
 30
0.0
 10
4.4880646679
 20
2.1747041696
 30
0.0
 10
4.4839907547
 20
2.1745541498
 30
0.0
 10
4.48031228
 20
2.1744043833
 30
0.0
 10
4.4770598799
 20
2.174255078
 30
0.0
 10
4.4742605511
 20
2.1741063066
 30
0.0
 10
4.4722222624
 20
2.173977006
 30
0.0
 10
4.4708355718
 20
2.1738708253
 30
0.0
 10
4.4699832149
 20
2.1737960312
 30
0.0
 10
4.4692588786
 20
2.1737216459
 30
0.0
 10
4.4686639047
 20
2.1736475463
 30
0.0
 10
4.4682502761
 20
2.1735828472
 30
0.0
 10
4.4679850273
 20
2.1735286966
 30
0.0
 10
4.4678358174
 20
2.1734920072
 30
0.0
 10
4.4677166718
 20
2.1734541725
 30
0.0
 10
4.4676254775
 20
2.1734157913
 30
0.0
 10
4.4675593139
 20
2.1733697232
 30
0.0
 10
4.4675593597
 20
2.1733361605
 30
0.0
  0
LINE
  5
2B1
100
AcDbEntity
  8
0
100
AcDbLine
 62
7
  6
CONTINUOUS
 10
4.461209369
 20
2.1665848349
 11
4.4624736495
 21
2.1668997262
  0
LINE
  5
2B2
100
AcDbEntity
  8
0
100
AcDbLine
 62
7
  6
CONTINUOUS
 10
4.4624736495
 20
2.1668997262
 11
4.4643373594
 21
2.1670812453
  0
SPLINE
  5
2B3
100
AcDbEntity
  8
0
100
AcDbSpline
 62
7
  6
CONTINUOUS
 70
0
 71
3
 72
15
 73
11
 74
0
 42
0.0000001
 43
0.0000001
 44
0.0000000001
 40
0.0
 40
0.0
 40
0.0
 40
0.0
 40
0.0277110671
 40
0.061544232
 40
0.1466956993
 40
0.2533264701
 40
0.3787555747
 40
0.5198330597
 40
0.6730064916
 40
1.0
 40
1.0
 40
1.0
 40
1.0
 10
4.4643373594
 20
2.1670812453
 30
0.0
 10
4.4649563091
 20
2.1671307241
 30
0.0
 10
4.4663321259
 20
2.1672258088
 30
0.0
 10
4.469613853
 20
2.167412947
 30
0.0
 10
4.4746644567
 20
2.1676364181
 30
0.0
 10
4.4817676326
 20
2.1678926537
 30
0.0
 10
4.4901246137
 20
2.1681503618
 30
0.0
 10
4.4995248568
 20
2.1684093942
 30
0.0
 10
4.5134406397
 20
2.1687633055
 30
0.0
 10
4.5241968049
 20
2.1690164851
 30
0.0
 10
4.5315217391
 20
2.1691892099
 30
0.0
  0
SPLINE
  5
2B4
100
AcDbEntity
  8
0
100
AcDbSpline
 62
7
  6
CONTINUOUS
 70
0
 71
3
 72
15
 73
11
 74
0
 42
0.0000001
 43
0.0000001
 44
0.0000000001
 40
0.0
 40
0.0
 40
0.0
 40
0.0
 40
0.3274172656
 40
0.4807425311
 40
0.6219022923
 40
0.74732824
 40
0.8538540421
 40
0.9387883673
 40
0.9724696564
 40
1.0
 40
1.0
 40
1.0
 40
1.0
 10
4.5315217391
 20
2.1796067099
 30
0.0
 10
4.5241807981
 20
2.1794336076
 30
0.0
 10
4.5134021742
 20
2.1791799035
 30
0.0
 10
4.4994592854
 20
2.178825182
 30
0.0
 10
4.4900455209
 20
2.1785655883
 30
0.0
 10
4.4816817063
 20
2.1783073388
 30
0.0
 10
4.4745795323
 20
2.1780505759
 30
0.0
 10
4.4695350918
 20
2.1778266275
 30
0.0
 10
4.4662628183
 20
2.1776389801
 30
0.0
 10
4.464893267
 20
2.1775436256
 30
0.0
 10
4.4642778448
 20
2.1774939648
 30
0.0
  0
LINE
  5
2B5
100
AcDbEntity
  8
0
100
AcDbLine
 62
7
  6
CONTINUOUS
 10
4.4642778448
 20
2.1774939648
 11
4.4616171383
 21
2.1771810022
  0
LINE
  5
2B6
100
AcDbEntity
  8
0
100
AcDbLine
 62
7
  6
CONTINUOUS
 10
4.4615483632
 20
2.177165235
 11
4.461209377
 21
2.1770023349
  0
SPLINE
  5
2B7
100
AcDbEntity
  8
0
100
AcDbSpline
 62
7
  6
CONTINUOUS
 70
0
 71
3
 72
26
 73
22
 74
0
 42
0.0000001
 43
0.0000001
 44
0.0000000001
 40
0.0
 40
0.0
 40
0.0
 40
0.0
 40
0.1900987995
 40
0.3732555704
 40
0.4601405451
 40
0.5428210157
 40
0.6205451808
 40
0.6926049467
 40
0.7583404897
 40
0.8171561865
 40
0.8685129958
 40
0.9119473761
 40
0.9305679019
 40
0.947068477
 40
0.9614096708
 40
0.9735625874
 40
0.9835053224
 40
0.9912195491
 40
0.996702954
 40
0.9986185858
 40
1.0
 40
1.0
 40
1.0
 40
1.0
 10
4.5315217391
 20
2.1813893615
 30
0.0
 10
4.5270665053
 20
2.1812843053
 30
0.0
 10
4.518318734
 20
2.1810780369
 30
0.0
 10
4.5075349071
 20
2.1808145512
 30
0.0
 10
4.4992688337
 20
2.1806005555
 30
0.0
 10
4.4934737816
 20
2.1804429664
 30
0.0
 10
4.4880264075
 20
2.1802855082
 30
0.0
 10
4.4829764432
 20
2.1801282298
 30
0.0
 10
4.4783699741
 20
2.1799711795
 30
0.0
 10
4.474249135
 20
2.1798145325
 30
0.0
 10
4.4706515099
 20
2.1796583533
 30
0.0
 10
4.4679962067
 20
2.1795230082
 30
0.0
 10
4.4661579505
 20
2.1794123201
 30
0.0
 10
4.4650010623
 20
2.1793337812
 30
0.0
 10
4.4639961509
 20
2.1792554965
 30
0.0
 10
4.4631455355
 20
2.1791774751
 30
0.0
 10
4.4624508173
 20
2.1791003095
 30
0.0
 10
4.4619138939
 20
2.1790236281
 30
0.0
 10
4.4615652724
 20
2.1789566983
 30
0.0
 10
4.4613678405
 20
2.1788984518
 30
0.0
 10
4.4612959213
 20
2.1788688589
 30
0.0
 10
4.4612678763
 20
2.1788526655
 30
0.0
  0
SPLINE
  5
2B8
100
AcDbEntity
  8
0
100
AcDbSpline
 62
7
  6
CONTINUOUS
 70
0
 71
3
 72
26
 73
22
 74
0
 42
0.0000001
 43
0.0000001
 44
0.0000000001
 40
0.0
 40
0.0
 40
0.0
 40
0.0
 40
0.1900987995
 40
0.3732555704
 40
0.4601405451
 40
0.5428210157
 40
0.6205451808
 40
0.6926049467
 40
0.7583404897
 40
0.8171561865
 40
0.8685129958
 40
0.9119473761
 40
0.9305679019
 40
0.947068477
 40
0.9614096708
 40
0.9735625874
 40
0.9835053224
 40
0.9912195491
 40
0.996702954
 40
0.9986185858
 40
1.0
 40
1.0
 40
1.0
 40
1.0
 10
4.5315217391
 20
2.1709718615
 30
0.0
 10
4.5270665053
 20
2.1708668053
 30
0.0
 10
4.518318734
 20
2.1706605369
 30
0.0
 10
4.5075349071
 20
2.1703970512
 30
0.0
 10
4.4992688337
 20
2.1701830555
 30
0.0
 10
4.4934737816
 20
2.1700254664
 30
0.0
 10
4.4880264075
 20
2.1698680082
 30
0.0
 10
4.4829764432
 20
2.1697107298
 30
0.0
 10
4.4783699741
 20
2.1695536795
 30
0.0
 10
4.474249135
 20
2.1693970325
 30
0.0
 10
4.4706515099
 20
2.1692408533
 30
0.0
 10
4.4679962067
 20
2.1691055082
 30
0.0
 10
4.4661579505
 20
2.1689948201
 30
0.0
 10
4.4650010623
 20
2.1689162812
 30
0.0
 10
4.4639961509
 20
2.1688379965
 30
0.0
 10
4.4631455355
 20
2.1687599751
 30
0.0
 10
4.4624508173
 20
2.1686828095
 30
0.0
 10
4.4619138939
 20
2.1686061281
 30
0.0
 10
4.4615652724
 20
2.1685391983
 30
0.0
 10
4.4613678405
 20
2.1684809518
 30
0.0
 10
4.4612959213
 20
2.1684513589
 30
0.0
 10
4.4612678763
 20
2.1684351655
 30
0.0
  0
SPLINE
  5
2B9
100
AcDbEntity
  8
0
100
AcDbSpline
 62
7
  6
CONTINUOUS
 70
0
 71
3
 72
26
 73
22
 74
0
 42
0.0000001
 43
0.0000001
 44
0.0000000001
 40
0.0
 40
0.0
 40
0.0
 40
0.0
 40
0.2122364356
 40
0.4066024969
 40
0.4957466599
 40
0.5788666985
 40
0.6555192124
 40
0.7252816479
 40
0.787775665
 40
0.8426687049
 40
0.8896546176
 40
0.9284973846
 40
0.9589858457
 40
0.9710536357
 40
0.980991182
 40
0.9887954193
 40
0.991900563
 40
0.9944796495
 40
0.9965432146
 40
0.998112499
 40
1.0
 40
1.0
 40
1.0
 40
1.0
 10
4.5073062927
 20
2.1857142844
 30
0.0
 10
4.5044878931
 20
2.1856353533
 30
0.0
 10
4.4990885238
 20
2.1854798061
 30
0.0
 10
4.4925058857
 20
2.1852733158
 30
0.0
 10
4.4876381759
 20
2.1851058583
 30
0.0
 10
4.4843336262
 20
2.1849839791
 30
0.0
 10
4.48128674
 20
2.1848622381
 30
0.0
 10
4.4785140962
 20
2.1847406494
 30
0.0
 10
4.4760308144
 20
2.1846192826
 30
0.0
 10
4.4738505022
 20
2.1844982613
 30
0.0
 10
4.4719848912
 20
2.184377787
 30
0.0
 10
4.4704442638
 20
2.1842580379
 30
0.0
 10
4.4693678199
 20
2.1841532141
 30
0.0
 10
4.4686758963
 20
2.1840658718
 30
0.0
 10
4.4682843846
 20
2.1840058267
 30
0.0
 10
4.4680123806
 20
2.1839533826
 30
0.0
 10
4.4678384163
 20
2.1839095637
 30
0.0
 10
4.4677402046
 20
2.1838797339
 30
0.0
 10
4.4676624192
 20
2.1838490997
 30
0.0
 10
4.4675995938
 20
2.183816709
 30
0.0
 10
4.4675594099
 20
2.1837787357
 30
0.0
 10
4.4675593972
 20
2.1837536608
 30
0.0
  0
SPLINE
  5
2BA
100
AcDbEntity
  8
0
100
AcDbSpline
 62
7
  6
CONTINUOUS
 70
0
 71
3
 72
12
 73
8
 74
0
 42
0.0000001
 43
0.0000001
 44
0.0000000001
 40
0.0
 40
0.0
 40
0.0
 40
0.0
 40
0.3113205722
 40
0.5940100837
 40
0.8288807708
 40
0.9232455409
 40
1.0
 40
1.0
 40
1.0
 40
1.0
 10
4.5252225799
 20
2.1604056252
 30
0.0
 10
4.5192578831
 20
2.1602644075
 30
0.0
 10
4.507877093
 20
2.1599922993
 30
0.0
 10
4.4919972995
 20
2.1595759924
 30
0.0
 10
4.4802753436
 20
2.1592147023
 30
0.0
 10
4.4725006166
 20
2.1589095887
 30
0.0
 10
4.4692247963
 20
2.1587533331
 30
0.0
 10
4.4677561177
 20
2.1586711381
 30
0.0
  0
SPLINE
  5
2BB
100
AcDbEntity
  8
0
100
AcDbSpline
 62
7
  6
CONTINUOUS
 70
0
 71
3
 72
15
 73
11
 74
0
 42
0.0000001
 43
0.0000001
 44
0.0000000001
 40
0.0
 40
0.0
 40
0.0
 40
0.0
 40
0.0254708339
 40
0.0570313208
 40
0.1377569069
 40
0.2405701921
 40
0.3633955688
 40
0.5037407155
 40
0.6587637408
 40
1.0
 40
1.0
 40
1.0
 40
1.0
 10
4.593505365
 20
2.157296431
 30
0.0
 10
4.5930782595
 20
2.1572515738
 30
0.0
 10
4.5921204072
 20
2.1571658135
 30
0.0
 10
4.5898038341
 20
2.1569970166
 30
0.0
 10
4.5861824734
 20
2.1567961308
 30
0.0
 10
4.5810220829
 20
2.1565660939
 30
0.0
 10
4.5748556539
 20
2.1563346663
 30
0.0
 10
4.5678084745
 20
2.1561018935
 30
0.0
 10
4.5570797174
 20
2.1557803682
 30
0.0
 10
4.5487154807
 20
2.1555552709
 30
0.0
 10
4.5429640132
 20
2.1554037405
 30
0.0
  0
LINE
  5
2BC
100
AcDbEntity
  8
0
100
AcDbLine
 62
7
  6
CONTINUOUS
 10
4.595484095
 20
2.1772424106
 11
4.5946349893
 21
2.1769719503
  0
SPLINE
  5
2BD
100
AcDbEntity
  8
0
100
AcDbSpline
 62
7
  6
CONTINUOUS
 70
0
 71
3
 72
34
 73
30
 74
0
 42
0.0000001
 43
0.0000001
 44
0.0000000001
 40
0.0
 40
0.0
 40
0.0
 40
0.0
 40
0.0095951885
 40
0.0232281514
 40
0.0407932157
 40
0.0621520504
 40
0.0871259055
 40
0.1155118338
 40
0.1815441752
 40
0.2580586042
 40
0.3425136477
 40
0.4321027462
 40
0.5238481189
 40
0.6147000996
 40
0.7016387977
 40
0.7817747948
 40
0.8184480297
 40
0.8524457037
 40
0.883483348
 40
0.9113054472
 40
0.9356785521
 40
0.9564045963
 40
0.9733100317
 40
0.9802879623
 40
0.9862639334
 40
0.9912255317
 40
0.9951670255
 40
0.9980882477
 40
1.0
 40
1.0
 40
1.0
 40
1.0
 10
4.5946349893
 20
2.1769719503
 30
0.0
 10
4.5942335411
 20
2.1769078873
 30
0.0
 10
4.593255132
 20
2.1767962573
 30
0.0
 10
4.5915330567
 20
2.1766504699
 30
0.0
 10
4.5893110346
 20
2.1765033794
 30
0.0
 10
4.586607908
 20
2.1763546833
 30
0.0
 10
4.5834457303
 20
2.1762053501
 30
0.0
 10
4.5783917086
 20
2.1759948792
 30
0.0
 10
4.5711541126
 20
2.1757391322
 30
0.0
 10
4.5615410735
 20
2.1754432407
 30
0.0
 10
4.5509295861
 20
2.1751463275
 30
0.0
 10
4.5396725853
 20
2.1748487367
 30
0.0
 10
4.5281444743
 20
2.1745509253
 30
0.0
 10
4.516728689
 20
2.1742532186
 30
0.0
 10
4.5058049302
 20
2.1739559085
 30
0.0
 10
4.4971762844
 20
2.1737020551
 30
0.0
 10
4.4907902585
 20
2.1734953319
 30
0.0
 10
4.4864837001
 20
2.1733450638
 30
0.0
 10
4.4825523829
 20
2.1731950142
 30
0.0
 10
4.4790291529
 20
2.1730452925
 30
0.0
 10
4.4759432107
 20
2.1728960793
 30
0.0
 10
4.473320389
 20
2.17274754
 30
0.0
 10
4.4714347121
 20
2.1726180933
 30
0.0
 10
4.4701741423
 20
2.1725112822
 30
0.0
 10
4.4694186972
 20
2.172436728
 30
0.0
 10
4.4687927501
 20
2.1723624718
 30
0.0
 10
4.4682967347
 20
2.1722894171
 30
0.0
 10
4.4679325596
 20
2.172216913
 30
0.0
 10
4.4677341108
 20
2.1721608834
 30
0.0
 10
4.4676605467
 20
2.1721269892
 30
0.0
  0
SPLINE
  5
2BE
100
AcDbEntity
  8
0
100
AcDbSpline
 62
7
  6
CONTINUOUS
 70
0
 71
3
 72
9
 73
5
 74
0
 42
0.0000001
 43
0.0000001
 44
0.0000000001
 40
0.0
 40
0.0
 40
0.0
 40
0.0
 40
0.2668777556
 40
1.0
 40
1.0
 40
1.0
 40
1.0
 10
4.4676605467
 20
2.1721269892
 30
0.0
 10
4.4676571928
 20
2.1721254439
 30
0.0
 10
4.4676446819
 20
2.1721195346
 30
0.0
 10
4.4676323991
 20
2.1721131278
 30
0.0
 10
4.4676236174
 20
2.1721080499
 30
0.0
  0
LINE
  5
2BF
100
AcDbEntity
  8
0
100
AcDbLine
 62
7
  6
CONTINUOUS
 10
4.6018342391
 20
2.1839937365
 11
4.6002976556
 21
2.1836464864
  0
LINE
  5
2C0
100
AcDbEntity
  8
0
100
AcDbLine
 62
7
  6
CONTINUOUS
 10
4.6002976556
 20
2.1836464864
 11
4.5983929004
 21
2.1834728615
  0
SPLINE
  5
2C1
100
AcDbEntity
  8
0
100
AcDbSpline
 62
7
  6
CONTINUOUS
 70
0
 71
3
 72
15
 73
11
 74
0
 42
0.0000001
 43
0.0000001
 44
0.0000000001
 40
0.0
 40
0.0
 40
0.0
 40
0.0
 40
0.0286280101
 40
0.0632274158
 40
0.1494779037
 40
0.2566458262
 40
0.3821009469
 40
0.5227594136
 40
0.6751614533
 40
1.0
 40
1.0
 40
1.0
 40
1.0
 10
4.5983929004
 20
2.1834728615
 30
0.0
 10
4.597756279
 20
2.1834242822
 30
0.0
 10
4.5963492133
 20
2.1833305941
 30
0.0
 10
4.5930205844
 20
2.1831460108
 30
0.0
 10
4.5879399085
 20
2.1829250201
 30
0.0
 10
4.5808327805
 20
2.1826714687
 30
0.0
 10
4.5725115948
 20
2.1824165356
 30
0.0
 10
4.563181217
 20
2.1821603789
 30
0.0
 10
4.549405041
 20
2.1818106276
 30
0.0
 10
4.5387643925
 20
2.1815601461
 30
0.0
 10
4.5315217391
 20
2.1813893615
 30
0.0
  0
LINE
  5
2C2
100
AcDbEntity
  8
0
100
AcDbLine
 62
7
  6
CONTINUOUS
 10
4.6018342384
 20
2.1735762365
 11
4.6003356277
 21
2.1732333197
  0
LINE
  5
2C3
100
AcDbEntity
  8
0
100
AcDbLine
 62
7
  6
CONTINUOUS
 10
4.6003356277
 20
2.1732333197
 11
4.5984451251
 21
2.1730593615
  0
SPLINE
  5
2C4
100
AcDbEntity
  8
0
100
AcDbSpline
 62
7
  6
CONTINUOUS
 70
0
 71
3
 72
15
 73
11
 74
0
 42
0.0000001
 43
0.0000001
 44
0.0000000001
 40
0.0
 40
0.0
 40
0.0
 40
0.0
 40
0.0284797238
 40
0.0629545476
 40
0.1490268794
 40
0.2561079078
 40
0.3815595198
 40
0.5222861477
 40
0.6748130757
 40
1.0
 40
1.0
 40
1.0
 40
1.0
 10
4.5984451251
 20
2.1730593615
 30
0.0
 10
4.597811333
 20
2.1730106362
 30
0.0
 10
4.596409278
 20
2.1729167247
 30
0.0
 10
4.5930881407
 20
2.1727317195
 30
0.0
 10
4.5880121996
 20
2.1725103253
 30
0.0
 10
4.5809055149
 20
2.1722563321
 30
0.0
 10
4.5725783192
 20
2.1720009444
 30
0.0
 10
4.5632364128
 20
2.1717443167
 30
0.0
 10
4.5494373743
 20
2.171393886
 30
0.0
 10
4.5387778357
 20
2.1711429631
 30
0.0
 10
4.5315217391
 20
2.1709718615
 30
0.0
  0
LINE
  5
2C5
100
AcDbEntity
  8
0
100
AcDbLine
 62
7
  6
CONTINUOUS
 10
4.6002985457
 20
2.1628115874
 11
4.5983929004
 21
2.1626378615
  0
SPLINE
  5
2C6
100
AcDbEntity
  8
0
100
AcDbSpline
 62
7
  6
CONTINUOUS
 70
0
 71
3
 72
15
 73
11
 74
0
 42
0.0000001
 43
0.0000001
 44
0.0000000001
 40
0.0
 40
0.0
 40
0.0
 40
0.0
 40
0.0286280101
 40
0.0632274158
 40
0.1494779037
 40
0.2566458262
 40
0.3821009469
 40
0.5227594136
 40
0.6751614533
 40
1.0
 40
1.0
 40
1.0
 40
1.0
 10
4.5983929004
 20
2.1626378615
 30
0.0
 10
4.597756279
 20
2.1625892822
 30
0.0
 10
4.5963492133
 20
2.1624955941
 30
0.0
 10
4.5930205844
 20
2.1623110108
 30
0.0
 10
4.5879399085
 20
2.1620900201
 30
0.0
 10
4.5808327805
 20
2.1618364687
 30
0.0
 10
4.5725115948
 20
2.1615815356
 30
0.0
 10
4.563181217
 20
2.1613253789
 30
0.0
 10
4.549405041
 20
2.1609756276
 30
0.0
 10
4.5387643925
 20
2.1607251461
 30
0.0
 10
4.5315217391
 20
2.1605543615
 30
0.0
  0
LINE
  5
2C7
100
AcDbEntity
  8
0
100
AcDbLine
 62
7
  6
CONTINUOUS
 10
4.5954841552
 20
2.1668249105
 11
4.5943106811
 21
2.166506834
  0
SPLINE
  5
2C8
100
AcDbEntity
  8
0
100
AcDbSpline
 62
7
  6
CONTINUOUS
 70
0
 71
3
 72
33
 73
29
 74
0
 42
0.0000001
 43
0.0000001
 44
0.0000000001
 40
0.0
 40
0.0
 40
0.0
 40
0.0
 40
0.0106554913
 40
0.0251785629
 40
0.0434583739
 40
0.0653550807
 40
0.0906929468
 40
0.1192733013
 40
0.1852205342
 40
0.2610951547
 40
0.344476348
 40
0.4327026223
 40
0.5229572891
 40
0.6123587121
 40
0.6980525739
 40
0.7773032923
 40
0.8137124503
 40
0.8475818176
 40
0.8786435683
 40
0.9066470505
 40
0.9313720828
 40
0.9526193506
 40
0.9702241543
 40
0.9840470342
 40
0.9895089556
 40
0.993990048
 40
0.997485893
 40
1.0
 40
1.0
 40
1.0
 40
1.0
 10
4.5943106811
 20
2.166506834
 30
0.0
 10
4.593865004
 20
2.1664462549
 30
0.0
 10
4.5928074453
 20
2.1663370043
 30
0.0
 10
4.5909786707
 20
2.166193455
 30
0.0
 10
4.5886742091
 20
2.1660486406
 30
0.0
 10
4.5859126447
 20
2.1659026623
 30
0.0
 10
4.5827157792
 20
2.1657561127
 30
0.0
 10
4.5776603537
 20
2.1655502751
 30
0.0
 10
4.5704718793
 20
2.1652996466
 30
0.0
 10
4.5609703321
 20
2.1650093274
 30
0.0
 10
4.550528
 20
2.1647180845
 30
0.0
 10
4.5394784773
 20
2.1644262365
 30
0.0
 10
4.5281747562
 20
2.164134189
 30
0.0
 10
4.5169779625
 20
2.1638422361
 30
0.0
 10
4.5062458058
 20
2.1635506473
 30
0.0
 10
4.4977501578
 20
2.1633018766
 30
0.0
 10
4.4914416696
 20
2.1630994988
 30
0.0
 10
4.4871665622
 20
2.1629521516
 30
0.0
 10
4.4832464834
 20
2.162805024
 30
0.0
 10
4.479712677
 20
2.1626581566
 30
0.0
 10
4.4765935315
 20
2.1625116984
 30
0.0
 10
4.4739138109
 20
2.1623659572
 30
0.0
 10
4.4716950701
 20
2.1622210574
 30
0.0
 10
4.4701429068
 20
2.1620943275
 30
0.0
 10
4.4691453048
 20
2.1619885082
 30
0.0
 10
4.4685825483
 20
2.1619161148
 30
0.0
 10
4.4681455921
 20
2.1618443552
 30
0.0
 10
4.4678974314
 20
2.1617894169
 30
0.0
 10
4.4677958302
 20
2.1617587723
 30
0.0
  0
LINE
  5
2C9
100
AcDbEntity
  8
0
100
AcDbLine
 62
7
  6
CONTINUOUS
 10
4.4677958302
 20
2.1617587723
 11
4.4676236281
 21
2.1616905501
  0
LINE
  5
2CA
100
AcDbEntity
  8
ALL_FEATURES
100
AcDbLine
 62
7
  6
CONTINUOUS
 10
4.4337026209
 20
2.0647153561
 11
4.4271887859
 21
2.0711080445
  0
SPLINE
  5
2CB
100
AcDbEntity
  8
ALL_FEATURES
100
AcDbSpline
 62
7
  6
CONTINUOUS
 70
0
 71
3
 72
15
 73
11
 74
0
 42
0.0000001
 43
0.0000001
 44
0.0000000001
 40
0.0
 40
0.0
 40
0.0
 40
0.0
 40
0.1244885994
 40
0.2494269304
 40
0.3746351566
 40
0.4999999989
 40
0.6253648413
 40
0.7505730678
 40
0.8755113995
 40
1.0
 40
1.0
 40
1.0
 40
1.0
 10
4.4337026162
 20
2.064715354
 30
0.0
 10
4.43460357
 20
2.0624233284
 30
0.0
 10
4.4361914922
 20
2.0577422768
 30
0.0
 10
4.4379057918
 20
2.050521304
 30
0.0
 10
4.4389409994
 20
2.0431540684
 30
0.0
 10
4.4392873579
 20
2.0357142851
 30
0.0
 10
4.4389410008
 20
2.0282745018
 30
0.0
 10
4.4379057945
 20
2.020907266
 30
0.0
 10
4.4361914961
 20
2.0136862929
 30
0.0
 10
4.4346035745
 20
2.009005241
 30
0.0
 10
4.433702621
 20
2.0067132153
 30
0.0
  0
LINE
  5
2CC
100
AcDbEntity
  8
ALL_FEATURES
100
AcDbLine
 62
7
  6
CONTINUOUS
 10
4.4337026209
 20
2.0067132153
 11
4.4271888113
 21
2.0003205747
  0
LINE
  5
2CD
100
AcDbEntity
  8
ALL_FEATURES
100
AcDbLine
 62
7
  6
CONTINUOUS
 10
4.566915431
 20
1.9313813898
 11
4.5605228095
 21
1.9378951675
  0
SPLINE
  5
2CE
100
AcDbEntity
  8
ALL_FEATURES
100
AcDbSpline
 62
7
  6
CONTINUOUS
 70
0
 71
3
 72
11
 73
7
 74
0
 42
0.0000001
 43
0.0000001
 44
0.0000000001
 40
0.0
 40
0.0
 40
0.0
 40
0.0
 40
0.2536513062
 40
0.5058677739
 40
0.75517127
 40
1.0
 40
1.0
 40
1.0
 40
1.0
 10
4.5315220522
 20
2.0357129941
 30
0.0
 10
4.5279291287
 20
2.0365933437
 30
0.0
 10
4.5207628679
 20
2.0383460463
 30
0.0
 10
4.5100717385
 20
2.0409904321
 30
0.0
 10
4.4995197366
 20
2.0436609343
 30
0.0
 10
4.4925482995
 20
2.0454864079
 30
0.0
 10
4.4890994253
 20
2.0464105328
 30
0.0
  0
SPLINE
  5
2CF
100
AcDbEntity
  8
ALL_FEATURES
100
AcDbSpline
 62
7
  6
CONTINUOUS
 70
0
 71
3
 72
11
 73
7
 74
0
 42
0.0000001
 43
0.0000001
 44
0.0000000001
 40
0.0
 40
0.0
 40
0.0
 40
0.0
 40
0.2536513466
 40
0.5058676885
 40
0.7551711926
 40
1.0
 40
1.0
 40
1.0
 40
1.0
 10
4.5315217312
 20
2.0357142838
 30
0.0
 10
4.527928858
 20
2.0348339465
 30
0.0
 10
4.5207622932
 20
2.0330829276
 30
0.0
 10
4.5100714844
 20
2.0304378959
 30
0.0
 10
4.4995195682
 20
2.0277676877
 30
0.0
 10
4.4925482806
 20
2.0259420417
 30
0.0
 10
4.4890994288
 20
2.0250180244
 30
0.0
  0
LINE
  5
2D0
100
AcDbEntity
  8
ALL_FEATURES
100
AcDbLine
 62
7
  6
CONTINUOUS
 10
4.635854635
 20
2.0711079776
 11
4.6293408574
 21
2.0647153561
  0
SPLINE
  5
2D1
100
AcDbEntity
  8
ALL_FEATURES
100
AcDbSpline
 62
7
  6
CONTINUOUS
 70
0
 71
3
 72
11
 73
7
 74
0
 42
0.0000001
 43
0.0000001
 44
0.0000000001
 40
0.0
 40
0.0
 40
0.0
 40
0.0
 40
0.2964383407
 40
0.5704915121
 40
0.8116719324
 40
1.0
 40
1.0
 40
1.0
 40
1.0
 10
4.4753653151
 20
2.0502213886
 30
0.0
 10
4.4711742132
 20
2.0514296598
 30
0.0
 10
4.4631322991
 20
2.053839351
 30
0.0
 10
4.4517904871
 20
2.0575869139
 30
0.0
 10
4.4420779343
 20
2.0611764659
 30
0.0
 10
4.4362384123
 20
2.0635979776
 30
0.0
 10
4.4337026209
 20
2.0647153561
 30
0.0
  0
LINE
  5
2D2
100
AcDbEntity
  8
ALL_FEATURES
100
AcDbLine
 62
7
  6
CONTINUOUS
 10
4.4961280473
 20
2.1400471816
 11
4.5025206688
 21
2.1335334039
  0
SPLINE
  5
2D3
100
AcDbEntity
  8
ALL_FEATURES
100
AcDbSpline
 62
7
  6
CONTINUOUS
 70
0
 71
3
 72
13
 73
9
 74
0
 42
0.0000001
 43
0.0000001
 44
0.0000000001
 40
0.0
 40
0.0
 40
0.0
 40
0.0
 40
0.2964272155
 40
0.5704783905
 40
0.6961054085
 40
0.8116618538
 40
0.9143243967
 40
1.0
 40
1.0
 40
1.0
 40
1.0
 10
4.4753652962
 20
2.0212072526
 30
0.0
 10
4.4711742135
 20
2.0199991978
 30
0.0
 10
4.4631324685
 20
2.0175892886
 30
0.0
 10
4.4534050849
 20
2.014375146
 30
0.0
 10
4.4462733453
 20
2.0118020688
 30
0.0
 10
4.4415475288
 20
2.0099942621
 30
0.0
 10
4.4374036978
 20
2.0083130969
 30
0.0
 10
4.4348560938
 20
2.0072218934
 30
0.0
 10
4.4337026209
 20
2.0067132153
 30
0.0
  0
LINE
  5
2D4
100
AcDbEntity
  8
ALL_FEATURES
100
AcDbLine
 62
7
  6
CONTINUOUS
 10
4.4961280459
 20
1.9313813888
 11
4.5025206688
 21
1.9378951675
  0
SPLINE
  5
2D5
100
AcDbEntity
  8
ALL_FEATURES
100
AcDbSpline
 62
7
  6
CONTINUOUS
 70
0
 71
3
 72
11
 73
7
 74
0
 42
0.0000001
 43
0.0000001
 44
0.0000000001
 40
0.0
 40
0.0
 40
0.0
 40
0.0
 40
0.2448283365
 40
0.4941311604
 40
0.7463477563
 40
1.0
 40
1.0
 40
1.0
 40
1.0
 10
4.542218004
 20
2.078136595
 30
0.0
 10
4.5412939712
 20
2.0746877005
 30
0.0
 10
4.5394683392
 20
2.0677163182
 30
0.0
 10
4.5367979269
 20
2.0571643016
 30
0.0
 10
4.5341535231
 20
2.0464731661
 30
0.0
 10
4.5324007887
 20
2.0393068935
 30
0.0
 10
4.5315204053
 20
2.0357139624
 30
0.0
  0
SPLINE
  5
2D6
100
AcDbEntity
  8
ALL_FEATURES
100
AcDbSpline
 62
7
  6
CONTINUOUS
 70
0
 71
3
 72
11
 73
7
 74
0
 42
0.0000001
 43
0.0000001
 44
0.0000000001
 40
0.0
 40
0.0
 40
0.0
 40
0.0
 40
0.2448283359
 40
0.4941311644
 40
0.7463477459
 40
1.0
 40
1.0
 40
1.0
 40
1.0
 10
4.5208254907
 20
2.0781365991
 30
0.0
 10
4.5217496316
 20
2.0746876746
 30
0.0
 10
4.5235751551
 20
2.0677161438
 30
0.0
 10
4.526245558
 20
2.0571639483
 30
0.0
 10
4.5288905857
 20
2.0464727842
 30
0.0
 10
4.5306416547
 20
2.0393059826
 30
0.0
 10
4.5315220522
 20
2.0357129941
 30
0.0
  0
SPLINE
  5
2D7
100
AcDbEntity
  8
ALL_FEATURES
100
AcDbSpline
 62
7
  6
CONTINUOUS
 70
0
 71
3
 72
11
 73
7
 74
0
 42
0.0000001
 43
0.0000001
 44
0.0000000001
 40
0.0
 40
0.0
 40
0.0
 40
0.0
 40
0.1883348386
 40
0.4295133586
 40
0.7035678805
 40
1.0
 40
1.0
 40
1.0
 40
1.0
 10
4.5025206688
 20
2.1335334039
 30
0.0
 10
4.5036380461
 20
2.1309975032
 30
0.0
 10
4.5060595119
 20
2.1251578865
 30
0.0
 10
4.5096492079
 20
2.1154452921
 30
0.0
 10
4.513396843
 20
2.1041036061
 30
0.0
 10
4.5158063885
 20
2.0960617231
 30
0.0
 10
4.517014629
 20
2.0918707078
 30
0.0
  0
SPLINE
  5
2D8
100
AcDbEntity
  8
ALL_FEATURES
100
AcDbSpline
 62
7
  6
CONTINUOUS
 70
0
 71
3
 72
15
 73
11
 74
0
 42
0.0000001
 43
0.0000001
 44
0.0000000001
 40
0.0
 40
0.0
 40
0.0
 40
0.0
 40
0.1244886014
 40
0.2494269337
 40
0.3746351604
 40
0.5000000025
 40
0.625364844
 40
0.7505730693
 40
0.8755114
 40
1.0
 40
1.0
 40
1.0
 40
1.0
 10
4.5025206589
 20
2.1335333819
 30
0.0
 10
4.5048126849
 20
2.1326324267
 30
0.0
 10
4.5094937377
 20
2.1310445022
 30
0.0
 10
4.516714713
 20
2.1293302007
 30
0.0
 10
4.5240819514
 20
2.128294993
 30
0.0
 10
4.5315217375
 20
2.1279486362
 30
0.0
 10
4.5389615234
 20
2.1282949967
 30
0.0
 10
4.5463287612
 20
2.129330208
 30
0.0
 10
4.5535497356
 20
2.1310445128
 30
0.0
 10
4.5582307876
 20
2.1326324394
 30
0.0
 10
4.5605228132
 20
2.1335333956
 30
0.0
  0
SPLINE
  5
2D9
100
AcDbEntity
  8
ALL_FEATURES
100
AcDbSpline
 62
7
  6
CONTINUOUS
 70
0
 71
3
 72
14
 73
10
 74
0
 42
0.0000001
 43
0.0000001
 44
0.0000000001
 40
0.0
 40
0.0
 40
0.0
 40
0.0
 40
0.0856714514
 40
0.1883329644
 40
0.3038913049
 40
0.4295163729
 40
0.7035623262
 40
0.8494621869
 40
1.0
 40
1.0
 40
1.0
 40
1.0
 10
4.5605228095
 20
2.1335334039
 30
0.0
 10
4.5600141818
 20
2.1323799673
 30
0.0
 10
4.5589230042
 20
2.12983242
 30
0.0
 10
4.5572412492
 20
2.125688852
 30
0.0
 10
4.5554335529
 20
2.1209629675
 30
0.0
 10
4.5528611301
 20
2.1138310491
 30
0.0
 10
4.550342092
 20
2.1062070329
 30
0.0
 10
4.5478731911
 20
2.098183905
 30
0.0
 10
4.5466422789
 20
2.093999143
 30
0.0
 10
4.5460287836
 20
2.0918707255
 30
0.0
  0
LINE
  5
2DA
100
AcDbEntity
  8
ALL_FEATURES
100
AcDbLine
 62
7
  6
CONTINUOUS
 10
4.5669154324
 20
2.1400471826
 11
4.5605228095
 21
2.1335334039
  0
LINE
  5
2DB
100
AcDbEntity
  8
ALL_FEATURES
100
AcDbLine
 62
7
  6
CONTINUOUS
 10
4.6358546361
 20
2.0003205925
 11
4.6293408574
 21
2.0067132153
  0
SPLINE
  5
2DC
100
AcDbEntity
  8
ALL_FEATURES
100
AcDbSpline
 62
7
  6
CONTINUOUS
 70
0
 71
3
 72
11
 73
7
 74
0
 42
0.0000001
 43
0.0000001
 44
0.0000000001
 40
0.0
 40
0.0
 40
0.0
 40
0.0
 40
0.244828349
 40
0.4941311818
 40
0.746347788
 40
1.0
 40
1.0
 40
1.0
 40
1.0
 10
4.5739440455
 20
2.0250180098
 30
0.0
 10
4.570495173
 20
2.0259420443
 30
0.0
 10
4.5635238322
 20
2.0277676684
 30
0.0
 10
4.5529718787
 20
2.0304380697
 30
0.0
 10
4.5422808131
 20
2.0330824858
 30
0.0
 10
4.5351145283
 20
2.0348349866
 30
0.0
 10
4.5315215479
 20
2.0357150748
 30
0.0
  0
SPLINE
  5
2DD
100
AcDbEntity
  8
ALL_FEATURES
100
AcDbSpline
 62
7
  6
CONTINUOUS
 70
0
 71
3
 72
12
 73
8
 74
0
 42
0.0000001
 43
0.0000001
 44
0.0000000001
 40
0.0
 40
0.0
 40
0.0
 40
0.0
 40
0.2448175518
 40
0.4941313691
 40
0.6199675247
 40
0.7463599156
 40
1.0
 40
1.0
 40
1.0
 40
1.0
 10
4.5739440509
 20
2.0464105394
 30
0.0
 10
4.5704952759
 20
2.0454864332
 30
0.0
 10
4.5635235938
 20
2.0436614507
 30
0.0
 10
4.5547584278
 20
2.041442363
 30
0.0
 10
4.5476603327
 20
2.0396761565
 30
0.0
 10
4.5404970755
 20
2.0379106057
 30
0.0
 10
4.535113117
 20
2.0365947607
 30
0.0
 10
4.5315204053
 20
2.0357139624
 30
0.0
  0
SPLINE
  5
2DE
100
AcDbEntity
  8
ALL_FEATURES
100
AcDbSpline
 62
7
  6
CONTINUOUS
 70
0
 71
3
 72
11
 73
7
 74
0
 42
0.0000001
 43
0.0000001
 44
0.0000000001
 40
0.0
 40
0.0
 40
0.0
 40
0.0
 40
0.1883341925
 40
0.4295127469
 40
0.7035666187
 40
1.0
 40
1.0
 40
1.0
 40
1.0
 10
4.6293408574
 20
2.0647153561
 30
0.0
 10
4.6268049729
 20
2.0635979656
 30
0.0
 10
4.6209653419
 20
2.0611765574
 30
0.0
 10
4.6112527881
 20
2.0575868089
 30
0.0
 10
4.599911078
 20
2.0538392154
 30
0.0
 10
4.5918691987
 20
2.0514296274
 30
0.0
 10
4.5876781575
 20
2.0502214101
 30
0.0
  0
SPLINE
  5
2DF
100
AcDbEntity
  8
ALL_FEATURES
100
AcDbSpline
 62
7
  6
CONTINUOUS
 70
0
 71
3
 72
15
 73
11
 74
0
 42
0.0000001
 43
0.0000001
 44
0.0000000001
 40
0.0
 40
0.0
 40
0.0
 40
0.0
 40
0.1244886016
 40
0.249426934
 40
0.3746351607
 40
0.5000000027
 40
0.6253648442
 40
0.7505730694
 40
0.8755114
 40
1.0
 40
1.0
 40
1.0
 40
1.0
 10
4.6293408338
 20
2.0647153666
 30
0.0
 10
4.6284398784
 20
2.0624233406
 30
0.0
 10
4.6268519537
 20
2.0577422878
 30
0.0
 10
4.6251376521
 20
2.0505213124
 30
0.0
 10
4.6241024444
 20
2.0431540738
 30
0.0
 10
4.6237560878
 20
2.0357142875
 30
0.0
 10
4.6241024485
 20
2.0282745015
 30
0.0
 10
4.6251376601
 20
2.0209072635
 30
0.0
 10
4.6268519655
 20
2.0136862891
 30
0.0
 10
4.6284398925
 20
2.0090052371
 30
0.0
 10
4.6293408489
 20
2.0067132116
 30
0.0
  0
SPLINE
  5
2E0
100
AcDbEntity
  8
ALL_FEATURES
100
AcDbSpline
 62
7
  6
CONTINUOUS
 70
0
 71
3
 72
15
 73
11
 74
0
 42
0.0000001
 43
0.0000001
 44
0.0000000001
 40
0.0
 40
0.0
 40
0.0
 40
0.0
 40
0.0856714958
 40
0.1351693296
 40
0.1883276352
 40
0.3038819285
 40
0.4295121351
 40
0.7035603443
 40
0.8494558327
 40
1.0
 40
1.0
 40
1.0
 40
1.0
 10
4.6293408574
 20
2.0067132153
 30
0.0
 10
4.6281874164
 20
2.0072218387
 30
0.0
 10
4.6263590221
 20
2.0080050774
 30
0.0
 10
4.6237970689
 20
2.0090613492
 30
0.0
 10
4.6208160425
 20
2.0102543694
 30
0.0
 10
4.6167704829
 20
2.011801738
 30
0.0
 10
4.6096390849
 20
2.0143757631
 30
0.0
 10
4.6020146764
 20
2.0168938762
 30
0.0
 10
4.5939914253
 20
2.0193625905
 30
0.0
 10
4.589806692
 20
2.0205937283
 30
0.0
 10
4.5876781708
 20
2.0212072115
 30
0.0
  0
SPLINE
  5
2E1
100
AcDbEntity
  8
ALL_FEATURES
100
AcDbSpline
 62
7
  6
CONTINUOUS
 70
0
 71
3
 72
11
 73
7
 74
0
 42
0.0000001
 43
0.0000001
 44
0.0000000001
 40
0.0
 40
0.0
 40
0.0
 40
0.0
 40
0.2448176152
 40
0.4941314431
 40
0.7463598262
 40
1.0
 40
1.0
 40
1.0
 40
1.0
 10
4.5208254633
 20
1.9932919793
 30
0.0
 10
4.5217494492
 20
1.9967406708
 30
0.0
 10
4.5235744911
 20
2.003712102
 30
0.0
 10
4.526245971
 20
2.0142638647
 30
0.0
 10
4.5288898393
 20
2.0249551322
 30
0.0
 10
4.5306414507
 20
2.0321215642
 30
0.0
 10
4.5315217312
 20
2.0357142838
 30
0.0
  0
SPLINE
  5
2E2
100
AcDbEntity
  8
ALL_FEATURES
100
AcDbSpline
 62
7
  6
CONTINUOUS
 70
0
 71
3
 72
11
 73
7
 74
0
 42
0.0000001
 43
0.0000001
 44
0.0000000001
 40
0.0
 40
0.0
 40
0.0
 40
0.0
 40
0.24481761
 40
0.4941314197
 40
0.7463598549
 40
1.0
 40
1.0
 40
1.0
 40
1.0
 10
4.5422179928
 20
1.9932919739
 30
0.0
 10
4.5412938983
 20
1.9967407051
 30
0.0
 10
4.5394689192
 20
2.0037122923
 30
0.0
 10
4.5367974457
 20
2.0142642655
 30
0.0
 10
4.5341534755
 20
2.0249557195
 30
0.0
 10
4.5324018464
 20
2.0321222891
 30
0.0
 10
4.5315215479
 20
2.0357150748
 30
0.0
  0
SPLINE
  5
2E3
100
AcDbEntity
  8
ALL_FEATURES
100
AcDbSpline
 62
7
  6
CONTINUOUS
 70
0
 71
3
 72
11
 73
7
 74
0
 42
0.0000001
 43
0.0000001
 44
0.0000000001
 40
0.0
 40
0.0
 40
0.0
 40
0.0
 40
0.1883341977
 40
0.4295127706
 40
0.7035666606
 40
1.0
 40
1.0
 40
1.0
 40
1.0
 10
4.5605228095
 20
1.9378951675
 30
0.0
 10
4.5594054189
 20
1.940431052
 30
0.0
 10
4.5569840106
 20
1.9462706834
 30
0.0
 10
4.5533942621
 20
1.9559832377
 30
0.0
 10
4.5496466683
 20
1.9673249477
 30
0.0
 10
4.5472370809
 20
1.9753668268
 30
0.0
 10
4.5460288637
 20
1.9795578674
 30
0.0
  0
SPLINE
  5
2E4
100
AcDbEntity
  8
ALL_FEATURES
100
AcDbSpline
 62
7
  6
CONTINUOUS
 70
0
 71
3
 72
15
 73
11
 74
0
 42
0.0000001
 43
0.0000001
 44
0.0000000001
 40
0.0
 40
0.0
 40
0.0
 40
0.0
 40
0.1244886016
 40
0.249426934
 40
0.3746351607
 40
0.5000000027
 40
0.6253648442
 40
0.7505730694
 40
0.8755114
 40
1.0
 40
1.0
 40
1.0
 40
1.0
 10
4.56052282
 20
1.9378951911
 30
0.0
 10
4.558230794
 20
1.9387961464
 30
0.0
 10
4.5535497412
 20
1.9403840711
 30
0.0
 10
4.5463287658
 20
1.9420983728
 30
0.0
 10
4.5389615272
 20
1.9431335804
 30
0.0
 10
4.5315217409
 20
1.9434799371
 30
0.0
 10
4.5240819549
 20
1.9431335763
 30
0.0
 10
4.516714717
 20
1.9420983647
 30
0.0
 10
4.5094937426
 20
1.9403840593
 30
0.0
 10
4.5048126906
 20
1.9387961324
 30
0.0
 10
4.502520665
 20
1.937895176
 30
0.0
  0
SPLINE
  5
2E5
100
AcDbEntity
  8
ALL_FEATURES
100
AcDbSpline
 62
7
  6
CONTINUOUS
 70
0
 71
3
 72
13
 73
9
 74
0
 42
0.0000001
 43
0.0000001
 44
0.0000000001
 40
0.0
 40
0.0
 40
0.0
 40
0.0
 40
0.0856763921
 40
0.1883359599
 40
0.3038935974
 40
0.4295216601
 40
0.7035718742
 40
1.0
 40
1.0
 40
1.0
 40
1.0
 10
4.5025206688
 20
1.9378951675
 30
0.0
 10
4.5030293175
 20
1.9390486659
 30
0.0
 10
4.5041206199
 20
1.9415961921
 30
0.0
 10
4.5058016327
 20
1.94574007
 30
0.0
 10
4.5076095074
 20
1.9504658468
 30
0.0
 10
4.5101825751
 20
1.957597611
 30
0.0
 10
4.5133966397
 20
1.9673250319
 30
0.0
 10
4.5158066978
 20
1.9753667324
 30
0.0
 10
4.5170146648
 20
1.9795578541
 30
0.0
  0
ENDSEC
  0
SECTION
  2
OBJECTS
  0
DICTIONARY
  5
C
100
AcDbDictionary
280
0
281
1
  3
ACAD_GROUP
350
D
  3
ACAD_MLINESTYLE
350
17
  3
ACAD_LAYOUT
350
1A
  3
ACAD_PLOTSETTINGS
350
19
  3
ACAD_PLOTSTYLENAME
350
E
  0
DICTIONARY
  5
D
102
{ACAD_REACTORS
330
C
102
}
100
AcDbDictionary
280
0
281
1
  0
ACDBDICTIONARYWDFLT
  5
E
102
{ACAD_REACTORS
330
C
102
}
100
AcDbDictionary
281
1
  3
Normal
350
F
100
AcDbDictionaryWithDefault
340
F
  0
DICTIONARY
  5
17
102
{ACAD_REACTORS
330
C
102
}
100
AcDbDictionary
280
0
281
1
  3
Standard
350
18
  0
DICTIONARY
  5
19
102
{ACAD_REACTORS
330
C
102
}
100
AcDbDictionary
281
1
  0
DICTIONARY
  5
1A
102
{ACAD_REACTORS
330
C
102
}
100
AcDbDictionary
281
1
  3
Model
350
2E6
  3
Layout1
350
2E7
  0
ACDBPLACEHOLDER
  5
F
102
{ACAD_REACTORS
330
E
102
}
  0
MLINESTYLE
  5
18
102
{ACAD_REACTORS
330
17
102
}
100
AcDbMlineStyle
  2
STANDARD
 70
0
  3

 62
256
 51
90.0
 52
90.0
 71
2
 49
0.5
 62
256
  6
BYLAYER
 49
-0.5
 62
256
  6
BYLAYER
  0
LAYOUT
  5
2E6
102
{ACAD_REACTORS
330
1A
102
}
100
AcDbPlotSettings
  1

  2
none_device
  4
ANSI_A_(11.00_x_8.50_Inches)
  6

 40
0.0
 41
0.0
 42
0.0
 43
0.0
 44
279.4
 45
215.9
 46
0.0
 47
0.0
 48
0.0
 49
0.0
140
0.0
141
0.0
142
1.0
143
1.0
 70
1024
 72
0
 73
0
 74
0
  7

 75
0
147
1.0
148
0.0
149
0.0
100
AcDbLayout
  1
Model
 70
0
 71
0
 10
0.0
 20
0.0
 11
11.0
 21
8.5
 12
0.0
 22
0.0
 32
0.0
 14
0.0
 24
0.0
 34
0.0
 15
0.0
 25
0.0
 35
0.0
146
0.0
 13
0.0
 23
0.0
 33
0.0
 16
1.0
 26
0.0
 36
0.0
 17
0.0
 27
1.0
 37
0.0
 76
0
330
217
345
0
346
0
  0
LAYOUT
  5
2E7
102
{ACAD_REACTORS
330
1A
102
}
100
AcDbPlotSettings
  1

  2
none_device
  4
ANSI_A_(11.00_x_8.50_Inches)
  6

 40
0.0
 41
0.0
 42
0.0
 43
0.0
 44
279.4
 45
215.9
 46
0.0
 47
0.0
 48
0.0
 49
0.0
140
0.0
141
0.0
142
1.0
143
1.0
 70
0
 72
0
 73
0
 74
0
  7

 75
0
147
1.0
148
0.0
149
0.0
100
AcDbLayout
  1
Layout1
 70
0
 71
1
 10
0.0
 20
0.0
 11
11.0
 21
8.5
 12
0.0
 22
0.0
 32
0.0
 14
0.0
 24
0.0
 34
0.0
 15
0.0
 25
0.0
 35
0.0
146
0.0
 13
0.0
 23
0.0
 33
0.0
 16
1.0
 26
0.0
 36
0.0
 17
0.0
 27
1.0
 37
0.0
 76
0
330
218
345
0
346
0
  0
ENDSEC
  0
EOF
