999
DXF file: C:\Prowork\plots\481x_right.dxf
999
Pro/ENGINEER 2018500 by Parametric Technology Corporation
  0
SECTION
  2
HEADER
  9
$ACADVER
  1
AC1032
  9
$DWGCODEPAGE
  3
ANSI_1252
  9
$EXTMAX
 10
8.5
 20
11.0
 30
0.0
  9
$EXTMIN
 10
0.0
 20
0.0
 30
0.0
  9
$LIMMIN
 10
0.0
 20
0.0
  9
$LIMMAX
 10
8.5
 20
11.0
  9
$VIEWCTR
 10
4.25
 20
5.5
  9
$VIEWSIZE
 40
11.0
  9
$CLAYER
  8
0
  9
$LTSCALE
 40
0.717037037
  9
$CELTYPE
  6
BYLAYER
  9
$DIMSCALE
 40
1.0
  9
$DIMASZ
 40
0.1
  9
$DIMEXO
 40
0.0625
  9
$DIMDLI
 40
0.4954074074
  9
$DIMEXE
 40
0.125
  9
$DIMCEN
 40
0.1173333333
  9
$DIMLFAC
 40
1.0
  9
$DIMBLK
  1
_FILLED
  9
$DIMALT
 70
1
  9
$DIMALTD
 70
2
  9
$DIMALTTD
 70
2
  9
$DIMALTF
 40
25.4
  9
$DIMTXT
 40
0.08
  9
$DIMTOL
 70
1
  9
$DIMLIM
 70
0
  9
$DIMTFAC
 40
1.0
  9
$DIMTP
 40
0.001
  9
$DIMTM
 40
0.001
  9
$DIMGAP
 40
0.09
  9
$DIMDSEP
 70
46
  9
$AUNITS
 70
0
  9
$PDMODE
 70
3
  9
$PDSIZE
 40
0.06
  9
$HANDSEED
  5
52F
  9
$TILEMODE
 70
1
  9
$MEASUREMENT
 70
0
  9
$INSUNITS
 70
1
  0
ENDSEC
  0
SECTION
  2
CLASSES
  0
CLASS
  1
ACDBDICTIONARYWDFLT
  2
AcDbDictionaryWithDefault
  3
AutoCAD 2000
 90
0
 91
1
280
0
281
0
  0
CLASS
  1
ACDBPLACEHOLDER
  2
AcDbPlaceHolder
  3
AutoCAD 2000
 90
0
 91
1
280
0
281
0
  0
CLASS
  1
LAYOUT
  2
AcDbLayout
  3
AutoCAD 2000
 90
0
 91
0
280
0
281
0
  0
ENDSEC
  0
SECTION
  2
TABLES
  0
TABLE
  2
VPORT
  5
8
100
AcDbSymbolTable
 70
2
  0
VPORT
  5
1F4
100
AcDbSymbolTableRecord
100
AcDbViewportTableRecord
  2
*ACTIVE
 70
0
 10
0.0
 20
0.0
 11
1.0
 21
1.0
 12
4.25
 22
5.5
 13
0.0
 23
0.0
 14
1.0
 24
1.0
 15
0.0
 25
0.0
 16
0.0
 26
0.0
 36
1.0
 17
0.0
 27
0.0
 37
0.0
 40
11.0
 41
0.7727272727
 42
50.0
 43
0.0
 44
0.0
 50
0.0
 51
0.0
 71
0
 72
100
 73
1
 74
1
 75
0
 76
0
 77
0
 78
0
  0
ENDTAB
  0
TABLE
  2
LTYPE
  5
5
100
AcDbSymbolTable
 70
6
  0
LTYPE
  5
14
100
AcDbSymbolTableRecord
100
AcDbLinetypeTableRecord
  2
BYBLOCK
 70
0
  3

 72
65
 73
0
 40
0.0
  0
LTYPE
  5
15
100
AcDbSymbolTableRecord
100
AcDbLinetypeTableRecord
  2
BYLAYER
 70
0
  3

 72
65
 73
0
 40
0.0
  0
LTYPE
  5
16
100
AcDbSymbolTableRecord
100
AcDbLinetypeTableRecord
  2
CONTINUOUS
 70
64
  3
Solid line
 72
65
 73
0
 40
0.0
  0
LTYPE
  5
1F5
100
AcDbSymbolTableRecord
100
AcDbLinetypeTableRecord
  2
CENTER
 70
64
  3
____ _ ____ _ ____ _ ____ _ ____ _ ____ _ ____
 72
65
 73
4
 40
0.6
 49
0.375
 74
0
 49
-0.075
 74
0
 49
0.075
 74
0
 49
-0.075
 74
0
  0
LTYPE
  5
1F6
100
AcDbSymbolTableRecord
100
AcDbLinetypeTableRecord
  2
HIDDEN
 70
64
  3
- - - - - - - - - - - - - - - - - - - -
 72
65
 73
2
 40
0.2
 49
0.1
 74
0
 49
-0.1
 74
0
  0
LTYPE
  5
1F7
100
AcDbSymbolTableRecord
100
AcDbLinetypeTableRecord
  2
PHANTOM
 70
64
  3
_____ _ _ _____ _ _ _____ _ _ _____
 72
65
 73
6
 40
0.8
 49
0.45
 74
0
 49
-0.05
 74
0
 49
0.1
 74
0
 49
-0.05
 74
0
 49
0.1
 74
0
 49
-0.05
 74
0
  0
LTYPE
  5
1F8
100
AcDbSymbolTableRecord
100
AcDbLinetypeTableRecord
  2
DOT
 70
64
  3
. . . . . . . . . . . . . . . . . . . .
 72
65
 73
2
 40
0.2
 49
0.1
 74
0
 49
-0.1
 74
0
  0
LTYPE
  5
1F9
100
AcDbSymbolTableRecord
100
AcDbLinetypeTableRecord
  2
DASHED
 70
64
  3
- - - - - - - - - - - - - - - - - - - -
 72
65
 73
2
 40
0.2
 49
0.1
 74
0
 49
-0.1
 74
0
  0
ENDTAB
  0
TABLE
  2
LAYER
  5
2
100
AcDbSymbolTable
 70
36
  0
LAYER
  5
10
100
AcDbSymbolTableRecord
100
AcDbLayerTableRecord
  2
0
 70
0
 62
7
  6
CONTINUOUS
370
-3
390
F
  0
LAYER
  5
1FA
100
AcDbSymbolTableRecord
100
AcDbLayerTableRecord
  2
DEFAULT_1
 70
0
 62
7
  6
CENTER
370
-3
390
F
  0
LAYER
  5
1FB
100
AcDbSymbolTableRecord
100
AcDbLayerTableRecord
  2
DEFAULT_2
 70
0
 62
8
  6
HIDDEN
370
-3
390
F
  0
LAYER
  5
1FC
100
AcDbSymbolTableRecord
100
AcDbLayerTableRecord
  2
DEFAULT_3
 70
0
 62
7
  6
PHANTOM
370
-3
390
F
  0
LAYER
  5
1FD
100
AcDbSymbolTableRecord
100
AcDbLayerTableRecord
  2
400X
 70
0
 62
7
  6
CONTINUOUS
370
-3
390
F
  0
LAYER
  5
1FE
100
AcDbSymbolTableRecord
100
AcDbLayerTableRecord
  2
434
 70
0
 62
7
  6
CONTINUOUS
370
-3
390
F
  0
LAYER
  5
1FF
100
AcDbSymbolTableRecord
100
AcDbLayerTableRecord
  2
442
 70
0
 62
7
  6
CONTINUOUS
370
-3
390
F
  0
LAYER
  5
200
100
AcDbSymbolTableRecord
100
AcDbLayerTableRecord
  2
450
 70
0
 62
7
  6
CONTINUOUS
370
-3
390
F
  0
LAYER
  5
201
100
AcDbSymbolTableRecord
100
AcDbLayerTableRecord
  2
50350
 70
0
 62
7
  6
CONTINUOUS
370
-3
390
F
  0
LAYER
  5
202
100
AcDbSymbolTableRecord
100
AcDbLayerTableRecord
  2
50353
 70
0
 62
7
  6
CONTINUOUS
370
-3
390
F
  0
LAYER
  5
203
100
AcDbSymbolTableRecord
100
AcDbLayerTableRecord
  2
50356
 70
0
 62
7
  6
CONTINUOUS
370
-3
390
F
  0
LAYER
  5
204
100
AcDbSymbolTableRecord
100
AcDbLayerTableRecord
  2
50558-4
 70
0
 62
7
  6
CONTINUOUS
370
-3
390
F
  0
LAYER
  5
205
100
AcDbSymbolTableRecord
100
AcDbLayerTableRecord
  2
50663
 70
0
 62
7
  6
CONTINUOUS
370
-3
390
F
  0
LAYER
  5
206
100
AcDbSymbolTableRecord
100
AcDbLayerTableRecord
  2
50664
 70
0
 62
7
  6
CONTINUOUS
370
-3
390
F
  0
LAYER
  5
207
100
AcDbSymbolTableRecord
100
AcDbLayerTableRecord
  2
50665
 70
0
 62
7
  6
CONTINUOUS
370
-3
390
F
  0
LAYER
  5
208
100
AcDbSymbolTableRecord
100
AcDbLayerTableRecord
  2
50675
 70
0
 62
7
  6
CONTINUOUS
370
-3
390
F
  0
LAYER
  5
209
100
AcDbSymbolTableRecord
100
AcDbLayerTableRecord
  2
50676
 70
0
 62
7
  6
CONTINUOUS
370
-3
390
F
  0
LAYER
  5
20A
100
AcDbSymbolTableRecord
100
AcDbLayerTableRecord
  2
50701
 70
0
 62
7
  6
CONTINUOUS
370
-3
390
F
  0
LAYER
  5
20B
100
AcDbSymbolTableRecord
100
AcDbLayerTableRecord
  2
6-400
 70
0
 62
7
  6
CONTINUOUS
370
-3
390
F
  0
LAYER
  5
20C
100
AcDbSymbolTableRecord
100
AcDbLayerTableRecord
  2
91350
 70
0
 62
7
  6
CONTINUOUS
370
-3
390
F
  0
LAYER
  5
20D
100
AcDbSymbolTableRecord
100
AcDbLayerTableRecord
  2
92000
 70
0
 62
7
  6
CONTINUOUS
370
-3
390
F
  0
LAYER
  5
20E
100
AcDbSymbolTableRecord
100
AcDbLayerTableRecord
  2
ALL_FEATURES_8
 70
0
 62
7
  6
CONTINUOUS
370
-3
390
F
  0
LAYER
  5
20F
100
AcDbSymbolTableRecord
100
AcDbLayerTableRecord
  2
DEFAULT_COORDINATE_SYSTEM
 70
0
 62
7
  6
CONTINUOUS
370
-3
390
F
  0
LAYER
  5
210
100
AcDbSymbolTableRecord
100
AcDbLayerTableRecord
  2
DEFAULT_DATUM_AXES
 70
0
 62
7
  6
CONTINUOUS
370
-3
390
F
  0
LAYER
  5
211
100
AcDbSymbolTableRecord
100
AcDbLayerTableRecord
  2
DEFAULT_DATUM_PLANES
 70
0
 62
7
  6
CONTINUOUS
370
-3
390
F
  0
LAYER
  5
212
100
AcDbSymbolTableRecord
100
AcDbLayerTableRecord
  2
DEFAULT_SURFACES
 70
0
 62
7
  6
CONTINUOUS
370
-3
390
F
  0
LAYER
  5
213
100
AcDbSymbolTableRecord
100
AcDbLayerTableRecord
  2
INTF_442
 70
0
 62
7
  6
CONTINUOUS
370
-3
390
F
  0
LAYER
  5
214
100
AcDbSymbolTableRecord
100
AcDbLayerTableRecord
  2
INTF_50350
 70
0
 62
7
  6
CONTINUOUS
370
-3
390
F
  0
LAYER
  5
215
100
AcDbSymbolTableRecord
100
AcDbLayerTableRecord
  2
INTF_50353
 70
0
 62
7
  6
CONTINUOUS
370
-3
390
F
  0
LAYER
  5
216
100
AcDbSymbolTableRecord
100
AcDbLayerTableRecord
  2
INTF_50356
 70
0
 62
7
  6
CONTINUOUS
370
-3
390
F
  0
LAYER
  5
217
100
AcDbSymbolTableRecord
100
AcDbLayerTableRecord
  2
INTF_50663
 70
0
 62
7
  6
CONTINUOUS
370
-3
390
F
  0
LAYER
  5
218
100
AcDbSymbolTableRecord
100
AcDbLayerTableRecord
  2
INTF_50664
 70
0
 62
7
  6
CONTINUOUS
370
-3
390
F
  0
LAYER
  5
219
100
AcDbSymbolTableRecord
100
AcDbLayerTableRecord
  2
INTF_50665
 70
0
 62
7
  6
CONTINUOUS
370
-3
390
F
  0
LAYER
  5
21A
100
AcDbSymbolTableRecord
100
AcDbLayerTableRecord
  2
INTF_50675
 70
0
 62
7
  6
CONTINUOUS
370
-3
390
F
  0
LAYER
  5
21B
100
AcDbSymbolTableRecord
100
AcDbLayerTableRecord
  2
INTF_50676
 70
0
 62
7
  6
CONTINUOUS
370
-3
390
F
  0
LAYER
  5
21C
100
AcDbSymbolTableRecord
100
AcDbLayerTableRecord
  2
INTF_50701
 70
0
 62
7
  6
CONTINUOUS
370
-3
390
F
  0
LAYER
  5
21D
100
AcDbSymbolTableRecord
100
AcDbLayerTableRecord
  2
INTF_91350
 70
0
 62
7
  6
CONTINUOUS
370
-3
390
F
  0
LAYER
  5
21E
100
AcDbSymbolTableRecord
100
AcDbLayerTableRecord
  2
INTF_92000
 70
0
 62
7
  6
CONTINUOUS
370
-3
390
F
  0
LAYER
  5
21F
100
AcDbSymbolTableRecord
100
AcDbLayerTableRecord
  2
INTF_BLANK
 70
0
 62
7
  6
CONTINUOUS
370
-3
390
F
  0
LAYER
  5
220
100
AcDbSymbolTableRecord
100
AcDbLayerTableRecord
  2
PLATED_SURFACE
 70
0
 62
7
  6
CONTINUOUS
370
-3
390
F
  0
LAYER
  5
221
100
AcDbSymbolTableRecord
100
AcDbLayerTableRecord
  2
QUILT
 70
0
 62
7
  6
CONTINUOUS
370
-3
390
F
  0
LAYER
  5
222
100
AcDbSymbolTableRecord
100
AcDbLayerTableRecord
  2
_BLACK_HOLE
 70
0
 62
7
  6
CONTINUOUS
370
-3
390
F
  0
ENDTAB
  0
TABLE
  2
STYLE
  5
3
100
AcDbSymbolTable
 70
1
  0
STYLE
  5
11
100
AcDbSymbolTableRecord
100
AcDbTextStyleTableRecord
  2
STANDARD
 70
0
 40
0.0
 41
0.8
 50
0.0
 71
0
 42
0.2
  3
txt
  4

  0
STYLE
  5
223
100
AcDbSymbolTableRecord
100
AcDbTextStyleTableRecord
  2
TEXTSTYLE_1
 70
0
 40
0.0
 41
0.8
 50
0.0
 71
0
 42
0.2
  3
gdt
  4

  0
ENDTAB
  0
TABLE
  2
VIEW
  5
6
100
AcDbSymbolTable
 70
0
  0
ENDTAB
  0
TABLE
  2
UCS
  5
7
100
AcDbSymbolTable
 70
0
  0
ENDTAB
  0
TABLE
  2
APPID
  5
9
100
AcDbSymbolTable
 70
1
  0
APPID
  5
224
100
AcDbSymbolTableRecord
100
AcDbRegAppTableRecord
  2
ACAD
 70
0
  0
ENDTAB
  0
TABLE
  2
BLOCK_RECORD
  5
1
100
AcDbSymbolTable
 70
0
  0
BLOCK_RECORD
  5
225
100
AcDbSymbolTableRecord
100
AcDbBlockTableRecord
  2
*Model_Space
  0
BLOCK_RECORD
  5
226
100
AcDbSymbolTableRecord
100
AcDbBlockTableRecord
  2
*Paper_Space
  0
BLOCK_RECORD
  5
227
100
AcDbSymbolTableRecord
100
AcDbBlockTableRecord
  2
_FILLED
  0
ENDTAB
  0
TABLE
  2
DIMSTYLE
  5
A
100
AcDbSymbolTable
 70
1
100
AcDbDimStyleTable
 71
0
  0
DIMSTYLE
105
228
100
AcDbSymbolTableRecord
100
AcDbDimStyleTableRecord
  2
STANDARD
 70
0
  3

  4

 40
1.0
 41
0.1
 42
0.0625
 43
0.38
 44
0.125
 45
0.0
 46
0.0
 47
0.001
 48
0.001
140
0.08
141
0.09
142
0.0
143
25.4
144
1.0
145
0.0
146
1.0
147
0.09
 71
1.0
 72
0.0
 73
1
 74
1
 75
0
 76
0
 77
0
 78
4
 79
1
170
1
171
2
172
0
173
0
174
0
175
0
176
0
177
0
178
0
270
2
179
3
271
3
272
3
273
2
274
2
275
0
280
0
281
0
282
0
283
1
284
4
285
0
286
0
287
3
288
0
340
11
278
46
341
227
342
227
343
227
344
227
  0
ENDTAB
  0
ENDSEC
  0
SECTION
  2
BLOCKS
  0
BLOCK
  5
20
100
AcDbEntity
  8
0
100
AcDbBlockBegin
  2
*Model_Space
 70
0
 10
0.0
 20
0.0
 30
0.0
  3
*Model_Space
  1

  0
ENDBLK
  5
21
100
AcDbEntity
  8
0
100
AcDbBlockEnd
  0
BLOCK
  5
1C
100
AcDbEntity
  8
0
100
AcDbBlockBegin
  2
*Paper_Space
 70
0
 10
0.0
 20
0.0
 30
0.0
  3
*Paper_Space
  1

  0
ENDBLK
  5
1D
100
AcDbEntity
  8
0
100
AcDbBlockEnd
  0
BLOCK
  5
229
100
AcDbEntity
  8
0
100
AcDbBlockBegin
  2
_FILLED
 70
64
 10
0.0
 20
0.0
  3
_FILLED
  1

  0
SOLID
  5
22A
100
AcDbEntity
  8
0
  6
BYBLOCK
 62
0
100
AcDbTrace
 10
0.0
 20
0.0
 11
-1.0
 21
0.2
 12
-1.0
 22
-0.2
 13
-1.0
 23
-0.2
  0
ENDBLK
  5
22B
100
AcDbEntity
  8
0
  6
BYBLOCK
 62
0
100
AcDbBlockEnd
  0
ENDSEC
  0
SECTION
  2
ENTITIES
  0
MTEXT
  5
22C
100
AcDbEntity
  8
0
100
AcDbMText
 62
7
  6
CONTINUOUS
  7
STANDARD
 71
1
 72
1
 10
7.1819600499
 20
0.2185268414
 30
0.0
 11
1.0
 21
0.0
 31
0.0
 73
2
 44
0.9
  1
SCALE: .50
 40
0.08
 41
0.64
  0
LINE
  5
22D
100
AcDbEntity
  8
0
100
AcDbLine
 62
7
  6
CONTINUOUS
 10
0.0
 20
0.0
 11
8.5
 21
0.0
  0
LINE
  5
22E
100
AcDbEntity
  8
0
100
AcDbLine
 62
7
  6
CONTINUOUS
 10
0.0
 20
0.0
 11
0.0
 21
11.0
  0
LINE
  5
22F
100
AcDbEntity
  8
0
100
AcDbLine
 62
7
  6
CONTINUOUS
 10
8.5
 20
0.0
 11
8.5
 21
11.0
  0
LINE
  5
230
100
AcDbEntity
  8
0
100
AcDbLine
 62
7
  6
CONTINUOUS
 10
0.0
 20
11.0
 11
8.5
 21
11.0
  0
LINE
  5
231
100
AcDbEntity
  8
0
100
AcDbLine
 62
9
  6
CONTINUOUS
 10
5.1003162051
 20
0.6948779693
 11
5.1114763858
 21
0.6970559279
  0
LINE
  5
232
100
AcDbEntity
  8
0
100
AcDbLine
 62
7
  6
CONTINUOUS
 10
4.9836495385
 20
0.5145627341
 11
5.0014995222
 21
0.5151185438
  0
LINE
  5
233
100
AcDbEntity
  8
0
100
AcDbLine
 62
7
  6
CONTINUOUS
 10
5.0278118583
 20
0.5159378529
 11
5.0371995336
 21
0.5162301647
  0
LINE
  5
234
100
AcDbEntity
  8
0
100
AcDbLine
 62
7
  6
CONTINUOUS
 10
5.0635118697
 20
0.5170494738
 11
5.072899554
 21
0.5173417859
  0
LINE
  5
235
100
AcDbEntity
  8
0
100
AcDbLine
 62
7
  6
CONTINUOUS
 10
5.0992118873
 20
0.5181610949
 11
5.1085995283
 21
0.5184534057
  0
LINE
  5
236
100
AcDbEntity
  8
0
100
AcDbLine
 62
7
  6
CONTINUOUS
 10
5.1349118632
 20
0.5192727147
 11
5.1442995273
 21
0.5195650262
  0
LINE
  5
237
100
AcDbEntity
  8
0
100
AcDbLine
 62
7
  6
CONTINUOUS
 10
5.1706118638
 20
0.5203843352
 11
5.1799995511
 21
0.5206766474
  0
LINE
  5
238
100
AcDbEntity
  8
0
100
AcDbLine
 62
7
  6
CONTINUOUS
 10
5.206311885
 20
0.5214959564
 11
5.2156995402
 21
0.5217882676
  0
LINE
  5
239
100
AcDbEntity
  8
0
100
AcDbLine
 62
7
  6
CONTINUOUS
 10
5.2420118733
 20
0.5226075766
 11
5.2513995227
 21
0.5228998876
  0
LINE
  5
23A
100
AcDbEntity
  8
0
100
AcDbLine
 62
7
  6
CONTINUOUS
 10
2.9024241384
 20
0.4685895048
 11
2.8183042058
 21
0.4685895048
  0
LINE
  5
23B
100
AcDbEntity
  8
0
100
AcDbLine
 62
9
  6
CONTINUOUS
 10
2.8168907436
 20
0.4719388697
 11
2.9038376006
 21
0.4719388697
  0
LINE
  5
23C
100
AcDbEntity
  8
0
100
AcDbLine
 62
7
  6
CONTINUOUS
 10
3.0586495385
 20
0.4923127341
 11
3.3836495385
 21
0.4923127341
  0
LINE
  5
23D
100
AcDbEntity
  8
0
100
AcDbLine
 62
7
  6
CONTINUOUS
 10
3.4822934568
 20
0.4923127341
 11
3.6225056107
 21
0.4923127341
  0
LINE
  5
23E
100
AcDbEntity
  8
0
100
AcDbLine
 62
7
  6
CONTINUOUS
 10
3.3836495385
 20
0.4973127341
 11
3.4711495385
 21
0.4973127341
  0
LINE
  5
23F
100
AcDbEntity
  8
0
100
AcDbLine
 62
7
  6
CONTINUOUS
 10
2.9181495385
 20
0.5023127341
 11
2.9306495385
 21
0.5023127341
  0
LINE
  5
240
100
AcDbEntity
  8
0
100
AcDbLine
 62
7
  6
CONTINUOUS
 10
3.0086495385
 20
0.5141877341
 11
2.9814877626
 21
0.5141877341
  0
LINE
  5
241
100
AcDbEntity
  8
0
100
AcDbLine
 62
7
  6
CONTINUOUS
 10
2.9608113144
 20
0.5141877341
 11
2.9564989708
 21
0.5141877341
  0
LINE
  5
242
100
AcDbEntity
  8
0
100
AcDbLine
 62
7
  6
CONTINUOUS
 10
2.9358003382
 20
0.5141877341
 11
2.9314894641
 21
0.5141877341
  0
LINE
  5
243
100
AcDbEntity
  8
0
100
AcDbLine
 62
7
  6
CONTINUOUS
 10
3.6336495385
 20
0.5145627341
 11
4.6461495385
 21
0.5145627341
  0
LINE
  5
244
100
AcDbEntity
  8
0
100
AcDbLine
 62
7
  6
CONTINUOUS
 10
4.8461495385
 20
0.5145627341
 11
4.9836495385
 21
0.5145627341
  0
LINE
  5
245
100
AcDbEntity
  8
0
100
AcDbLine
 62
7
  6
CONTINUOUS
 10
2.9695870385
 20
0.5293877341
 11
2.9727120385
 21
0.5293877341
  0
LINE
  5
246
100
AcDbEntity
  8
0
100
AcDbLine
 62
7
  6
CONTINUOUS
 10
2.9445826446
 20
0.5294053864
 11
2.9477076446
 21
0.5294053864
  0
LINE
  5
247
100
AcDbEntity
  8
0
100
AcDbLine
 62
7
  6
CONTINUOUS
 10
3.0586495385
 20
0.5298127341
 11
3.0086495385
 21
0.5298127341
  0
LINE
  5
248
100
AcDbEntity
  8
0
100
AcDbLine
 62
7
  6
CONTINUOUS
 10
5.0126435446
 20
0.5344631902
 11
5.0171085447
 21
0.5344631902
  0
LINE
  5
249
100
AcDbEntity
  8
0
100
AcDbLine
 62
7
  6
CONTINUOUS
 10
5.0483666604
 20
0.5356241758
 11
5.0528316605
 21
0.5356241758
  0
LINE
  5
24A
100
AcDbEntity
  8
0
100
AcDbLine
 62
7
  6
CONTINUOUS
 10
5.084042568
 20
0.5367416792
 11
5.088507568
 21
0.5367416792
  0
LINE
  5
24B
100
AcDbEntity
  8
0
100
AcDbLine
 62
7
  6
CONTINUOUS
 10
5.1197567284
 20
0.5378760533
 11
5.1242218688
 21
0.5378760532
  0
LINE
  5
24C
100
AcDbEntity
  8
0
100
AcDbLine
 62
7
  6
CONTINUOUS
 10
5.155442038
 20
0.5389159736
 11
5.159907038
 21
0.5389159736
  0
LINE
  5
24D
100
AcDbEntity
  8
0
100
AcDbLine
 62
7
  6
CONTINUOUS
 10
5.1911672432
 20
0.5400615743
 11
5.1956322433
 21
0.5400615743
  0
LINE
  5
24E
100
AcDbEntity
  8
0
100
AcDbLine
 62
7
  6
CONTINUOUS
 10
5.2268444934
 20
0.5411868434
 11
5.2313094934
 21
0.5411868434
  0
LINE
  5
24F
100
AcDbEntity
  8
0
100
AcDbLine
 62
7
  6
CONTINUOUS
 10
5.2625215703
 20
0.5422425412
 11
5.2670398192
 21
0.5422425412
  0
LINE
  5
250
100
AcDbEntity
  8
0
100
AcDbLine
 62
7
  6
CONTINUOUS
 10
2.7631495385
 20
0.5600627341
 11
2.7756495385
 21
0.5600627341
  0
LINE
  5
251
100
AcDbEntity
  8
0
100
AcDbLine
 62
9
  6
CONTINUOUS
 10
2.9038376006
 20
0.5838004843
 11
2.8168907436
 21
0.5838004843
  0
LINE
  5
252
100
AcDbEntity
  8
0
100
AcDbLine
 62
9
  6
CONTINUOUS
 10
2.8168907436
 20
0.6054511194
 11
2.9038376006
 21
0.6054511194
  0
LINE
  5
253
100
AcDbEntity
  8
0
100
AcDbLine
 62
7
  6
CONTINUOUS
 10
2.7552159824
 20
0.6235627341
 11
2.7631495385
 21
0.6235627341
  0
LINE
  5
254
100
AcDbEntity
  8
0
100
AcDbLine
 62
7
  6
CONTINUOUS
 10
3.0586495385
 20
0.6241146825
 11
3.3836495385
 21
0.6241146825
  0
LINE
  5
255
100
AcDbEntity
  8
0
100
AcDbLine
 62
7
  6
CONTINUOUS
 10
3.5211495223
 20
0.6241146825
 11
3.5836495632
 21
0.6241146825
  0
LINE
  5
256
100
AcDbEntity
  8
0
100
AcDbLine
 62
7
  6
CONTINUOUS
 10
2.7536495385
 20
0.6863193155
 11
2.7505068647
 21
0.6863193155
  0
LINE
  5
257
100
AcDbEntity
  8
0
100
AcDbLine
 62
7
  6
CONTINUOUS
 10
2.7487338466
 20
0.6910177786
 11
2.7536495385
 21
0.6910177786
  0
LINE
  5
258
100
AcDbEntity
  8
0
100
AcDbLine
 62
7
  6
CONTINUOUS
 10
2.7536495385
 20
0.6965519542
 11
2.7487338466
 21
0.6965519542
  0
LINE
  5
259
100
AcDbEntity
  8
0
100
AcDbLine
 62
9
  6
CONTINUOUS
 10
5.1159413858
 20
0.6970633966
 11
5.1114763858
 21
0.6970633966
  0
LINE
  5
25A
100
AcDbEntity
  8
0
100
AcDbLine
 62
7
  6
CONTINUOUS
 10
2.7459502047
 20
0.7055531884
 11
2.7536495385
 21
0.7055531884
  0
LINE
  5
25B
100
AcDbEntity
  8
0
100
AcDbLine
 62
7
  6
CONTINUOUS
 10
2.7536495385
 20
0.7148127341
 11
2.7451151788
 21
0.7148127341
  0
LINE
  5
25C
100
AcDbEntity
  8
0
100
AcDbLine
 62
7
  6
CONTINUOUS
 10
2.7536495385
 20
0.7198127341
 11
2.7451151788
 21
0.7198127341
  0
LINE
  5
25D
100
AcDbEntity
  8
0
100
AcDbLine
 62
7
  6
CONTINUOUS
 10
2.7536495385
 20
0.7290722798
 11
2.7459501859
 21
0.7290722798
  0
LINE
  5
25E
100
AcDbEntity
  8
0
100
AcDbLine
 62
7
  6
CONTINUOUS
 10
2.7487338445
 20
0.7380735139
 11
2.7536495385
 21
0.7380735139
  0
LINE
  5
25F
100
AcDbEntity
  8
0
100
AcDbLine
 62
7
  6
CONTINUOUS
 10
2.7536495385
 20
0.7436076895
 11
2.7487338445
 21
0.7436076895
  0
LINE
  5
260
100
AcDbEntity
  8
0
100
AcDbLine
 62
7
  6
CONTINUOUS
 10
2.7536495385
 20
0.7483061526
 11
2.7505073
 21
0.7483061526
  0
LINE
  5
261
100
AcDbEntity
  8
0
100
AcDbLine
 62
7
  6
CONTINUOUS
 10
3.5836495385
 20
0.8105107856
 11
3.5211495589
 21
0.8105107856
  0
LINE
  5
262
100
AcDbEntity
  8
0
100
AcDbLine
 62
7
  6
CONTINUOUS
 10
3.3836495385
 20
0.8105107856
 11
3.0586495385
 21
0.8105107856
  0
LINE
  5
263
100
AcDbEntity
  8
0
100
AcDbLine
 62
7
  6
CONTINUOUS
 10
2.755219251
 20
0.8110627341
 11
2.7631495385
 21
0.8110627341
  0
LINE
  5
264
100
AcDbEntity
  8
0
100
AcDbLine
 62
9
  6
CONTINUOUS
 10
2.9038376006
 20
0.8291743487
 11
2.8168907436
 21
0.8291743487
  0
LINE
  5
265
100
AcDbEntity
  8
0
100
AcDbLine
 62
9
  6
CONTINUOUS
 10
2.8168907436
 20
0.8508249838
 11
2.9038376006
 21
0.8508249838
  0
LINE
  5
266
100
AcDbEntity
  8
0
100
AcDbLine
 62
7
  6
CONTINUOUS
 10
2.7756495385
 20
0.8745627341
 11
2.7631495385
 21
0.8745627341
  0
LINE
  5
267
100
AcDbEntity
  8
0
100
AcDbLine
 62
7
  6
CONTINUOUS
 10
5.2836495385
 20
0.891833419
 11
5.2803653979
 21
0.891833419
  0
LINE
  5
268
100
AcDbEntity
  8
0
100
AcDbLine
 62
7
  6
CONTINUOUS
 10
5.249185456
 20
0.8929295391
 11
5.2446893629
 21
0.8929295391
  0
LINE
  5
269
100
AcDbEntity
  8
0
100
AcDbLine
 62
7
  6
CONTINUOUS
 10
5.213471907
 20
0.8939704778
 11
5.209006762
 21
0.8939704777
  0
LINE
  5
26A
100
AcDbEntity
  8
0
100
AcDbLine
 62
7
  6
CONTINUOUS
 10
5.1777758857
 20
0.8951700877
 11
5.1733108857
 21
0.8951700877
  0
LINE
  5
26B
100
AcDbEntity
  8
0
100
AcDbLine
 62
7
  6
CONTINUOUS
 10
5.1420587015
 20
0.8962104836
 11
5.1375937015
 21
0.8962104836
  0
LINE
  5
26C
100
AcDbEntity
  8
0
100
AcDbLine
 62
7
  6
CONTINUOUS
 10
5.106358625
 20
0.8973837462
 11
5.101893625
 21
0.8973837462
  0
LINE
  5
26D
100
AcDbEntity
  8
0
100
AcDbLine
 62
7
  6
CONTINUOUS
 10
5.0706700617
 20
0.8984134977
 11
5.0662050616
 21
0.8984134977
  0
LINE
  5
26E
100
AcDbEntity
  8
0
100
AcDbLine
 62
7
  6
CONTINUOUS
 10
5.0349782768
 20
0.8996116939
 11
5.0305132768
 21
0.8996116939
  0
LINE
  5
26F
100
AcDbEntity
  8
0
100
AcDbLine
 62
7
  6
CONTINUOUS
 10
4.9948097192
 20
0.9007327341
 11
4.9992747192
 21
0.9007327341
  0
LINE
  5
270
100
AcDbEntity
  8
0
100
AcDbLine
 62
7
  6
CONTINUOUS
 10
3.0086495385
 20
0.9048127341
 11
3.0586495385
 21
0.9048127341
  0
LINE
  5
271
100
AcDbEntity
  8
0
100
AcDbLine
 62
7
  6
CONTINUOUS
 10
2.9570870385
 20
0.9052277021
 11
2.9602120385
 21
0.9052277021
  0
LINE
  5
272
100
AcDbEntity
  8
0
100
AcDbLine
 62
7
  6
CONTINUOUS
 10
2.9352093373
 20
0.9052349608
 11
2.9320843373
 21
0.9052349608
  0
LINE
  5
273
100
AcDbEntity
  8
0
100
AcDbLine
 62
7
  6
CONTINUOUS
 10
3.6336495385
 20
0.9200627341
 11
4.6461495385
 21
0.9200627341
  0
LINE
  5
274
100
AcDbEntity
  8
0
100
AcDbLine
 62
7
  6
CONTINUOUS
 10
4.8461495385
 20
0.9200627341
 11
4.9836495385
 21
0.9200627341
  0
LINE
  5
275
100
AcDbEntity
  8
0
100
AcDbLine
 62
7
  6
CONTINUOUS
 10
2.9482926079
 20
0.9204377341
 11
2.9439895795
 21
0.9204377341
  0
LINE
  5
276
100
AcDbEntity
  8
0
100
AcDbLine
 62
7
  6
CONTINUOUS
 10
2.9690068128
 20
0.9204377341
 11
3.0086495385
 21
0.9204377341
  0
LINE
  5
277
100
AcDbEntity
  8
0
100
AcDbLine
 62
7
  6
CONTINUOUS
 10
2.9181495385
 20
0.9323127341
 11
2.9306495385
 21
0.9323127341
  0
LINE
  5
278
100
AcDbEntity
  8
0
100
AcDbLine
 62
7
  6
CONTINUOUS
 10
3.4711495385
 20
0.9373127341
 11
3.3930245385
 21
0.9373127341
  0
LINE
  5
279
100
AcDbEntity
  8
0
100
AcDbLine
 62
7
  6
CONTINUOUS
 10
3.3836495385
 20
0.9423127341
 11
3.3655626224
 21
0.9423127341
  0
LINE
  5
27A
100
AcDbEntity
  8
0
100
AcDbLine
 62
7
  6
CONTINUOUS
 10
3.0767364545
 20
0.9423127341
 11
3.0586495385
 21
0.9423127341
  0
LINE
  5
27B
100
AcDbEntity
  8
0
100
AcDbLine
 62
7
  6
CONTINUOUS
 10
3.4822963877
 20
0.9423127341
 11
3.6225056107
 21
0.9423127341
  0
LINE
  5
27C
100
AcDbEntity
  8
0
100
AcDbLine
 62
9
  6
CONTINUOUS
 10
2.9038376006
 20
0.9626865985
 11
2.8168907436
 21
0.9626865985
  0
LINE
  5
27D
100
AcDbEntity
  8
0
100
AcDbLine
 62
7
  6
CONTINUOUS
 10
2.9024241384
 20
0.9660359634
 11
2.8183042058
 21
0.9660359634
  0
LINE
  5
27E
100
AcDbEntity
  8
0
100
AcDbLine
 62
7
  6
CONTINUOUS
 10
2.9867453292
 20
1.0485627341
 11
3.4555537478
 21
1.0485627341
  0
LINE
  5
27F
100
AcDbEntity
  8
0
100
AcDbLine
 62
7
  6
CONTINUOUS
 10
5.2335495228
 20
0.9122813908
 11
5.2241618866
 21
0.9125737014
  0
LINE
  5
280
100
AcDbEntity
  8
0
100
AcDbLine
 62
7
  6
CONTINUOUS
 10
5.1978495537
 20
0.9133930104
 11
5.1884618752
 21
0.9136853223
  0
LINE
  5
281
100
AcDbEntity
  8
0
100
AcDbLine
 62
7
  6
CONTINUOUS
 10
5.1621495398
 20
0.9145046314
 11
5.1527618576
 21
0.9147969434
  0
LINE
  5
282
100
AcDbEntity
  8
0
100
AcDbLine
 62
7
  6
CONTINUOUS
 10
5.126449521
 20
0.9156162525
 11
5.1170618818
 21
0.9159085632
  0
LINE
  5
283
100
AcDbEntity
  8
0
100
AcDbLine
 62
7
  6
CONTINUOUS
 10
5.090749549
 20
0.9167278721
 11
5.0813618811
 21
0.9170201837
  0
LINE
  5
284
100
AcDbEntity
  8
0
100
AcDbLine
 62
7
  6
CONTINUOUS
 10
5.0550495464
 20
0.9178394928
 11
5.0456618599
 21
0.9181318049
  0
LINE
  5
285
100
AcDbEntity
  8
0
100
AcDbLine
 62
7
  6
CONTINUOUS
 10
5.0193495231
 20
0.918951114
 11
4.9836495385
 21
0.9200627341
  0
LINE
  5
286
100
AcDbEntity
  8
0
100
AcDbLine
 62
7
  6
CONTINUOUS
 10
5.2598806519
 20
0.9114614966
 11
5.2674876411
 21
0.9112246314
  0
LINE
  5
287
100
AcDbEntity
  8
0
100
AcDbLine
 62
9
  6
CONTINUOUS
 10
5.1159413858
 20
0.6970559279
 11
5.1266285383
 21
0.6949702828
  0
LINE
  5
288
100
AcDbEntity
  8
0
100
AcDbLine
 62
7
  6
CONTINUOUS
 10
3.4555537478
 20
1.3135627341
 11
2.9867453292
 21
1.3135627341
  0
LINE
  5
289
100
AcDbEntity
  8
0
100
AcDbLine
 62
7
  6
CONTINUOUS
 10
5.2739178311
 20
0.5300867221
 11
5.2741084609
 21
0.5300216565
  0
LINE
  5
28A
100
AcDbEntity
  8
0
100
AcDbLine
 62
7
  6
CONTINUOUS
 10
3.0492745385
 20
0.9669479881
 11
3.0642745385
 21
0.9582877341
  0
LINE
  5
28B
100
AcDbEntity
  8
0
100
AcDbLine
 62
9
  6
CONTINUOUS
 10
3.0492858054
 20
1.0169479881
 11
3.0642848221
 21
1.0082877341
  0
LINE
  5
28C
100
AcDbEntity
  8
0
100
AcDbLine
 62
7
  6
CONTINUOUS
 10
4.8461495385
 20
0.0923127341
 11
4.8261495385
 21
0.1038597395
  0
LINE
  5
28D
100
AcDbEntity
  8
0
100
AcDbLine
 62
7
  6
CONTINUOUS
 10
3.0487824234
 20
0.9921535187
 11
3.0644244172
 21
0.9831147568
  0
LINE
  5
28E
100
AcDbEntity
  8
0
100
AcDbLine
 62
7
  6
CONTINUOUS
 10
3.0487945424
 20
1.0171505103
 11
3.0492858054
 21
1.0169479881
  0
LINE
  5
28F
100
AcDbEntity
  8
0
100
AcDbLine
 62
7
  6
CONTINUOUS
 10
3.048787193
 20
1.0421573641
 11
3.0644373202
 21
1.0331131686
  0
LINE
  5
290
100
AcDbEntity
  8
0
100
AcDbLine
 62
7
  6
CONTINUOUS
 10
3.392888444
 20
0.9553288893
 11
3.3778639488
 21
0.9640114389
  0
LINE
  5
291
100
AcDbEntity
  8
0
100
AcDbLine
 62
7
  6
CONTINUOUS
 10
3.3935058988
 20
0.9799757444
 11
3.3778646543
 21
0.9890146452
  0
LINE
  5
292
100
AcDbEntity
  8
0
100
AcDbLine
 62
7
  6
CONTINUOUS
 10
3.3935166551
 20
1.0049728019
 11
3.3778742688
 21
1.0140118168
  0
LINE
  5
293
100
AcDbEntity
  8
0
100
AcDbLine
 62
7
  6
CONTINUOUS
 10
3.3935146315
 20
1.029967049
 11
3.3778639488
 21
1.0390114389
  0
LINE
  5
294
100
AcDbEntity
  8
0
100
AcDbLine
 62
7
  6
CONTINUOUS
 10
3.0493849782
 20
0.9203491261
 11
3.0492745385
 21
0.9204377341
  0
LINE
  5
295
100
AcDbEntity
  8
0
100
AcDbLine
 62
7
  6
CONTINUOUS
 10
3.0548918754
 20
0.9157066635
 11
3.0521091726
 21
0.9180441886
  0
LINE
  5
296
100
AcDbEntity
  8
0
100
AcDbLine
 62
7
  6
CONTINUOUS
 10
2.9814877626
 20
0.5141877341
 11
2.9813542692
 21
0.5143020461
  0
LINE
  5
297
100
AcDbEntity
  8
0
100
AcDbLine
 62
7
  6
CONTINUOUS
 10
2.9483113144
 20
0.9204377341
 11
2.9484450374
 21
0.9203230286
  0
LINE
  5
298
100
AcDbEntity
  8
0
100
AcDbLine
 62
7
  6
CONTINUOUS
 10
2.9477076446
 20
0.5294053864
 11
2.9475620131
 21
0.5295313065
  0
LINE
  5
299
100
AcDbEntity
  8
0
100
AcDbLine
 62
7
  6
CONTINUOUS
 10
2.9725677019
 20
0.5295128048
 11
2.9727120385
 21
0.5293877341
  0
LINE
  5
29A
100
AcDbEntity
  8
0
100
AcDbLine
 62
7
  6
CONTINUOUS
 10
2.9322288785
 20
0.9051097058
 11
2.9320843373
 21
0.9052349608
  0
LINE
  5
29B
100
AcDbEntity
  8
0
100
AcDbLine
 62
7
  6
CONTINUOUS
 10
2.9572317226
 20
0.9051008088
 11
2.9570870385
 21
0.9052277021
  0
LINE
  5
29C
100
AcDbEntity
  8
0
100
AcDbLine
 62
7
  6
CONTINUOUS
 10
2.9564877669
 20
0.5141877341
 11
2.9563485016
 21
0.5143121361
  0
LINE
  5
29D
100
AcDbEntity
  8
0
100
AcDbLine
 62
7
  6
CONTINUOUS
 10
3.054892147
 20
0.9157069316
 11
3.0493852723
 21
0.9203440073
  0
LINE
  5
29E
100
AcDbEntity
  8
0
100
AcDbLine
 62
7
  6
CONTINUOUS
 10
3.0502820891
 20
0.9195858906
 11
3.0497193629
 21
0.9200651782
  0
LINE
  5
29F
100
AcDbEntity
  8
0
100
AcDbLine
 62
7
  6
CONTINUOUS
 10
3.3930151344
 20
0.9794479881
 11
3.3928711765
 21
0.9796093476
  0
LINE
  5
2A0
100
AcDbEntity
  8
0
100
AcDbLine
 62
7
  6
CONTINUOUS
 10
3.0492745385
 20
1.04267748
 11
3.049413062
 21
1.0425186256
  0
LINE
  5
2A1
100
AcDbEntity
  8
0
100
AcDbLine
 62
7
  6
CONTINUOUS
 10
3.3928777447
 20
1.0303350699
 11
3.3930151344
 21
1.03017748
  0
LINE
  5
2A2
100
AcDbEntity
  8
0
100
AcDbLine
 62
7
  6
CONTINUOUS
 10
3.0644244172
 20
0.9831147568
 11
3.0642745385
 21
0.9832877341
  0
LINE
  5
2A3
100
AcDbEntity
  8
0
100
AcDbLine
 62
7
  6
CONTINUOUS
 10
3.0644373202
 20
1.0331131686
 11
3.0642851409
 21
1.033288878
  0
LINE
  5
2A4
100
AcDbEntity
  8
0
100
AcDbLine
 62
7
  6
CONTINUOUS
 10
3.3780159731
 20
1.038835825
 11
3.3778639488
 21
1.0390114389
  0
LINE
  5
2A5
100
AcDbEntity
  8
0
100
AcDbLine
 62
7
  6
CONTINUOUS
 10
3.3778646543
 20
0.9890146452
 11
3.3780159731
 21
0.9888396432
  0
LINE
  5
2A6
100
AcDbEntity
  8
0
100
AcDbLine
 62
7
  6
CONTINUOUS
 10
3.3780236015
 20
1.0138391078
 11
3.3778742688
 21
1.0140118168
  0
LINE
  5
2A7
100
AcDbEntity
  8
0
100
AcDbLine
 62
7
  6
CONTINUOUS
 10
3.0494099897
 20
0.9917909074
 11
3.0492745385
 21
0.9919479881
  0
LINE
  5
2A8
100
AcDbEntity
  8
0
100
AcDbLine
 62
7
  6
CONTINUOUS
 10
2.9475620131
 20
0.5295313065
 11
2.9550513465
 21
0.5165687515
  0
LINE
  5
2A9
100
AcDbEntity
  8
0
100
AcDbLine
 62
9
  6
CONTINUOUS
 10
2.7282743567
 20
0.4357751564
 11
2.7282765804
 21
0.4357710693
  0
LINE
  5
2AA
100
AcDbEntity
  8
0
100
AcDbLine
 62
9
  6
CONTINUOUS
 10
2.5350247202
 20
0.9988503117
 11
2.5350224966
 21
0.9988543989
  0
LINE
  5
2AB
100
AcDbEntity
  8
0
100
AcDbLine
 62
7
  6
CONTINUOUS
 10
5.206311885
 20
0.5214959564
 11
5.2060327452
 21
0.5217235399
  0
LINE
  5
2AC
100
AcDbEntity
  8
0
100
AcDbLine
 62
7
  6
CONTINUOUS
 10
5.0635118697
 20
0.5170494738
 11
5.0632378229
 21
0.5172738451
  0
LINE
  5
2AD
100
AcDbEntity
  8
0
100
AcDbLine
 62
7
  6
CONTINUOUS
 10
5.1349118632
 20
0.5192727147
 11
5.1346223424
 21
0.5195207583
  0
LINE
  5
2AE
100
AcDbEntity
  8
0
100
AcDbLine
 62
7
  6
CONTINUOUS
 10
5.0278118583
 20
0.5159378529
 11
5.0275245054
 21
0.5161863933
  0
LINE
  5
2AF
100
AcDbEntity
  8
0
100
AcDbLine
 62
7
  6
CONTINUOUS
 10
3.3928885133
 20
1.0053357468
 11
3.3930235016
 21
1.00517748
  0
LINE
  5
2B0
100
AcDbEntity
  8
0
100
AcDbLine
 62
7
  6
CONTINUOUS
 10
2.9725677019
 20
0.5295128048
 11
2.9800474372
 21
0.5165655892
  0
LINE
  5
2B1
100
AcDbEntity
  8
0
100
AcDbLine
 62
9
  6
CONTINUOUS
 10
2.9483113144
 20
0.9204268907
 11
2.9570870385
 21
0.9052277021
  0
LINE
  5
2B2
100
AcDbEntity
  8
0
100
AcDbLine
 62
7
  6
CONTINUOUS
 10
2.8167688715
 20
0.4718820398
 11
2.7756495385
 21
0.5600627341
  0
LINE
  5
2B3
100
AcDbEntity
  8
0
100
AcDbLine
 62
7
  6
CONTINUOUS
 10
2.8183042058
 20
0.4685895048
 11
2.8168907436
 21
0.4719388697
  0
LINE
  5
2B4
100
AcDbEntity
  8
0
100
AcDbLine
 62
7
  6
CONTINUOUS
 10
5.090749549
 20
0.9167278721
 11
5.091010973
 21
0.9165086997
  0
LINE
  5
2B5
100
AcDbEntity
  8
0
100
AcDbLine
 62
7
  6
CONTINUOUS
 10
4.9836495385
 20
0.9200627341
 11
4.9839122844
 21
0.9198378159
  0
LINE
  5
2B6
100
AcDbEntity
  8
0
100
AcDbLine
 62
7
  6
CONTINUOUS
 10
5.126449521
 20
0.9156162525
 11
5.1267195411
 21
0.9153839643
  0
LINE
  5
2B7
100
AcDbEntity
  8
0
100
AcDbLine
 62
7
  6
CONTINUOUS
 10
5.1706118638
 20
0.5203843352
 11
5.1703155402
 21
0.5206428744
  0
LINE
  5
2B8
100
AcDbEntity
  8
0
100
AcDbLine
 62
7
  6
CONTINUOUS
 10
5.1621495398
 20
0.9145046314
 11
5.1624260018
 21
0.9142626513
  0
LINE
  5
2B9
100
AcDbEntity
  8
0
100
AcDbLine
 62
7
  6
CONTINUOUS
 10
5.0193495231
 20
0.918951114
 11
5.0196236944
 21
0.91870788
  0
LINE
  5
2BA
100
AcDbEntity
  8
0
100
AcDbLine
 62
7
  6
CONTINUOUS
 10
5.2420118733
 20
0.5226075766
 11
5.2417068756
 21
0.5228785468
  0
LINE
  5
2BB
100
AcDbEntity
  8
0
100
AcDbLine
 62
7
  6
CONTINUOUS
 10
5.0992118873
 20
0.5181610949
 11
5.0989123348
 21
0.518428489
  0
LINE
  5
2BC
100
AcDbEntity
  8
0
100
AcDbLine
 62
7
  6
CONTINUOUS
 10
5.0550495464
 20
0.9178394928
 11
5.0553291754
 21
0.9175880001
  0
LINE
  5
2BD
100
AcDbEntity
  8
0
100
AcDbLine
 62
7
  6
CONTINUOUS
 10
2.9181495385
 20
0.9323127341
 11
2.9039594727
 21
0.9627434284
  0
LINE
  5
2BE
100
AcDbEntity
  8
0
100
AcDbLine
 62
7
  6
CONTINUOUS
 10
2.9038376006
 20
0.9626865985
 11
2.9024241384
 21
0.9660359634
  0
LINE
  5
2BF
100
AcDbEntity
  8
0
100
AcDbLine
 62
7
  6
CONTINUOUS
 10
2.9030550759
 20
0.9645358071
 11
2.9028620781
 21
0.964995439
  0
LINE
  5
2C0
100
AcDbEntity
  8
0
100
AcDbLine
 62
7
  6
CONTINUOUS
 10
2.8183042058
 20
0.4685895048
 11
2.8182869187
 21
0.4686309337
  0
LINE
  5
2C1
100
AcDbEntity
  8
0
100
AcDbLine
 62
7
  6
CONTINUOUS
 10
2.9024405533
 20
0.9659951486
 11
2.9024241384
 21
0.9660359634
  0
LINE
  5
2C2
100
AcDbEntity
  8
0
100
AcDbLine
 62
7
  6
CONTINUOUS
 10
5.1978495537
 20
0.9133930104
 11
5.1981373189
 21
0.913132635
  0
LINE
  5
2C3
100
AcDbEntity
  8
0
100
AcDbLine
 62
7
  6
CONTINUOUS
 10
5.2335495228
 20
0.9122813908
 11
5.2338441745
 21
0.912010121
  0
LINE
  5
2C4
100
AcDbEntity
  8
0
100
AcDbLine
 62
7
  6
CONTINUOUS
 10
5.2714528304
 20
0.9072594421
 11
5.2674876411
 21
0.9112246314
  0
LINE
  5
2C5
100
AcDbEntity
  8
0
100
AcDbLine
 62
7
  6
CONTINUOUS
 10
5.0525207979
 20
0.5358932297
 11
5.0632885081
 21
0.5172754909
  0
LINE
  5
2C6
100
AcDbEntity
  8
0
100
AcDbLine
 62
7
  6
CONTINUOUS
 10
5.0881964032
 20
0.5370103235
 11
5.098943265
 21
0.5184294973
  0
LINE
  5
2C7
100
AcDbEntity
  8
0
100
AcDbLine
 62
7
  6
CONTINUOUS
 10
5.0168097738
 20
0.5347209652
 11
5.0275257991
 21
0.5161864354
  0
LINE
  5
2C8
100
AcDbEntity
  8
0
100
AcDbLine
 62
7
  6
CONTINUOUS
 10
2.4968995472
 20
0.7172419832
 11
2.4968995385
 21
0.7173137126
  0
LINE
  5
2C9
100
AcDbEntity
  8
0
100
AcDbLine
 62
7
  6
CONTINUOUS
 10
2.7536495385
 20
0.6236741887
 11
2.7536495385
 21
0.6264661522
  0
LINE
  5
2CA
100
AcDbEntity
  8
0
100
AcDbLine
 62
7
  6
CONTINUOUS
 10
2.7536495385
 20
0.676811494
 11
2.7536495385
 21
0.6965519542
  0
LINE
  5
2CB
100
AcDbEntity
  8
0
100
AcDbLine
 62
7
  6
CONTINUOUS
 10
2.7536495385
 20
0.7055531884
 11
2.7536495385
 21
0.7290722798
  0
LINE
  5
2CC
100
AcDbEntity
  8
0
100
AcDbLine
 62
7
  6
CONTINUOUS
 10
2.7536495385
 20
0.7380735139
 11
2.7536495385
 21
0.7578203543
  0
LINE
  5
2CD
100
AcDbEntity
  8
0
100
AcDbLine
 62
7
  6
CONTINUOUS
 10
2.7536495385
 20
0.810785729
 11
2.7536495385
 21
0.8109512794
  0
LINE
  5
2CE
100
AcDbEntity
  8
0
100
AcDbLine
 62
7
  6
CONTINUOUS
 10
2.7631495385
 20
0.8745627341
 11
2.7631495385
 21
0.5600627341
  0
LINE
  5
2CF
100
AcDbEntity
  8
0
100
AcDbLine
 62
7
  6
CONTINUOUS
 10
2.7756495385
 20
0.5600627341
 11
2.7756495385
 21
0.8745627341
  0
LINE
  5
2D0
100
AcDbEntity
  8
0
100
AcDbLine
 62
7
  6
CONTINUOUS
 10
5.2309897376
 20
0.541462931
 11
5.2365594506
 21
0.5318345462
  0
LINE
  5
2D1
100
AcDbEntity
  8
0
100
AcDbLine
 62
7
  6
CONTINUOUS
 10
5.2093283234
 20
0.8936927561
 11
5.2027609881
 21
0.9050455622
  0
LINE
  5
2D2
100
AcDbEntity
  8
0
100
AcDbLine
 62
7
  6
CONTINUOUS
 10
5.2806716378
 20
0.8915626382
 11
5.2741565469
 21
0.9028250156
  0
LINE
  5
2D3
100
AcDbEntity
  8
0
100
AcDbLine
 62
7
  6
CONTINUOUS
 10
5.1239050506
 20
0.5381499132
 11
5.1346805031
 21
0.519522652
  0
LINE
  5
2D4
100
AcDbEntity
  8
0
100
AcDbLine
 62
7
  6
CONTINUOUS
 10
5.1953143148
 20
0.5403367887
 11
5.2060787946
 21
0.5217250377
  0
LINE
  5
2D5
100
AcDbEntity
  8
0
100
AcDbLine
 62
7
  6
CONTINUOUS
 10
4.9951012572
 20
0.9003990258
 11
4.9885349246
 21
0.9117530484
  0
LINE
  5
2D6
100
AcDbEntity
  8
0
100
AcDbLine
 62
7
  6
CONTINUOUS
 10
5.2667136757
 20
0.5425271868
 11
5.2722758832
 21
0.5329099674
  0
LINE
  5
2D7
100
AcDbEntity
  8
0
100
AcDbLine
 62
7
  6
CONTINUOUS
 10
5.0665188833
 20
0.898142273
 11
5.0599521947
 21
0.9094946299
  0
LINE
  5
2D8
100
AcDbEntity
  8
0
100
AcDbLine
 62
7
  6
CONTINUOUS
 10
5.1379105489
 20
0.8959363278
 11
5.131343542
 21
0.9072900693
  0
LINE
  5
2D9
100
AcDbEntity
  8
0
100
AcDbLine
 62
7
  6
CONTINUOUS
 10
5.2450122882
 20
0.8926478343
 11
5.2384676043
 21
0.9039631411
  0
LINE
  5
2DA
100
AcDbEntity
  8
0
100
AcDbLine
 62
7
  6
CONTINUOUS
 10
5.1595994277
 20
0.539181365
 11
5.1703188378
 21
0.520642982
  0
LINE
  5
2DB
100
AcDbEntity
  8
0
100
AcDbLine
 62
7
  6
CONTINUOUS
 10
5.0308116807
 20
0.8993542273
 11
5.0242458571
 21
0.9107114062
  0
LINE
  5
2DC
100
AcDbEntity
  8
0
100
AcDbLine
 62
7
  6
CONTINUOUS
 10
5.1022011579
 20
0.8971172066
 11
5.095634633
 21
0.9084745652
  0
LINE
  5
2DD
100
AcDbEntity
  8
0
100
AcDbLine
 62
7
  6
CONTINUOUS
 10
5.1736154979
 20
0.8949070288
 11
5.1670490793
 21
0.9062648664
  0
LINE
  5
2DE
100
AcDbEntity
  8
0
100
AcDbLine
 62
7
  6
CONTINUOUS
 10
2.9386559515
 20
0.702269333
 11
2.9382533454
 21
0.7212648139
  0
LINE
  5
2DF
100
AcDbEntity
  8
0
100
AcDbLine
 62
7
  6
CONTINUOUS
 10
2.9417809515
 20
0.702269333
 11
2.9413783454
 21
0.7212648139
  0
LINE
  5
2E0
100
AcDbEntity
  8
0
100
AcDbLine
 62
7
  6
CONTINUOUS
 10
2.9638294688
 20
0.6941164081
 11
2.9630356438
 21
0.7315338144
  0
LINE
  5
2E1
100
AcDbEntity
  8
0
100
AcDbLine
 62
7
  6
CONTINUOUS
 10
2.966160612
 20
0.7315353095
 11
2.9665575089
 21
0.7128059354
  0
LINE
  5
2E2
100
AcDbEntity
  8
0
100
AcDbLine
 62
7
  6
CONTINUOUS
 10
2.9181495385
 20
0.9323127341
 11
2.9181495385
 21
0.5023127341
  0
LINE
  5
2E3
100
AcDbEntity
  8
0
100
AcDbLine
 62
7
  6
CONTINUOUS
 10
2.9306495385
 20
0.9322791914
 11
2.9306495385
 21
0.5023462768
  0
LINE
  5
2E4
100
AcDbEntity
  8
0
100
AcDbLine
 62
7
  6
CONTINUOUS
 10
2.9867453292
 20
1.3135627341
 11
2.9867453292
 21
1.0485627341
  0
LINE
  5
2E5
100
AcDbEntity
  8
0
100
AcDbLine
 62
7
  6
CONTINUOUS
 10
3.0086495385
 20
0.9204061878
 11
3.0086495385
 21
0.5142192804
  0
LINE
  5
2E6
100
AcDbEntity
  8
0
100
AcDbLine
 62
7
  6
CONTINUOUS
 10
3.0111495385
 20
10.8323127341
 11
3.0111495385
 21
10.8948127341
  0
LINE
  5
2E7
100
AcDbEntity
  8
0
100
AcDbLine
 62
7
  6
CONTINUOUS
 10
3.0261495385
 20
10.8223127341
 11
3.0261495385
 21
10.8073127341
  0
LINE
  5
2E8
100
AcDbEntity
  8
0
100
AcDbLine
 62
7
  6
CONTINUOUS
 10
3.0492745385
 20
0.9204377341
 11
3.0492745385
 21
0.9669479881
  0
LINE
  5
2E9
100
AcDbEntity
  8
0
100
AcDbLine
 62
7
  6
CONTINUOUS
 10
3.0586495385
 20
0.9423127341
 11
3.0586495385
 21
0.4923127341
  0
LINE
  5
2EA
100
AcDbEntity
  8
0
100
AcDbLine
 62
7
  6
CONTINUOUS
 10
3.0642745385
 20
0.9832877341
 11
3.0642745385
 21
0.9763377341
  0
LINE
  5
2EB
100
AcDbEntity
  8
0
100
AcDbLine
 62
7
  6
CONTINUOUS
 10
3.0642745385
 20
0.9513377341
 11
3.0642745385
 21
0.9582877341
  0
LINE
  5
2EC
100
AcDbEntity
  8
0
100
AcDbLine
 62
7
  6
CONTINUOUS
 10
3.0642848221
 20
1.0082877341
 11
3.0642848221
 21
1.0013377341
  0
LINE
  5
2ED
100
AcDbEntity
  8
0
100
AcDbLine
 62
7
  6
CONTINUOUS
 10
3.0642851409
 20
1.033288878
 11
3.0642851408
 21
1.0263390109
  0
LINE
  5
2EE
100
AcDbEntity
  8
0
100
AcDbLine
 62
7
  6
CONTINUOUS
 10
3.0961495385
 20
10.7873127341
 11
3.0961495385
 21
1.3135627341
  0
LINE
  5
2EF
100
AcDbEntity
  8
0
100
AcDbLine
 62
7
  6
CONTINUOUS
 10
3.1039474338
 20
1.3135627341
 11
3.1039474338
 21
1.0485627341
  0
LINE
  5
2F0
100
AcDbEntity
  8
0
100
AcDbLine
 62
7
  6
CONTINUOUS
 10
3.3383516431
 20
1.0485627341
 11
3.3383516431
 21
1.3135627341
  0
LINE
  5
2F1
100
AcDbEntity
  8
0
100
AcDbLine
 62
7
  6
CONTINUOUS
 10
3.3461495385
 20
1.3135627341
 11
3.3461495385
 21
10.7873127341
  0
LINE
  5
2F2
100
AcDbEntity
  8
0
100
AcDbLine
 62
7
  6
CONTINUOUS
 10
3.3780159731
 20
0.963835825
 11
3.3780159723
 21
0.9707862291
  0
LINE
  5
2F3
100
AcDbEntity
  8
0
100
AcDbLine
 62
7
  6
CONTINUOUS
 10
3.3780159731
 20
0.9888396432
 11
3.3780159722
 21
0.995789231
  0
LINE
  5
2F4
100
AcDbEntity
  8
0
100
AcDbLine
 62
7
  6
CONTINUOUS
 10
3.3780159731
 20
1.038835825
 11
3.3780159729
 21
1.0457860429
  0
LINE
  5
2F5
100
AcDbEntity
  8
0
100
AcDbLine
 62
7
  6
CONTINUOUS
 10
3.3780236015
 20
1.0138391078
 11
3.3780236015
 21
1.0207891078
  0
LINE
  5
2F6
100
AcDbEntity
  8
0
100
AcDbLine
 62
7
  6
CONTINUOUS
 10
3.3836495385
 20
0.4923127341
 11
3.3836495385
 21
0.9423127341
  0
LINE
  5
2F7
100
AcDbEntity
  8
0
100
AcDbLine
 62
7
  6
CONTINUOUS
 10
3.3930245385
 20
0.95517748
 11
3.3930245385
 21
0.9373127341
  0
LINE
  5
2F8
100
AcDbEntity
  8
0
100
AcDbLine
 62
7
  6
CONTINUOUS
 10
3.4161495385
 20
10.8073127341
 11
3.4161495385
 21
10.8223127341
  0
LINE
  5
2F9
100
AcDbEntity
  8
0
100
AcDbLine
 62
7
  6
CONTINUOUS
 10
3.4311495385
 20
10.8948127341
 11
3.4311495385
 21
10.8323127341
  0
LINE
  5
2FA
100
AcDbEntity
  8
0
100
AcDbLine
 62
7
  6
CONTINUOUS
 10
3.4555537478
 20
1.3135627341
 11
3.4555537478
 21
1.0485627341
  0
LINE
  5
2FB
100
AcDbEntity
  8
0
100
AcDbLine
 62
7
  6
CONTINUOUS
 10
3.4711495385
 20
0.4973127341
 11
3.4711495385
 21
0.9373127341
  0
LINE
  5
2FC
100
AcDbEntity
  8
0
100
AcDbLine
 62
7
  6
CONTINUOUS
 10
4.6461495385
 20
0.9683196533
 11
4.6461495385
 21
0.4663058149
  0
LINE
  5
2FD
100
AcDbEntity
  8
0
100
AcDbLine
 62
9
  6
CONTINUOUS
 10
4.6592892704
 20
1.0107261061
 11
4.6592892704
 21
0.4238993621
  0
LINE
  5
2FE
100
AcDbEntity
  8
0
100
AcDbLine
 62
7
  6
CONTINUOUS
 10
2.8176754246
 20
0.9645409284
 11
2.8183042058
 21
0.9660359634
  0
LINE
  5
2FF
100
AcDbEntity
  8
0
100
AcDbLine
 62
7
  6
CONTINUOUS
 10
2.8168907436
 20
0.9626865985
 11
2.8183042058
 21
0.9660359634
  0
LINE
  5
300
100
AcDbEntity
  8
0
100
AcDbLine
 62
9
  6
CONTINUOUS
 10
4.7518845399
 20
0.206591531
 11
4.7518845399
 21
1.2280339371
  0
LINE
  5
301
100
AcDbEntity
  8
0
100
AcDbLine
 62
9
  6
CONTINUOUS
 10
4.8261495385
 20
1.3307657287
 11
4.8261495385
 21
0.1038597395
  0
LINE
  5
302
100
AcDbEntity
  8
0
100
AcDbLine
 62
7
  6
CONTINUOUS
 10
4.8461495385
 20
1.3423127341
 11
4.8461495385
 21
0.0923127341
  0
LINE
  5
303
100
AcDbEntity
  8
0
100
AcDbLine
 62
7
  6
CONTINUOUS
 10
4.9836495385
 20
0.5145627341
 11
4.9836495385
 21
0.9200627341
  0
LINE
  5
304
100
AcDbEntity
  8
0
100
AcDbLine
 62
7
  6
CONTINUOUS
 10
2.9024241384
 20
0.4685895048
 11
2.9024406293
 21
0.4686303989
  0
LINE
  5
305
100
AcDbEntity
  8
0
100
AcDbLine
 62
7
  6
CONTINUOUS
 10
2.9024406293
 20
0.4686303989
 11
2.9038376006
 21
0.4719388697
  0
LINE
  5
306
100
AcDbEntity
  8
0
100
AcDbLine
 62
7
  6
CONTINUOUS
 10
2.7756495385
 20
0.8745627341
 11
2.8167688715
 21
0.9627434284
  0
LINE
  5
307
100
AcDbEntity
  8
0
100
AcDbLine
 62
9
  6
CONTINUOUS
 10
2.7282765804
 20
0.9988543989
 11
2.7282731314
 21
0.99884806
  0
LINE
  5
308
100
AcDbEntity
  8
0
100
AcDbLine
 62
7
  6
CONTINUOUS
 10
5.2674876411
 20
0.7612675416
 11
5.2674876411
 21
0.9109089384
  0
LINE
  5
309
100
AcDbEntity
  8
0
100
AcDbLine
 62
7
  6
CONTINUOUS
 10
5.2836495385
 20
0.8918398826
 11
5.2836495385
 21
0.5395931077
  0
LINE
  5
30A
100
AcDbEntity
  8
0
100
AcDbLine
 62
7
  6
CONTINUOUS
 10
2.9039594727
 20
0.4718820398
 11
2.9181495385
 21
0.5023127341
  0
LINE
  5
30B
100
AcDbEntity
  8
0
100
AcDbLine
 62
9
  6
CONTINUOUS
 10
2.5350224966
 20
0.4357710693
 11
2.5350259455
 21
0.4357774082
  0
LINE
  5
30C
100
AcDbEntity
  8
0
100
AcDbLine
 62
9
  6
CONTINUOUS
 10
2.9602120385
 20
0.9052277021
 11
2.9689877626
 21
0.9204268907
  0
LINE
  5
30D
100
AcDbEntity
  8
0
100
AcDbLine
 62
7
  6
CONTINUOUS
 10
2.9438523485
 20
0.9203200333
 11
2.9350659086
 21
0.9051109884
  0
LINE
  5
30E
100
AcDbEntity
  8
0
100
AcDbLine
 62
7
  6
CONTINUOUS
 10
2.9359270358
 20
0.5142976268
 11
2.9447290175
 21
0.529532161
  0
LINE
  5
30F
100
AcDbEntity
  8
0
100
AcDbLine
 62
7
  6
CONTINUOUS
 10
2.9609440278
 20
0.5143020433
 11
2.969731374
 21
0.5295128031
  0
LINE
  5
310
100
AcDbEntity
  8
0
100
AcDbLine
 62
7
  6
CONTINUOUS
 10
3.0492858054
 20
0.9669479881
 11
3.049417488
 21
0.9671053859
  0
LINE
  5
311
100
AcDbEntity
  8
0
100
AcDbLine
 62
7
  6
CONTINUOUS
 10
3.0494234088
 20
1.0178381934
 11
3.0492861634
 21
1.01767748
  0
LINE
  5
312
100
AcDbEntity
  8
0
100
AcDbLine
 62
7
  6
CONTINUOUS
 10
3.0494099853
 20
1.0428345582
 11
3.0492745385
 21
1.04267748
  0
LINE
  5
313
100
AcDbEntity
  8
0
100
AcDbLine
 62
7
  6
CONTINUOUS
 10
3.3930151344
 20
1.03017748
 11
3.3928851955
 21
1.0300206184
  0
LINE
  5
314
100
AcDbEntity
  8
0
100
AcDbLine
 62
7
  6
CONTINUOUS
 10
3.3928782819
 20
0.9792870605
 11
3.3930151344
 21
0.9794479881
  0
LINE
  5
315
100
AcDbEntity
  8
0
100
AcDbLine
 62
7
  6
CONTINUOUS
 10
3.0644365723
 20
0.9515144339
 11
3.0642848221
 21
0.9513377341
  0
LINE
  5
316
100
AcDbEntity
  8
0
100
AcDbLine
 62
7
  6
CONTINUOUS
 10
3.377864664
 20
0.9706108286
 11
3.3780159723
 21
0.9707862291
  0
LINE
  5
317
100
AcDbEntity
  8
0
100
AcDbLine
 62
7
  6
CONTINUOUS
 10
3.377864664
 20
1.0456108286
 11
3.3780159729
 21
1.0457860429
  0
LINE
  5
318
100
AcDbEntity
  8
0
100
AcDbLine
 62
7
  6
CONTINUOUS
 10
3.0642851408
 20
1.0263390109
 11
3.0644369041
 21
1.0265144894
  0
LINE
  5
319
100
AcDbEntity
  8
0
100
AcDbLine
 62
7
  6
CONTINUOUS
 10
3.377872978
 20
1.0206152326
 11
3.3780236015
 21
1.0207891078
  0
LINE
  5
31A
100
AcDbEntity
  8
0
100
AcDbLine
 62
7
  6
CONTINUOUS
 10
3.0644244277
 20
0.9765107175
 11
3.0642745385
 21
0.9763377341
  0
LINE
  5
31B
100
AcDbEntity
  8
0
100
AcDbLine
 62
7
  6
CONTINUOUS
 10
3.0494183638
 20
0.9928343707
 11
3.0492812672
 21
0.99267748
  0
LINE
  5
31C
100
AcDbEntity
  8
0
100
AcDbLine
 62
7
  6
CONTINUOUS
 10
3.0492745385
 20
0.94267748
 11
3.0494160614
 21
0.9428389575
  0
LINE
  5
31D
100
AcDbEntity
  8
0
100
AcDbLine
 62
7
  6
CONTINUOUS
 10
3.06428068
 20
1.0013377341
 11
3.0644323781
 21
1.0015107148
  0
LINE
  5
31E
100
AcDbEntity
  8
0
100
AcDbLine
 62
7
  6
CONTINUOUS
 10
3.3930235016
 20
1.00517748
 11
3.3928848459
 21
1.0050194856
  0
LINE
  5
31F
100
AcDbEntity
  8
0
100
AcDbLine
 62
7
  6
CONTINUOUS
 10
2.9689877626
 20
0.9204377341
 11
2.9688491874
 21
0.9203145541
  0
LINE
  5
320
100
AcDbEntity
  8
0
100
AcDbLine
 62
7
  6
CONTINUOUS
 10
2.9439877633
 20
0.9204377341
 11
2.9438523048
 21
0.9203200334
  0
LINE
  5
321
100
AcDbEntity
  8
0
100
AcDbLine
 62
7
  6
CONTINUOUS
 10
2.9352093373
 20
0.9052349608
 11
2.9350659086
 21
0.9051109884
  0
LINE
  5
322
100
AcDbEntity
  8
0
100
AcDbLine
 62
7
  6
CONTINUOUS
 10
2.9939877626
 20
0.9204377341
 11
2.9938540376
 21
0.9203230252
  0
LINE
  5
323
100
AcDbEntity
  8
0
100
AcDbLine
 62
7
  6
CONTINUOUS
 10
4.9992747192
 20
0.9007327341
 11
5.0099618716
 21
0.9192434251
  0
LINE
  5
324
100
AcDbEntity
  8
0
100
AcDbLine
 62
7
  6
CONTINUOUS
 10
5.0454084806
 20
0.9179130747
 11
5.0346757082
 21
0.8993494459
  0
LINE
  5
325
100
AcDbEntity
  8
0
100
AcDbLine
 62
7
  6
CONTINUOUS
 10
5.1167719778
 20
0.9156570511
 11
5.1060552662
 21
0.8971220315
  0
LINE
  5
326
100
AcDbEntity
  8
0
100
AcDbLine
 62
7
  6
CONTINUOUS
 10
5.0811311656
 20
0.9167688929
 11
5.070356163
 21
0.8981422022
  0
LINE
  5
327
100
AcDbEntity
  8
0
100
AcDbLine
 62
7
  6
CONTINUOUS
 10
5.1524958866
 20
0.914527229
 11
5.1417438145
 21
0.8959386033
  0
LINE
  5
328
100
AcDbEntity
  8
0
100
AcDbLine
 62
7
  6
CONTINUOUS
 10
2.969731374
 20
0.5295128031
 11
2.9695870385
 21
0.5293877341
  0
LINE
  5
329
100
AcDbEntity
  8
0
100
AcDbLine
 62
7
  6
CONTINUOUS
 10
2.9608113144
 20
0.5141877341
 11
2.9609448058
 21
0.5143020427
  0
LINE
  5
32A
100
AcDbEntity
  8
0
100
AcDbLine
 62
7
  6
CONTINUOUS
 10
2.9358113102
 20
0.5141877341
 11
2.9359421959
 21
0.5142976171
  0
LINE
  5
32B
100
AcDbEntity
  8
0
100
AcDbLine
 62
7
  6
CONTINUOUS
 10
3.3929135982
 20
0.9372296661
 11
3.3912170317
 21
0.9359020669
  0
LINE
  5
32C
100
AcDbEntity
  8
0
100
AcDbLine
 62
7
  6
CONTINUOUS
 10
3.3930245385
 20
0.9373127341
 11
3.3856480863
 21
0.9315993121
  0
LINE
  5
32D
100
AcDbEntity
  8
0
100
AcDbLine
 62
7
  6
CONTINUOUS
 10
3.3930245385
 20
0.9373127341
 11
3.3929135982
 21
0.9372296661
  0
LINE
  5
32E
100
AcDbEntity
  8
0
100
AcDbLine
 62
7
  6
CONTINUOUS
 10
5.1881965182
 20
0.9134596149
 11
5.1774670992
 21
0.8949024102
  0
LINE
  5
32F
100
AcDbEntity
  8
0
100
AcDbLine
 62
7
  6
CONTINUOUS
 10
5.0017353661
 20
0.5153335321
 11
5.0129463741
 21
0.5347256564
  0
LINE
  5
330
100
AcDbEntity
  8
0
100
AcDbLine
 62
7
  6
CONTINUOUS
 10
5.25956959
 20
0.9111976664
 11
5.2488250704
 21
0.8926179578
  0
LINE
  5
331
100
AcDbEntity
  8
0
100
AcDbLine
 62
7
  6
CONTINUOUS
 10
5.0374587545
 20
0.5164947495
 11
5.0486751923
 21
0.5358905632
  0
LINE
  5
332
100
AcDbEntity
  8
0
100
AcDbLine
 62
7
  6
CONTINUOUS
 10
5.1445361804
 20
0.5197846727
 11
5.1557536738
 21
0.5391860191
  0
LINE
  5
333
100
AcDbEntity
  8
0
100
AcDbLine
 62
7
  6
CONTINUOUS
 10
5.1802707767
 20
0.5209463919
 11
5.191482426
 21
0.540333646
  0
LINE
  5
334
100
AcDbEntity
  8
0
100
AcDbLine
 62
7
  6
CONTINUOUS
 10
5.223926497
 20
0.9123202874
 11
5.2131500738
 21
0.893692296
  0
LINE
  5
335
100
AcDbEntity
  8
0
100
AcDbLine
 62
7
  6
CONTINUOUS
 10
5.073109963
 20
0.5175673298
 11
5.0843559581
 21
0.5370129036
  0
LINE
  5
336
100
AcDbEntity
  8
0
100
AcDbLine
 62
7
  6
CONTINUOUS
 10
5.1088282586
 20
0.5187083746
 11
5.1200732959
 21
0.5381494815
  0
LINE
  5
337
100
AcDbEntity
  8
0
100
AcDbLine
 62
7
  6
CONTINUOUS
 10
5.2159213689
 20
0.5220229529
 11
5.2271661861
 21
0.5414651803
  0
LINE
  5
338
100
AcDbEntity
  8
0
100
AcDbLine
 62
7
  6
CONTINUOUS
 10
5.2516404548
 20
0.5231615985
 11
5.2628391924
 21
0.5425220013
  0
LINE
  5
339
100
AcDbEntity
  8
0
100
AcDbLine
 62
7
  6
CONTINUOUS
 10
3.0568896895
 20
1.047156565
 11
3.051755293
 21
1.0441897174
  0
LINE
  5
33A
100
AcDbEntity
  8
0
100
AcDbLine
 62
7
  6
CONTINUOUS
 10
3.0644369041
 20
1.0265144894
 11
3.0517659214
 21
1.0191918433
  0
LINE
  5
33B
100
AcDbEntity
  8
0
100
AcDbLine
 62
7
  6
CONTINUOUS
 10
3.0644244277
 20
0.9765107175
 11
3.051755293
 21
0.9691897174
  0
LINE
  5
33C
100
AcDbEntity
  8
0
100
AcDbLine
 62
7
  6
CONTINUOUS
 10
3.377864664
 20
1.0456108286
 11
3.3812523898
 21
1.0475686885
  0
LINE
  5
33D
100
AcDbEntity
  8
0
100
AcDbLine
 62
7
  6
CONTINUOUS
 10
3.377872978
 20
1.0206152326
 11
3.3911026505
 21
1.0282602028
  0
LINE
  5
33E
100
AcDbEntity
  8
0
100
AcDbLine
 62
7
  6
CONTINUOUS
 10
3.377863959
 20
0.9956140352
 11
3.3910989165
 21
1.0032624948
  0
LINE
  5
33F
100
AcDbEntity
  8
0
100
AcDbLine
 62
7
  6
CONTINUOUS
 10
3.377864664
 20
0.9706108286
 11
3.3911092656
 21
0.9782648305
  0
LINE
  5
340
100
AcDbEntity
  8
0
100
AcDbLine
 62
9
  6
CONTINUOUS
 10
3.0642848221
 20
1.0013377341
 11
3.0492858054
 21
0.99267748
  0
LINE
  5
341
100
AcDbEntity
  8
0
100
AcDbLine
 62
7
  6
CONTINUOUS
 10
3.0644365723
 20
0.9515144339
 11
3.0492745385
 21
0.94267748
  0
LINE
  5
342
100
AcDbEntity
  8
0
100
AcDbLine
 62
7
  6
CONTINUOUS
 10
4.8261495385
 20
1.3307657287
 11
4.8461495385
 21
1.3423127341
  0
LINE
  5
343
100
AcDbEntity
  8
0
100
AcDbLine
 62
7
  6
CONTINUOUS
 10
5.2836495385
 20
0.5395627341
 11
5.2740985334
 21
0.530011729
  0
LINE
  5
344
100
AcDbEntity
  8
0
100
AcDbLine
 62
7
  6
CONTINUOUS
 10
5.2598618748
 20
0.9114620813
 11
5.2595602416
 21
0.9111979716
  0
LINE
  5
345
100
AcDbEntity
  8
0
100
AcDbLine
 62
9
  6
CONTINUOUS
 10
3.0961495385
 20
10.7873127341
 11
3.3461495385
 21
10.7873127341
  0
LINE
  5
346
100
AcDbEntity
  8
0
100
AcDbLine
 62
7
  6
CONTINUOUS
 10
3.4061495385
 20
10.7973127341
 11
3.0361495385
 21
10.7973127341
  0
LINE
  5
347
100
AcDbEntity
  8
0
100
AcDbLine
 62
9
  6
CONTINUOUS
 10
3.0261495385
 20
10.8073127341
 11
3.4161495385
 21
10.8073127341
  0
LINE
  5
348
100
AcDbEntity
  8
0
100
AcDbLine
 62
9
  6
CONTINUOUS
 10
3.4161495385
 20
10.8223127341
 11
3.0261495385
 21
10.8223127341
  0
LINE
  5
349
100
AcDbEntity
  8
0
100
AcDbLine
 62
7
  6
CONTINUOUS
 10
3.4311495385
 20
10.8323127341
 11
3.0111495385
 21
10.8323127341
  0
LINE
  5
34A
100
AcDbEntity
  8
0
100
AcDbLine
 62
7
  6
CONTINUOUS
 10
3.4311495385
 20
10.8948127341
 11
3.0111495385
 21
10.8948127341
  0
ARC
  5
34B
100
AcDbEntity
  8
0
100
AcDbCircle
 62
7
  6
CONTINUOUS
 10
-26.1354979305
 20
0.1751580916
 40
29.0907697657
100
AcDbArc
 50
1.1059072522
 51
1.2842168675
  0
ARC
  5
34C
100
AcDbEntity
  8
0
100
AcDbCircle
 62
7
  6
CONTINUOUS
 10
-24.9884607899
 20
0.1955140817
 40
27.9685524887
100
AcDbArc
 50
1.1052887864
 51
1.3077435311
  0
ARC
  5
34D
100
AcDbEntity
  8
0
100
AcDbCircle
 62
7
  6
CONTINUOUS
 10
-22.5259950972
 20
0.2465400076
 40
25.4848936747
100
AcDbArc
 50
1.0982639981
 51
1.3204365027
  0
ARC
  5
34E
100
AcDbEntity
  8
0
100
AcDbCircle
 62
7
  6
CONTINUOUS
 10
-19.4240480971
 20
0.2697591356
 40
22.3668472089
100
AcDbArc
 50
1.2051192956
 51
1.4278765946
  0
ARC
  5
34F
100
AcDbEntity
  8
0
100
AcDbCircle
 62
7
  6
CONTINUOUS
 10
-19.4209230969
 20
0.2697591356
 40
22.3668472088
100
AcDbArc
 50
1.2051192956
 51
1.4278765946
  0
ARC
  5
350
100
AcDbEntity
  8
0
100
AcDbCircle
 62
7
  6
CONTINUOUS
 10
-15.7689178307
 20
0.3504256191
 40
18.7358299636
100
AcDbArc
 50
1.1655420264
 51
1.4808125138
  0
ARC
  5
351
100
AcDbEntity
  8
0
100
AcDbCircle
 62
7
  6
CONTINUOUS
 10
-15.7651021336
 20
0.3504414342
 40
18.7351390864
100
AcDbArc
 50
1.1655412103
 51
1.4808238912
  0
ARC
  5
352
100
AcDbEntity
  8
0
100
AcDbCircle
 62
7
  6
CONTINUOUS
 10
-4.0714317685
 20
0.6444046717
 40
7.012791024
100
AcDbArc
 50
1.492896112
 51
1.6136701988
  0
ARC
  5
353
100
AcDbEntity
  8
0
100
AcDbCircle
 62
7
  6
CONTINUOUS
 10
-4.074556768
 20
0.6444046718
 40
7.0127910236
100
AcDbArc
 50
1.492896112
 51
1.6136701988
  0
ARC
  5
354
100
AcDbEntity
  8
0
100
AcDbCircle
 62
7
  6
CONTINUOUS
 10
-2.9996452954
 20
0.696177057
 40
5.9533621094
100
AcDbArc
 50
1.4600733985
 51
1.5858725668
  0
ARC
  5
355
100
AcDbEntity
  8
0
100
AcDbCircle
 62
7
  6
CONTINUOUS
 10
-2.8394732914
 20
0.6775846024
 40
5.8022532174
100
AcDbArc
 50
1.5506790087
 51
1.689251241
  0
ARC
  5
356
100
AcDbEntity
  8
0
100
AcDbCircle
 62
7
  6
CONTINUOUS
 10
-2.4934933872
 20
0.6872810166
 40
5.459261493
100
AcDbArc
 50
1.5463431036
 51
1.6936197685
  0
ARC
  5
357
100
AcDbEntity
  8
0
100
AcDbCircle
 62
7
  6
CONTINUOUS
 10
-1.910753147
 20
0.7263369587
 40
4.8597302113
100
AcDbArc
 50
1.5464591976
 51
1.7038154141
  0
ARC
  5
358
100
AcDbEntity
  8
0
100
AcDbCircle
 62
7
  6
CONTINUOUS
 10
-1.8489481629
 20
0.7068177187
 40
4.7863074883
100
AcDbArc
 50
1.6170835797
 51
1.7795367327
  0
ARC
  5
359
100
AcDbEntity
  8
0
100
AcDbCircle
 62
7
  6
CONTINUOUS
 10
-1.8458231629
 20
0.7068177187
 40
4.7863074883
100
AcDbArc
 50
1.6170835797
 51
1.7795367327
  0
ARC
  5
35A
100
AcDbEntity
  8
0
100
AcDbCircle
 62
7
  6
CONTINUOUS
 10
-1.4785942935
 20
0.7378860983
 40
4.4524079434
100
AcDbArc
 50
1.5838318918
 51
1.7379229015
  0
ARC
  5
35B
100
AcDbEntity
  8
0
100
AcDbCircle
 62
7
  6
CONTINUOUS
 10
-0.9904873335
 20
0.7318613517
 40
3.9524708128
100
AcDbArc
 50
1.6929127951
 51
1.8774482531
  0
ARC
  5
35C
100
AcDbEntity
  8
0
100
AcDbCircle
 62
7
  6
CONTINUOUS
 10
-0.7243712272
 20
0.7400581293
 40
3.6893523663
100
AcDbArc
 50
1.6863553812
 51
1.8840480782
  0
ARC
  5
35D
100
AcDbEntity
  8
0
100
AcDbCircle
 62
7
  6
CONTINUOUS
 10
-0.3720079466
 20
0.7523318651
 40
3.3086662127
100
AcDbArc
 50
1.7859852587
 51
1.9444192022
  0
ARC
  5
35E
100
AcDbEntity
  8
0
100
AcDbCircle
 62
7
  6
CONTINUOUS
 10
-0.2091671712
 20
0.7574162597
 40
3.1488695652
100
AcDbArc
 50
1.7840896558
 51
2.0058505608
  0
ARC
  5
35F
100
AcDbEntity
  8
0
100
AcDbCircle
 62
7
  6
CONTINUOUS
 10
0.4129678561
 20
0.7776281215
 40
2.5482696239
100
AcDbArc
 50
1.8827883047
 51
2.1369786493
  0
ARC
  5
360
100
AcDbEntity
  8
0
100
AcDbCircle
 62
7
  6
CONTINUOUS
 10
3.2441865503
 20
-3.3278546183
 40
4.376041386
100
AcDbArc
 50
91.6096194555
 51
92.0727540439
  0
ARC
  5
361
100
AcDbEntity
  8
0
100
AcDbCircle
 62
7
  6
CONTINUOUS
 10
3.1197934888
 20
-0.0762610452
 40
1.02212604
100
AcDbArc
 50
92.4239148331
 51
92.8828622264
  0
ARC
  5
362
100
AcDbEntity
  8
0
100
AcDbCircle
 62
7
  6
CONTINUOUS
 10
4.164407126
 20
0.0846477399
 40
0.6
100
AcDbArc
 50
11.726469314
 51
34.4314181982
  0
ARC
  5
363
100
AcDbEntity
  8
0
100
AcDbCircle
 62
7
  6
CONTINUOUS
 10
2.6316495385
 20
0.38320478
 40
0.11
100
AcDbArc
 50
151.4532700444
 51
28.5467299556
  0
ARC
  5
364
100
AcDbEntity
  8
0
100
AcDbCircle
 62
7
  6
CONTINUOUS
 10
2.8511872333
 20
0.6117912011
 40
0.3511446377
100
AcDbArc
 50
166.1379776138
 51
166.93304254
  0
ARC
  5
365
100
AcDbEntity
  8
0
100
AcDbCircle
 62
7
  6
CONTINUOUS
 10
2.4441164167
 20
0.7154401387
 40
0.3220966872
100
AcDbArc
 50
343.962249843
 51
344.9869257079
  0
ARC
  5
366
100
AcDbEntity
  8
0
100
AcDbCircle
 62
7
  6
CONTINUOUS
 10
2.4452286921
 20
0.7151215475
 40
0.3209396842
100
AcDbArc
 50
343.3640603258
 51
343.962053927
  0
ARC
  5
367
100
AcDbEntity
  8
0
100
AcDbCircle
 62
7
  6
CONTINUOUS
 10
2.4459537165
 20
0.7149056043
 40
0.3201831848
100
AcDbArc
 50
343.0908836672
 51
343.363941807
  0
ARC
  5
368
100
AcDbEntity
  8
0
100
AcDbCircle
 62
7
  6
CONTINUOUS
 10
2.4485599783
 20
0.6047175212
 40
0.3127856331
100
AcDbArc
 50
14.6374243856
 51
16.3257195045
  0
ARC
  5
369
100
AcDbEntity
  8
0
100
AcDbCircle
 62
7
  6
CONTINUOUS
 10
2.7912169135
 20
0.5908833879
 40
0.2871412404
100
AcDbArc
 50
160.1682901971
 51
161.6397348209
  0
ARC
  5
36A
100
AcDbEntity
  8
0
100
AcDbCircle
 62
7
  6
CONTINUOUS
 10
2.755533509
 20
0.6026337702
 40
0.2495730626
100
AcDbArc
 50
161.6195958536
 51
163.2386157292
  0
ARC
  5
36B
100
AcDbEntity
  8
0
100
AcDbCircle
 62
7
  6
CONTINUOUS
 10
2.510244314
 20
0.6209578288
 40
0.248999388
100
AcDbArc
 50
12.6059518674
 51
14.6085463617
  0
ARC
  5
36C
100
AcDbEntity
  8
0
100
AcDbCircle
 62
7
  6
CONTINUOUS
 10
2.7098137843
 20
0.5014130733
 40
0.2107911924
100
AcDbArc
 50
22.6489578484
 51
23.0073028177
  0
ARC
  5
36D
100
AcDbEntity
  8
0
100
AcDbCircle
 62
7
  6
CONTINUOUS
 10
2.7146957011
 20
0.5034475912
 40
0.2055023013
100
AcDbArc
 50
22.1302718931
 51
22.649607255
  0
ARC
  5
36E
100
AcDbEntity
  8
0
100
AcDbCircle
 62
7
  6
CONTINUOUS
 10
2.7207156491
 20
0.5497687487
 40
0.1989752226
100
AcDbArc
 50
336.9736997834
 51
339.9180053463
  0
ARC
  5
36F
100
AcDbEntity
  8
0
100
AcDbCircle
 62
7
  6
CONTINUOUS
 10
2.7208964054
 20
0.5059664463
 40
0.1988095173
100
AcDbArc
 50
21.462245471
 51
22.1310212576
  0
ARC
  5
370
100
AcDbEntity
  8
0
100
AcDbCircle
 62
7
  6
CONTINUOUS
 10
2.7274870186
 20
0.50855742
 40
0.1917278983
100
AcDbArc
 50
20.7705025559
 51
21.462279514
  0
ARC
  5
371
100
AcDbEntity
  8
0
100
AcDbCircle
 62
7
  6
CONTINUOUS
 10
2.7339158291
 20
0.5109949483
 40
0.1848524966
100
AcDbArc
 50
20.023870965
 51
20.7707231539
  0
ARC
  5
372
100
AcDbEntity
  8
0
100
AcDbCircle
 62
7
  6
CONTINUOUS
 10
2.7474773717
 20
0.5398595704
 40
0.1704381337
100
AcDbArc
 50
339.9575705494
 51
343.2982538103
  0
ARC
  5
373
100
AcDbEntity
  8
0
100
AcDbCircle
 62
7
  6
CONTINUOUS
 10
2.749413225
 20
0.5165092299
 40
0.1684038103
100
AcDbArc
 50
17.1765307802
 51
20.0665849214
  0
ARC
  5
374
100
AcDbEntity
  8
0
100
AcDbCircle
 62
7
  6
CONTINUOUS
 10
2.6039304342
 20
0.6404284953
 40
0.153292348
100
AcDbArc
 50
7.2897866314
 51
10.1006506507
  0
ARC
  5
375
100
AcDbEntity
  8
0
100
AcDbCircle
 62
7
  6
CONTINUOUS
 10
2.791916351
 20
0.5284927706
 40
0.1245086693
100
AcDbArc
 50
351.2226364687
 51
355.4802291398
  0
ARC
  5
376
100
AcDbEntity
  8
0
100
AcDbCircle
 62
7
  6
CONTINUOUS
 10
2.7998881202
 20
0.5278696603
 40
0.1165125879
100
AcDbArc
 50
355.4767733147
 51
4.5221057579
  0
ARC
  5
377
100
AcDbEntity
  8
0
100
AcDbCircle
 62
7
  6
CONTINUOUS
 10
2.8397566612
 20
0.7153434162
 40
0.0948415229
100
AcDbArc
 50
163.6858452341
 51
165.4410878102
  0
ARC
  5
378
100
AcDbEntity
  8
0
100
AcDbCircle
 62
7
  6
CONTINUOUS
 10
2.8367778082
 20
0.7161100829
 40
0.091765601
100
AcDbArc
 50
165.4368662046
 51
169.0066432764
  0
ARC
  5
379
100
AcDbEntity
  8
0
100
AcDbCircle
 62
7
  6
CONTINUOUS
 10
2.5841336817
 20
0.6352549454
 40
0.0744030573
100
AcDbArc
 50
179.9742779516
 51
182.1812590497
  0
ARC
  5
37A
100
AcDbEntity
  8
0
100
AcDbCircle
 62
7
  6
CONTINUOUS
 10
2.846717261
 20
0.8217292731
 40
0.3465401106
100
AcDbArc
 50
193.0476686374
 51
193.86170552
  0
ARC
  5
37B
100
AcDbEntity
  8
0
100
AcDbCircle
 62
7
  6
CONTINUOUS
 10
2.8294205166
 20
0.7173106539
 40
0.3325209782
100
AcDbArc
 50
178.5008434875
 51
181.502171116
  0
ARC
  5
37C
100
AcDbEntity
  8
0
100
AcDbCircle
 62
7
  6
CONTINUOUS
 10
2.8283992327
 20
0.7172462669
 40
0.331498251
100
AcDbArc
 50
181.4949572409
 51
187.4918510292
  0
ARC
  5
37D
100
AcDbEntity
  8
0
100
AcDbCircle
 62
7
  6
CONTINUOUS
 10
2.4310222349
 20
0.8349723793
 40
0.3310398221
100
AcDbArc
 50
343.6863380349
 51
344.1909252795
  0
ARC
  5
37E
100
AcDbEntity
  8
0
100
AcDbCircle
 62
7
  6
CONTINUOUS
 10
2.8273326973
 20
0.7174671467
 40
0.330429795
100
AcDbArc
 50
169.5181728575
 51
178.5184983677
  0
ARC
  5
37F
100
AcDbEntity
  8
0
100
AcDbCircle
 62
7
  6
CONTINUOUS
 10
2.8257475789
 20
0.7168990354
 40
0.3288239594
100
AcDbArc
 50
187.4921069975
 51
190.4876472102
  0
ARC
  5
380
100
AcDbEntity
  8
0
100
AcDbCircle
 62
7
  6
CONTINUOUS
 10
2.8242978224
 20
0.7166305207
 40
0.3273495463
100
AcDbArc
 50
190.487622866
 51
191.9829435209
  0
ARC
  5
381
100
AcDbEntity
  8
0
100
AcDbCircle
 62
7
  6
CONTINUOUS
 10
2.8242978207
 20
0.7179949478
 40
0.3273495446
100
AcDbArc
 50
168.0170545721
 51
169.5123754641
  0
ARC
  5
382
100
AcDbEntity
  8
0
100
AcDbCircle
 62
7
  6
CONTINUOUS
 10
2.4441164178
 20
0.7191853297
 40
0.322096686
100
AcDbArc
 50
15.013074296
 51
16.0377500521
  0
ARC
  5
383
100
AcDbEntity
  8
0
100
AcDbCircle
 62
7
  6
CONTINUOUS
 10
2.4452286949
 20
0.7195039214
 40
0.3209396813
100
AcDbArc
 50
16.0379459659
 51
16.6359433277
  0
ARC
  5
384
100
AcDbEntity
  8
0
100
AcDbCircle
 62
7
  6
CONTINUOUS
 10
2.4459537193
 20
0.7197198647
 40
0.3201831819
100
AcDbArc
 50
16.6360618493
 51
16.9091166573
  0
ARC
  5
385
100
AcDbEntity
  8
0
100
AcDbCircle
 62
7
  6
CONTINUOUS
 10
2.4601867377
 20
0.8267620314
 40
0.3007417075
100
AcDbArc
 50
344.1822430767
 51
345.0432403179
  0
ARC
  5
386
100
AcDbEntity
  8
0
100
AcDbCircle
 62
7
  6
CONTINUOUS
 10
2.7881332647
 20
0.8425885919
 40
0.283849147
100
AcDbArc
 50
197.6294573393
 51
199.8239048238
  0
ARC
  5
387
100
AcDbEntity
  8
0
100
AcDbCircle
 62
7
  6
CONTINUOUS
 10
2.4792985326
 20
0.8216431944
 40
0.2809562831
100
AcDbArc
 50
345.0458612634
 51
345.4078779362
  0
ARC
  5
388
100
AcDbEntity
  8
0
100
AcDbCircle
 62
7
  6
CONTINUOUS
 10
2.5196964651
 20
0.8113799883
 40
0.2392758854
100
AcDbArc
 50
345.3490794676
 51
347.432060338
  0
ARC
  5
389
100
AcDbEntity
  8
0
100
AcDbCircle
 62
7
  6
CONTINUOUS
 10
2.7391423114
 20
0.8268862214
 40
0.2324034661
100
AcDbArc
 50
195.0856849495
 51
197.5980205169
  0
ARC
  5
38A
100
AcDbEntity
  8
0
100
AcDbCircle
 62
7
  6
CONTINUOUS
 10
2.7148393608
 20
0.9310976663
 40
0.2053388375
100
AcDbArc
 50
336.9877510473
 51
338.5228306156
  0
ARC
  5
38B
100
AcDbEntity
  8
0
100
AcDbCircle
 62
7
  6
CONTINUOUS
 10
2.7255962391
 20
0.886784581
 40
0.1937294485
100
AcDbArc
 50
20.0417861243
 51
23.0661676537
  0
ARC
  5
38C
100
AcDbEntity
  8
0
100
AcDbCircle
 62
7
  6
CONTINUOUS
 10
2.7297327871
 20
0.9251932027
 40
0.1893177587
100
AcDbArc
 50
338.5354028887
 51
339.9649251371
  0
ARC
  5
38D
100
AcDbEntity
  8
0
100
AcDbCircle
 62
7
  6
CONTINUOUS
 10
2.5720730201
 20
0.7998947822
 40
0.1856552885
100
AcDbArc
 50
347.3743549586
 51
349.8885493751
  0
ARC
  5
38E
100
AcDbEntity
  8
0
100
AcDbCircle
 62
7
  6
CONTINUOUS
 10
2.7474773717
 20
0.9187456846
 40
0.1704381337
100
AcDbArc
 50
339.9575705495
 51
343.2982538104
  0
ARC
  5
38F
100
AcDbEntity
  8
0
100
AcDbCircle
 62
7
  6
CONTINUOUS
 10
2.7513986255
 20
0.8960681993
 40
0.1663080772
100
AcDbArc
 50
16.659592508
 51
20.0835369706
  0
ARC
  5
390
100
AcDbEntity
  8
0
100
AcDbCircle
 62
7
  6
CONTINUOUS
 10
2.7720823235
 20
0.9021473643
 40
0.1447498126
100
AcDbArc
 50
12.8704637556
 51
16.7014366167
  0
ARC
  5
391
100
AcDbEntity
  8
0
100
AcDbCircle
 62
7
  6
CONTINUOUS
 10
2.7849988859
 20
0.9050624995
 40
0.1315084294
100
AcDbArc
 50
8.7771857965
 51
12.8858160484
  0
ARC
  5
392
100
AcDbEntity
  8
0
100
AcDbCircle
 62
7
  6
CONTINUOUS
 10
2.7931482587
 20
0.9062763003
 40
0.1232692832
100
AcDbArc
 50
4.497278752
 51
8.797611746
  0
ARC
  5
393
100
AcDbEntity
  8
0
100
AcDbCircle
 62
7
  6
CONTINUOUS
 10
2.7998881202
 20
0.9067557745
 40
0.1165125879
100
AcDbArc
 50
355.4767733147
 51
4.5221057577
  0
ARC
  5
394
100
AcDbEntity
  8
0
100
AcDbCircle
 62
7
  6
CONTINUOUS
 10
2.8397288148
 20
0.7192739165
 40
0.094812487
100
AcDbArc
 50
194.559012903
 51
196.3141154525
  0
ARC
  5
395
100
AcDbEntity
  8
0
100
AcDbCircle
 62
7
  6
CONTINUOUS
 10
2.8347822687
 20
0.7180646296
 40
0.089720821
100
AcDbArc
 50
189.1589894267
 51
194.6056258615
  0
ARC
  5
396
100
AcDbEntity
  8
0
100
AcDbCircle
 62
7
  6
CONTINUOUS
 10
2.8329751399
 20
0.7168805123
 40
0.0878858027
100
AcDbArc
 50
169.0269451698
 51
172.6752629897
  0
ARC
  5
397
100
AcDbEntity
  8
0
100
AcDbCircle
 62
7
  6
CONTINUOUS
 10
2.4256620314
 20
0.7173125969
 40
0.0872477067
100
AcDbArc
 50
358.4607777557
 51
1.5421618774
  0
ARC
  5
398
100
AcDbEntity
  8
0
100
AcDbCircle
 62
7
  6
CONTINUOUS
 10
2.832125703
 20
0.7176197842
 40
0.0870273188
100
AcDbArc
 50
187.316110513
 51
189.1482474843
  0
ARC
  5
399
100
AcDbEntity
  8
0
100
AcDbCircle
 62
7
  6
CONTINUOUS
 10
2.830652641
 20
0.7174309954
 40
0.0855422084
100
AcDbArc
 50
185.4744024737
 51
187.3163335515
  0
ARC
  5
39A
100
AcDbEntity
  8
0
100
AcDbCircle
 62
7
  6
CONTINUOUS
 10
2.83009566
 20
0.7172596278
 40
0.0849814867
100
AcDbArc
 50
172.6812693031
 51
178.1756927888
  0
ARC
  5
39B
100
AcDbEntity
  8
0
100
AcDbCircle
 62
7
  6
CONTINUOUS
 10
2.8295112659
 20
0.7173266874
 40
0.0843960883
100
AcDbArc
 50
180.0094727788
 51
185.477835044
  0
ARC
  5
39C
100
AcDbEntity
  8
0
100
AcDbCircle
 62
7
  6
CONTINUOUS
 10
2.8288971479
 20
0.7173103236
 40
0.0837819691
100
AcDbArc
 50
178.1842518634
 51
179.9983515195
  0
ARC
  5
39D
100
AcDbEntity
  8
0
100
AcDbCircle
 62
7
  6
CONTINUOUS
 10
4.1117022439
 20
0.5873189623
 40
1.1788687042
100
AcDbArc
 50
182.2324132591
 51
182.663365835
  0
ARC
  5
39E
100
AcDbEntity
  8
0
100
AcDbCircle
 62
7
  6
CONTINUOUS
 10
3.4916370382
 20
0.5572620949
 40
0.5374225768
100
AcDbArc
 50
182.6358864924
 51
183.4026494698
  0
ARC
  5
39F
100
AcDbEntity
  8
0
100
AcDbCircle
 62
7
  6
CONTINUOUS
 10
3.4851953554
 20
0.5582041572
 40
0.1373158583
100
AcDbArc
 50
356.7303777714
 51
0.6595564047
  0
ARC
  5
3A0
100
AcDbEntity
  8
0
100
AcDbCircle
 62
7
  6
CONTINUOUS
 10
3.6186183938
 20
0.5582221396
 40
0.1363322141
100
AcDbArc
 50
174.8293475891
 51
182.6482841862
  0
ARC
  5
3A1
100
AcDbEntity
  8
0
100
AcDbCircle
 62
7
  6
CONTINUOUS
 10
3.5211495385
 20
0.523774489
 40
0.05
100
AcDbArc
 50
186.1936121736
 51
218.9937120237
  0
ARC
  5
3A2
100
AcDbEntity
  8
0
100
AcDbCircle
 62
7
  6
CONTINUOUS
 10
3.5836495385
 20
0.523774489
 40
0.05
100
AcDbArc
 50
321.0062879763
 51
349.3601774032
  0
ARC
  5
3A3
100
AcDbEntity
  8
0
100
AcDbCircle
 62
7
  6
CONTINUOUS
 10
3.5836495385
 20
0.9108509791
 40
0.05
100
AcDbArc
 50
10.6398225968
 51
38.9937120237
  0
ARC
  5
3A4
100
AcDbEntity
  8
0
100
AcDbCircle
 62
7
  6
CONTINUOUS
 10
3.5211495385
 20
0.9108509791
 40
0.05
100
AcDbArc
 50
141.0062879764
 51
172.5
  0
ARC
  5
3A5
100
AcDbEntity
  8
0
100
AcDbCircle
 62
7
  6
CONTINUOUS
 10
4.9036495385
 20
0.2380936771
 40
0.155
100
AcDbArc
 50
191.726469314
 51
240.0
  0
ARC
  5
3A6
100
AcDbEntity
  8
0
100
AcDbCircle
 62
7
  6
CONTINUOUS
 10
6.1587961126
 20
0.678620069
 40
3.1905984778
100
AcDbArc
 50
181.7779047696
 51
181.9945536366
  0
ARC
  5
3A7
100
AcDbEntity
  8
0
100
AcDbCircle
 62
7
  6
CONTINUOUS
 10
5.6062066291
 20
0.643017998
 40
2.6744096946
100
AcDbArc
 50
181.6975152664
 51
182.1775937786
  0
ARC
  5
3A8
100
AcDbEntity
  8
0
100
AcDbCircle
 62
7
  6
CONTINUOUS
 10
4.6825153315
 20
0.8302994758
 40
0.6020851689
100
AcDbArc
 50
3.2206787779
 51
4.0514229028
  0
ARC
  5
3A9
100
AcDbEntity
  8
0
100
AcDbCircle
 62
7
  6
CONTINUOUS
 10
4.7211495385
 20
0.4663058149
 40
0.075
100
AcDbArc
 50
180.0
 51
214.4314181982
  0
ARC
  5
3AA
100
AcDbEntity
  8
0
100
AcDbCircle
 62
7
  6
CONTINUOUS
 10
4.7211495385
 20
0.9683196533
 40
0.075
100
AcDbArc
 50
145.5685818018
 51
180.0
  0
ARC
  5
3AB
100
AcDbEntity
  8
0
100
AcDbCircle
 62
7
  6
CONTINUOUS
 10
3.973117061
 20
2.011371878
 40
1.4295519114
100
AcDbArc
 50
230.0352202579
 51
230.231424964
  0
ARC
  5
3AC
100
AcDbEntity
  8
0
100
AcDbCircle
 62
7
  6
CONTINUOUS
 10
3.3179239282
 20
2.0749696732
 40
1.1230832826
100
AcDbArc
 50
272.4403435861
 51
272.8579791825
  0
ARC
  5
3AD
100
AcDbEntity
  8
0
100
AcDbCircle
 62
7
  6
CONTINUOUS
 10
2.7543029791
 20
1.754056623
 40
1.0368378237
100
AcDbArc
 50
307.3719246421
 51
307.5110222792
  0
ARC
  5
3AE
100
AcDbEntity
  8
0
100
AcDbCircle
 62
7
  6
CONTINUOUS
 10
3.3430398867
 20
1.5686753751
 40
0.6161664438
100
AcDbArc
 50
272.8727967007
 51
273.5055824037
  0
ARC
  5
3AF
100
AcDbEntity
  8
0
100
AcDbCircle
 62
7
  6
CONTINUOUS
 10
4.164407126
 20
1.3499777282
 40
0.6
100
AcDbArc
 50
325.5685818018
 51
348.273530686
  0
ARC
  5
3B0
100
AcDbEntity
  8
0
100
AcDbCircle
 62
7
  6
CONTINUOUS
 10
3.3300585859
 20
1.5947727736
 40
0.5517241987
100
AcDbArc
 50
273.0605108324
 51
273.7881865247
  0
ARC
  5
3B1
100
AcDbEntity
  8
0
100
AcDbCircle
 62
7
  6
CONTINUOUS
 10
4.9036495385
 20
1.1965317911
 40
0.155
100
AcDbArc
 50
120.0
 51
168.273530686
  0
ARC
  5
3B2
100
AcDbEntity
  8
0
100
AcDbCircle
 62
7
  6
CONTINUOUS
 10
2.6316495385
 20
1.0514206882
 40
0.11
100
AcDbArc
 50
331.4532700444
 51
208.5467299556
  0
ARC
  5
3B3
100
AcDbEntity
  8
0
100
AcDbCircle
 62
7
  6
CONTINUOUS
 10
10.0263517837
 20
0.7914701798
 40
7.0598038292
100
AcDbArc
 50
181.4913993295
 51
181.6104564479
  0
ARC
  5
3B4
100
AcDbEntity
  8
0
100
AcDbCircle
 62
7
  6
CONTINUOUS
 10
9.9727506014
 20
0.7663763405
 40
7.017710948
100
AcDbArc
 50
181.4259303747
 51
181.5452356632
  0
ARC
  5
3B5
100
AcDbEntity
  8
0
100
AcDbCircle
 62
7
  6
CONTINUOUS
 10
9.904344438
 20
0.7652821962
 40
6.9742912032
100
AcDbArc
 50
181.4258188369
 51
181.5458667572
  0
ARC
  5
3B6
100
AcDbEntity
  8
0
100
AcDbCircle
 62
7
  6
CONTINUOUS
 10
9.6777998438
 20
0.7587457601
 40
6.72698324
100
AcDbArc
 50
181.4224413767
 51
181.5469123408
  0
ARC
  5
3B7
100
AcDbEntity
  8
0
100
AcDbCircle
 62
7
  6
CONTINUOUS
 10
9.6676395921
 20
0.757865329
 40
6.6918121758
100
AcDbArc
 50
181.4223784339
 51
181.5475035995
  0
ARC
  5
3B8
100
AcDbEntity
  8
0
100
AcDbCircle
 62
7
  6
CONTINUOUS
 10
9.6073846849
 20
0.7802110613
 40
6.6438095738
100
AcDbArc
 50
181.4876807252
 51
181.6141915895
  0
ARC
  5
3B9
100
AcDbEntity
  8
0
100
AcDbCircle
 62
7
  6
CONTINUOUS
 10
8.130883609
 20
0.7396812591
 40
5.19174294
100
AcDbArc
 50
181.5595863393
 51
181.7138725803
  0
ARC
  5
3BA
100
AcDbEntity
  8
0
100
AcDbCircle
 62
7
  6
CONTINUOUS
 10
8.1340086087
 20
0.7396812591
 40
5.1917429397
100
AcDbArc
 50
181.5595863393
 51
181.7138725803
  0
ARC
  5
3BB
100
AcDbEntity
  8
0
100
AcDbCircle
 62
7
  6
CONTINUOUS
 10
7.8139398634
 20
0.7083980792
 40
4.8581218238
100
AcDbArc
 50
181.5482749688
 51
181.7056819642
  0
ARC
  5
3BC
100
AcDbEntity
  8
0
100
AcDbCircle
 62
7
  6
CONTINUOUS
 10
7.7885052803
 20
0.7084360818
 40
4.8576885647
100
AcDbArc
 50
181.548862332
 51
181.7062831918
  0
ARC
  5
3BD
100
AcDbEntity
  8
0
100
AcDbCircle
 62
7
  6
CONTINUOUS
 10
7.796322041
 20
0.7290386831
 40
4.8289003705
100
AcDbArc
 50
181.6136133921
 51
181.7730351672
  0
ARC
  5
3BE
100
AcDbEntity
  8
0
100
AcDbCircle
 62
7
  6
CONTINUOUS
 10
7.4782136845
 20
0.719726897
 40
4.5137797291
100
AcDbArc
 50
181.6080599577
 51
181.7786101395
  0
ARC
  5
3BF
100
AcDbEntity
  8
0
100
AcDbCircle
 62
7
  6
CONTINUOUS
 10
6.4119485719
 20
0.6877954761
 40
3.4720250881
100
AcDbArc
 50
181.706410028
 51
181.9152154154
  0
ARC
  5
3C0
100
AcDbEntity
  8
0
100
AcDbCircle
 62
7
  6
CONTINUOUS
 10
6.415073571
 20
0.6877954761
 40
3.4720250871
100
AcDbArc
 50
181.706410028
 51
181.9152154154
  0
ARC
  5
3C1
100
AcDbEntity
  8
0
100
AcDbCircle
 62
7
  6
CONTINUOUS
 10
30.4251008039
 20
1.2284369045
 40
27.4752842995
100
AcDbArc
 50
181.1062202999
 51
181.2950152013
  0
ARC
  5
3C2
100
AcDbEntity
  8
0
100
AcDbCircle
 62
7
  6
CONTINUOUS
 10
24.4611959736
 20
1.1016206097
 40
21.4893671866
100
AcDbArc
 50
181.076191477
 51
181.3175585723
  0
ARC
  5
3C3
100
AcDbEntity
  8
0
100
AcDbCircle
 62
7
  6
CONTINUOUS
 10
23.6339061889
 20
1.0841949923
 40
20.6868888654
100
AcDbArc
 50
181.0696718056
 51
181.3204019319
  0
ARC
  5
3C4
100
AcDbEntity
  8
0
100
AcDbCircle
 62
7
  6
CONTINUOUS
 10
22.0866127538
 20
1.0902316189
 40
19.1237611992
100
AcDbArc
 50
181.1868640319
 51
181.4457669171
  0
ARC
  5
3C5
100
AcDbEntity
  8
0
100
AcDbCircle
 62
7
  6
CONTINUOUS
 10
22.0829673086
 20
1.0902196525
 40
19.1232406169
100
AcDbArc
 50
181.1868648147
 51
181.4457735116
  0
ARC
  5
3C6
100
AcDbEntity
  8
0
100
AcDbCircle
 62
7
  6
CONTINUOUS
 10
21.139582237
 20
1.0720840467
 40
18.2015585747
100
AcDbArc
 50
181.164201423
 51
181.4913180697
  0
ARC
  5
3C7
100
AcDbEntity
  8
0
100
AcDbCircle
 62
7
  6
CONTINUOUS
 10
21.1364572369
 20
1.0720840467
 40
18.2015585747
100
AcDbArc
 50
181.164201423
 51
181.4913180697
  0
ARC
  5
3C8
100
AcDbEntity
  8
0
100
AcDbCircle
 62
7
  6
CONTINUOUS
 10
3.0361495385
 20
10.8073127341
 40
0.01
100
AcDbArc
 50
180.0
 51
270.0000000037
  0
ARC
  5
3C9
100
AcDbEntity
  8
0
100
AcDbCircle
 62
7
  6
CONTINUOUS
 10
3.4061495385
 20
10.8073127341
 40
0.01
100
AcDbArc
 50
269.999999997
 51
360.0
  0
ARC
  5
3CA
100
AcDbEntity
  8
0
100
AcDbCircle
 62
7
  6
CONTINUOUS
 10
3.4061495385
 20
10.8223127341
 40
0.01
100
AcDbArc
 50
0.0
 51
90.0
  0
ARC
  5
3CB
100
AcDbEntity
  8
0
100
AcDbCircle
 62
7
  6
CONTINUOUS
 10
3.0361495385
 20
10.8223127341
 40
0.01
100
AcDbArc
 50
90.0
 51
180.0
  0
ARC
  5
3CC
100
AcDbEntity
  8
0
100
AcDbCircle
 62
7
  6
CONTINUOUS
 10
3.0861495385
 20
10.7873127341
 40
0.01
100
AcDbArc
 50
0.0
 51
89.9999977861
  0
ARC
  5
3CD
100
AcDbEntity
  8
0
100
AcDbCircle
 62
7
  6
CONTINUOUS
 10
3.3561495385
 20
10.7873127341
 40
0.01
100
AcDbArc
 50
90.0000017046
 51
180.0
  0
SPLINE
  5
3CE
100
AcDbEntity
  8
0
100
AcDbSpline
 62
7
  6
CONTINUOUS
 70
0
 71
3
 72
11
 73
7
 74
0
 42
0.0000001
 43
0.0000001
 44
0.0000000001
 40
0.0
 40
0.0
 40
0.0
 40
0.0
 40
0.2896405472
 40
0.5555571461
 40
0.7930538295
 40
1.0
 40
1.0
 40
1.0
 40
1.0
 10
2.5147480064
 20
0.7664001325
 30
0.0
 10
2.5135910798
 20
0.7707135644
 30
0.0
 10
2.5116419696
 20
0.7790646514
 30
0.0
 10
2.5099009095
 20
0.7911874441
 30
0.0
 10
2.5095333492
 20
0.8021595726
 30
0.0
 10
2.5103017292
 20
0.809007533
 30
0.0
 10
2.5109687028
 20
0.8121278943
 30
0.0
  0
LINE
  5
3CF
100
AcDbEntity
  8
0
100
AcDbLine
 62
7
  6
CONTINUOUS
 10
2.5109687028
 20
0.8121278943
 11
2.5119834824
 21
0.8160049168
  0
SPLINE
  5
3D0
100
AcDbEntity
  8
0
100
AcDbSpline
 62
7
  6
CONTINUOUS
 70
0
 71
3
 72
13
 73
9
 74
0
 42
0.0000001
 43
0.0000001
 44
0.0000000001
 40
0.0
 40
0.0
 40
0.0
 40
0.0
 40
0.2479941918
 40
0.3737484814
 40
0.5000002348
 40
0.6262519625
 40
0.7520061084
 40
1.0
 40
1.0
 40
1.0
 40
1.0
 10
2.5211051145
 20
0.6882985202
 30
0.0
 10
2.5227641559
 20
0.6929047176
 30
0.0
 10
2.5247469447
 20
0.7000561757
 30
0.0
 10
2.5261230858
 20
0.7098417254
 30
0.0
 10
2.5264651059
 20
0.7173126209
 30
0.0
 10
2.5261231185
 20
0.7247835145
 30
0.0
 10
2.5247470372
 20
0.7345690639
 30
0.0
 10
2.5227642417
 20
0.741720514
 30
0.0
 10
2.5211051999
 20
0.7463267049
 30
0.0
  0
LINE
  5
3D1
100
AcDbEntity
  8
0
100
AcDbLine
 62
7
  6
CONTINUOUS
 10
2.7532413467
 20
0.6753006051
 11
2.7548469329
 21
0.6673125863
  0
LINE
  5
3D2
100
AcDbEntity
  8
0
100
AcDbLine
 62
7
  6
CONTINUOUS
 10
2.7559837319
 20
0.6598794233
 11
2.7566637846
 21
0.6529970457
  0
SPLINE
  5
3D3
100
AcDbEntity
  8
0
100
AcDbSpline
 62
7
  6
CONTINUOUS
 70
0
 71
3
 72
9
 73
5
 74
0
 42
0.0000001
 43
0.0000001
 44
0.0000000001
 40
0.0
 40
0.0
 40
0.0
 40
0.0
 40
0.2663024983
 40
1.0
 40
1.0
 40
1.0
 40
1.0
 10
2.7566637846
 20
0.6529970457
 30
0.0
 10
2.7567385955
 20
0.6519105784
 30
0.0
 10
2.7569574075
 20
0.6478273242
 30
0.0
 10
2.7569088106
 20
0.6437251792
 30
0.0
 10
2.7566631737
 20
0.6407348064
 30
0.0
  0
LINE
  5
3D4
100
AcDbEntity
  8
0
100
AcDbLine
 62
7
  6
CONTINUOUS
 10
2.7566631737
 20
0.6407348064
 11
2.7559825175
 21
0.6354468605
  0
LINE
  5
3D5
100
AcDbEntity
  8
0
100
AcDbLine
 62
7
  6
CONTINUOUS
 10
2.7559825175
 20
0.6354468605
 11
2.7552187949
 21
0.6320052079
  0
SPLINE
  5
3D6
100
AcDbEntity
  8
0
100
AcDbSpline
 62
7
  6
CONTINUOUS
 70
0
 71
3
 72
9
 73
5
 74
0
 42
0.0000001
 43
0.0000001
 44
0.0000000001
 40
0.0
 40
0.0
 40
0.0
 40
0.0
 40
0.4721193944
 40
1.0
 40
1.0
 40
1.0
 40
1.0
 10
2.5097306319
 20
0.6352883475
 30
0.0
 10
2.5097306319
 20
0.6395297059
 30
0.0
 10
2.5104344919
 20
0.6485156733
 30
0.0
 10
2.5121126814
 20
0.6573546087
 30
0.0
 10
2.5131825403
 20
0.6619746512
 30
0.0
  0
SPLINE
  5
3D7
100
AcDbEntity
  8
0
100
AcDbSpline
 62
7
  6
CONTINUOUS
 70
0
 71
3
 72
9
 73
5
 74
0
 42
0.0000001
 43
0.0000001
 44
0.0000000001
 40
0.0
 40
0.0
 40
0.0
 40
0.0
 40
0.2445687362
 40
1.0
 40
1.0
 40
1.0
 40
1.0
 10
2.5131825403
 20
0.6619746512
 30
0.0
 10
2.5134230763
 20
0.6630133736
 30
0.0
 10
2.5144452694
 20
0.6672515488
 30
0.0
 10
2.5156145885
 20
0.6714536933
 30
0.0
 10
2.5165637877
 20
0.6746072785
 30
0.0
  0
LINE
  5
3D8
100
AcDbEntity
  8
0
100
AcDbLine
 62
7
  6
CONTINUOUS
 10
5.2722954387
 20
0.9061730487
 11
5.2716218264
 21
0.9070910875
  0
SPLINE
  5
3D9
100
AcDbEntity
  8
0
100
AcDbSpline
 62
7
  6
CONTINUOUS
 70
0
 71
3
 72
9
 73
5
 74
0
 42
0.0000001
 43
0.0000001
 44
0.0000000001
 40
0.0
 40
0.0
 40
0.0
 40
0.0
 40
0.2533744749
 40
1.0
 40
1.0
 40
1.0
 40
1.0
 10
2.7522945236
 20
0.6217789071
 30
0.0
 10
2.7507607122
 20
0.616733437
 30
0.0
 10
2.7442162809
 20
0.596973722
 30
0.0
 10
2.7357024957
 20
0.5778596744
 30
0.0
 10
2.7282765804
 20
0.5642094008
 30
0.0
  0
SPLINE
  5
3DA
100
AcDbEntity
  8
0
100
AcDbSpline
 62
7
  6
CONTINUOUS
 70
0
 71
3
 72
9
 73
5
 74
0
 42
0.0000001
 43
0.0000001
 44
0.0000000001
 40
0.0
 40
0.0
 40
0.0
 40
0.0
 40
0.5549543809
 40
1.0
 40
1.0
 40
1.0
 40
1.0
 10
2.5054457274
 20
0.7920934324
 30
0.0
 10
2.5058891018
 20
0.7940043405
 30
0.0
 10
2.5069516344
 20
0.7973975695
 30
0.0
 10
2.5087842843
 20
0.8004865802
 30
0.0
 10
2.5098198615
 20
0.8016708169
 30
0.0
  0
SPLINE
  5
3DB
100
AcDbEntity
  8
0
100
AcDbSpline
 62
7
  6
CONTINUOUS
 70
0
 71
3
 72
12
 73
8
 74
0
 42
0.0000001
 43
0.0000001
 44
0.0000000001
 40
0.0
 40
0.0
 40
0.0
 40
0.0
 40
0.2732484288
 40
0.5369717906
 40
0.7831249572
 40
0.8961053673
 40
1.0
 40
1.0
 40
1.0
 40
1.0
 10
2.5503995385
 20
0.4999902351
 30
0.0
 10
2.5503995385
 20
0.5060619962
 30
0.0
 10
2.5496488237
 20
0.5180054565
 30
0.0
 10
2.5464985801
 20
0.5351602391
 30
0.0
 10
2.5423007655
 20
0.5483912425
 30
0.0
 10
2.538284098
 20
0.5578688196
 30
0.0
 10
2.5361278202
 20
0.56218344
 30
0.0
 10
2.535021672
 20
0.5642097927
 30
0.0
  0
SPLINE
  5
3DC
100
AcDbEntity
  8
0
100
AcDbSpline
 62
7
  6
CONTINUOUS
 70
0
 71
3
 72
12
 73
8
 74
0
 42
0.0000001
 43
0.0000001
 44
0.0000000001
 40
0.0
 40
0.0
 40
0.0
 40
0.0
 40
0.2167738093
 40
0.3370783218
 40
0.4631425112
 40
0.726972044
 40
1.0
 40
1.0
 40
1.0
 40
1.0
 10
2.7282831293
 20
0.5642110462
 30
0.0
 10
2.725978314
 20
0.5599809792
 30
0.0
 10
2.7228511957
 20
0.55314511
 30
0.0
 10
2.7194293957
 20
0.5434345318
 30
0.0
 10
2.716314992
 20
0.5325252268
 30
0.0
 10
2.7136415035
 20
0.5179987659
 30
0.0
 10
2.7128995385
 20
0.5060575577
 30
0.0
 10
2.7128995385
 20
0.4999902351
 30
0.0
  0
SPLINE
  5
3DD
100
AcDbEntity
  8
0
100
AcDbSpline
 62
7
  6
CONTINUOUS
 70
0
 71
3
 72
9
 73
5
 74
0
 42
0.0000001
 43
0.0000001
 44
0.0000000001
 40
0.0
 40
0.0
 40
0.0
 40
0.0
 40
0.2466432248
 40
1.0
 40
1.0
 40
1.0
 40
1.0
 10
2.5350224966
 20
0.5642094008
 30
0.0
 10
2.5326990475
 20
0.5684803511
 30
0.0
 10
2.5237103377
 20
0.5860287312
 30
0.0
 10
2.5164499059
 20
0.6044563141
 30
0.0
 10
2.511982938
 20
0.618619387
 30
0.0
  0
SPLINE
  5
3DE
100
AcDbEntity
  8
0
100
AcDbSpline
 62
7
  6
CONTINUOUS
 70
0
 71
3
 72
9
 73
5
 74
0
 42
0.0000001
 43
0.0000001
 44
0.0000000001
 40
0.0
 40
0.0
 40
0.0
 40
0.0
 40
0.4715272699
 40
1.0
 40
1.0
 40
1.0
 40
1.0
 10
2.511982762
 20
0.6186196541
 30
0.0
 10
2.5113203862
 20
0.620719407
 30
0.0
 10
2.5102946023
 20
0.6252949875
 30
0.0
 10
2.5098788385
 20
0.629957245
 30
0.0
 10
2.5097845354
 20
0.6324230938
 30
0.0
  0
SPLINE
  5
3DF
100
AcDbEntity
  8
0
100
AcDbSpline
 62
7
  6
CONTINUOUS
 70
0
 71
3
 72
9
 73
5
 74
0
 42
0.0000001
 43
0.0000001
 44
0.0000000001
 40
0.0
 40
0.0
 40
0.0
 40
0.0
 40
0.2466432246
 40
1.0
 40
1.0
 40
1.0
 40
1.0
 10
2.5350224966
 20
0.8704160673
 30
0.0
 10
2.5326990475
 20
0.8661451171
 30
0.0
 10
2.5237103377
 20
0.848596737
 30
0.0
 10
2.5164499059
 20
0.8301691541
 30
0.0
 10
2.511982938
 20
0.8160060811
 30
0.0
  0
SPLINE
  5
3E0
100
AcDbEntity
  8
0
100
AcDbSpline
 62
7
  6
CONTINUOUS
 70
0
 71
3
 72
12
 73
8
 74
0
 42
0.0000001
 43
0.0000001
 44
0.0000000001
 40
0.0
 40
0.0
 40
0.0
 40
0.0
 40
0.2732484288
 40
0.5369717906
 40
0.7831249572
 40
0.8961053673
 40
1.0
 40
1.0
 40
1.0
 40
1.0
 10
2.7128995385
 20
0.9346352331
 30
0.0
 10
2.7128995385
 20
0.9285634719
 30
0.0
 10
2.7136502532
 20
0.9166200117
 30
0.0
 10
2.7168004968
 20
0.8994652291
 30
0.0
 10
2.7209983115
 20
0.8862342257
 30
0.0
 10
2.7250149789
 20
0.8767566485
 30
0.0
 10
2.7271712567
 20
0.8724420281
 30
0.0
 10
2.728277405
 20
0.8704156755
 30
0.0
  0
SPLINE
  5
3E1
100
AcDbEntity
  8
0
100
AcDbSpline
 62
7
  6
CONTINUOUS
 70
0
 71
3
 72
9
 73
5
 74
0
 42
0.0000001
 43
0.0000001
 44
0.0000000001
 40
0.0
 40
0.0
 40
0.0
 40
0.0
 40
0.5463289591
 40
1.0
 40
1.0
 40
1.0
 40
1.0
 10
2.5054454699
 20
0.6425316876
 30
0.0
 10
2.5058305394
 20
0.6408765297
 30
0.0
 10
2.506733314
 20
0.6378856236
 30
0.0
 10
2.5081973351
 20
0.6351056587
 30
0.0
 10
2.5090221759
 20
0.6339606808
 30
0.0
  0
SPLINE
  5
3E2
100
AcDbEntity
  8
0
100
AcDbSpline
 62
7
  6
CONTINUOUS
 70
0
 71
3
 72
12
 73
8
 74
0
 42
0.0000001
 43
0.0000001
 44
0.0000000001
 40
0.0
 40
0.0
 40
0.0
 40
0.0
 40
0.2167738093
 40
0.3370783218
 40
0.4631425112
 40
0.726972044
 40
1.0
 40
1.0
 40
1.0
 40
1.0
 10
2.5350159476
 20
0.8704144219
 30
0.0
 10
2.5373207629
 20
0.874644489
 30
0.0
 10
2.5404478813
 20
0.8814803582
 30
0.0
 10
2.5438696812
 20
0.8911909364
 30
0.0
 10
2.5469840849
 20
0.9021002413
 30
0.0
 10
2.5496575734
 20
0.9166267023
 30
0.0
 10
2.5503995385
 20
0.9285679105
 30
0.0
 10
2.5503995385
 20
0.9346352331
 30
0.0
  0
SPLINE
  5
3E3
100
AcDbEntity
  8
0
100
AcDbSpline
 62
7
  6
CONTINUOUS
 70
0
 71
3
 72
9
 73
5
 74
0
 42
0.0000001
 43
0.0000001
 44
0.0000000001
 40
0.0
 40
0.0
 40
0.0
 40
0.0
 40
0.2533744749
 40
1.0
 40
1.0
 40
1.0
 40
1.0
 10
2.7522945231
 20
0.8128465628
 30
0.0
 10
2.7507607117
 20
0.8178920327
 30
0.0
 10
2.7442162805
 20
0.8376517471
 30
0.0
 10
2.7357024955
 20
0.8567657941
 30
0.0
 10
2.7282765804
 20
0.8704160673
 30
0.0
  0
SPLINE
  5
3E4
100
AcDbEntity
  8
0
100
AcDbSpline
 62
7
  6
CONTINUOUS
 70
0
 71
3
 72
9
 73
5
 74
0
 42
0.0000001
 43
0.0000001
 44
0.0000000001
 40
0.0
 40
0.0
 40
0.0
 40
0.0
 40
0.2328613854
 40
1.0
 40
1.0
 40
1.0
 40
1.0
 10
2.7552188018
 20
0.8026202599
 30
0.0
 10
2.7553964396
 20
0.801955993
 30
0.0
 10
2.7560815942
 20
0.7990826444
 30
0.0
 10
2.7564781458
 20
0.7961448672
 30
0.0
 10
2.7566634741
 20
0.7938872029
 30
0.0
  0
SPLINE
  5
3E5
100
AcDbEntity
  8
0
100
AcDbSpline
 62
7
  6
CONTINUOUS
 70
0
 71
3
 72
9
 73
5
 74
0
 42
0.0000001
 43
0.0000001
 44
0.0000000001
 40
0.0
 40
0.0
 40
0.0
 40
0.0
 40
0.2336233564
 40
1.0
 40
1.0
 40
1.0
 40
1.0
 10
2.7566634741
 20
0.7938872029
 30
0.0
 10
2.7567416743
 20
0.7929345711
 30
0.0
 10
2.7569843656
 20
0.7888493719
 30
0.0
 10
2.7568788658
 20
0.7847480199
 30
0.0
 10
2.7566632183
 20
0.7816199256
 30
0.0
  0
SPLINE
  5
3E6
100
AcDbEntity
  8
0
100
AcDbSpline
 62
7
  6
CONTINUOUS
 70
0
 71
3
 72
9
 73
5
 74
0
 42
0.0000001
 43
0.0000001
 44
0.0000000001
 40
0.0
 40
0.0
 40
0.0
 40
0.0
 40
0.2379535671
 40
1.0
 40
1.0
 40
1.0
 40
1.0
 10
2.7566632183
 20
0.7816199256
 30
0.0
 10
2.7565844546
 20
0.7804774116
 30
0.0
 10
2.7561762503
 20
0.7756813742
 30
0.0
 10
2.7554868136
 20
0.7709114386
 30
0.0
 10
2.7548447316
 20
0.7673004943
 30
0.0
  0
SPLINE
  5
3E7
100
AcDbEntity
  8
0
100
AcDbSpline
 62
7
  6
CONTINUOUS
 70
0
 71
3
 72
12
 73
8
 74
0
 42
0.0000001
 43
0.0000001
 44
0.0000000001
 40
0.0
 40
0.0
 40
0.0
 40
0.0
 40
0.2732484288
 40
0.5369717906
 40
0.7831249572
 40
0.8961053673
 40
1.0
 40
1.0
 40
1.0
 40
1.0
 10
2.7128995385
 20
0.4999902351
 30
0.0
 10
2.7128995385
 20
0.4939184739
 30
0.0
 10
2.7136502532
 20
0.4819750136
 30
0.0
 10
2.7168004968
 20
0.464820231
 30
0.0
 10
2.7209983115
 20
0.4515892277
 30
0.0
 10
2.7250149789
 20
0.4421116505
 30
0.0
 10
2.7271712567
 20
0.4377970301
 30
0.0
 10
2.728277405
 20
0.4357706775
 30
0.0
  0
SPLINE
  5
3E8
100
AcDbEntity
  8
0
100
AcDbSpline
 62
7
  6
CONTINUOUS
 70
0
 71
3
 72
12
 73
8
 74
0
 42
0.0000001
 43
0.0000001
 44
0.0000000001
 40
0.0
 40
0.0
 40
0.0
 40
0.0
 40
0.2167738093
 40
0.3370783218
 40
0.4631425112
 40
0.726972044
 40
1.0
 40
1.0
 40
1.0
 40
1.0
 10
2.5350159476
 20
0.4357694239
 30
0.0
 10
2.5373207629
 20
0.4399994909
 30
0.0
 10
2.5404478813
 20
0.4468353602
 30
0.0
 10
2.5438696812
 20
0.4565459383
 30
0.0
 10
2.5469840849
 20
0.4674552433
 30
0.0
 10
2.5496575734
 20
0.4819817042
 30
0.0
 10
2.5503995385
 20
0.4939229124
 30
0.0
 10
2.5503995385
 20
0.4999902351
 30
0.0
  0
SPLINE
  5
3E9
100
AcDbEntity
  8
0
100
AcDbSpline
 62
7
  6
CONTINUOUS
 70
0
 71
3
 72
12
 73
8
 74
0
 42
0.0000001
 43
0.0000001
 44
0.0000000001
 40
0.0
 40
0.0
 40
0.0
 40
0.0
 40
0.2732484288
 40
0.5369717906
 40
0.7831249572
 40
0.8961053673
 40
1.0
 40
1.0
 40
1.0
 40
1.0
 10
2.5503995385
 20
0.9346352331
 30
0.0
 10
2.5503995385
 20
0.9407069943
 30
0.0
 10
2.5496488237
 20
0.9526504545
 30
0.0
 10
2.5464985801
 20
0.9698052372
 30
0.0
 10
2.5423007655
 20
0.9830362405
 30
0.0
 10
2.538284098
 20
0.9925138177
 30
0.0
 10
2.5361278202
 20
0.9968284381
 30
0.0
 10
2.535021672
 20
0.9988547907
 30
0.0
  0
SPLINE
  5
3EA
100
AcDbEntity
  8
0
100
AcDbSpline
 62
7
  6
CONTINUOUS
 70
0
 71
3
 72
12
 73
8
 74
0
 42
0.0000001
 43
0.0000001
 44
0.0000000001
 40
0.0
 40
0.0
 40
0.0
 40
0.0
 40
0.2167738093
 40
0.3370783218
 40
0.4631425112
 40
0.726972044
 40
1.0
 40
1.0
 40
1.0
 40
1.0
 10
2.7282831293
 20
0.9988560443
 30
0.0
 10
2.725978314
 20
0.9946259773
 30
0.0
 10
2.7228511957
 20
0.987790108
 30
0.0
 10
2.7194293957
 20
0.9780795298
 30
0.0
 10
2.716314992
 20
0.9671702249
 30
0.0
 10
2.7136415035
 20
0.952643764
 30
0.0
 10
2.7128995385
 20
0.9407025558
 30
0.0
 10
2.7128995385
 20
0.9346352331
 30
0.0
  0
SPLINE
  5
3EB
100
AcDbEntity
  8
0
100
AcDbSpline
 62
7
  6
CONTINUOUS
 70
0
 71
3
 72
12
 73
8
 74
0
 42
0.0000001
 43
0.0000001
 44
0.0000000001
 40
0.0
 40
0.0
 40
0.0
 40
0.0
 40
0.3055322619
 40
0.5846668363
 40
0.8206872395
 40
0.9182050317
 40
1.0
 40
1.0
 40
1.0
 40
1.0
 10
5.1003162051
 20
0.6948735803
 30
0.0
 10
5.1007468517
 20
0.6792383554
 30
0.0
 10
5.1016346794
 20
0.6493205184
 30
0.0
 10
5.1029714229
 20
0.6073282829
 30
0.0
 10
5.1041210677
 20
0.5759842578
 30
0.0
 10
5.1050886035
 20
0.5547439581
 30
0.0
 10
5.1055829367
 20
0.5455774671
 30
0.0
 10
5.1058391895
 20
0.5413979745
 30
0.0
  0
SPLINE
  5
3EC
100
AcDbEntity
  8
0
100
AcDbSpline
 62
7
  6
CONTINUOUS
 70
0
 71
3
 72
13
 73
9
 74
0
 42
0.0000001
 43
0.0000001
 44
0.0000000001
 40
0.0
 40
0.0
 40
0.0
 40
0.0
 40
0.3695007086
 40
0.6609479792
 40
0.776419298
 40
0.8714474826
 40
0.9459646131
 40
1.0
 40
1.0
 40
1.0
 40
1.0
 10
5.1058391895
 20
0.5413979745
 30
0.0
 10
5.1060061265
 20
0.5386752252
 30
0.0
 10
5.1063287343
 20
0.5338063665
 30
0.0
 10
5.1067990138
 20
0.5280930338
 30
0.0
 10
5.1071915729
 20
0.5244081325
 30
0.0
 10
5.1074605281
 20
0.5223207827
 30
0.0
 10
5.1077272275
 20
0.5206919261
 30
0.0
 10
5.1079312921
 20
0.5197633554
 30
0.0
 10
5.1080446298
 20
0.5193808748
 30
0.0
  0
SPLINE
  5
3ED
100
AcDbEntity
  8
0
100
AcDbSpline
 62
7
  6
CONTINUOUS
 70
0
 71
3
 72
10
 73
6
 74
0
 42
0.0000001
 43
0.0000001
 44
0.0000000001
 40
0.0
 40
0.0
 40
0.0
 40
0.0
 40
0.3874303592
 40
0.6770208326
 40
1.0
 40
1.0
 40
1.0
 40
1.0
 10
5.1080446298
 20
0.5193808748
 30
0.0
 10
5.1080854672
 20
0.5192430605
 30
0.0
 10
5.1081669642
 20
0.5189991008
 30
0.0
 10
5.1083068734
 20
0.5186777524
 30
0.0
 10
5.1084797604
 20
0.5184496763
 30
0.0
 10
5.1085995283
 20
0.5184534057
 30
0.0
  0
SPLINE
  5
3EE
100
AcDbEntity
  8
0
100
AcDbSpline
 62
7
  6
CONTINUOUS
 70
0
 71
3
 72
14
 73
10
 74
0
 42
0.0000001
 43
0.0000001
 44
0.0000000001
 40
0.0
 40
0.0
 40
0.0
 40
0.0
 40
0.0300397542
 40
0.0533010388
 40
0.0831145928
 40
0.1635215835
 40
0.272516203
 40
0.5776813673
 40
1.0
 40
1.0
 40
1.0
 40
1.0
 10
4.9992747192
 20
0.9006651884
 30
0.0
 10
4.999361861
 20
0.9006569
 30
0.0
 10
4.999490135
 20
0.9005329032
 30
0.0
 10
4.9996098735
 20
0.9003287695
 30
0.0
 10
4.9997688913
 20
0.899970179
 30
0.0
 10
4.9999522211
 20
0.8993583943
 30
0.0
 10
5.0002694781
 20
0.8979512851
 30
0.0
 10
5.0006350826
 20
0.8955397024
 30
0.0
 10
5.0008767137
 20
0.8934336017
 30
0.0
 10
5.0010034411
 20
0.8922095175
 30
0.0
  0
SPLINE
  5
3EF
100
AcDbEntity
  8
0
100
AcDbSpline
 62
7
  6
CONTINUOUS
 70
0
 71
3
 72
29
 73
25
 74
0
 42
0.0000001
 43
0.0000001
 44
0.0000000001
 40
0.0
 40
0.0
 40
0.0
 40
0.0
 40
0.0150278201
 40
0.0335421166
 40
0.0804156485
 40
0.139224194
 40
0.2082292809
 40
0.2854495737
 40
0.3686533642
 40
0.4554152969
 40
0.5431753739
 40
0.6293110475
 40
0.71128184
 40
0.7868569608
 40
0.8538153144
 40
0.883347411
 40
0.9099094562
 40
0.9333687407
 40
0.9536100835
 40
0.9705185604
 40
0.9839686535
 40
0.9938307319
 40
0.997381364
 40
1.0
 40
1.0
 40
1.0
 40
1.0
 10
5.0010034411
 20
0.8922095175
 30
0.0
 10
5.0011878025
 20
0.890428736
 30
0.0
 10
5.0015398223
 20
0.8864479317
 30
0.0
 10
5.0022319232
 20
0.8768926957
 30
0.0
 10
5.003055424
 20
0.8621190172
 30
0.0
 10
5.0039988706
 20
0.8413294756
 30
0.0
 10
5.0049497758
 20
0.8169216659
 30
0.0
 10
5.0059068471
 20
0.789605971
 30
0.0
 10
5.0068646297
 20
0.7601736808
 30
0.0
 10
5.0078228371
 20
0.7294851593
 30
0.0
 10
5.0087828115
 20
0.6984472423
 30
0.0
 10
5.0097426849
 20
0.6679803769
 30
0.0
 10
5.0107013233
 20
0.6389658279
 30
0.0
 10
5.01165696
 20
0.6122371534
 30
0.0
 10
5.0124783322
 20
0.5917549031
 30
0.0
 10
5.013150971
 20
0.5771107603
 30
0.0
 10
5.0136342255
 20
0.5676456625
 30
0.0
 10
5.0141160496
 20
0.5592888709
 30
0.0
 10
5.0145963123
 20
0.5520843283
 30
0.0
 10
5.0150718821
 20
0.5460745274
 30
0.0
 10
5.0155441757
 20
0.5413065259
 30
0.0
 10
5.0159554614
 20
0.5381306054
 30
0.0
 10
5.0163104091
 20
0.5362539429
 30
0.0
 10
5.0164905719
 20
0.5355398873
 30
0.0
 10
5.0165893627
 20
0.5352439784
 30
0.0
  0
LINE
  5
3F0
100
AcDbEntity
  8
0
100
AcDbLine
 62
7
  6
CONTINUOUS
 10
5.0165893627
 20
0.5352439784
 11
5.0168097996
 21
0.5347254441
  0
SPLINE
  5
3F1
100
AcDbEntity
  8
0
100
AcDbSpline
 62
7
  6
CONTINUOUS
 70
0
 71
3
 72
20
 73
16
 74
0
 42
0.0000001
 43
0.0000001
 44
0.0000000001
 40
0.0
 40
0.0
 40
0.0
 40
0.0
 40
0.1771564383
 40
0.3516967369
 40
0.5164064367
 40
0.6651359736
 40
0.7317512748
 40
0.7923049544
 40
0.8462077399
 40
0.8929234777
 40
0.9319273711
 40
0.9628756987
 40
0.985604622
 40
0.9938474321
 40
1.0
 40
1.0
 40
1.0
 40
1.0
 10
5.1114763858
 20
0.6970633966
 30
0.0
 10
5.1111020984
 20
0.7088346947
 30
0.0
 10
5.1103676526
 20
0.7322037303
 30
0.0
 10
5.1092705739
 20
0.7665165771
 30
0.0
 10
5.1081746633
 20
0.7989386494
 30
0.0
 10
5.107236608
 20
0.8241871221
 30
0.0
 10
5.1064697691
 20
0.8425126847
 30
0.0
 10
5.1059162749
 20
0.8545375244
 30
0.0
 10
5.1053640454
 20
0.8652380142
 30
0.0
 10
5.1048142777
 20
0.8745037616
 30
0.0
 10
5.1042696009
 20
0.8822411111
 30
0.0
 10
5.1037278897
 20
0.8883784729
 30
0.0
 10
5.1032554466
 20
0.8924697849
 30
0.0
 10
5.1028492872
 20
0.8949043012
 30
0.0
 10
5.1026431648
 20
0.8958401606
 30
0.0
 10
5.1025311467
 20
0.8962335412
 30
0.0
  0
LINE
  5
3F2
100
AcDbEntity
  8
0
100
AcDbLine
 62
7
  6
CONTINUOUS
 10
5.1024838292
 20
0.8963935593
 11
5.1022011533
 21
0.8970927975
  0
SPLINE
  5
3F3
100
AcDbEntity
  8
0
100
AcDbSpline
 62
7
  6
CONTINUOUS
 70
0
 71
3
 72
18
 73
14
 74
0
 42
0.0000001
 43
0.0000001
 44
0.0000000001
 40
0.0
 40
0.0
 40
0.0
 40
0.0
 40
0.1851036259
 40
0.3619918462
 40
0.5250715194
 40
0.6700114109
 40
0.7929959229
 40
0.8452149133
 40
0.8907270621
 40
0.9292262203
 40
0.9604298655
 40
0.9840664983
 40
1.0
 40
1.0
 40
1.0
 40
1.0
 10
5.1159413858
 20
0.6970559279
 30
0.0
 10
5.1162514128
 20
0.6873101484
 30
0.0
 10
5.1168628754
 20
0.6682512947
 30
0.0
 10
5.117792394
 20
0.6406076944
 30
0.0
 10
5.1187217503
 20
0.6150810382
 30
0.0
 10
5.1196465057
 20
0.5923958071
 30
0.0
 10
5.1204469163
 20
0.5755502931
 30
0.0
 10
5.1211063093
 20
0.5639423105
 30
0.0
 10
5.1215723902
 20
0.5567810461
 30
0.0
 10
5.122036702
 20
0.5507297473
 30
0.0
 10
5.1224939666
 20
0.5458331214
 30
0.0
 10
5.1229472828
 20
0.542133602
 30
0.0
 10
5.1232963777
 20
0.5400743986
 30
0.0
 10
5.1235034133
 20
0.5392610042
 30
0.0
  0
LINE
  5
3F4
100
AcDbEntity
  8
0
100
AcDbLine
 62
7
  6
CONTINUOUS
 10
5.1235539808
 20
0.5390693891
 11
5.1239051074
 21
0.5381278063
  0
SPLINE
  5
3F5
100
AcDbEntity
  8
0
100
AcDbSpline
 62
7
  6
CONTINUOUS
 70
0
 71
3
 72
25
 73
21
 74
0
 42
0.0000001
 43
0.0000001
 44
0.0000000001
 40
0.0
 40
0.0
 40
0.0
 40
0.0
 40
0.2002973534
 40
0.3901684999
 40
0.478925648
 40
0.5626219869
 40
0.6405843069
 40
0.7121907117
 40
0.776900652
 40
0.8341816549
 40
0.8835257969
 40
0.9245315352
 40
0.9568325574
 40
0.9800915219
 40
0.9882951225
 40
0.9915504574
 40
0.9942495084
 40
0.9964041963
 40
0.9980380819
 40
1.0
 40
1.0
 40
1.0
 40
1.0
 10
5.1114763858
 20
0.6970559279
 30
0.0
 10
5.1118153118
 20
0.686401701
 30
0.0
 10
5.1124816623
 20
0.6656480332
 30
0.0
 10
5.1133450378
 20
0.6401747021
 30
0.0
 10
5.1140479602
 20
0.6209049674
 30
0.0
 10
5.1145626015
 20
0.6075880262
 30
0.0
 10
5.115076434
 20
0.5951845219
 30
0.0
 10
5.1155894161
 20
0.5837923435
 30
0.0
 10
5.1161013155
 20
0.5735019803
 30
0.0
 10
5.116611699
 20
0.5643978861
 30
0.0
 10
5.117121014
 20
0.5565576046
 30
0.0
 10
5.1176257468
 20
0.5500492853
 30
0.0
 10
5.1181254191
 20
0.5449346454
 30
0.0
 10
5.1185632766
 20
0.5415673018
 30
0.0
 10
5.118912995
 20
0.5397525213
 30
0.0
 10
5.119098327
 20
0.5390212904
 30
0.0
 10
5.1192241487
 20
0.5386097291
 30
0.0
 10
5.1193537386
 20
0.5382848015
 30
0.0
 10
5.1194897438
 20
0.5380231881
 30
0.0
 10
5.1196523946
 20
0.5378581717
 30
0.0
 10
5.1197567594
 20
0.537861285
 30
0.0
  0
LINE
  5
3F6
100
AcDbEntity
  8
0
100
AcDbLine
 62
7
  6
CONTINUOUS
 10
5.2836495385
 20
0.8258244881
 11
5.2814761166
 21
0.8491636262
  0
LINE
  5
3F7
100
AcDbEntity
  8
0
100
AcDbLine
 62
7
  6
CONTINUOUS
 10
5.2814761166
 20
0.8491636262
 11
5.2793247754
 21
0.8692714888
  0
LINE
  5
3F8
100
AcDbEntity
  8
0
100
AcDbLine
 62
7
  6
CONTINUOUS
 10
5.2793247754
 20
0.8692714888
 11
5.2771240664
 21
0.885604276
  0
SPLINE
  5
3F9
100
AcDbEntity
  8
0
100
AcDbSpline
 62
7
  6
CONTINUOUS
 70
0
 71
3
 72
10
 73
6
 74
0
 42
0.0000001
 43
0.0000001
 44
0.0000000001
 40
0.0
 40
0.0
 40
0.0
 40
0.0
 40
0.5765876016
 40
0.8075708697
 40
1.0
 40
1.0
 40
1.0
 40
1.0
 10
5.2771240664
 20
0.885604276
 30
0.0
 10
5.2766432908
 20
0.8887522867
 30
0.0
 10
5.2759222102
 20
0.8931557805
 30
0.0
 10
5.2748006112
 20
0.8985643739
 30
0.0
 10
5.2742357198
 20
0.9008349327
 30
0.0
 10
5.2739444606
 20
0.9018570362
 30
0.0
  0
SPLINE
  5
3FA
100
AcDbEntity
  8
0
100
AcDbSpline
 62
7
  6
CONTINUOUS
 70
0
 71
3
 72
9
 73
5
 74
0
 42
0.0000001
 43
0.0000001
 44
0.0000000001
 40
0.0
 40
0.0
 40
0.0
 40
0.0
 40
0.5736771385
 40
1.0
 40
1.0
 40
1.0
 40
1.0
 10
5.2739444606
 20
0.9018570362
 30
0.0
 10
5.2737019325
 20
0.9027081293
 30
0.0
 10
5.2732378303
 20
0.9041794994
 30
0.0
 10
5.2726250083
 20
0.9056039256
 30
0.0
 10
5.2722954387
 20
0.9061730487
 30
0.0
  0
SPLINE
  5
3FB
100
AcDbEntity
  8
0
100
AcDbSpline
 62
7
  6
CONTINUOUS
 70
0
 71
3
 72
14
 73
10
 74
0
 42
0.0000001
 43
0.0000001
 44
0.0000000001
 40
0.0
 40
0.0
 40
0.0
 40
0.0
 40
0.382778609
 40
0.5420318028
 40
0.679115544
 40
0.793552901
 40
0.8851577106
 40
0.9538957205
 40
1.0
 40
1.0
 40
1.0
 40
1.0
 10
5.2830959149
 20
0.8728378516
 30
0.0
 10
5.2829247966
 20
0.8752264752
 30
0.0
 10
5.2826582603
 20
0.8786074028
 30
0.0
 10
5.2822449192
 20
0.8828360024
 30
0.0
 10
5.2819558829
 20
0.8853898376
 30
0.0
 10
5.2816706692
 20
0.8875173481
 30
0.0
 10
5.2813915518
 20
0.8892148945
 30
0.0
 10
5.2811167367
 20
0.8904757139
 30
0.0
 10
5.2809046578
 20
0.8911671626
 30
0.0
 10
5.2807800982
 20
0.8914273194
 30
0.0
  0
SPLINE
  5
3FC
100
AcDbEntity
  8
0
100
AcDbSpline
 62
7
  6
CONTINUOUS
 70
0
 71
3
 72
20
 73
16
 74
0
 42
0.0000001
 43
0.0000001
 44
0.0000000001
 40
0.0
 40
0.0
 40
0.0
 40
0.0
 40
0.1703398959
 40
0.3410605003
 40
0.5046891684
 40
0.6545252922
 40
0.7221809671
 40
0.7839857005
 40
0.8393142771
 40
0.8875535141
 40
0.9281747393
 40
0.9607058351
 40
0.9847160151
 40
0.9934557007
 40
1.0
 40
1.0
 40
1.0
 40
1.0
 10
5.2674876411
 20
0.7612675416
 30
0.0
 10
5.2677362972
 20
0.7482159354
 30
0.0
 10
5.2682291494
 20
0.722083458
 30
0.0
 10
5.2689864578
 20
0.6834140784
 30
0.0
 10
5.2697409946
 20
0.6463162821
 30
0.0
 10
5.2703447499
 20
0.6171153665
 30
0.0
 10
5.2708628574
 20
0.5957177546
 30
0.0
 10
5.2712498939
 20
0.5815617449
 30
0.0
 10
5.2716365743
 20
0.5688943111
 30
0.0
 10
5.2720110252
 20
0.5578507554
 30
0.0
 10
5.2723738991
 20
0.5485548503
 30
0.0
 10
5.2727352383
 20
0.5411176428
 30
0.0
 10
5.2730618005
 20
0.5361246164
 30
0.0
 10
5.2733475381
 20
0.5331268161
 30
0.0
 10
5.2734927201
 20
0.5319640662
 30
0.0
 10
5.2735715455
 20
0.531468778
 30
0.0
  0
LINE
  5
3FD
100
AcDbEntity
  8
0
100
AcDbLine
 62
7
  6
CONTINUOUS
 10
5.2735715455
 20
0.531468778
 11
5.2739178095
 21
0.5300867282
  0
SPLINE
  5
3FE
100
AcDbEntity
  8
0
100
AcDbSpline
 62
7
  6
CONTINUOUS
 70
0
 71
3
 72
12
 73
8
 74
0
 42
0.0000001
 43
0.0000001
 44
0.0000000001
 40
0.0
 40
0.0
 40
0.0
 40
0.0
 40
0.050535511
 40
0.1219018059
 40
0.3286858303
 40
0.6214674514
 40
1.0
 40
1.0
 40
1.0
 40
1.0
 10
4.983904203
 20
0.9198359339
 30
0.0
 10
4.9839731451
 20
0.9197167364
 30
0.0
 10
4.9840984041
 20
0.9194067369
 30
0.0
 10
4.9843476691
 20
0.9185466684
 30
0.0
 10
4.984636669
 20
0.9170149742
 30
0.0
 10
4.9849708218
 20
0.914646346
 30
0.0
 10
4.9851692673
 20
0.9128273888
 30
0.0
 10
4.9852722962
 20
0.911801122
 30
0.0
  0
SPLINE
  5
3FF
100
AcDbEntity
  8
0
100
AcDbSpline
 62
7
  6
CONTINUOUS
 70
0
 71
3
 72
35
 73
31
 74
0
 42
0.0000001
 43
0.0000001
 44
0.0000000001
 40
0.0
 40
0.0
 40
0.0
 40
0.0
 40
0.0148403479
 40
0.0334333381
 40
0.0812841577
 40
0.1420704617
 40
0.2138761432
 40
0.2944156767
 40
0.3811515556
 40
0.4713226289
 40
0.56207369
 40
0.6505189018
 40
0.7338522801
 40
0.7727647426
 40
0.809429119
 40
0.8435420675
 40
0.8748365579
 40
0.903074085
 40
0.9280180937
 40
0.9494684069
 40
0.9672731682
 40
0.9812863697
 40
0.9868325433
 40
0.9913963541
 40
0.9949755304
 40
0.9963965583
 40
0.9975732946
 40
0.9985087716
 40
0.9992100293
 40
1.0
 40
1.0
 40
1.0
 40
1.0
 10
4.9852722962
 20
0.911801122
 30
0.0
 10
4.9854685932
 20
0.9098458158
 30
0.0
 10
4.9858377978
 20
0.9054335444
 30
0.0
 10
4.9865585003
 20
0.894694024
 30
0.0
 10
4.9874105109
 20
0.8778670961
 30
0.0
 10
4.9883945333
 20
0.8539934182
 30
0.0
 10
4.9893821824
 20
0.8257879935
 30
0.0
 10
4.9903757502
 20
0.7941448447
 30
0.0
 10
4.9913720472
 20
0.7600687378
 30
0.0
 10
4.9923699355
 20
0.7246399488
 30
0.0
 10
4.993367908
 20
0.6889847233
 30
0.0
 10
4.9943656225
 20
0.6542352881
 30
0.0
 10
4.9952131922
 20
0.6263487662
 30
0.0
 10
4.99590158
 20
0.6053173848
 30
0.0
 10
4.9964057581
 20
0.5908011814
 30
0.0
 10
4.9969100564
 20
0.577294388
 30
0.0
 10
4.9974139674
 20
0.5649042893
 30
0.0
 10
4.9979161964
 20
0.553729341
 30
0.0
 10
4.9984157959
 20
0.5438592968
 30
0.0
 10
4.9989122187
 20
0.535372488
 30
0.0
 10
4.9994071064
 20
0.5283360787
 30
0.0
 10
4.9998432117
 20
0.5234068981
 30
0.0
 10
5.0002105753
 20
0.5202336
 30
0.0
 10
5.0004631845
 20
0.5184381683
 30
0.0
 10
5.0006828648
 20
0.5171909602
 30
0.0
 10
5.0008653187
 20
0.5163923879
 30
0.0
 10
5.0009883019
 20
0.5159430665
 30
0.0
 10
5.0011143917
 20
0.5155856026
 30
0.0
 10
5.0012418567
 20
0.5153086697
 30
0.0
 10
5.0013949662
 20
0.5151152882
 30
0.0
 10
5.0014995222
 20
0.5151185438
 30
0.0
  0
SPLINE
  5
400
100
AcDbEntity
  8
0
100
AcDbSpline
 62
7
  6
CONTINUOUS
 70
0
 71
3
 72
12
 73
8
 74
0
 42
0.0000001
 43
0.0000001
 44
0.0000000001
 40
0.0
 40
0.0
 40
0.0
 40
0.0
 40
0.0518068063
 40
0.1240065495
 40
0.3313491689
 40
0.6233912829
 40
1.0
 40
1.0
 40
1.0
 40
1.0
 10
5.0196305754
 20
0.9187053924
 30
0.0
 10
5.0197006892
 20
0.9185842065
 30
0.0
 10
5.0198276722
 20
0.9182716855
 30
0.0
 10
5.0200758862
 20
0.9174113523
 30
0.0
 10
5.0203578494
 20
0.9158894926
 30
0.0
 10
5.0206802059
 20
0.9135447661
 30
0.0
 10
5.0208720853
 20
0.9117474449
 30
0.0
 10
5.0209722762
 20
0.9107346094
 30
0.0
  0
LINE
  5
401
100
AcDbEntity
  8
0
100
AcDbLine
 62
7
  6
CONTINUOUS
 10
5.0209722762
 20
0.9107346094
 11
5.0220521167
 21
0.8964654853
  0
SPLINE
  5
402
100
AcDbEntity
  8
0
100
AcDbSpline
 62
7
  6
CONTINUOUS
 70
0
 71
3
 72
17
 73
13
 74
0
 42
0.0000001
 43
0.0000001
 44
0.0000000001
 40
0.0
 40
0.0
 40
0.0
 40
0.0
 40
0.0399181263
 40
0.0884241188
 40
0.2074111164
 40
0.348142343
 40
0.5001644896
 40
0.6521739958
 40
0.7928601541
 40
0.9117505227
 40
0.9601806674
 40
1.0
 40
1.0
 40
1.0
 40
1.0
 10
5.0220521167
 20
0.8964654853
 30
0.0
 10
5.0223451935
 20
0.8917086016
 30
0.0
 10
5.0229048509
 20
0.8811659809
 30
0.0
 10
5.0239922139
 20
0.8564265148
 30
0.0
 10
5.0252836741
 20
0.8196491533
 30
0.0
 10
5.026774436
 20
0.7705133029
 30
0.0
 10
5.0282710744
 20
0.7174332567
 30
0.0
 10
5.0297678897
 20
0.6643585975
 30
0.0
 10
5.031259722
 20
0.6152412149
 30
0.0
 10
5.0325523735
 20
0.578489879
 30
0.0
 10
5.0336412411
 20
0.5537828943
 30
0.0
 10
5.0342026307
 20
0.5432612374
 30
0.0
 10
5.0344967574
 20
0.5385162363
 30
0.0
  0
SPLINE
  5
403
100
AcDbEntity
  8
0
100
AcDbSpline
 62
7
  6
CONTINUOUS
 70
0
 71
3
 72
13
 73
9
 74
0
 42
0.0000001
 43
0.0000001
 44
0.0000000001
 40
0.0
 40
0.0
 40
0.0
 40
0.0
 40
0.3696817075
 40
0.661125721
 40
0.7765557265
 40
0.8715301366
 40
0.9459943606
 40
1.0
 40
1.0
 40
1.0
 40
1.0
 10
5.0344967574
 20
0.5385162363
 30
0.0
 10
5.0346607778
 20
0.5358701746
 30
0.0
 10
5.0349776203
 20
0.5311395174
 30
0.0
 10
5.0354373447
 20
0.5255888816
 30
0.0
 10
5.0358174669
 20
0.5220099711
 30
0.0
 10
5.0360773825
 20
0.5199832059
 30
0.0
 10
5.0363358437
 20
0.5184018506
 30
0.0
 10
5.0365348782
 20
0.5175005136
 30
0.0
 10
5.0366462069
 20
0.5171295626
 30
0.0
  0
SPLINE
  5
404
100
AcDbEntity
  8
0
100
AcDbSpline
 62
7
  6
CONTINUOUS
 70
0
 71
3
 72
10
 73
6
 74
0
 42
0.0000001
 43
0.0000001
 44
0.0000000001
 40
0.0
 40
0.0
 40
0.0
 40
0.0
 40
0.3847427181
 40
0.6730277818
 40
1.0
 40
1.0
 40
1.0
 40
1.0
 10
5.0366462069
 20
0.5171295626
 30
0.0
 10
5.0366863577
 20
0.5169957788
 30
0.0
 10
5.0367667943
 20
0.5167592798
 30
0.0
 10
5.0369061081
 20
0.5164441949
 30
0.0
 10
5.0370808856
 20
0.5162264703
 30
0.0
 10
5.0371995336
 20
0.5162301647
 30
0.0
  0
SPLINE
  5
405
100
AcDbEntity
  8
0
100
AcDbSpline
 62
7
  6
CONTINUOUS
 70
0
 71
3
 72
11
 73
7
 74
0
 42
0.0000001
 43
0.0000001
 44
0.0000000001
 40
0.0
 40
0.0
 40
0.0
 40
0.0
 40
0.1483361035
 40
0.3636552981
 40
0.6474117596
 40
1.0
 40
1.0
 40
1.0
 40
1.0
 10
5.0553298068
 20
0.9175856461
 30
0.0
 10
5.0554149805
 20
0.9174341935
 30
0.0
 10
5.0555648423
 20
0.9170319595
 30
0.0
 10
5.0557576465
 20
0.9162990368
 30
0.0
 10
5.0559525607
 20
0.9153197628
 30
0.0
 10
5.0560710767
 20
0.9145838579
 30
0.0
 10
5.0561319832
 20
0.9141753545
 30
0.0
  0
LINE
  5
406
100
AcDbEntity
  8
0
100
AcDbLine
 62
7
  6
CONTINUOUS
 10
5.0561319832
 20
0.9141753545
 11
5.0566722983
 21
0.9096680338
  0
LINE
  5
407
100
AcDbEntity
  8
0
100
AcDbLine
 62
7
  6
CONTINUOUS
 10
5.0566722983
 20
0.9096680338
 11
5.0577536823
 21
0.8954774449
  0
SPLINE
  5
408
100
AcDbEntity
  8
0
100
AcDbSpline
 62
7
  6
CONTINUOUS
 70
0
 71
3
 72
19
 73
15
 74
0
 42
0.0000001
 43
0.0000001
 44
0.0000000001
 40
0.0
 40
0.0
 40
0.0
 40
0.0
 40
0.0399182902
 40
0.0884246628
 40
0.1445967939
 40
0.2074123145
 40
0.3114710424
 40
0.4234376948
 40
0.5386182671
 40
0.6521744796
 40
0.759347698
 40
0.855635415
 40
0.9369858638
 40
1.0
 40
1.0
 40
1.0
 40
1.0
 10
5.0577536823
 20
0.8954774449
 30
0.0
 10
5.0580459405
 20
0.8907468232
 30
0.0
 10
5.0586036968
 20
0.8802623414
 30
0.0
 10
5.0593632995
 20
0.86311058
 30
0.0
 10
5.0601272876
 20
0.8432380032
 30
0.0
 10
5.0610398766
 20
0.8167706009
 30
0.0
 10
5.0620691373
 20
0.7836787686
 30
0.0
 10
5.0632098082
 20
0.7443700449
 30
0.0
 10
5.0643517761
 20
0.7039332345
 30
0.0
 10
5.0654934589
 20
0.6640657698
 30
0.0
 10
5.0666327128
 20
0.6264424414
 30
0.0
 10
5.0677637081
 20
0.5926444805
 30
0.0
 10
5.0688900194
 20
0.5640932089
 30
0.0
 10
5.0697306042
 20
0.5469719287
 30
0.0
 10
5.0701924677
 20
0.5395043046
 30
0.0
  0
SPLINE
  5
409
100
AcDbEntity
  8
0
100
AcDbSpline
 62
7
  6
CONTINUOUS
 70
0
 71
3
 72
13
 73
9
 74
0
 42
0.0000001
 43
0.0000001
 44
0.0000000001
 40
0.0
 40
0.0
 40
0.0
 40
0.0
 40
0.3696155781
 40
0.661030272
 40
0.7764723767
 40
0.8714763362
 40
0.9459772918
 40
1.0
 40
1.0
 40
1.0
 40
1.0
 10
5.0701924677
 20
0.5395043046
 30
0.0
 10
5.0703552226
 20
0.5368728067
 30
0.0
 10
5.0706701129
 20
0.5321680597
 30
0.0
 10
5.0711328859
 20
0.5266479668
 30
0.0
 10
5.0715241279
 20
0.5230894298
 30
0.0
 10
5.0717927971
 20
0.5210742457
 30
0.0
 10
5.0720581313
 20
0.5195020396
 30
0.0
 10
5.0722593519
 20
0.5186060151
 30
0.0
 10
5.0723699038
 20
0.5182368609
 30
0.0
  0
SPLINE
  5
40A
100
AcDbEntity
  8
0
100
AcDbSpline
 62
7
  6
CONTINUOUS
 70
0
 71
3
 72
10
 73
6
 74
0
 42
0.0000001
 43
0.0000001
 44
0.0000000001
 40
0.0
 40
0.0
 40
0.0
 40
0.0
 40
0.3893037312
 40
0.6799004802
 40
1.0
 40
1.0
 40
1.0
 40
1.0
 10
5.0723699038
 20
0.5182368609
 30
0.0
 10
5.072409717
 20
0.5181039168
 30
0.0
 10
5.072488705
 20
0.5178683093
 30
0.0
 10
5.0726233785
 20
0.5175608567
 30
0.0
 10
5.0727855013
 20
0.5173382346
 30
0.0
 10
5.072899554
 20
0.5173417859
 30
0.0
  0
SPLINE
  5
40B
100
AcDbEntity
  8
0
100
AcDbSpline
 62
7
  6
CONTINUOUS
 70
0
 71
3
 72
12
 73
8
 74
0
 42
0.0000001
 43
0.0000001
 44
0.0000000001
 40
0.0
 40
0.0
 40
0.0
 40
0.0
 40
0.0510542699
 40
0.1227528138
 40
0.3297436651
 40
0.6222191632
 40
1.0
 40
1.0
 40
1.0
 40
1.0
 10
5.0910036296
 20
0.9165069368
 30
0.0
 10
5.0910710102
 20
0.9163931466
 30
0.0
 10
5.0911939701
 20
0.9160976237
 30
0.0
 10
5.0914382822
 20
0.9152792797
 30
0.0
 10
5.091721682
 20
0.9138241667
 30
0.0
 10
5.0920488987
 20
0.9115760839
 30
0.0
 10
5.0922433378
 20
0.9098503264
 30
0.0
 10
5.0923442734
 20
0.9088769977
 30
0.0
  0
LINE
  5
40C
100
AcDbEntity
  8
0
100
AcDbLine
 62
7
  6
CONTINUOUS
 10
5.0923442734
 20
0.9088769977
 11
5.0934089249
 21
0.8952353018
  0
SPLINE
  5
40D
100
AcDbEntity
  8
0
100
AcDbSpline
 62
7
  6
CONTINUOUS
 70
0
 71
3
 72
13
 73
9
 74
0
 42
0.0000001
 43
0.0000001
 44
0.0000000001
 40
0.0
 40
0.0
 40
0.0
 40
0.0
 40
0.078280942
 40
0.1751863856
 40
0.2884911816
 40
0.4155785722
 40
0.6991502937
 40
1.0
 40
1.0
 40
1.0
 40
1.0
 10
5.0934089249
 20
0.8952353018
 30
0.0
 10
5.09373733
 20
0.8900141926
 30
0.0
 10
5.0943571104
 20
0.8783226433
 30
0.0
 10
5.0951996722
 20
0.8590614498
 30
0.0
 10
5.0960456429
 20
0.8365359817
 30
0.0
 10
5.0972201083
 20
0.8015397305
 30
0.0
 10
5.0986494582
 20
0.7540117608
 30
0.0
 10
5.0997155573
 20
0.7149700536
 30
0.0
 10
5.1003162051
 20
0.6948735803
 30
0.0
  0
SPLINE
  5
40E
100
AcDbEntity
  8
0
100
AcDbSpline
 62
7
  6
CONTINUOUS
 70
0
 71
3
 72
11
 73
7
 74
0
 42
0.0000001
 43
0.0000001
 44
0.0000000001
 40
0.0
 40
0.0
 40
0.0
 40
0.0
 40
0.148631414
 40
0.3639666356
 40
0.6476043741
 40
1.0
 40
1.0
 40
1.0
 40
1.0
 10
5.0275164058
 20
0.5161885952
 30
0.0
 10
5.0274308186
 20
0.5163377405
 30
0.0
 10
5.0272808993
 20
0.5167348924
 30
0.0
 10
5.0270897617
 20
0.5174587936
 30
0.0
 10
5.0268978321
 20
0.5184257928
 30
0.0
 10
5.0267816777
 20
0.5191523944
 30
0.0
 10
5.0267220393
 20
0.51955571
 30
0.0
  0
LINE
  5
40F
100
AcDbEntity
  8
0
100
AcDbLine
 62
7
  6
CONTINUOUS
 10
5.0267220393
 20
0.51955571
 11
5.0261880816
 21
0.5240569273
  0
LINE
  5
410
100
AcDbEntity
  8
0
100
AcDbLine
 62
7
  6
CONTINUOUS
 10
5.0261880816
 20
0.5240569273
 11
5.0251079225
 21
0.538270369
  0
SPLINE
  5
411
100
AcDbEntity
  8
0
100
AcDbSpline
 62
7
  6
CONTINUOUS
 70
0
 71
3
 72
17
 73
13
 74
0
 42
0.0000001
 43
0.0000001
 44
0.0000000001
 40
0.0
 40
0.0
 40
0.0
 40
0.0
 40
0.0398292157
 40
0.0882683849
 40
0.2071734467
 40
0.3478689227
 40
0.499881667
 40
0.6519007115
 40
0.7926227138
 40
0.9115949765
 40
0.960091865
 40
1.0
 40
1.0
 40
1.0
 40
1.0
 10
5.0251079225
 20
0.538270369
 30
0.0
 10
5.024813969
 20
0.5430234708
 30
0.0
 10
5.0242529298
 20
0.5535627062
 30
0.0
 10
5.0231639101
 20
0.5783095951
 30
0.0
 10
5.0218711776
 20
0.6151182305
 30
0.0
 10
5.0203794382
 20
0.6643101546
 30
0.0
 10
5.0188825637
 20
0.7174629553
 30
0.0
 10
5.0173859859
 20
0.7706189362
 30
0.0
 10
5.0158951483
 20
0.8198228538
 30
0.0
 10
5.0146037632
 20
0.8566496479
 30
0.0
 10
5.0135165291
 20
0.8814210099
 30
0.0
 10
5.0129565726
 20
0.8919766572
 30
0.0
 10
5.0126633466
 20
0.8967392578
 30
0.0
  0
SPLINE
  5
412
100
AcDbEntity
  8
0
100
AcDbSpline
 62
7
  6
CONTINUOUS
 70
0
 71
3
 72
13
 73
9
 74
0
 42
0.0000001
 43
0.0000001
 44
0.0000000001
 40
0.0
 40
0.0
 40
0.0
 40
0.0
 40
0.3689642119
 40
0.6601608919
 40
0.7756478252
 40
0.8708026846
 40
0.9455714681
 40
1.0
 40
1.0
 40
1.0
 40
1.0
 10
5.0126633466
 20
0.8967392578
 30
0.0
 10
5.0124993849
 20
0.8994023374
 30
0.0
 10
5.0121825746
 20
0.9041657419
 30
0.0
 10
5.011722821
 20
0.9097565066
 30
0.0
 10
5.0113423123
 20
0.9133655747
 30
0.0
 10
5.0110818903
 20
0.9154134267
 30
0.0
 10
5.0108230431
 20
0.9170149722
 30
0.0
 10
5.0106241037
 20
0.9179295013
 30
0.0
 10
5.0105132574
 20
0.918307164
 30
0.0
  0
SPLINE
  5
413
100
AcDbEntity
  8
0
100
AcDbSpline
 62
7
  6
CONTINUOUS
 70
0
 71
3
 72
10
 73
6
 74
0
 42
0.0000001
 43
0.0000001
 44
0.0000000001
 40
0.0
 40
0.0
 40
0.0
 40
0.0
 40
0.3832690884
 40
0.6718042466
 40
1.0
 40
1.0
 40
1.0
 40
1.0
 10
5.0105132574
 20
0.918307164
 30
0.0
 10
5.0104730764
 20
0.9184440641
 30
0.0
 10
5.0103931659
 20
0.9186867822
 30
0.0
 10
5.010251861
 20
0.9190111028
 30
0.0
 10
5.0100839859
 20
0.9192396227
 30
0.0
 10
5.0099618716
 20
0.9192434251
 30
0.0
  0
SPLINE
  5
414
100
AcDbEntity
  8
0
100
AcDbSpline
 62
7
  6
CONTINUOUS
 70
0
 71
3
 72
11
 73
7
 74
0
 42
0.0000001
 43
0.0000001
 44
0.0000000001
 40
0.0
 40
0.0
 40
0.0
 40
0.0
 40
0.3059245734
 40
0.5827745591
 40
0.8175429018
 40
1.0
 40
1.0
 40
1.0
 40
1.0
 10
5.2674876411
 20
0.7612675416
 30
0.0
 10
5.267102804
 20
0.7742489115
 30
0.0
 10
5.2663381305
 20
0.7989769731
 30
0.0
 10
5.2651610446
 20
0.8336634211
 30
0.0
 10
5.2639998577
 20
0.8631053031
 30
0.0
 10
5.2631268749
 20
0.880796813
 30
0.0
 10
5.2626467643
 20
0.8885275656
 30
0.0
  0
SPLINE
  5
415
100
AcDbEntity
  8
0
100
AcDbSpline
 62
7
  6
CONTINUOUS
 70
0
 71
3
 72
12
 73
8
 74
0
 42
0.0000001
 43
0.0000001
 44
0.0000000001
 40
0.0
 40
0.0
 40
0.0
 40
0.0
 40
0.3619135231
 40
0.6507006684
 40
0.8639681204
 40
0.9416548538
 40
1.0
 40
1.0
 40
1.0
 40
1.0
 10
5.2626467643
 20
0.8885275656
 30
0.0
 10
5.2624835453
 20
0.8911557214
 30
0.0
 10
5.2621682978
 20
0.8958799107
 30
0.0
 10
5.2616466877
 20
0.9021441662
 30
0.0
 10
5.2611921031
 20
0.906339511
 30
0.0
 10
5.2608013151
 20
0.9088509058
 30
0.0
 10
5.2606030662
 20
0.909821691
 30
0.0
 10
5.2604958318
 20
0.9102324326
 30
0.0
  0
LINE
  5
416
100
AcDbEntity
  8
0
100
AcDbLine
 62
7
  6
CONTINUOUS
 10
5.2604958318
 20
0.9102324326
 11
5.2599581312
 21
0.9114284787
  0
SPLINE
  5
417
100
AcDbEntity
  8
0
100
AcDbSpline
 62
7
  6
CONTINUOUS
 70
0
 71
3
 72
12
 73
8
 74
0
 42
0.0000001
 43
0.0000001
 44
0.0000000001
 40
0.0
 40
0.0
 40
0.0
 40
0.0
 40
0.0509184579
 40
0.122544067
 40
0.3295065939
 40
0.6220598871
 40
1.0
 40
1.0
 40
1.0
 40
1.0
 10
5.063246512
 20
0.5172763756
 30
0.0
 10
5.063178311
 20
0.517393545
 30
0.0
 10
5.0630539885
 20
0.5176975081
 30
0.0
 10
5.0628066286
 20
0.518539139
 30
0.0
 10
5.0625194201
 20
0.520035511
 30
0.0
 10
5.0621875404
 20
0.5223475618
 30
0.0
 10
5.0619903927
 20
0.5241224154
 30
0.0
 10
5.0618880889
 20
0.5251234873
 30
0.0
  0
LINE
  5
418
100
AcDbEntity
  8
0
100
AcDbLine
 62
7
  6
CONTINUOUS
 10
5.0618880889
 20
0.5251234873
 11
5.0608038299
 21
0.5392582591
  0
SPLINE
  5
419
100
AcDbEntity
  8
0
100
AcDbSpline
 62
7
  6
CONTINUOUS
 70
0
 71
3
 72
17
 73
13
 74
0
 42
0.0000001
 43
0.0000001
 44
0.0000000001
 40
0.0
 40
0.0
 40
0.0
 40
0.0
 40
0.0398290604
 40
0.0882682968
 40
0.2071733371
 40
0.3478686191
 40
0.4998811113
 40
0.6518999894
 40
0.792621946
 40
0.9115949056
 40
0.960092227
 40
1.0
 40
1.0
 40
1.0
 40
1.0
 10
5.0608038299
 20
0.5392582591
 30
0.0
 10
5.0605120394
 20
0.5439852009
 30
0.0
 10
5.0599555856
 20
0.5544664539
 30
0.0
 10
5.0588642262
 20
0.579076665
 30
0.0
 10
5.0575703794
 20
0.6156823161
 30
0.0
 10
5.0560798048
 20
0.6646030658
 30
0.0
 10
5.0545825203
 20
0.7174628396
 30
0.0
 10
5.0530856518
 20
0.7703257971
 30
0.0
 10
5.0515958012
 20
0.8192585834
 30
0.0
 10
5.0503034573
 20
0.8558824425
 30
0.0
 10
5.0492142555
 20
0.8805171168
 30
0.0
 10
5.0486582193
 20
0.8910146776
 30
0.0
 10
5.0483668432
 20
0.8957510221
 30
0.0
  0
SPLINE
  5
41A
100
AcDbEntity
  8
0
100
AcDbSpline
 62
7
  6
CONTINUOUS
 70
0
 71
3
 72
13
 73
9
 74
0
 42
0.0000001
 43
0.0000001
 44
0.0000000001
 40
0.0
 40
0.0
 40
0.0
 40
0.0
 40
0.368876453
 40
0.660043181
 40
0.7755503645
 40
0.8707435618
 40
0.9455540306
 40
1.0
 40
1.0
 40
1.0
 40
1.0
 10
5.0483668432
 20
0.8957510221
 30
0.0
 10
5.0482039121
 20
0.898399483
 30
0.0
 10
5.0478886837
 20
0.9031369907
 30
0.0
 10
5.0474264252
 20
0.9086973601
 30
0.0
 10
5.0470368636
 20
0.9122865245
 30
0.0
 10
5.0467693071
 20
0.9143232374
 30
0.0
 10
5.0465048616
 20
0.9159159768
 30
0.0
 10
5.0463041523
 20
0.9168253852
 30
0.0
 10
5.0461939266
 20
0.9172012049
 30
0.0
  0
SPLINE
  5
41B
100
AcDbEntity
  8
0
100
AcDbSpline
 62
7
  6
CONTINUOUS
 70
0
 71
3
 72
11
 73
7
 74
0
 42
0.0000001
 43
0.0000001
 44
0.0000000001
 40
0.0
 40
0.0
 40
0.0
 40
0.0
 40
0.3832932392
 40
0.6709186353
 40
0.8693480704
 40
1.0
 40
1.0
 40
1.0
 40
1.0
 10
5.0461939266
 20
0.9172012049
 30
0.0
 10
5.0461540241
 20
0.9173372543
 30
0.0
 10
5.0460784577
 20
0.9175739149
 30
0.0
 10
5.0459475537
 20
0.9178688243
 30
0.0
 10
5.0458243496
 20
0.9180616551
 30
0.0
 10
5.0457101647
 20
0.9181303008
 30
0.0
 10
5.0456618599
 20
0.9181318049
 30
0.0
  0
SPLINE
  5
41C
100
AcDbEntity
  8
0
100
AcDbSpline
 62
7
  6
CONTINUOUS
 70
0
 71
3
 72
10
 73
6
 74
0
 42
0.0000001
 43
0.0000001
 44
0.0000000001
 40
0.0
 40
0.0
 40
0.0
 40
0.0
 40
0.1510570593
 40
0.3672752277
 40
1.0
 40
1.0
 40
1.0
 40
1.0
 10
5.0989039187
 20
0.5184308198
 30
0.0
 10
5.0988204875
 20
0.5185808353
 30
0.0
 10
5.0986729676
 20
0.5189744674
 30
0.0
 10
5.0983840675
 20
0.5200729922
 30
0.0
 10
5.0982282869
 20
0.5210275573
 30
0.0
 10
5.0981219752
 20
0.5217386561
 30
0.0
  0
LINE
  5
41D
100
AcDbEntity
  8
0
100
AcDbLine
 62
7
  6
CONTINUOUS
 10
5.0981219752
 20
0.5217386561
 11
5.0975881047
 21
0.5261900481
  0
LINE
  5
41E
100
AcDbEntity
  8
0
100
AcDbLine
 62
7
  6
CONTINUOUS
 10
5.0975881047
 20
0.5261900481
 11
5.0965079593
 21
0.5402464718
  0
SPLINE
  5
41F
100
AcDbEntity
  8
0
100
AcDbSpline
 62
7
  6
CONTINUOUS
 70
0
 71
3
 72
17
 73
13
 74
0
 42
0.0000001
 43
0.0000001
 44
0.0000000001
 40
0.0
 40
0.0
 40
0.0
 40
0.0
 40
0.0398295743
 40
0.0882688492
 40
0.2071736745
 40
0.3478685552
 40
0.4998805426
 40
0.6518989276
 40
0.7926206206
 40
0.9115936075
 40
0.9600912572
 40
1.0
 40
1.0
 40
1.0
 40
1.0
 10
5.0965079593
 20
0.5402464718
 30
0.0
 10
5.0962139917
 20
0.544947073
 30
0.0
 10
5.0956529202
 20
0.5553699813
 30
0.0
 10
5.0945639037
 20
0.5798438588
 30
0.0
 10
5.0932711782
 20
0.6162465836
 30
0.0
 10
5.0917793855
 20
0.6648961186
 30
0.0
 10
5.0902826312
 20
0.7174629037
 30
0.0
 10
5.088785734
 20
0.7700328561
 30
0.0
 10
5.0872955491
 20
0.8186944307
 30
0.0
 10
5.0860035681
 20
0.8551153303
 30
0.0
 10
5.0849151375
 20
0.8796135716
 30
0.0
 10
5.0843575873
 20
0.890052942
 30
0.0
 10
5.0840654991
 20
0.8947630399
 30
0.0
  0
SPLINE
  5
420
100
AcDbEntity
  8
0
100
AcDbSpline
 62
7
  6
CONTINUOUS
 70
0
 71
3
 72
13
 73
9
 74
0
 42
0.0000001
 43
0.0000001
 44
0.0000000001
 40
0.0
 40
0.0
 40
0.0
 40
0.0
 40
0.3688870142
 40
0.6600544201
 40
0.7755538749
 40
0.8707368917
 40
0.9455417518
 40
1.0
 40
1.0
 40
1.0
 40
1.0
 10
5.0840654991
 20
0.8947630399
 30
0.0
 10
5.0839021677
 20
0.8973968568
 30
0.0
 10
5.0835863228
 20
0.9021081047
 30
0.0
 10
5.0831250334
 20
0.907637603
 30
0.0
 10
5.0827389836
 20
0.9112069377
 30
0.0
 10
5.0824741854
 20
0.9132323979
 30
0.0
 10
5.0822119023
 20
0.9148164094
 30
0.0
 10
5.0820118751
 20
0.9157208177
 30
0.0
 10
5.0819014336
 20
0.9160944086
 30
0.0
  0
SPLINE
  5
421
100
AcDbEntity
  8
0
100
AcDbSpline
 62
7
  6
CONTINUOUS
 70
0
 71
3
 72
10
 73
6
 74
0
 42
0.0000001
 43
0.0000001
 44
0.0000000001
 40
0.0
 40
0.0
 40
0.0
 40
0.0
 40
0.3849641143
 40
0.6743819251
 40
1.0
 40
1.0
 40
1.0
 40
1.0
 10
5.0819014336
 20
0.9160944086
 30
0.0
 10
5.0818614163
 20
0.9162297754
 30
0.0
 10
5.0817822194
 20
0.9164699664
 30
0.0
 10
5.0816430523
 20
0.9167884538
 30
0.0
 10
5.0814812203
 20
0.9170164678
 30
0.0
 10
5.0813618811
 20
0.9170201837
 30
0.0
  0
SPLINE
  5
422
100
AcDbEntity
  8
0
100
AcDbSpline
 62
7
  6
CONTINUOUS
 70
0
 71
3
 72
15
 73
11
 74
0
 42
0.0000001
 43
0.0000001
 44
0.0000000001
 40
0.0
 40
0.0
 40
0.0
 40
0.0
 40
0.0289934388
 40
0.0515744528
 40
0.0808407706
 40
0.1608437573
 40
0.2703217729
 40
0.4092853446
 40
0.5774727753
 40
1.0
 40
1.0
 40
1.0
 40
1.0
 10
5.0126435907
 20
0.5344720946
 30
0.0
 10
5.0125611841
 20
0.5344713401
 30
0.0
 10
5.0124297656
 20
0.5345816225
 30
0.0
 10
5.0123134699
 20
0.5347734445
 30
0.0
 10
5.0121558234
 20
0.5351171439
 30
0.0
 10
5.0119768954
 20
0.5357126895
 30
0.0
 10
5.0117704881
 20
0.5366239549
 30
0.0
 10
5.0115637183
 20
0.5377901395
 30
0.0
 10
5.0112617151
 20
0.5398422796
 30
0.0
 10
5.0110721395
 20
0.5415109902
 30
0.0
 10
5.0109475513
 20
0.5427054885
 30
0.0
  0
SPLINE
  5
423
100
AcDbEntity
  8
0
100
AcDbSpline
 62
7
  6
CONTINUOUS
 70
0
 71
3
 72
32
 73
28
 74
0
 42
0.0000001
 43
0.0000001
 44
0.0000000001
 40
0.0
 40
0.0
 40
0.0
 40
0.0
 40
0.0151449443
 40
0.0338015467
 40
0.0811498843
 40
0.1410005488
 40
0.2114929119
 40
0.2902377726
 40
0.3749245836
 40
0.4631341412
 40
0.5521351328
 40
0.6391973897
 40
0.7216610217
 40
0.7970716327
 40
0.8314081955
 40
0.8631583024
 40
0.8920890774
 40
0.9179686658
 40
0.9405940164
 40
0.9598001229
 40
0.9754261995
 40
0.9818493928
 40
0.9873354609
 40
0.9918862345
 40
0.9955056119
 40
0.9982023538
 40
1.0
 40
1.0
 40
1.0
 40
1.0
 10
5.0109475513
 20
0.5427054885
 30
0.0
 10
5.0107599722
 20
0.5445039159
 30
0.0
 10
5.0104016157
 20
0.5485240011
 30
0.0
 10
5.0096960106
 20
0.5581870801
 30
0.0
 10
5.0088541244
 20
0.5731904683
 30
0.0
 10
5.0078941659
 20
0.5943837117
 30
0.0
 10
5.006928572
 20
0.6193285846
 30
0.0
 10
5.0059561979
 20
0.6472403026
 30
0.0
 10
5.0049812896
 20
0.6772684205
 30
0.0
 10
5.0040055198
 20
0.7085216099
 30
0.0
 10
5.0030302409
 20
0.7400585589
 30
0.0
 10
5.002056926
 20
0.7709092269
 30
0.0
 10
5.0010830712
 20
0.8001364543
 30
0.0
 10
5.0002504076
 20
0.8230698224
 30
0.0
 10
4.9995734955
 20
0.8399499035
 30
0.0
 10
4.9990825815
 20
0.8512836115
 30
0.0
 10
4.9985926981
 20
0.8616066525
 30
0.0
 10
4.9981035735
 20
0.8708389524
 30
0.0
 10
4.9976157038
 20
0.8789084954
 30
0.0
 10
4.9971299276
 20
0.8857513332
 30
0.0
 10
4.9967068127
 20
0.8906591417
 30
0.0
 10
4.9963568714
 20
0.8939280292
 30
0.0
 10
4.9961127027
 20
0.8958782661
 30
0.0
 10
4.9958698371
 20
0.8974903915
 30
0.0
 10
4.9956302844
 20
0.8987668789
 30
0.0
 10
4.9953934985
 20
0.8997049586
 30
0.0
 10
4.9952089432
 20
0.9002142399
 30
0.0
 10
4.9951012281
 20
0.9003998769
 30
0.0
  0
SPLINE
  5
424
100
AcDbEntity
  8
0
100
AcDbSpline
 62
7
  6
CONTINUOUS
 70
0
 71
3
 72
14
 73
10
 74
0
 42
0.0000001
 43
0.0000001
 44
0.0000000001
 40
0.0
 40
0.0
 40
0.0
 40
0.0
 40
0.0269255954
 40
0.0489628188
 40
0.0778593329
 40
0.157392202
 40
0.2668200299
 40
0.5751692064
 40
1.0
 40
1.0
 40
1.0
 40
1.0
 10
5.0349782622
 20
0.899577468
 30
0.0
 10
5.035076154
 20
0.8995772427
 30
0.0
 10
5.0352262233
 20
0.8994267281
 30
0.0
 10
5.0353555004
 20
0.8991852923
 30
0.0
 10
5.0355360619
 20
0.898741028
 30
0.0
 10
5.0357400022
 20
0.8979768451
 30
0.0
 10
5.0360955193
 20
0.8962020823
 30
0.0
 10
5.0365009532
 20
0.8931643862
 30
0.0
 10
5.036771988
 20
0.8905124603
 30
0.0
 10
5.0369141927
 20
0.8889744848
 30
0.0
  0
SPLINE
  5
425
100
AcDbEntity
  8
0
100
AcDbSpline
 62
7
  6
CONTINUOUS
 70
0
 71
3
 72
27
 73
23
 74
0
 42
0.0000001
 43
0.0000001
 44
0.0000000001
 40
0.0
 40
0.0
 40
0.0
 40
0.0
 40
0.0359198144
 40
0.0843179808
 40
0.1441524971
 40
0.213731561
 40
0.29087728
 40
0.3734467428
 40
0.4592643505
 40
0.545909664
 40
0.6308974686
 40
0.7117576624
 40
0.7862226614
 40
0.8523532205
 40
0.9082748457
 40
0.9318340054
 40
0.9522037326
 40
0.9692864787
 40
0.9829941298
 40
0.9932455056
 40
0.9970601886
 40
1.0
 40
1.0
 40
1.0
 40
1.0
 10
5.0369141927
 20
0.8889744848
 30
0.0
 10
5.0373029381
 20
0.8847701149
 30
0.0
 10
5.0379989405
 20
0.8748815397
 30
0.0
 10
5.038920249
 20
0.857961854
 30
0.0
 10
5.0398450588
 20
0.8370805027
 30
0.0
 10
5.0407772648
 20
0.8128177546
 30
0.0
 10
5.0417150501
 20
0.785880928
 30
0.0
 10
5.0426559561
 20
0.7570343648
 30
0.0
 10
5.0435970529
 20
0.7270705788
 30
0.0
 10
5.0445382243
 20
0.6968223905
 30
0.0
 10
5.0454781449
 20
0.6671571771
 30
0.0
 10
5.046417754
 20
0.638924469
 30
0.0
 10
5.047356834
 20
0.6129096586
 30
0.0
 10
5.0482906241
 20
0.5898282629
 30
0.0
 10
5.0490981453
 20
0.5727306946
 30
0.0
 10
5.0497658335
 20
0.5610123366
 30
0.0
 10
5.050237335
 20
0.5538559884
 30
0.0
 10
5.0507052054
 20
0.5478600735
 30
0.0
 10
5.0511697834
 20
0.5430581245
 30
0.0
 10
5.0515759362
 20
0.5398171826
 30
0.0
 10
5.05192157
 20
0.5378480541
 30
0.0
 10
5.0520968604
 20
0.5370728196
 30
0.0
 10
5.0521902691
 20
0.5367401143
 30
0.0
  0
LINE
  5
426
100
AcDbEntity
  8
0
100
AcDbLine
 62
7
  6
CONTINUOUS
 10
5.0522384625
 20
0.5365749252
 11
5.0525207404
 21
0.5358680175
  0
SPLINE
  5
427
100
AcDbEntity
  8
0
100
AcDbSpline
 62
7
  6
CONTINUOUS
 70
0
 71
3
 72
15
 73
11
 74
0
 42
0.0000001
 43
0.0000001
 44
0.0000000001
 40
0.0
 40
0.0
 40
0.0
 40
0.0
 40
0.0262838889
 40
0.0481800323
 40
0.0770370336
 40
0.1131405964
 40
0.1566180336
 40
0.2658841934
 40
0.5738578617
 40
1.0
 40
1.0
 40
1.0
 40
1.0
 10
5.0483666225
 20
0.5356083766
 30
0.0
 10
5.0482651237
 20
0.5356040559
 30
0.0
 10
5.0481054256
 20
0.5357642455
 30
0.0
 10
5.0479728687
 20
0.536018472
 30
0.0
 10
5.0478461774
 20
0.5363341913
 30
0.0
 10
5.0477232948
 20
0.5367336728
 30
0.0
 10
5.0475424118
 20
0.5374417078
 30
0.0
 10
5.0472018091
 20
0.5391900597
 30
0.0
 10
5.0467734871
 20
0.5424237767
 30
0.0
 10
5.0464918986
 20
0.5452471049
 30
0.0
 10
5.0463434288
 20
0.5468874947
 30
0.0
  0
SPLINE
  5
428
100
AcDbEntity
  8
0
100
AcDbSpline
 62
7
  6
CONTINUOUS
 70
0
 71
3
 72
27
 73
23
 74
0
 42
0.0000001
 43
0.0000001
 44
0.0000000001
 40
0.0
 40
0.0
 40
0.0
 40
0.0
 40
0.0365323313
 40
0.0856677001
 40
0.145928451
 40
0.2155026665
 40
0.2925282211
 40
0.3750070043
 40
0.4605788871
 40
0.5468103915
 40
0.6312617183
 40
0.7116489192
 40
0.785875152
 40
0.8518156139
 40
0.9073984749
 40
0.9308613117
 40
0.9512747508
 40
0.9685170284
 40
0.9824636267
 40
0.9929929044
 40
0.9969418907
 40
1.0
 40
1.0
 40
1.0
 40
1.0
 10
5.0463434288
 20
0.5468874947
 30
0.0
 10
5.0459572022
 20
0.5511547719
 30
0.0
 10
5.0452620401
 20
0.5611798479
 30
0.0
 10
5.0443506338
 20
0.5782708232
 30
0.0
 10
5.0434299093
 20
0.5992416187
 30
0.0
 10
5.0424992397
 20
0.6234855597
 30
0.0
 10
5.0415653711
 20
0.6503370185
 30
0.0
 10
5.0406321272
 20
0.6790658075
 30
0.0
 10
5.0396976271
 20
0.708874828
 30
0.0
 10
5.0387625306
 20
0.73891529
 30
0.0
 10
5.0378274771
 20
0.7683473709
 30
0.0
 10
5.0368934481
 20
0.7963707025
 30
0.0
 10
5.0359635102
 20
0.822221856
 30
0.0
 10
5.0350398899
 20
0.8451619694
 30
0.0
 10
5.0342357055
 20
0.8621480514
 30
0.0
 10
5.0335724947
 20
0.873794436
 30
0.0
 10
5.0331052756
 20
0.8809475855
 30
0.0
 10
5.0326419862
 20
0.8869823681
 30
0.0
 10
5.0321820287
 20
0.8918536463
 30
0.0
 10
5.0317802107
 20
0.8951645676
 30
0.0
 10
5.0314387962
 20
0.897193014
 30
0.0
 10
5.0312652435
 20
0.8979970796
 30
0.0
 10
5.0311728947
 20
0.8983436596
 30
0.0
  0
LINE
  5
429
100
AcDbEntity
  8
0
100
AcDbLine
 62
7
  6
CONTINUOUS
 10
5.0311248395
 20
0.898517384
 11
5.0308116437
 21
0.8993261725
  0
SPLINE
  5
42A
100
AcDbEntity
  8
0
100
AcDbSpline
 62
7
  6
CONTINUOUS
 70
0
 71
3
 72
15
 73
11
 74
0
 42
0.0000001
 43
0.0000001
 44
0.0000000001
 40
0.0
 40
0.0
 40
0.0
 40
0.0
 40
0.0295175652
 40
0.0521855855
 40
0.0813827461
 40
0.1607096034
 40
0.2690191479
 40
0.406862259
 40
0.5745286002
 40
1.0
 40
1.0
 40
1.0
 40
1.0
 10
5.0706700576
 20
0.8984134513
 30
0.0
 10
5.0707533895
 20
0.8984133174
 30
0.0
 10
5.0708857426
 20
0.8983047155
 30
0.0
 10
5.071004745
 20
0.8981140877
 30
0.0
 10
5.071164203
 20
0.8977763094
 30
0.0
 10
5.0713463948
 20
0.8971916324
 30
0.0
 10
5.0715562166
 20
0.8962962552
 30
0.0
 10
5.0717663868
 20
0.8951468388
 30
0.0
 10
5.0720743474
 20
0.8931060467
 30
0.0
 10
5.0722658945
 20
0.891442048
 30
0.0
 10
5.0723915792
 20
0.8902474791
 30
0.0
  0
SPLINE
  5
42B
100
AcDbEntity
  8
0
100
AcDbSpline
 62
7
  6
CONTINUOUS
 70
0
 71
3
 72
31
 73
27
 74
0
 42
0.0000001
 43
0.0000001
 44
0.0000000001
 40
0.0
 40
0.0
 40
0.0
 40
0.0
 40
0.015087599
 40
0.0337335993
 40
0.0809076313
 40
0.1399638378
 40
0.2094078749
 40
0.287289689
 40
0.3711101142
 40
0.4583688222
 40
0.5465639627
 40
0.6330885181
 40
0.7153520455
 40
0.7908951634
 40
0.8254259894
 40
0.8574597846
 40
0.886749343
 40
0.9130680313
 40
0.9362445141
 40
0.956117362
 40
0.9725285169
 40
0.9853591951
 40
0.99040685
 40
0.9945314197
 40
0.9977279957
 40
1.0
 40
1.0
 40
1.0
 40
1.0
 10
5.0723915792
 20
0.8902474791
 30
0.0
 10
5.0725775841
 20
0.8884795977
 30
0.0
 10
5.0729316471
 20
0.8845204494
 30
0.0
 10
5.0736268811
 20
0.8750130404
 30
0.0
 10
5.0744552275
 20
0.8603224945
 30
0.0
 10
5.0754082444
 20
0.8396462365
 30
0.0
 10
5.0763653904
 20
0.8153487224
 30
0.0
 10
5.077326619
 20
0.7881317282
 30
0.0
 10
5.0782904701
 20
0.7588146598
 30
0.0
 10
5.0792558394
 20
0.7282819008
 30
0.0
 10
5.0802229446
 20
0.6974304355
 30
0.0
 10
5.0811893181
 20
0.6671677731
 30
0.0
 10
5.0821527023
 20
0.6383964786
 30
0.0
 10
5.0829763018
 20
0.6157499427
 30
0.0
 10
5.083647627
 20
0.5990200762
 30
0.0
 10
5.084135361
 20
0.5877369313
 30
0.0
 10
5.0846221403
 20
0.5774222852
 30
0.0
 10
5.0851078519
 20
0.5681524245
 30
0.0
 10
5.0855920543
 20
0.5599936925
 30
0.0
 10
5.0860734692
 20
0.5530043264
 30
0.0
 10
5.0865527156
 20
0.5472373653
 30
0.0
 10
5.0869724052
 20
0.543218314
 30
0.0
 10
5.0873233277
 20
0.540649682
 30
0.0
 10
5.08756283
 20
0.5392115499
 30
0.0
 10
5.087799943
 20
0.5381066404
 30
0.0
 10
5.0879822417
 20
0.5374861461
 30
0.0
 10
5.0880844822
 20
0.5372387497
 30
0.0
  0
SPLINE
  5
42C
100
AcDbEntity
  8
0
100
AcDbSpline
 62
7
  6
CONTINUOUS
 70
0
 71
3
 72
14
 73
10
 74
0
 42
0.0000001
 43
0.0000001
 44
0.0000000001
 40
0.0
 40
0.0
 40
0.0
 40
0.0
 40
0.0311230499
 40
0.0544984283
 40
0.0843547067
 40
0.1649198963
 40
0.2741993576
 40
0.5795625676
 40
1.0
 40
1.0
 40
1.0
 40
1.0
 10
5.0840426129
 20
0.5367211522
 30
0.0
 10
5.0839660132
 20
0.5367234774
 30
0.0
 10
5.0838457693
 20
0.5368193527
 30
0.0
 10
5.0837344698
 20
0.5369901469
 30
0.0
 10
5.0835880812
 20
0.5372881181
 30
0.0
 10
5.0834198104
 20
0.5378027813
 30
0.0
 10
5.0831290697
 20
0.5389878814
 30
0.0
 10
5.0827944806
 20
0.5410186658
 30
0.0
 10
5.0825723958
 20
0.5427918984
 30
0.0
 10
5.0824559271
 20
0.5438205794
 30
0.0
  0
SPLINE
  5
42D
100
AcDbEntity
  8
0
100
AcDbSpline
 62
7
  6
CONTINUOUS
 70
0
 71
3
 72
29
 73
25
 74
0
 42
0.0000001
 43
0.0000001
 44
0.0000000001
 40
0.0
 40
0.0
 40
0.0
 40
0.0
 40
0.0141335453
 40
0.0318049132
 40
0.0771850294
 40
0.1348498518
 40
0.2031048585
 40
0.2799313717
 40
0.3630180177
 40
0.4498921331
 40
0.5379464097
 40
0.624593525
 40
0.7073463928
 40
0.7837029977
 40
0.8512090994
 40
0.8810583341
 40
0.9080599931
 40
0.9320286898
 40
0.9527674087
 40
0.970076913
 40
0.9837625485
 40
0.9937230661
 40
0.9973169474
 40
1.0
 40
1.0
 40
1.0
 40
1.0
 10
5.0824559271
 20
0.5438205794
 30
0.0
 10
5.0822682077
 20
0.5454785645
 30
0.0
 10
5.0819114105
 20
0.5492168953
 30
0.0
 10
5.0812117181
 20
0.5583024947
 30
0.0
 10
5.0803818787
 20
0.5725308051
 30
0.0
 10
5.0794299974
 20
0.5927317538
 30
0.0
 10
5.0784713064
 20
0.6166485692
 30
0.0
 10
5.077509524
 20
0.6435684973
 30
0.0
 10
5.0765455243
 20
0.6726877832
 30
0.0
 10
5.0755785891
 20
0.7031331743
 30
0.0
 10
5.0746115383
 20
0.7339991123
 30
0.0
 10
5.073646363
 20
0.7643783232
 30
0.0
 10
5.0726826512
 20
0.7933758692
 30
0.0
 10
5.0717220518
 20
0.8201124399
 30
0.0
 10
5.0708941292
 20
0.8406039471
 30
0.0
 10
5.0702177291
 20
0.8552697427
 30
0.0
 10
5.069732381
 20
0.8647988268
 30
0.0
 10
5.0692486045
 20
0.8732509295
 30
0.0
 10
5.0687666411
 20
0.8805566751
 30
0.0
 10
5.0682897264
 20
0.8866461062
 30
0.0
 10
5.0678160193
 20
0.8914578305
 30
0.0
 10
5.0674004144
 20
0.8946489416
 30
0.0
 10
5.067043134
 20
0.896532511
 30
0.0
 10
5.0668621502
 20
0.8972524277
 30
0.0
 10
5.0667642061
 20
0.8975536605
 30
0.0
  0
LINE
  5
42E
100
AcDbEntity
  8
0
100
AcDbLine
 62
7
  6
CONTINUOUS
 10
5.0667642061
 20
0.8975536605
 11
5.0665188318
 21
0.8981425996
  0
SPLINE
  5
42F
100
AcDbEntity
  8
0
100
AcDbSpline
 62
7
  6
CONTINUOUS
 70
0
 71
3
 72
14
 73
10
 74
0
 42
0.0000001
 43
0.0000001
 44
0.0000000001
 40
0.0
 40
0.0
 40
0.0
 40
0.0
 40
0.026740132
 40
0.0488472042
 40
0.077868377
 40
0.1576198146
 40
0.2669536788
 40
0.5746415478
 40
1.0
 40
1.0
 40
1.0
 40
1.0
 10
5.1063586363
 20
0.8973526629
 30
0.0
 10
5.1064615533
 20
0.8973535891
 30
0.0
 10
5.1066192422
 20
0.8971913992
 30
0.0
 10
5.1067535847
 20
0.8969353034
 30
0.0
 10
5.1069426273
 20
0.8964620471
 30
0.0
 10
5.1071557583
 20
0.8956516534
 30
0.0
 10
5.1075284466
 20
0.8937739915
 30
0.0
 10
5.1079539939
 20
0.8905586394
 30
0.0
 10
5.1082372252
 20
0.8877512085
 30
0.0
 10
5.108385763
 20
0.8861207805
 30
0.0
  0
SPLINE
  5
430
100
AcDbEntity
  8
0
100
AcDbSpline
 62
7
  6
CONTINUOUS
 70
0
 71
3
 72
14
 73
10
 74
0
 42
0.0000001
 43
0.0000001
 44
0.0000000001
 40
0.0
 40
0.0
 40
0.0
 40
0.0
 40
0.0670201773
 40
0.1569036025
 40
0.2669828402
 40
0.3941633385
 40
0.5349991221
 40
0.685743868
 40
1.0
 40
1.0
 40
1.0
 40
1.0
 10
5.108385763
 20
0.8861207805
 30
0.0
 10
5.1087692888
 20
0.8819110026
 30
0.0
 10
5.1094580412
 20
0.8720369664
 30
0.0
 10
5.1103674657
 20
0.8552220228
 30
0.0
 10
5.1112848557
 20
0.8346079361
 30
0.0
 10
5.1122091097
 20
0.8107779447
 30
0.0
 10
5.1131379463
 20
0.7843814122
 30
0.0
 10
5.1143978791
 20
0.7461898054
 30
0.0
 10
5.1153114539
 20
0.7168746883
 30
0.0
 10
5.1159413858
 20
0.6970633966
 30
0.0
  0
SPLINE
  5
431
100
AcDbEntity
  8
0
100
AcDbSpline
 62
7
  6
CONTINUOUS
 70
0
 71
3
 72
15
 73
11
 74
0
 42
0.0000001
 43
0.0000001
 44
0.0000000001
 40
0.0
 40
0.0
 40
0.0
 40
0.0
 40
0.0305255465
 40
0.0533759221
 40
0.0826886394
 40
0.1621866701
 40
0.2706328718
 40
0.4085122976
 40
0.5760065253
 40
1.0
 40
1.0
 40
1.0
 40
1.0
 10
5.1420587035
 20
0.8962159815
 30
0.0
 10
5.1421347646
 20
0.8962198071
 30
0.0
 10
5.1422613483
 20
0.8961311694
 30
0.0
 10
5.1423750489
 20
0.8959635386
 30
0.0
 10
5.1425257941
 20
0.8956688148
 30
0.0
 10
5.1426980985
 20
0.8951541253
 30
0.0
 10
5.1428963407
 20
0.8943652183
 30
0.0
 10
5.1430949559
 20
0.8933517787
 30
0.0
 10
5.143385717
 20
0.8915552809
 30
0.0
 10
5.1435670565
 20
0.8900902832
 30
0.0
 10
5.1436861189
 20
0.8890391966
 30
0.0
  0
SPLINE
  5
432
100
AcDbEntity
  8
0
100
AcDbSpline
 62
7
  6
CONTINUOUS
 70
0
 71
3
 72
29
 73
25
 74
0
 42
0.0000001
 43
0.0000001
 44
0.0000000001
 40
0.0
 40
0.0
 40
0.0
 40
0.0
 40
0.0142218765
 40
0.0319655902
 40
0.0774602641
 40
0.1351649134
 40
0.2033415497
 40
0.2800046733
 40
0.3629168231
 40
0.4496409887
 40
0.5375952386
 40
0.6241321068
 40
0.7066681895
 40
0.7829238944
 40
0.8506467438
 40
0.8805855094
 40
0.9075611563
 40
0.9314341679
 40
0.9520857678
 40
0.9693974496
 40
0.9832396522
 40
0.9934777418
 40
0.9972084025
 40
1.0
 40
1.0
 40
1.0
 40
1.0
 10
5.1436861189
 20
0.8890391966
 30
0.0
 10
5.1438727017
 20
0.8873920371
 30
0.0
 10
5.1442273128
 20
0.8836825774
 30
0.0
 10
5.1449249456
 20
0.8746806653
 30
0.0
 10
5.1457522629
 20
0.8606069473
 30
0.0
 10
5.1466986393
 20
0.8406538638
 30
0.0
 10
5.1476530745
 20
0.8170645257
 30
0.0
 10
5.1486142845
 20
0.7905352829
 30
0.0
 10
5.1495763655
 20
0.7618428656
 30
0.0
 10
5.1505388948
 20
0.7318336945
 30
0.0
 10
5.1515034151
 20
0.7014018777
 30
0.0
 10
5.1524678902
 20
0.6714584668
 30
0.0
 10
5.1534309238
 20
0.6428793026
 30
0.0
 10
5.1543910896
 20
0.6164943221
 30
0.0
 10
5.1552162457
 20
0.5962392865
 30
0.0
 10
5.1558915775
 20
0.5817272973
 30
0.0
 10
5.1563771127
 20
0.5723232473
 30
0.0
 10
5.156861282
 20
0.5640031888
 30
0.0
 10
5.1573439122
 20
0.5568117227
 30
0.0
 10
5.157822185
 20
0.5507918229
 30
0.0
 10
5.1582971426
 20
0.5459907912
 30
0.0
 10
5.1587112467
 20
0.5427737268
 30
0.0
 10
5.1590669485
 20
0.5408526568
 30
0.0
 10
5.1592475919
 20
0.5401129143
 30
0.0
 10
5.1593457441
 20
0.5398026841
 30
0.0
  0
LINE
  5
433
100
AcDbEntity
  8
0
100
AcDbLine
 62
7
  6
CONTINUOUS
 10
5.1593457441
 20
0.5398026841
 11
5.1595994582
 21
0.5391838421
  0
SPLINE
  5
434
100
AcDbEntity
  8
0
100
AcDbSpline
 62
7
  6
CONTINUOUS
 70
0
 71
3
 72
14
 73
10
 74
0
 42
0.0000001
 43
0.0000001
 44
0.0000000001
 40
0.0
 40
0.0
 40
0.0
 40
0.0
 40
0.0270160649
 40
0.0491044936
 40
0.0780482331
 40
0.1576396206
 40
0.2670520768
 40
0.5752673311
 40
1.0
 40
1.0
 40
1.0
 40
1.0
 10
5.1777758848
 20
0.8951284259
 30
0.0
 10
5.1778763151
 20
0.8951280343
 30
0.0
 10
5.1780300851
 20
0.8949737421
 30
0.0
 10
5.1781627673
 20
0.8947263312
 30
0.0
 10
5.1783478635
 20
0.8942716423
 30
0.0
 10
5.1785570412
 20
0.8934900819
 30
0.0
 10
5.1789216562
 20
0.8916759489
 30
0.0
 10
5.1793374823
 20
0.888570977
 30
0.0
 10
5.1796153496
 20
0.8858603199
 30
0.0
 10
5.1797611365
 20
0.8842881382
 30
0.0
  0
SPLINE
  5
435
100
AcDbEntity
  8
0
100
AcDbSpline
 62
7
  6
CONTINUOUS
 70
0
 71
3
 72
26
 73
22
 74
0
 42
0.0000001
 43
0.0000001
 44
0.0000000001
 40
0.0
 40
0.0
 40
0.0
 40
0.0
 40
0.0363445539
 40
0.0850087464
 40
0.1448896905
 40
0.2143364199
 40
0.2912337283
 40
0.3734557786
 40
0.458847523
 40
0.5450620464
 40
0.6296753471
 40
0.710243277
 40
0.7844978544
 40
0.8505811605
 40
0.906673567
 40
0.9303964302
 40
0.9509580433
 40
0.9682636282
 40
0.9822452888
 40
0.9928396236
 40
1.0
 40
1.0
 40
1.0
 40
1.0
 10
5.1797611365
 20
0.8842881382
 30
0.0
 10
5.1801451745
 20
0.8801466338
 30
0.0
 10
5.1808360297
 20
0.8704412495
 30
0.0
 10
5.1817513592
 20
0.8538854166
 30
0.0
 10
5.1826708724
 20
0.8335364101
 30
0.0
 10
5.1835968389
 20
0.8099541731
 30
0.0
 10
5.1845283875
 20
0.7838136017
 30
0.0
 10
5.1854630952
 20
0.7558473519
 30
0.0
 10
5.1863976653
 20
0.7268142642
 30
0.0
 10
5.1873322245
 20
0.6975073865
 30
0.0
 10
5.1882661007
 20
0.6687528025
 30
0.0
 10
5.1891992291
 20
0.641367638
 30
0.0
 10
5.1901320626
 20
0.6161043165
 30
0.0
 10
5.1910600882
 20
0.5936439406
 30
0.0
 10
5.1918620365
 20
0.5769662426
 30
0.0
 10
5.1925241542
 20
0.5654981503
 30
0.0
 10
5.1929920526
 20
0.5584651016
 30
0.0
 10
5.1934583641
 20
0.5525499679
 30
0.0
 10
5.1939177636
 20
0.5477779475
 30
0.0
 10
5.1943735685
 20
0.5441758008
 30
0.0
 10
5.1947228309
 20
0.542169825
 30
0.0
 10
5.1949307834
 20
0.541377217
 30
0.0
  0
LINE
  5
436
100
AcDbEntity
  8
0
100
AcDbLine
 62
7
  6
CONTINUOUS
 10
5.1949808964
 20
0.5411930037
 11
5.1953142317
 21
0.5403150503
  0
SPLINE
  5
437
100
AcDbEntity
  8
0
100
AcDbSpline
 62
7
  6
CONTINUOUS
 70
0
 71
3
 72
15
 73
11
 74
0
 42
0.0000001
 43
0.0000001
 44
0.0000000001
 40
0.0
 40
0.0
 40
0.0
 40
0.0
 40
0.0298914495
 40
0.0527169453
 40
0.0820422349
 40
0.1615396935
 40
0.2699104429
 40
0.4077053345
 40
0.5752106507
 40
1.0
 40
1.0
 40
1.0
 40
1.0
 10
5.2134719049
 20
0.8939703074
 30
0.0
 10
5.2135561614
 20
0.8939693037
 30
0.0
 10
5.2136892373
 20
0.8938603244
 30
0.0
 10
5.2138099546
 20
0.8936687913
 30
0.0
 10
5.2139708609
 20
0.8933309634
 30
0.0
 10
5.2141550938
 20
0.8927467458
 30
0.0
 10
5.214367086
 20
0.8918527622
 30
0.0
 10
5.2145794882
 20
0.8907059284
 30
0.0
 10
5.2148905683
 20
0.8886712448
 30
0.0
 10
5.2150841591
 20
0.8870123626
 30
0.0
 10
5.2152111621
 20
0.8858216571
 30
0.0
  0
SPLINE
  5
438
100
AcDbEntity
  8
0
100
AcDbSpline
 62
7
  6
CONTINUOUS
 70
0
 71
3
 72
31
 73
27
 74
0
 42
0.0000001
 43
0.0000001
 44
0.0000000001
 40
0.0
 40
0.0
 40
0.0
 40
0.0
 40
0.0152098855
 40
0.0339601688
 40
0.0812873605
 40
0.1404229978
 40
0.2098835535
 40
0.2877415134
 40
0.3714888833
 40
0.4586268178
 40
0.5466741995
 40
0.633059911
 40
0.7152123765
 40
0.7906532568
 40
0.8251349796
 40
0.8571307101
 40
0.8864020661
 40
0.9127268862
 40
0.9359303992
 40
0.9558471843
 40
0.9723151254
 40
0.9852114301
 40
0.990294356
 40
0.9944554476
 40
0.9976895746
 40
1.0
 40
1.0
 40
1.0
 40
1.0
 10
5.2152111621
 20
0.8858216571
 30
0.0
 10
5.21539645
 20
0.8840845055
 30
0.0
 10
5.2157495083
 20
0.8801994463
 30
0.0
 10
5.216442769
 20
0.8708884061
 30
0.0
 10
5.2172694653
 20
0.856529422
 30
0.0
 10
5.2182211394
 20
0.8363452582
 30
0.0
 10
5.2191766372
 20
0.8126510523
 30
0.0
 10
5.2201355666
 20
0.7861281652
 30
0.0
 10
5.2210975729
 20
0.7575737307
 30
0.0
 10
5.2220611993
 20
0.7278483755
 30
0.0
 10
5.2230262545
 20
0.6978198702
 30
0.0
 10
5.2239905597
 20
0.6683642649
 30
0.0
 10
5.2249518491
 20
0.6403573445
 30
0.0
 10
5.2257736732
 20
0.6183108732
 30
0.0
 10
5.2264436391
 20
0.6020239072
 30
0.0
 10
5.2269304034
 20
0.591036967
 30
0.0
 10
5.2274162382
 20
0.5809878785
 30
0.0
 10
5.2279009772
 20
0.5719498852
 30
0.0
 10
5.2283842044
 20
0.5639880172
 30
0.0
 10
5.2288646463
 20
0.5571603867
 30
0.0
 10
5.2293428386
 20
0.5515201171
 30
0.0
 10
5.2297615567
 20
0.5475848636
 30
0.0
 10
5.2301115778
 20
0.5450659387
 30
0.0
 10
5.2303507771
 20
0.5436521812
 30
0.0
 10
5.2305876935
 20
0.5425630344
 30
0.0
 10
5.2307697658
 20
0.5419503385
 30
0.0
 10
5.2308715005
 20
0.5417052385
 30
0.0
  0
SPLINE
  5
439
100
AcDbEntity
  8
0
100
AcDbSpline
 62
7
  6
CONTINUOUS
 70
0
 71
3
 72
12
 73
8
 74
0
 42
0.0000001
 43
0.0000001
 44
0.0000000001
 40
0.0
 40
0.0
 40
0.0
 40
0.0
 40
0.0549200898
 40
0.1292620339
 40
0.338094353
 40
0.6282517223
 40
1.0
 40
1.0
 40
1.0
 40
1.0
 10
5.1379105402
 20
0.8959550883
 30
0.0
 10
5.1379762001
 20
0.8958437188
 30
0.0
 10
5.1380981063
 20
0.8955630838
 30
0.0
 10
5.138337881
 20
0.8948039708
 30
0.0
 10
5.1386155045
 20
0.8934804857
 30
0.0
 10
5.1389330065
 20
0.8914557837
 30
0.0
 10
5.1391226203
 20
0.8899087458
 30
0.0
 10
5.1392211189
 20
0.8890391966
 30
0.0
  0
SPLINE
  5
43A
100
AcDbEntity
  8
0
100
AcDbSpline
 62
7
  6
CONTINUOUS
 70
0
 71
3
 72
34
 73
30
 74
0
 42
0.0000001
 43
0.0000001
 44
0.0000000001
 40
0.0
 40
0.0
 40
0.0
 40
0.0
 40
0.0147513514
 40
0.0332642411
 40
0.0809541882
 40
0.1415774173
 40
0.2131884603
 40
0.2935412752
 40
0.3801310856
 40
0.470209346
 40
0.5609005352
 40
0.6492612748
 40
0.732532843
 40
0.7714852395
 40
0.8082340778
 40
0.8424585991
 40
0.8738375289
 40
0.9020782874
 40
0.9270140309
 40
0.9485131046
 40
0.9664442276
 40
0.9806642055
 40
0.9910242221
 40
0.9947166439
 40
0.9961863503
 40
0.9974051604
 40
0.9983774598
 40
0.9991147026
 40
1.0
 40
1.0
 40
1.0
 40
1.0
 10
5.1392211189
 20
0.8890391966
 30
0.0
 10
5.139415246
 20
0.887325436
 30
0.0
 10
5.1397830111
 20
0.8834530926
 30
0.0
 10
5.1405062248
 20
0.8740154547
 30
0.0
 10
5.141361883
 20
0.8592106955
 30
0.0
 10
5.1423412414
 20
0.8381968388
 30
0.0
 10
5.1433291211
 20
0.8133607135
 30
0.0
 10
5.1443240653
 20
0.7854868716
 30
0.0
 10
5.1453192078
 20
0.7554525768
 30
0.0
 10
5.1463155936
 20
0.724208953
 30
0.0
 10
5.1473137444
 20
0.6927582216
 30
0.0
 10
5.1483114034
 20
0.6621037171
 30
0.0
 10
5.1491587399
 20
0.637496811
 30
0.0
 10
5.1498463304
 20
0.6189225025
 30
0.0
 10
5.1503502839
 20
0.6060799091
 30
0.0
 10
5.150853729
 20
0.5941235061
 30
0.0
 10
5.1513563387
 20
0.5831627692
 30
0.0
 10
5.1518589264
 20
0.5732893302
 30
0.0
 10
5.1523602028
 20
0.5645725894
 30
0.0
 10
5.1528596704
 20
0.5570634985
 30
0.0
 10
5.1533544693
 20
0.5508098197
 30
0.0
 10
5.1538447813
 20
0.5458637886
 30
0.0
 10
5.1542737185
 20
0.5425840469
 30
0.0
 10
5.1546146509
 20
0.5408010547
 30
0.0
 10
5.1547960908
 20
0.540076514
 30
0.0
 10
5.1549195316
 20
0.5396679055
 30
0.0
 10
5.1550465364
 20
0.5393451617
 30
0.0
 10
5.1551805555
 20
0.5390851796
 30
0.0
 10
5.1553385868
 20
0.5389201049
 30
0.0
 10
5.1554420938
 20
0.5389206622
 30
0.0
  0
SPLINE
  5
43B
100
AcDbEntity
  8
0
100
AcDbSpline
 62
7
  6
CONTINUOUS
 70
0
 71
3
 72
11
 73
7
 74
0
 42
0.0000001
 43
0.0000001
 44
0.0000000001
 40
0.0
 40
0.0
 40
0.0
 40
0.0
 40
0.146403155
 40
0.3610920486
 40
0.6455032809
 40
1.0
 40
1.0
 40
1.0
 40
1.0
 10
5.1267122687
 20
0.9153820089
 30
0.0
 10
5.1267975665
 20
0.9152342343
 30
0.0
 10
5.1269477449
 20
0.9148374496
 30
0.0
 10
5.1271425322
 20
0.9141114415
 30
0.0
 10
5.1273410162
 20
0.9131356923
 30
0.0
 10
5.1274622189
 20
0.9124010416
 30
0.0
 10
5.1275246059
 20
0.9119926312
 30
0.0
  0
LINE
  5
43C
100
AcDbEntity
  8
0
100
AcDbLine
 62
7
  6
CONTINUOUS
 10
5.1275246059
 20
0.9119926312
 11
5.1280722631
 21
0.9075349395
  0
LINE
  5
43D
100
AcDbEntity
  8
0
100
AcDbLine
 62
7
  6
CONTINUOUS
 10
5.1280722631
 20
0.9075349395
 11
5.129155611
 21
0.8935014719
  0
SPLINE
  5
43E
100
AcDbEntity
  8
0
100
AcDbSpline
 62
7
  6
CONTINUOUS
 70
0
 71
3
 72
17
 73
13
 74
0
 42
0.0000001
 43
0.0000001
 44
0.0000000001
 40
0.0
 40
0.0
 40
0.0
 40
0.0
 40
0.0399189116
 40
0.0884260252
 40
0.2074141092
 40
0.3481448845
 40
0.5001661029
 40
0.6521745567
 40
0.7928599271
 40
0.9117500867
 40
0.9601804481
 40
1.0
 40
1.0
 40
1.0
 40
1.0
 10
5.129155611
 20
0.8935014719
 30
0.0
 10
5.1294468244
 20
0.8888233694
 30
0.0
 10
5.1300025407
 20
0.8784552072
 30
0.0
 10
5.1310918647
 20
0.8541255268
 30
0.0
 10
5.1323842776
 20
0.8179570867
 30
0.0
 10
5.1338740478
 20
0.7696348085
 30
0.0
 10
5.1353709594
 20
0.7174338115
 30
0.0
 10
5.1368682267
 20
0.6652381567
 30
0.0
 10
5.1383588123
 20
0.6169342422
 30
0.0
 10
5.1396526646
 20
0.5807917007
 30
0.0
 10
5.1407440426
 20
0.5564943216
 30
0.0
 10
5.1413005294
 20
0.5461469038
 30
0.0
 10
5.1415923424
 20
0.5414805279
 30
0.0
  0
SPLINE
  5
43F
100
AcDbEntity
  8
0
100
AcDbSpline
 62
7
  6
CONTINUOUS
 70
0
 71
3
 72
13
 73
9
 74
0
 42
0.0000001
 43
0.0000001
 44
0.0000000001
 40
0.0
 40
0.0
 40
0.0
 40
0.0
 40
0.369587193
 40
0.6609876227
 40
0.7764296751
 40
0.8714394757
 40
0.9459536539
 40
1.0
 40
1.0
 40
1.0
 40
1.0
 10
5.1415923424
 20
0.5414805279
 30
0.0
 10
5.1417550744
 20
0.538878282
 30
0.0
 10
5.142069932
 20
0.5342258099
 30
0.0
 10
5.1425327721
 20
0.5287671457
 30
0.0
 10
5.1429242301
 20
0.5252483016
 30
0.0
 10
5.1431930809
 20
0.5232555572
 30
0.0
 10
5.1434585598
 20
0.5217008547
 30
0.0
 10
5.1436598324
 20
0.5208149012
 30
0.0
 10
5.1437703382
 20
0.5204499851
 30
0.0
  0
SPLINE
  5
440
100
AcDbEntity
  8
0
100
AcDbSpline
 62
7
  6
CONTINUOUS
 70
0
 71
3
 72
10
 73
6
 74
0
 42
0.0000001
 43
0.0000001
 44
0.0000000001
 40
0.0
 40
0.0
 40
0.0
 40
0.0
 40
0.3886376485
 40
0.6789646584
 40
1.0
 40
1.0
 40
1.0
 40
1.0
 10
5.1437703382
 20
0.5204499851
 30
0.0
 10
5.1438101542
 20
0.5203185033
 30
0.0
 10
5.1438891387
 20
0.5200855553
 30
0.0
 10
5.1440239655
 20
0.5197808449
 30
0.0
 10
5.1441861005
 20
0.5195614943
 30
0.0
 10
5.1442995273
 20
0.5195650262
 30
0.0
  0
SPLINE
  5
441
100
AcDbEntity
  8
0
100
AcDbSpline
 62
7
  6
CONTINUOUS
 70
0
 71
3
 72
13
 73
9
 74
0
 42
0.0000001
 43
0.0000001
 44
0.0000000001
 40
0.0
 40
0.0
 40
0.0
 40
0.0
 40
0.0483811557
 40
0.1182094808
 40
0.2101960713
 40
0.3244827491
 40
0.6191167862
 40
1.0
 40
1.0
 40
1.0
 40
1.0
 10
5.1736154615
 20
0.8948720576
 30
0.0
 10
5.1737040848
 20
0.8947230815
 30
0.0
 10
5.1738616279
 20
0.8943262469
 30
0.0
 10
5.1740639547
 20
0.8936012881
 30
0.0
 10
5.1742682814
 20
0.8926324746
 30
0.0
 10
5.1745691673
 20
0.8908631472
 30
0.0
 10
5.1749273806
 20
0.8880550635
 30
0.0
 10
5.1751701338
 20
0.8856469644
 30
0.0
 10
5.1752961365
 20
0.8842881382
 30
0.0
  0
SPLINE
  5
442
100
AcDbEntity
  8
0
100
AcDbSpline
 62
7
  6
CONTINUOUS
 70
0
 71
3
 72
33
 73
29
 74
0
 42
0.0000001
 43
0.0000001
 44
0.0000000001
 40
0.0
 40
0.0
 40
0.0
 40
0.0
 40
0.038156737
 40
0.0896834682
 40
0.1532975227
 40
0.2270218052
 40
0.3084356838
 40
0.3951168366
 40
0.4845630347
 40
0.5740532266
 40
0.6608157652
 40
0.7420899965
 40
0.7799157925
 40
0.8155230677
 40
0.848654866
 40
0.8790499169
 40
0.9064446773
 40
0.9305763351
 40
0.9512356519
 40
0.9683286099
 40
0.9817787797
 40
0.9915175479
 40
0.9949822502
 40
0.996363843
 40
0.9975135678
 40
0.9984355714
 40
0.9991392187
 40
1.0
 40
1.0
 40
1.0
 40
1.0
 10
5.1752961365
 20
0.8842881382
 30
0.0
 10
5.1757011512
 20
0.8799204183
 30
0.0
 10
5.1764238886
 20
0.8696341247
 30
0.0
 10
5.1773799807
 20
0.8520372823
 30
0.0
 10
5.178339696
 20
0.8303463596
 30
0.0
 10
5.1793077581
 20
0.8052174762
 30
0.0
 10
5.1802817838
 20
0.7774351977
 30
0.0
 10
5.1812585928
 20
0.747844646
 30
0.0
 10
5.1822349492
 20
0.7173251459
 30
0.0
 10
5.183211308
 20
0.686796287
 30
0.0
 10
5.1841864008
 20
0.6572073157
 30
0.0
 10
5.185017443
 20
0.6335561284
 30
0.0
 10
5.185692304
 20
0.615783937
 30
0.0
 10
5.186185774
 20
0.6035432813
 30
0.0
 10
5.1866784701
 20
0.5921575627
 30
0.0
 10
5.1871702404
 20
0.5817168498
 30
0.0
 10
5.1876608798
 20
0.5723119916
 30
0.0
 10
5.1881501685
 20
0.564027912
 30
0.0
 10
5.1886390812
 20
0.5569305549
 30
0.0
 10
5.1891236507
 20
0.5510638553
 30
0.0
 10
5.1896039705
 20
0.5464581261
 30
0.0
 10
5.1900245002
 20
0.5434209087
 30
0.0
 10
5.1903585175
 20
0.5417772396
 30
0.0
 10
5.1905359
 20
0.5411103698
 30
0.0
 10
5.1906566857
 20
0.5407332158
 30
0.0
 10
5.190780854
 20
0.5404350598
 30
0.0
 10
5.190912614
 20
0.5401922148
 30
0.0
 10
5.1910682747
 20
0.5400423169
 30
0.0
 10
5.1911671857
 20
0.5400452519
 30
0.0
  0
SPLINE
  5
443
100
AcDbEntity
  8
0
100
AcDbSpline
 62
7
  6
CONTINUOUS
 70
0
 71
3
 72
11
 73
7
 74
0
 42
0.0000001
 43
0.0000001
 44
0.0000000001
 40
0.0
 40
0.0
 40
0.0
 40
0.0
 40
0.1481480517
 40
0.3633043619
 40
0.6470998726
 40
1.0
 40
1.0
 40
1.0
 40
1.0
 10
5.1624311246
 20
0.9142602385
 30
0.0
 10
5.162517456
 20
0.914112441
 30
0.0
 10
5.162668897
 20
0.9137172018
 30
0.0
 10
5.1628624447
 20
0.912995637
 30
0.0
 10
5.163057319
 20
0.9120300027
 30
0.0
 10
5.1631754229
 20
0.9113039621
 30
0.0
 10
5.1632360954
 20
0.9109007752
 30
0.0
  0
LINE
  5
444
100
AcDbEntity
  8
0
100
AcDbLine
 62
7
  6
CONTINUOUS
 10
5.1632360954
 20
0.9109007752
 11
5.1637722868
 21
0.9064683099
  0
LINE
  5
445
100
AcDbEntity
  8
0
100
AcDbLine
 62
7
  6
CONTINUOUS
 10
5.1637722868
 20
0.9064683099
 11
5.1648525609
 21
0.8925134231
  0
SPLINE
  5
446
100
AcDbEntity
  8
0
100
AcDbSpline
 62
7
  6
CONTINUOUS
 70
0
 71
3
 72
17
 73
13
 74
0
 42
0.0000001
 43
0.0000001
 44
0.0000000001
 40
0.0
 40
0.0
 40
0.0
 40
0.0
 40
0.0399205783
 40
0.0884281674
 40
0.207416342
 40
0.3481469851
 40
0.5001676931
 40
0.6521755304
 40
0.7928602718
 40
0.9117498845
 40
0.960180095
 40
1.0
 40
1.0
 40
1.0
 40
1.0
 10
5.1648525609
 20
0.8925134231
 30
0.0
 10
5.1651453911
 20
0.887861549
 30
0.0
 10
5.1657045407
 20
0.8775515858
 30
0.0
 10
5.1667921293
 20
0.8533581899
 30
0.0
 10
5.1680837021
 20
0.8173926568
 30
0.0
 10
5.1695743215
 20
0.7693415626
 30
0.0
 10
5.1710710287
 20
0.7174335267
 30
0.0
 10
5.1725678122
 20
0.6655308537
 30
0.0
 10
5.1740596904
 20
0.617498177
 30
0.0
 10
5.1753523357
 20
0.5815585982
 30
0.0
 10
5.176441174
 20
0.5573975823
 30
0.0
 10
5.1770026676
 20
0.5471085554
 30
0.0
 10
5.1772968413
 20
0.5424685441
 30
0.0
  0
SPLINE
  5
447
100
AcDbEntity
  8
0
100
AcDbSpline
 62
7
  6
CONTINUOUS
 70
0
 71
3
 72
13
 73
9
 74
0
 42
0.0000001
 43
0.0000001
 44
0.0000000001
 40
0.0
 40
0.0
 40
0.0
 40
0.0
 40
0.3696306183
 40
0.6610484108
 40
0.7764768711
 40
0.8714599851
 40
0.9459474301
 40
1.0
 40
1.0
 40
1.0
 40
1.0
 10
5.1772968413
 20
0.5424685441
 30
0.0
 10
5.1774608891
 20
0.5398810118
 30
0.0
 10
5.1777777784
 20
0.5352549605
 30
0.0
 10
5.178237454
 20
0.5298272411
 30
0.0
 10
5.1786173556
 20
0.5263277029
 30
0.0
 10
5.1788771215
 20
0.5243458049
 30
0.0
 10
5.1791354683
 20
0.5227994346
 30
0.0
 10
5.1793344841
 20
0.5219182244
 30
0.0
 10
5.1794457597
 20
0.5215557763
 30
0.0
  0
SPLINE
  5
448
100
AcDbEntity
  8
0
100
AcDbSpline
 62
7
  6
CONTINUOUS
 70
0
 71
3
 72
10
 73
6
 74
0
 42
0.0000001
 43
0.0000001
 44
0.0000000001
 40
0.0
 40
0.0
 40
0.0
 40
0.0
 40
0.3830083797
 40
0.6705625117
 40
1.0
 40
1.0
 40
1.0
 40
1.0
 10
5.1794457597
 20
0.5215557763
 30
0.0
 10
5.1794859379
 20
0.5214249073
 30
0.0
 10
5.1795664299
 20
0.5211937093
 30
0.0
 10
5.1797065027
 20
0.5208838338
 30
0.0
 10
5.1798818581
 20
0.5206729827
 30
0.0
 10
5.1799995511
 20
0.5206766474
 30
0.0
  0
SPLINE
  5
449
100
AcDbEntity
  8
0
100
AcDbSpline
 62
7
  6
CONTINUOUS
 70
0
 71
3
 72
12
 73
8
 74
0
 42
0.0000001
 43
0.0000001
 44
0.0000000001
 40
0.0
 40
0.0
 40
0.0
 40
0.0
 40
0.0535965195
 40
0.126870783
 40
0.3345601915
 40
0.6253261549
 40
1.0
 40
1.0
 40
1.0
 40
1.0
 10
5.2093282816
 20
0.8936897235
 30
0.0
 10
5.2093998389
 20
0.8935655925
 30
0.0
 10
5.2095319327
 20
0.8932511383
 30
0.0
 10
5.2097919677
 20
0.8923952401
 30
0.0
 10
5.2100921401
 20
0.8908936128
 30
0.0
 10
5.2104356059
 20
0.8885852852
 30
0.0
 10
5.2106399306
 20
0.8868176212
 30
0.0
 10
5.2107461621
 20
0.8858216571
 30
0.0
  0
SPLINE
  5
44A
100
AcDbEntity
  8
0
100
AcDbSpline
 62
7
  6
CONTINUOUS
 70
0
 71
3
 72
33
 73
29
 74
0
 42
0.0000001
 43
0.0000001
 44
0.0000000001
 40
0.0
 40
0.0
 40
0.0
 40
0.0
 40
0.0156538422
 40
0.0350349497
 40
0.0841175626
 40
0.1455634593
 40
0.2177550272
 40
0.2985170733
 40
0.3851174197
 40
0.474857245
 40
0.5650341372
 40
0.6528473825
 40
0.7355340199
 40
0.7741172867
 40
0.8104399841
 40
0.8442385461
 40
0.8752545128
 40
0.9032357859
 40
0.9279789841
 40
0.9493043937
 40
0.9670341665
 40
0.9810210042
 40
0.9911706864
 40
0.9947852469
 40
0.9974232321
 40
0.9983820448
 40
0.9991119046
 40
1.0
 40
1.0
 40
1.0
 40
1.0
 10
5.2107461621
 20
0.8858216571
 30
0.0
 10
5.2109372486
 20
0.8840301411
 30
0.0
 10
5.2113004959
 20
0.880013748
 30
0.0
 10
5.2120134613
 20
0.8703583686
 30
0.0
 10
5.2128626189
 20
0.855429719
 30
0.0
 10
5.2138402529
 20
0.8344222537
 30
0.0
 10
5.2148213
 20
0.8097652901
 30
0.0
 10
5.2158064737
 20
0.7822114299
 30
0.0
 10
5.2167946885
 20
0.7526367527
 30
0.0
 10
5.2177847039
 20
0.7219779699
 30
0.0
 10
5.2187759384
 20
0.6911795527
 30
0.0
 10
5.2197657531
 20
0.6611933041
 30
0.0
 10
5.2206057571
 20
0.6371435213
 30
0.0
 10
5.2212887262
 20
0.6190182607
 30
0.0
 10
5.2217895319
 20
0.6065169327
 30
0.0
 10
5.2222899379
 20
0.5948872903
 30
0.0
 10
5.2227894325
 20
0.5842186155
 30
0.0
 10
5.2232879041
 20
0.5745933683
 30
0.0
 10
5.2237845863
 20
0.5660849891
 30
0.0
 10
5.2242794774
 20
0.5587587197
 30
0.0
 10
5.2247691822
 20
0.5526731646
 30
0.0
 10
5.2252578506
 20
0.5478791026
 30
0.0
 10
5.225681298
 20
0.5447120615
 30
0.0
 10
5.2260517082
 20
0.5428588266
 30
0.0
 10
5.2262636477
 20
0.5420576911
 30
0.0
 10
5.2264515958
 20
0.5415905573
 30
0.0
 10
5.2265860107
 20
0.5413372239
 30
0.0
 10
5.2267423882
 20
0.541178782
 30
0.0
 10
5.226844603
 20
0.5411784747
 30
0.0
  0
SPLINE
  5
44B
100
AcDbEntity
  8
0
100
AcDbSpline
 62
7
  6
CONTINUOUS
 70
0
 71
3
 72
11
 73
7
 74
0
 42
0.0000001
 43
0.0000001
 44
0.0000000001
 40
0.0
 40
0.0
 40
0.0
 40
0.0
 40
0.1502061601
 40
0.3661421172
 40
0.6492678262
 40
1.0
 40
1.0
 40
1.0
 40
1.0
 10
5.1981393746
 20
0.9131301811
 30
0.0
 10
5.1982232396
 20
0.9129806121
 30
0.0
 10
5.1983717939
 20
0.9125866574
 30
0.0
 10
5.1985628684
 20
0.9118709149
 30
0.0
 10
5.1987557593
 20
0.9109193472
 30
0.0
 10
5.1988730206
 20
0.9102052992
 30
0.0
 10
5.1989332358
 20
0.9098094543
 30
0.0
  0
LINE
  5
44C
100
AcDbEntity
  8
0
100
AcDbLine
 62
7
  6
CONTINUOUS
 10
5.1989332358
 20
0.9098094543
 11
5.1994722829
 21
0.9054018769
  0
LINE
  5
44D
100
AcDbEntity
  8
0
100
AcDbLine
 62
7
  6
CONTINUOUS
 10
5.1994722829
 20
0.9054018769
 11
5.2005533237
 21
0.8915255636
  0
SPLINE
  5
44E
100
AcDbEntity
  8
0
100
AcDbSpline
 62
7
  6
CONTINUOUS
 70
0
 71
3
 72
19
 73
15
 74
0
 42
0.0000001
 43
0.0000001
 44
0.0000000001
 40
0.0
 40
0.0
 40
0.0
 40
0.0
 40
0.0399209066
 40
0.0884288239
 40
0.144601746
 40
0.2074175263
 40
0.311475903
 40
0.4234416246
 40
0.5386209983
 40
0.6521759762
 40
0.7593481075
 40
0.8556350491
 40
0.9369852282
 40
1.0
 40
1.0
 40
1.0
 40
1.0
 10
5.2005533237
 20
0.8915255636
 30
0.0
 10
5.2008457464
 20
0.886899957
 30
0.0
 10
5.2014038642
 20
0.8766481597
 30
0.0
 10
5.2021633371
 20
0.8598769163
 30
0.0
 10
5.2029271713
 20
0.8404453723
 30
0.0
 10
5.2038397708
 20
0.8145655225
 30
0.0
 10
5.2048690756
 20
0.7822083552
 30
0.0
 10
5.2060097086
 20
0.7437723533
 30
0.0
 10
5.2071516922
 20
0.704233366
 30
0.0
 10
5.2082933614
 20
0.6652511257
 30
0.0
 10
5.2094326102
 20
0.6284632483
 30
0.0
 10
5.2105638062
 20
0.595415871
 30
0.0
 10
5.2116896045
 20
0.5674987643
 30
0.0
 10
5.2125306457
 20
0.5507580147
 30
0.0
 10
5.2129928649
 20
0.5434565786
 30
0.0
  0
SPLINE
  5
44F
100
AcDbEntity
  8
0
100
AcDbSpline
 62
7
  6
CONTINUOUS
 70
0
 71
3
 72
13
 73
9
 74
0
 42
0.0000001
 43
0.0000001
 44
0.0000000001
 40
0.0
 40
0.0
 40
0.0
 40
0.0
 40
0.3695653327
 40
0.660954222
 40
0.7763944047
 40
0.8714063147
 40
0.9459298072
 40
1.0
 40
1.0
 40
1.0
 40
1.0
 10
5.2129928649
 20
0.5434565786
 30
0.0
 10
5.2131557468
 20
0.5408836179
 30
0.0
 10
5.213470838
 20
0.5362834957
 30
0.0
 10
5.213933323
 20
0.5308863367
 30
0.0
 10
5.2143234668
 20
0.527407142
 30
0.0
 10
5.214591296
 20
0.5254368017
 30
0.0
 10
5.2148559752
 20
0.523899556
 30
0.0
 10
5.2150569991
 20
0.5230236419
 30
0.0
 10
5.2151675609
 20
0.5226630122
 30
0.0
  0
SPLINE
  5
450
100
AcDbEntity
  8
0
100
AcDbSpline
 62
7
  6
CONTINUOUS
 70
0
 71
3
 72
10
 73
6
 74
0
 42
0.0000001
 43
0.0000001
 44
0.0000000001
 40
0.0
 40
0.0
 40
0.0
 40
0.0
 40
0.387261201
 40
0.6769666413
 40
1.0
 40
1.0
 40
1.0
 40
1.0
 10
5.2151675609
 20
0.5226630122
 30
0.0
 10
5.2152074271
 20
0.5225329767
 30
0.0
 10
5.2152866107
 20
0.5223027463
 30
0.0
 10
5.2154222482
 20
0.5219999163
 30
0.0
 10
5.2155861432
 20
0.5217847367
 30
0.0
 10
5.2156995402
 20
0.5217882676
 30
0.0
  0
SPLINE
  5
451
100
AcDbEntity
  8
0
100
AcDbSpline
 62
7
  6
CONTINUOUS
 70
0
 71
3
 72
11
 73
7
 74
0
 42
0.0000001
 43
0.0000001
 44
0.0000000001
 40
0.0
 40
0.0
 40
0.0
 40
0.0
 40
0.1476342941
 40
0.3627356947
 40
0.6467346044
 40
1.0
 40
1.0
 40
1.0
 40
1.0
 10
5.1346244653
 20
0.5195234136
 30
0.0
 10
5.1345381287
 20
0.5196759841
 30
0.0
 10
5.1343862775
 20
0.5200826371
 30
0.0
 10
5.1341904058
 20
0.5208246085
 30
0.0
 10
5.1339918866
 20
0.5218179685
 30
0.0
 10
5.1338710079
 20
0.5225649282
 30
0.0
 10
5.1338088535
 20
0.5229797743
 30
0.0
  0
LINE
  5
452
100
AcDbEntity
  8
0
100
AcDbLine
 62
7
  6
CONTINUOUS
 10
5.1338088535
 20
0.5229797743
 11
5.1332544914
 21
0.5275890452
  0
LINE
  5
453
100
AcDbEntity
  8
0
100
AcDbLine
 62
7
  6
CONTINUOUS
 10
5.1332544914
 20
0.5275890452
 11
5.132149272
 21
0.5421358235
  0
SPLINE
  5
454
100
AcDbEntity
  8
0
100
AcDbSpline
 62
7
  6
CONTINUOUS
 70
0
 71
3
 72
12
 73
8
 74
0
 42
0.0000001
 43
0.0000001
 44
0.0000000001
 40
0.0
 40
0.0
 40
0.0
 40
0.0
 40
0.0818083311
 40
0.1793348156
 40
0.4153604749
 40
0.6944857199
 40
1.0
 40
1.0
 40
1.0
 40
1.0
 10
5.132149272
 20
0.5421358235
 30
0.0
 10
5.1318935577
 20
0.5462984069
 30
0.0
 10
5.1314008213
 20
0.5554274931
 30
0.0
 10
5.1304365492
 20
0.5765799031
 30
0.0
 10
5.1292750511
 20
0.6077918452
 30
0.0
 10
5.1279478883
 20
0.6496067552
 30
0.0
 10
5.1270950461
 20
0.6793983719
 30
0.0
 10
5.1266285383
 20
0.6949659108
 30
0.0
  0
SPLINE
  5
455
100
AcDbEntity
  8
0
100
AcDbSpline
 62
7
  6
CONTINUOUS
 70
0
 71
3
 72
11
 73
7
 74
0
 42
0.0000001
 43
0.0000001
 44
0.0000000001
 40
0.0
 40
0.0
 40
0.0
 40
0.0
 40
0.1506089114
 40
0.366609692
 40
0.6495835821
 40
1.0
 40
1.0
 40
1.0
 40
1.0
 10
5.1703065291
 20
0.5206451142
 30
0.0
 10
5.1702225393
 20
0.5207925592
 30
0.0
 10
5.1700742916
 20
0.5211814616
 30
0.0
 10
5.1698851033
 20
0.5218880458
 30
0.0
 10
5.1696952724
 20
0.5228268475
 30
0.0
 10
5.1695803474
 20
0.5235311571
 30
0.0
 10
5.1695213841
 20
0.5239215383
 30
0.0
  0
LINE
  5
456
100
AcDbEntity
  8
0
100
AcDbLine
 62
7
  6
CONTINUOUS
 10
5.1695213841
 20
0.5239215383
 11
5.1689880867
 21
0.528323055
  0
LINE
  5
457
100
AcDbEntity
  8
0
100
AcDbLine
 62
7
  6
CONTINUOUS
 10
5.1689880867
 20
0.528323055
 11
5.1679080958
 21
0.542222207
  0
SPLINE
  5
458
100
AcDbEntity
  8
0
100
AcDbSpline
 62
7
  6
CONTINUOUS
 70
0
 71
3
 72
17
 73
13
 74
0
 42
0.0000001
 43
0.0000001
 44
0.0000000001
 40
0.0
 40
0.0
 40
0.0
 40
0.0
 40
0.0398296837
 40
0.0882688295
 40
0.2071730269
 40
0.3478670478
 40
0.499878143
 40
0.6518958083
 40
0.7926173151
 40
0.911590818
 40
0.9600893288
 40
1.0
 40
1.0
 40
1.0
 40
1.0
 10
5.1679080958
 20
0.542222207
 30
0.0
 10
5.167614045
 20
0.5468702807
 30
0.0
 10
5.1670527955
 20
0.5571768145
 30
0.0
 10
5.1659638565
 20
0.5813776261
 30
0.0
 10
5.1646711528
 20
0.6173744078
 30
0.0
 10
5.1631793406
 20
0.6654815616
 30
0.0
 10
5.1616824971
 20
0.7174623803
 30
0.0
 10
5.1601858744
 20
0.7694464198
 30
0.0
 10
5.1586951133
 20
0.8175656985
 30
0.0
 10
5.157403673
 20
0.8535807913
 30
0.0
 10
5.1563163321
 20
0.8778062123
 30
0.0
 10
5.1557566421
 20
0.8881292591
 30
0.0
 10
5.1554635486
 20
0.892786882
 30
0.0
  0
SPLINE
  5
459
100
AcDbEntity
  8
0
100
AcDbSpline
 62
7
  6
CONTINUOUS
 70
0
 71
3
 72
13
 73
9
 74
0
 42
0.0000001
 43
0.0000001
 44
0.0000000001
 40
0.0
 40
0.0
 40
0.0
 40
0.0
 40
0.3688925299
 40
0.6600562659
 40
0.775544621
 40
0.8707149374
 40
0.9455160837
 40
1.0
 40
1.0
 40
1.0
 40
1.0
 10
5.1554635486
 20
0.892786882
 30
0.0
 10
5.1552996499
 20
0.8953914391
 30
0.0
 10
5.1549829302
 20
0.9000502676
 30
0.0
 10
5.1545230079
 20
0.9055181521
 30
0.0
 10
5.1541419254
 20
0.9090478432
 30
0.0
 10
5.1538810246
 20
0.9110508292
 30
0.0
 10
5.1536217979
 20
0.9126173796
 30
0.0
 10
5.1534227291
 20
0.9135117736
 30
0.0
 10
5.1533119947
 20
0.9138809679
 30
0.0
  0
SPLINE
  5
45A
100
AcDbEntity
  8
0
100
AcDbSpline
 62
7
  6
CONTINUOUS
 70
0
 71
3
 72
10
 73
6
 74
0
 42
0.0000001
 43
0.0000001
 44
0.0000000001
 40
0.0
 40
0.0
 40
0.0
 40
0.0
 40
0.3819713873
 40
0.6699965005
 40
1.0
 40
1.0
 40
1.0
 40
1.0
 10
5.1533119947
 20
0.9138809679
 30
0.0
 10
5.1532718112
 20
0.9140149416
 30
0.0
 10
5.1531919189
 20
0.9142523814
 30
0.0
 10
5.1530503567
 20
0.9145709759
 30
0.0
 10
5.1528826396
 20
0.9147931825
 30
0.0
 10
5.1527618576
 20
0.9147969434
 30
0.0
  0
SPLINE
  5
45B
100
AcDbEntity
  8
0
100
AcDbSpline
 62
7
  6
CONTINUOUS
 70
0
 71
3
 72
9
 73
5
 74
0
 42
0.0000001
 43
0.0000001
 44
0.0000000001
 40
0.0
 40
0.0
 40
0.0
 40
0.0
 40
0.2527600888
 40
1.0
 40
1.0
 40
1.0
 40
1.0
 10
2.8168907436
 20
0.9626865985
 30
0.0
 10
2.816226958
 20
0.9611233239
 30
0.0
 10
2.8136749695
 20
0.9549076473
 30
0.0
 10
2.8114406795
 20
0.9485586438
 30
0.0
 10
2.8100029622
 20
0.9437479806
 30
0.0
  0
SPLINE
  5
45C
100
AcDbEntity
  8
0
100
AcDbSpline
 62
7
  6
CONTINUOUS
 70
0
 71
3
 72
14
 73
10
 74
0
 42
0.0000001
 43
0.0000001
 44
0.0000000001
 40
0.0
 40
0.0
 40
0.0
 40
0.0
 40
0.1256630439
 40
0.2496377209
 40
0.372589171
 40
0.4953750647
 40
0.6189026793
 40
0.7439062819
 40
1.0
 40
1.0
 40
1.0
 40
1.0
 10
2.8100029622
 20
0.9437479806
 30
0.0
 10
2.808860686
 20
0.9399258765
 30
0.0
 10
2.8068813262
 20
0.9322412842
 30
0.0
 10
2.8049537602
 20
0.9205554534
 30
0.0
 10
2.8041473241
 20
0.908827262
 30
0.0
 10
2.8045372384
 20
0.8970917383
 30
0.0
 10
2.8060764303
 20
0.8853871044
 30
0.0
 10
2.8096047895
 20
0.8697434215
 30
0.0
 10
2.8137133701
 20
0.8583079838
 30
0.0
 10
2.8168907436
 20
0.8508249838
 30
0.0
  0
SPLINE
  5
45D
100
AcDbEntity
  8
0
100
AcDbSpline
 62
7
  6
CONTINUOUS
 70
0
 71
3
 72
12
 73
8
 74
0
 42
0.0000001
 43
0.0000001
 44
0.0000000001
 40
0.0
 40
0.0
 40
0.0
 40
0.0
 40
0.0515013859
 40
0.1235375257
 40
0.3308129909
 40
0.623028103
 40
1.0
 40
1.0
 40
1.0
 40
1.0
 10
5.2060418206
 20
0.521726099
 30
0.0
 10
5.2059742098
 20
0.5218417989
 30
0.0
 10
5.2058504262
 20
0.5221406572
 30
0.0
 10
5.2056041756
 20
0.5229654066
 30
0.0
 10
5.2053176537
 20
0.5244276281
 30
0.0
 10
5.204986788
 20
0.5266835678
 30
0.0
 10
5.2047900964
 20
0.5284141802
 30
0.0
 10
5.2046880925
 20
0.5293897405
 30
0.0
  0
LINE
  5
45E
100
AcDbEntity
  8
0
100
AcDbLine
 62
7
  6
CONTINUOUS
 10
5.2046880925
 20
0.5293897405
 11
5.2036037583
 21
0.5432102633
  0
SPLINE
  5
45F
100
AcDbEntity
  8
0
100
AcDbSpline
 62
7
  6
CONTINUOUS
 70
0
 71
3
 72
17
 73
13
 74
0
 42
0.0000001
 43
0.0000001
 44
0.0000000001
 40
0.0
 40
0.0
 40
0.0
 40
0.0
 40
0.0398296153
 40
0.088268939
 40
0.2071732653
 40
0.3478671554
 40
0.4998779853
 40
0.6518953968
 40
0.7926167305
 40
0.9115907209
 40
0.9600895929
 40
1.0
 40
1.0
 40
1.0
 40
1.0
 10
5.2036037583
 20
0.5432102633
 30
0.0
 10
5.2033120011
 20
0.547832197
 30
0.0
 10
5.2027556137
 20
0.5580807889
 30
0.0
 10
5.2016641968
 20
0.5821449519
 30
0.0
 10
5.2003703095
 20
0.6179387882
 30
0.0
 10
5.1988797497
 20
0.6657748005
 30
0.0
 10
5.1973824249
 20
0.7174625943
 30
0.0
 10
5.1958856245
 20
0.7691535942
 30
0.0
 10
5.1943956488
 20
0.8170016895
 30
0.0
 10
5.1931034363
 20
0.8528137992
 30
0.0
 10
5.1920144993
 20
0.8769025212
 30
0.0
 10
5.1914579946
 20
0.8871674469
 30
0.0
 10
5.1911664047
 20
0.8917988037
 30
0.0
  0
SPLINE
  5
460
100
AcDbEntity
  8
0
100
AcDbSpline
 62
7
  6
CONTINUOUS
 70
0
 71
3
 72
13
 73
9
 74
0
 42
0.0000001
 43
0.0000001
 44
0.0000000001
 40
0.0
 40
0.0
 40
0.0
 40
0.0
 40
0.368814808
 40
0.6599515071
 40
0.7754569597
 40
0.8706603795
 40
0.9454983917
 40
1.0
 40
1.0
 40
1.0
 40
1.0
 10
5.1911664047
 20
0.8917988037
 30
0.0
 10
5.1910033434
 20
0.8943887255
 30
0.0
 10
5.1906879086
 20
0.8990215873
 30
0.0
 10
5.1902259515
 20
0.904458986
 30
0.0
 10
5.1898375185
 20
0.9079687585
 30
0.0
 10
5.1895708231
 20
0.9099605771
 30
0.0
 10
5.1893070487
 20
0.9115183195
 30
0.0
 10
5.1891065464
 20
0.9124076016
 30
0.0
 10
5.1889963176
 20
0.9127749014
 30
0.0
  0
SPLINE
  5
461
100
AcDbEntity
  8
0
100
AcDbSpline
 62
7
  6
CONTINUOUS
 70
0
 71
3
 72
10
 73
6
 74
0
 42
0.0000001
 43
0.0000001
 44
0.0000000001
 40
0.0
 40
0.0
 40
0.0
 40
0.0
 40
0.3848966411
 40
0.6743707219
 40
1.0
 40
1.0
 40
1.0
 40
1.0
 10
5.1889963176
 20
0.9127749014
 30
0.0
 10
5.1889563604
 20
0.912908045
 30
0.0
 10
5.188877438
 20
0.9131443092
 30
0.0
 10
5.1887389477
 20
0.9134574085
 30
0.0
 10
5.1885794231
 20
0.9136816621
 30
0.0
 10
5.1884618752
 20
0.9136853223
 30
0.0
  0
SPLINE
  5
462
100
AcDbEntity
  8
0
100
AcDbSpline
 62
7
  6
CONTINUOUS
 70
0
 71
3
 72
12
 73
8
 74
0
 42
0.0000001
 43
0.0000001
 44
0.0000000001
 40
0.0
 40
0.0
 40
0.0
 40
0.0
 40
0.0864729935
 40
0.1867532346
 40
0.4249541063
 40
0.7025198943
 40
1.0
 40
1.0
 40
1.0
 40
1.0
 10
2.8168907436
 20
0.8508249838
 30
0.0
 10
2.8171375083
 20
0.8502438307
 30
0.0
 10
2.8175605282
 20
0.8489418205
 30
0.0
 10
2.8181691146
 20
0.8458948016
 30
0.0
 10
2.8184168912
 20
0.8413827847
 30
0.0
 10
2.8180267231
 20
0.8354494116
 30
0.0
 10
2.8173418224
 20
0.8312990109
 30
0.0
 10
2.8168907436
 20
0.8291743487
 30
0.0
  0
SPLINE
  5
463
100
AcDbEntity
  8
0
100
AcDbSpline
 62
7
  6
CONTINUOUS
 70
0
 71
3
 72
11
 73
7
 74
0
 42
0.0000001
 43
0.0000001
 44
0.0000000001
 40
0.0
 40
0.0
 40
0.0
 40
0.0
 40
0.2500038621
 40
0.4999999918
 40
0.7499961239
 40
1.0
 40
1.0
 40
1.0
 40
1.0
 10
2.8168907436
 20
0.8291743487
 30
0.0
 10
2.8129890289
 20
0.8107965718
 30
0.0
 10
2.8066362595
 20
0.7736994519
 30
0.0
 10
2.8031733427
 20
0.7173127357
 30
0.0
 10
2.8066362577
 20
0.6609260183
 30
0.0
 10
2.8129890287
 20
0.6238288974
 30
0.0
 10
2.8168907436
 20
0.6054511194
 30
0.0
  0
SPLINE
  5
464
100
AcDbEntity
  8
0
100
AcDbSpline
 62
7
  6
CONTINUOUS
 70
0
 71
3
 72
12
 73
8
 74
0
 42
0.0000001
 43
0.0000001
 44
0.0000000001
 40
0.0
 40
0.0
 40
0.0
 40
0.0
 40
0.2974823823
 40
0.5750499819
 40
0.8132489986
 40
0.9135277602
 40
1.0
 40
1.0
 40
1.0
 40
1.0
 10
2.8168907436
 20
0.6054511194
 30
0.0
 10
2.8173418258
 20
0.603326441
 30
0.0
 10
2.8180267427
 20
0.5991760127
 30
0.0
 10
2.818416894
 20
0.5932426203
 30
0.0
 10
2.8181690961
 20
0.5887306175
 30
0.0
 10
2.817560523
 20
0.5856836265
 30
0.0
 10
2.8171375062
 20
0.5843816324
 30
0.0
 10
2.8168907436
 20
0.5838004843
 30
0.0
  0
SPLINE
  5
465
100
AcDbEntity
  8
0
100
AcDbSpline
 62
7
  6
CONTINUOUS
 70
0
 71
3
 72
14
 73
10
 74
0
 42
0.0000001
 43
0.0000001
 44
0.0000000001
 40
0.0
 40
0.0
 40
0.0
 40
0.0
 40
0.2560938498
 40
0.381097561
 40
0.504625278
 40
0.6274112243
 40
0.7503626436
 40
0.8743371854
 40
1.0
 40
1.0
 40
1.0
 40
1.0
 10
2.8168907436
 20
0.5838004843
 30
0.0
 10
2.8137134268
 20
0.5763176179
 30
0.0
 10
2.8096049072
 20
0.5648823895
 30
0.0
 10
2.8060765527
 20
0.5492389971
 30
0.0
 10
2.8045373145
 20
0.5375345804
 30
0.0
 10
2.804147313
 20
0.525799272
 30
0.0
 10
2.804953617
 20
0.5140712922
 30
0.0
 10
2.8068810159
 20
0.5023856672
 30
0.0
 10
2.8088602505
 20
0.494701205
 30
0.0
 10
2.810002461
 20
0.4908791653
 30
0.0
  0
SPLINE
  5
466
100
AcDbEntity
  8
0
100
AcDbSpline
 62
7
  6
CONTINUOUS
 70
0
 71
3
 72
9
 73
5
 74
0
 42
0.0000001
 43
0.0000001
 44
0.0000000001
 40
0.0
 40
0.0
 40
0.0
 40
0.0
 40
0.2473504587
 40
1.0
 40
1.0
 40
1.0
 40
1.0
 10
2.810002461
 20
0.4908791653
 30
0.0
 10
2.8104784082
 20
0.4892865613
 30
0.0
 10
2.8125050602
 20
0.4828786316
 30
0.0
 10
2.8149139522
 20
0.4765943908
 30
0.0
 10
2.8168907436
 20
0.4719388697
 30
0.0
  0
SPLINE
  5
467
100
AcDbEntity
  8
0
100
AcDbSpline
 62
7
  6
CONTINUOUS
 70
0
 71
3
 72
10
 73
6
 74
0
 42
0.0000001
 43
0.0000001
 44
0.0000000001
 40
0.0
 40
0.0
 40
0.0
 40
0.0
 40
0.1523024874
 40
0.3689422736
 40
1.0
 40
1.0
 40
1.0
 40
1.0
 10
5.2417000287
 20
0.5228809415
 30
0.0
 10
5.2416178996
 20
0.5230284556
 30
0.0
 10
5.2414717201
 20
0.5234134682
 30
0.0
 10
5.241185113
 20
0.5244839452
 30
0.0
 10
5.2410294205
 20
0.5254131084
 30
0.0
 10
5.240923392
 20
0.5261045901
 30
0.0
  0
LINE
  5
468
100
AcDbEntity
  8
0
100
AcDbLine
 62
7
  6
CONTINUOUS
 10
5.240923392
 20
0.5261045901
 11
5.2403880871
 21
0.5304562394
  0
LINE
  5
469
100
AcDbEntity
  8
0
100
AcDbLine
 62
7
  6
CONTINUOUS
 10
5.2403880871
 20
0.5304562394
 11
5.2393075597
 21
0.5441982399
  0
SPLINE
  5
46A
100
AcDbEntity
  8
0
100
AcDbSpline
 62
7
  6
CONTINUOUS
 70
0
 71
3
 72
17
 73
13
 74
0
 42
0.0000001
 43
0.0000001
 44
0.0000000001
 40
0.0
 40
0.0
 40
0.0
 40
0.0
 40
0.0398299792
 40
0.0882691993
 40
0.2071730619
 40
0.3478663812
 40
0.499876637
 40
0.6518936042
 40
0.7926148311
 40
0.9115892114
 40
0.9600886077
 40
1.0
 40
1.0
 40
1.0
 40
1.0
 10
5.2393075597
 20
0.5441982399
 30
0.0
 10
5.2390137925
 20
0.5487938186
 30
0.0
 10
5.2384531416
 20
0.5589840375
 30
0.0
 10
5.2373638882
 20
0.5829117863
 30
0.0
 10
5.2360710403
 20
0.6185026216
 30
0.0
 10
5.2345793458
 20
0.6660673558
 30
0.0
 10
5.2330825488
 20
0.7174621316
 30
0.0
 10
5.2315856276
 20
0.7688601311
 30
0.0
 10
5.2300955425
 20
0.8164370749
 30
0.0
 10
5.2288034852
 20
0.852046291
 30
0.0
 10
5.2277148968
 20
0.8759986078
 30
0.0
 10
5.2271577234
 20
0.8862053972
 30
0.0
 10
5.2268658202
 20
0.8908105261
 30
0.0
  0
SPLINE
  5
46B
100
AcDbEntity
  8
0
100
AcDbSpline
 62
7
  6
CONTINUOUS
 70
0
 71
3
 72
13
 73
9
 74
0
 42
0.0000001
 43
0.0000001
 44
0.0000000001
 40
0.0
 40
0.0
 40
0.0
 40
0.0
 40
0.3688093745
 40
0.6599416147
 40
0.7754436112
 40
0.8706444494
 40
0.9454845057
 40
1.0
 40
1.0
 40
1.0
 40
1.0
 10
5.2268658202
 20
0.8908105261
 30
0.0
 10
5.22670258
 20
0.8933858396
 30
0.0
 10
5.2263868684
 20
0.8979925547
 30
0.0
 10
5.2259253382
 20
0.9033992224
 30
0.0
 10
5.2255384634
 20
0.9068891959
 30
0.0
 10
5.2252729881
 20
0.9088698031
 30
0.0
 10
5.2250101693
 20
0.9104188237
 30
0.0
 10
5.2248099663
 20
0.9113030964
 30
0.0
 10
5.2246996525
 20
0.9116682298
 30
0.0
  0
SPLINE
  5
46C
100
AcDbEntity
  8
0
100
AcDbSpline
 62
7
  6
CONTINUOUS
 70
0
 71
3
 72
10
 73
6
 74
0
 42
0.0000001
 43
0.0000001
 44
0.0000000001
 40
0.0
 40
0.0
 40
0.0
 40
0.0
 40
0.3838038804
 40
0.6727785951
 40
1.0
 40
1.0
 40
1.0
 40
1.0
 10
5.2246996525
 20
0.9116682298
 30
0.0
 10
5.224659641
 20
0.911800666
 30
0.0
 10
5.2245804896
 20
0.9120355729
 30
0.0
 10
5.2244412212
 20
0.9123482138
 30
0.0
 10
5.2242797818
 20
0.9125700304
 30
0.0
 10
5.2241618866
 20
0.9125737014
 30
0.0
  0
SPLINE
  5
46D
100
AcDbEntity
  8
0
100
AcDbSpline
 62
7
  6
CONTINUOUS
 70
0
 71
3
 72
10
 73
6
 74
0
 42
0.0000001
 43
0.0000001
 44
0.0000000001
 40
0.0
 40
0.0
 40
0.0
 40
0.0
 40
0.1517482229
 40
0.3681909944
 40
1.0
 40
1.0
 40
1.0
 40
1.0
 10
5.2338520196
 20
0.9120074096
 30
0.0
 10
5.2339355735
 20
0.9118575325
 30
0.0
 10
5.2340838119
 20
0.9114653152
 30
0.0
 10
5.2343741359
 20
0.9103728825
 30
0.0
 10
5.2345312069
 20
0.9094241436
 30
0.0
 10
5.2346382791
 20
0.9087177759
 30
0.0
  0
LINE
  5
46E
100
AcDbEntity
  8
0
100
AcDbLine
 62
7
  6
CONTINUOUS
 10
5.2346382791
 20
0.9087177759
 11
5.2351722573
 21
0.9043352327
  0
LINE
  5
46F
100
AcDbEntity
  8
0
100
AcDbLine
 62
7
  6
CONTINUOUS
 10
5.2351722573
 20
0.9043352327
 11
5.2362519339
 21
0.8905375239
  0
SPLINE
  5
470
100
AcDbEntity
  8
0
100
AcDbSpline
 62
7
  6
CONTINUOUS
 70
0
 71
3
 72
17
 73
13
 74
0
 42
0.0000001
 43
0.0000001
 44
0.0000000001
 40
0.0
 40
0.0
 40
0.0
 40
0.0
 40
0.0399220306
 40
0.0884303758
 40
0.2074189567
 40
0.3481492002
 40
0.5001690898
 40
0.6521760557
 40
0.7928601265
 40
0.9117495039
 40
0.9601798439
 40
1.0
 40
1.0
 40
1.0
 40
1.0
 10
5.2362519339
 20
0.8905375239
 30
0.0
 10
5.2365450688
 20
0.8859381629
 30
0.0
 10
5.2371048724
 20
0.8757445651
 30
0.0
 10
5.2381921165
 20
0.8518241952
 30
0.0
 10
5.2394835082
 20
0.816264617
 30
0.0
 10
5.2409743329
 20
0.7687559521
 30
0.0
 10
5.2424708535
 20
0.7174339352
 30
0.0
 10
5.2439679272
 20
0.6661172653
 30
0.0
 10
5.2454592784
 20
0.6186269034
 30
0.0
 10
5.2467524118
 20
0.5830931775
 30
0.0
 10
5.2478422455
 20
0.5592051814
 30
0.0
 10
5.2484018013
 20
0.5490323651
 30
0.0
 10
5.24869506
 20
0.5444447966
 30
0.0
  0
SPLINE
  5
471
100
AcDbEntity
  8
0
100
AcDbSpline
 62
7
  6
CONTINUOUS
 70
0
 71
3
 72
13
 73
9
 74
0
 42
0.0000001
 43
0.0000001
 44
0.0000000001
 40
0.0
 40
0.0
 40
0.0
 40
0.0
 40
0.3695803508
 40
0.6609744857
 40
0.7764075633
 40
0.8714071289
 40
0.9459202695
 40
1.0
 40
1.0
 40
1.0
 40
1.0
 10
5.24869506
 20
0.5444447966
 30
0.0
 10
5.2488585989
 20
0.541886488
 30
0.0
 10
5.2491747057
 20
0.5373126144
 30
0.0
 10
5.2496356169
 20
0.531946251
 30
0.0
 10
5.2500200031
 20
0.5284866033
 30
0.0
 10
5.2502833092
 20
0.5265272789
 30
0.0
 10
5.2505444387
 20
0.5249985595
 30
0.0
 10
5.2507443426
 20
0.5241275282
 30
0.0
 10
5.2508552788
 20
0.5237691929
 30
0.0
  0
SPLINE
  5
472
100
AcDbEntity
  8
0
100
AcDbSpline
 62
7
  6
CONTINUOUS
 70
0
 71
3
 72
10
 73
6
 74
0
 42
0.0000001
 43
0.0000001
 44
0.0000000001
 40
0.0
 40
0.0
 40
0.0
 40
0.0
 40
0.3842208097
 40
0.6724466985
 40
1.0
 40
1.0
 40
1.0
 40
1.0
 10
5.2508552788
 20
0.5237691929
 30
0.0
 10
5.2508953288
 20
0.5236398272
 30
0.0
 10
5.2509752703
 20
0.523411131
 30
0.0
 10
5.2511136038
 20
0.5231063971
 30
0.0
 10
5.2512841285
 20
0.5228962945
 30
0.0
 10
5.2513995227
 20
0.5228998876
 30
0.0
  0
SPLINE
  5
473
100
AcDbEntity
  8
0
100
AcDbSpline
 62
7
  6
CONTINUOUS
 70
0
 71
3
 72
14
 73
10
 74
0
 42
0.0000001
 43
0.0000001
 44
0.0000000001
 40
0.0
 40
0.0
 40
0.0
 40
0.0
 40
0.0278775034
 40
0.0505242418
 40
0.0800770231
 40
0.1607831401
 40
0.270755523
 40
0.578097636
 40
1.0
 40
1.0
 40
1.0
 40
1.0
 10
5.2491800016
 20
0.8929374388
 30
0.0
 10
5.2492781165
 20
0.8929352379
 30
0.0
 10
5.2494267822
 20
0.8927856739
 30
0.0
 10
5.2495566867
 20
0.8925453398
 30
0.0
 10
5.2497362947
 20
0.8921079704
 30
0.0
 10
5.2499401337
 20
0.8913609965
 30
0.0
 10
5.2502950299
 20
0.8896421782
 30
0.0
 10
5.2507019524
 20
0.8867146831
 30
0.0
 10
5.2509734843
 20
0.8841617035
 30
0.0
 10
5.2511157825
 20
0.8826832771
 30
0.0
  0
SPLINE
  5
474
100
AcDbEntity
  8
0
100
AcDbSpline
 62
7
  6
CONTINUOUS
 70
0
 71
3
 72
28
 73
24
 74
0
 42
0.0000001
 43
0.0000001
 44
0.0000000001
 40
0.0
 40
0.0
 40
0.0
 40
0.0
 40
0.0358917442
 40
0.0844093281
 40
0.1443666576
 40
0.2139141864
 40
0.2910634957
 40
0.3737399713
 40
0.4596259582
 40
0.5462646526
 40
0.6312163126
 40
0.7120904367
 40
0.7866131794
 40
0.8526880945
 40
0.8819728817
 40
0.9084634369
 40
0.9319841298
 40
0.9523660942
 40
0.9694449648
 40
0.9831127261
 40
0.99331041
 40
0.9970945765
 40
1.0
 40
1.0
 40
1.0
 40
1.0
 10
5.2511157825
 20
0.8826832771
 30
0.0
 10
5.2515052545
 20
0.8786368032
 30
0.0
 10
5.2522025149
 20
0.8691001557
 30
0.0
 10
5.2531213382
 20
0.8527748243
 30
0.0
 10
5.2540465711
 20
0.8326324686
 30
0.0
 10
5.254981114
 20
0.8092450389
 30
0.0
 10
5.2559186815
 20
0.7832826006
 30
0.0
 10
5.2568592973
 20
0.7554686669
 30
0.0
 10
5.257801251
 20
0.7265793989
 30
0.0
 10
5.2587422953
 20
0.6974322786
 30
0.0
 10
5.2596830648
 20
0.6688530998
 30
0.0
 10
5.2606241883
 20
0.6416469708
 30
0.0
 10
5.261562469
 20
0.6165801315
 30
0.0
 10
5.2623686265
 20
0.5973556501
 30
0.0
 10
5.2630274624
 20
0.5835703241
 30
0.0
 10
5.2635014376
 20
0.5746015636
 30
0.0
 10
5.2639742009
 20
0.5666426138
 30
0.0
 10
5.2644451148
 20
0.5597517317
 30
0.0
 10
5.2649123447
 20
0.5539792808
 30
0.0
 10
5.2653768074
 20
0.5493651829
 30
0.0
 10
5.2657828418
 20
0.5462582851
 30
0.0
 10
5.2661288638
 20
0.5443769234
 30
0.0
 10
5.2663044851
 20
0.5436389434
 30
0.0
 10
5.2663982914
 20
0.5433235226
 30
0.0
  0
LINE
  5
475
100
AcDbEntity
  8
0
100
AcDbLine
 62
7
  6
CONTINUOUS
 10
5.2663982914
 20
0.5433235226
 11
5.2667058106
 21
0.5425447383
  0
SPLINE
  5
476
100
AcDbEntity
  8
0
100
AcDbSpline
 62
7
  6
CONTINUOUS
 70
0
 71
3
 72
14
 73
10
 74
0
 42
0.0000001
 43
0.0000001
 44
0.0000000001
 40
0.0
 40
0.0
 40
0.0
 40
0.0
 40
0.0271763521
 40
0.0495406073
 40
0.078836644
 40
0.159122743
 40
0.2688389319
 40
0.5764065296
 40
1.0
 40
1.0
 40
1.0
 40
1.0
 10
5.2625633948
 20
0.5422382167
 30
0.0
 10
5.2624606155
 20
0.5422371808
 30
0.0
 10
5.2623027171
 20
0.5423976542
 30
0.0
 10
5.2621678634
 20
0.5426519967
 30
0.0
 10
5.2619787228
 20
0.543119995
 30
0.0
 10
5.2617651985
 20
0.5439199688
 30
0.0
 10
5.2613922013
 20
0.5457667195
 30
0.0
 10
5.2609653879
 20
0.5489194289
 30
0.0
 10
5.260680823
 20
0.5516703144
 30
0.0
 10
5.2605316764
 20
0.5532654424
 30
0.0
  0
SPLINE
  5
477
100
AcDbEntity
  8
0
100
AcDbSpline
 62
7
  6
CONTINUOUS
 70
0
 71
3
 72
27
 73
23
 74
0
 42
0.0000001
 43
0.0000001
 44
0.0000000001
 40
0.0
 40
0.0
 40
0.0
 40
0.0
 40
0.0365357849
 40
0.0856338874
 40
0.1458256798
 40
0.2152563454
 40
0.2920832311
 40
0.3743460152
 40
0.4597015476
 40
0.5457337206
 40
0.6300337828
 40
0.7103270376
 40
0.7845163919
 40
0.8505097269
 40
0.9062726222
 40
0.929862963
 40
0.9504267072
 40
0.9678416159
 40
0.9819854239
 40
0.9927392727
 40
0.9968115595
 40
1.0
 40
1.0
 40
1.0
 40
1.0
 10
5.2605316764
 20
0.5532654424
 30
0.0
 10
5.2601476103
 20
0.5573730419
 30
0.0
 10
5.2594543816
 20
0.5670192673
 30
0.0
 10
5.258545554
 20
0.5834603365
 30
0.0
 10
5.2576272391
 20
0.6036203844
 30
0.0
 10
5.2566996873
 20
0.62691361
 30
0.0
 10
5.2557689164
 20
0.652700732
 30
0.0
 10
5.2548380426
 20
0.6802870874
 30
0.0
 10
5.2539060238
 20
0.7089134059
 30
0.0
 10
5.2529739055
 20
0.7377698814
 30
0.0
 10
5.2520419168
 20
0.7660544466
 30
0.0
 10
5.2511107458
 20
0.7930010308
 30
0.0
 10
5.2501832554
 20
0.8178793154
 30
0.0
 10
5.2492617367
 20
0.8399858039
 30
0.0
 10
5.2484604852
 20
0.8563786565
 30
0.0
 10
5.2477998277
 20
0.8676417512
 30
0.0
 10
5.2473339225
 20
0.8745783814
 30
0.0
 10
5.2468715356
 20
0.8804460197
 30
0.0
 10
5.2464123291
 20
0.8852017477
 30
0.0
 10
5.2460110908
 20
0.8884495563
 30
0.0
 10
5.2456713348
 20
0.8904553534
 30
0.0
 10
5.2454988405
 20
0.8912575463
 30
0.0
 10
5.2454074804
 20
0.8916057914
 30
0.0
  0
LINE
  5
478
100
AcDbEntity
  8
0
100
AcDbLine
 62
7
  6
CONTINUOUS
 10
5.2454074804
 20
0.8916057914
 11
5.2450351638
 21
0.8926404888
  0
SPLINE
  5
479
100
AcDbEntity
  8
0
100
AcDbSpline
 62
7
  6
CONTINUOUS
 70
0
 71
3
 72
9
 73
5
 74
0
 42
0.0000001
 43
0.0000001
 44
0.0000000001
 40
0.0
 40
0.0
 40
0.0
 40
0.0
 40
0.2523151354
 40
1.0
 40
1.0
 40
1.0
 40
1.0
 10
2.9107253574
 20
0.4908774044
 30
0.0
 10
2.9111853771
 20
0.4924166466
 30
0.0
 10
2.9129151272
 20
0.4985443587
 30
0.0
 10
2.9142413253
 20
0.504788358
 30
0.0
 10
2.9149668676
 20
0.5094933212
 30
0.0
  0
SPLINE
  5
47A
100
AcDbEntity
  8
0
100
AcDbSpline
 62
7
  6
CONTINUOUS
 70
0
 71
3
 72
9
 73
5
 74
0
 42
0.0000001
 43
0.0000001
 44
0.0000000001
 40
0.0
 40
0.0
 40
0.0
 40
0.0
 40
0.4959628054
 40
1.0
 40
1.0
 40
1.0
 40
1.0
 10
2.9160380031
 20
0.5370559461
 30
0.0
 10
2.9156527318
 20
0.541965658
 30
0.0
 10
2.9142668774
 20
0.5518252667
 30
0.0
 10
2.9117829134
 20
0.5614595438
 30
0.0
 10
2.9103061258
 20
0.5662416923
 30
0.0
  0
SPLINE
  5
47B
100
AcDbEntity
  8
0
100
AcDbSpline
 62
7
  6
CONTINUOUS
 70
0
 71
3
 72
12
 73
8
 74
0
 42
0.0000001
 43
0.0000001
 44
0.0000000001
 40
0.0
 40
0.0
 40
0.0
 40
0.0
 40
0.0864728354
 40
0.1867528229
 40
0.4249534851
 40
0.7025195076
 40
1.0
 40
1.0
 40
1.0
 40
1.0
 10
2.9038376006
 20
0.5838004843
 30
0.0
 10
2.9035908363
 20
0.5843816363
 30
0.0
 10
2.9031678206
 20
0.5856836451
 30
0.0
 10
2.9025592471
 20
0.5887306613
 30
0.0
 10
2.9023114503
 20
0.5932426735
 30
0.0
 10
2.9027016021
 20
0.5991760525
 30
0.0
 10
2.9033865212
 20
0.6033264546
 30
0.0
 10
2.9038376006
 20
0.6054511194
 30
0.0
  0
SPLINE
  5
47C
100
AcDbEntity
  8
0
100
AcDbSpline
 62
7
  6
CONTINUOUS
 70
0
 71
3
 72
11
 73
7
 74
0
 42
0.0000001
 43
0.0000001
 44
0.0000000001
 40
0.0
 40
0.0
 40
0.0
 40
0.0
 40
0.2500038614
 40
0.499999991
 40
0.7499961232
 40
1.0
 40
1.0
 40
1.0
 40
1.0
 10
2.9038376006
 20
0.6054511194
 30
0.0
 10
2.9077393152
 20
0.6238288963
 30
0.0
 10
2.914092085
 20
0.660926016
 30
0.0
 10
2.9175550015
 20
0.7173127323
 30
0.0
 10
2.914092086
 20
0.7736994497
 30
0.0
 10
2.9077393155
 20
0.8107965707
 30
0.0
 10
2.9038376006
 20
0.8291743487
 30
0.0
  0
SPLINE
  5
47D
100
AcDbEntity
  8
0
100
AcDbSpline
 62
7
  6
CONTINUOUS
 70
0
 71
3
 72
12
 73
8
 74
0
 42
0.0000001
 43
0.0000001
 44
0.0000000001
 40
0.0
 40
0.0
 40
0.0
 40
0.0
 40
0.2974819977
 40
0.5750493611
 40
0.813248585
 40
0.9135276012
 40
1.0
 40
1.0
 40
1.0
 40
1.0
 10
2.9038376006
 20
0.8291743487
 30
0.0
 10
2.9033865189
 20
0.8312990245
 30
0.0
 10
2.9027016204
 20
0.8354494515
 30
0.0
 10
2.9023114528
 20
0.8413828379
 30
0.0
 10
2.9025592305
 20
0.8458948454
 30
0.0
 10
2.9031678165
 20
0.848941839
 30
0.0
 10
2.9035908376
 20
0.8502438347
 30
0.0
 10
2.9038376006
 20
0.8508249838
 30
0.0
  0
SPLINE
  5
47E
100
AcDbEntity
  8
0
100
AcDbSpline
 62
7
  6
CONTINUOUS
 70
0
 71
3
 72
9
 73
5
 74
0
 42
0.0000001
 43
0.0000001
 44
0.0000000001
 40
0.0
 40
0.0
 40
0.0
 40
0.0
 40
0.5037662499
 40
1.0
 40
1.0
 40
1.0
 40
1.0
 10
2.9107253574
 20
0.8697635186
 30
0.0
 10
2.9120883892
 20
0.8743242711
 30
0.0
 10
2.9143799726
 20
0.8835089989
 30
0.0
 10
2.9156709167
 20
0.8928926925
 30
0.0
 10
2.9160378233
 20
0.8975672164
 30
0.0
  0
SPLINE
  5
47F
100
AcDbEntity
  8
0
100
AcDbSpline
 62
7
  6
CONTINUOUS
 70
0
 71
3
 72
13
 73
9
 74
0
 42
0.0000001
 43
0.0000001
 44
0.0000000001
 40
0.0
 40
0.0
 40
0.0
 40
0.0
 40
0.3008658354
 40
0.5844466097
 40
0.7115339124
 40
0.8248341687
 40
0.9217305962
 40
1.0
 40
1.0
 40
1.0
 40
1.0
 10
5.1266285383
 20
0.6949659108
 30
0.0
 10
5.1260739697
 20
0.7149836442
 30
0.0
 10
5.1249356414
 20
0.7538673268
 30
0.0
 10
5.123536132
 20
0.8012059309
 30
0.0
 10
5.1223576972
 20
0.8360610265
 30
0.0
 10
5.1215110202
 20
0.8584945475
 30
0.0
 10
5.1206713343
 20
0.8776763556
 30
0.0
 10
5.120047467
 20
0.8893190458
 30
0.0
 10
5.1197167687
 20
0.8945180943
 30
0.0
  0
SPLINE
  5
480
100
AcDbEntity
  8
0
100
AcDbSpline
 62
7
  6
CONTINUOUS
 70
0
 71
3
 72
13
 73
9
 74
0
 42
0.0000001
 43
0.0000001
 44
0.0000000001
 40
0.0
 40
0.0
 40
0.0
 40
0.0
 40
0.3690088655
 40
0.6601499918
 40
0.775607403
 40
0.8707458821
 40
0.9455224189
 40
1.0
 40
1.0
 40
1.0
 40
1.0
 10
5.1197167687
 20
0.8945180943
 30
0.0
 10
5.1195556935
 20
0.8970504268
 30
0.0
 10
5.119244426
 20
0.9015792464
 30
0.0
 10
5.1187924558
 20
0.9068940857
 30
0.0
 10
5.1184183239
 20
0.9103239698
 30
0.0
 10
5.1181622433
 20
0.9122699606
 30
0.0
 10
5.1179077408
 20
0.9137917954
 30
0.0
 10
5.1177121761
 20
0.9146605117
 30
0.0
 10
5.1176033583
 20
0.9150189678
 30
0.0
  0
SPLINE
  5
481
100
AcDbEntity
  8
0
100
AcDbSpline
 62
7
  6
CONTINUOUS
 70
0
 71
3
 72
10
 73
6
 74
0
 42
0.0000001
 43
0.0000001
 44
0.0000000001
 40
0.0
 40
0.0
 40
0.0
 40
0.0
 40
0.3809483805
 40
0.6685327626
 40
1.0
 40
1.0
 40
1.0
 40
1.0
 10
5.1176033583
 20
0.9150189678
 30
0.0
 10
5.1175638492
 20
0.9151491143
 30
0.0
 10
5.1174852616
 20
0.9153796911
 30
0.0
 10
5.1173456852
 20
0.9156901783
 30
0.0
 10
5.1171801693
 20
0.91590488
 30
0.0
 10
5.1170618818
 20
0.9159085632
 30
0.0
  0
SPLINE
  5
482
100
AcDbEntity
  8
0
100
AcDbSpline
 62
9
  6
CONTINUOUS
 70
0
 71
3
 72
12
 73
8
 74
0
 42
0.0000001
 43
0.0000001
 44
0.0000000001
 40
0.0
 40
0.0
 40
0.0
 40
0.0
 40
0.2901301103
 40
0.5585077276
 40
0.6817737421
 40
0.7966368768
 40
1.0
 40
1.0
 40
1.0
 40
1.0
 10
2.6669559246
 20
0.6593107012
 30
0.0
 10
2.6748042606
 20
0.6609097859
 30
0.0
 10
2.6897514545
 20
0.6648253766
 30
0.0
 10
2.7074624644
 20
0.6712542512
 30
0.0
 10
2.7203156519
 20
0.6767694961
 30
0.0
 10
2.7313252614
 20
0.6819995622
 30
0.0
 10
2.7390315843
 20
0.6862593165
 30
0.0
 10
2.7437624808
 20
0.6892822424
 30
0.0
  0
LINE
  5
483
100
AcDbEntity
  8
0
100
AcDbLine
 62
9
  6
CONTINUOUS
 10
2.7437624808
 20
0.6892822424
 11
2.7487338046
 21
0.6926407874
  0
SPLINE
  5
484
100
AcDbEntity
  8
0
100
AcDbSpline
 62
9
  6
CONTINUOUS
 70
0
 71
3
 72
9
 73
5
 74
0
 42
0.0000001
 43
0.0000001
 44
0.0000000001
 40
0.0
 40
0.0
 40
0.0
 40
0.0
 40
0.4916750213
 40
1.0
 40
1.0
 40
1.0
 40
1.0
 10
2.5281198682
 20
0.5904925455
 30
0.0
 10
2.5281198682
 20
0.5860038601
 30
0.0
 10
2.529339065
 20
0.5768394375
 30
0.0
 10
2.5328040388
 20
0.5682855296
 30
0.0
 10
2.535022323
 20
0.5642093536
 30
0.0
  0
SPLINE
  5
485
100
AcDbEntity
  8
0
100
AcDbSpline
 62
9
  6
CONTINUOUS
 70
0
 71
3
 72
11
 73
7
 74
0
 42
0.0000001
 43
0.0000001
 44
0.0000000001
 40
0.0
 40
0.0
 40
0.0
 40
0.0
 40
0.2056035481
 40
0.4442013445
 40
0.711678047
 40
1.0
 40
1.0
 40
1.0
 40
1.0
 10
2.5211051289
 20
0.688298568
 30
0.0
 10
2.5258238909
 20
0.6853788251
 30
0.0
 10
2.5363851186
 20
0.6796598449
 30
0.0
 10
2.553977517
 20
0.6719139853
 30
0.0
 10
2.5741749324
 20
0.6646635391
 30
0.0
 10
2.5887183024
 20
0.6608642271
 30
0.0
 10
2.5963431457
 20
0.6593106798
 30
0.0
  0
SPLINE
  5
486
100
AcDbEntity
  8
0
100
AcDbSpline
 62
9
  6
CONTINUOUS
 70
0
 71
3
 72
15
 73
11
 74
0
 42
0.0000001
 43
0.0000001
 44
0.0000000001
 40
0.0
 40
0.0
 40
0.0
 40
0.0
 40
0.0919680271
 40
0.1924645986
 40
0.3020061012
 40
0.420972793
 40
0.5498529013
 40
0.6893229181
 40
0.8396120401
 40
1.0
 40
1.0
 40
1.0
 40
1.0
 10
2.5211051683
 20
0.7463268002
 30
0.0
 10
2.5231870655
 20
0.7476793512
 30
0.0
 10
2.5276632497
 20
0.7503271696
 30
0.0
 10
2.5349109437
 20
0.7540660401
 30
0.0
 10
2.5429602252
 20
0.757823146
 30
0.0
 10
2.5518083683
 20
0.7616722232
 30
0.0
 10
2.5615535054
 20
0.7654704071
 30
0.0
 10
2.572274969
 20
0.7690587418
 30
0.0
 10
2.5839741738
 20
0.7723572008
 30
0.0
 10
2.5921231796
 20
0.7743461497
 30
0.0
 10
2.5963430916
 20
0.7753148748
 30
0.0
  0
SPLINE
  5
487
100
AcDbEntity
  8
0
100
AcDbSpline
 62
9
  6
CONTINUOUS
 70
0
 71
3
 72
9
 73
5
 74
0
 42
0.0000001
 43
0.0000001
 44
0.0000000001
 40
0.0
 40
0.0
 40
0.0
 40
0.0
 40
0.4916750213
 40
1.0
 40
1.0
 40
1.0
 40
1.0
 10
2.7351792087
 20
0.8441329227
 30
0.0
 10
2.7351792087
 20
0.8486216081
 30
0.0
 10
2.7339600119
 20
0.8577860307
 30
0.0
 10
2.7304950381
 20
0.8663399385
 30
0.0
 10
2.728276754
 20
0.8704161146
 30
0.0
  0
LINE
  5
488
100
AcDbEntity
  8
0
100
AcDbLine
 62
9
  6
CONTINUOUS
 10
2.7487339068
 20
0.7419847507
 11
2.7437688645
 21
0.7453884339
  0
SPLINE
  5
489
100
AcDbEntity
  8
0
100
AcDbSpline
 62
9
  6
CONTINUOUS
 70
0
 71
3
 72
14
 73
10
 74
0
 42
0.0000001
 43
0.0000001
 44
0.0000000001
 40
0.0
 40
0.0
 40
0.0
 40
0.0
 40
0.0905612712
 40
0.1901600357
 40
0.4180311657
 40
0.5470302017
 40
0.6868033697
 40
0.8379816842
 40
1.0
 40
1.0
 40
1.0
 40
1.0
 10
2.7437688645
 20
0.7453884339
 30
0.0
 10
2.7416632242
 20
0.7467359064
 30
0.0
 10
2.7371429463
 20
0.749411465
 30
0.0
 10
2.7269428378
 20
0.7548123404
 30
0.0
 10
2.7154688688
 20
0.7600524413
 30
0.0
 10
2.7027217008
 20
0.7651044058
 30
0.0
 10
2.691756612
 20
0.7688828681
 30
0.0
 10
2.6797314194
 20
0.7723276633
 30
0.0
 10
2.6713222674
 20
0.7743463889
 30
0.0
 10
2.6669559854
 20
0.7753148748
 30
0.0
  0
SPLINE
  5
48A
100
AcDbEntity
  8
0
100
AcDbSpline
 62
9
  6
CONTINUOUS
 70
0
 71
3
 72
11
 73
7
 74
0
 42
0.0000001
 43
0.0000001
 44
0.0000000001
 40
0.0
 40
0.0
 40
0.0
 40
0.0
 40
0.23978231
 40
0.4950629524
 40
0.7530760696
 40
1.0
 40
1.0
 40
1.0
 40
1.0
 10
2.5963430932
 20
0.6593105976
 30
0.0
 10
2.5976861053
 20
0.6685136039
 30
0.0
 10
2.599689476
 20
0.6876307167
 30
0.0
 10
2.600756827
 20
0.7168434059
 30
0.0
 10
2.5997425611
 20
0.7463353477
 30
0.0
 10
2.5977260905
 20
0.7658377591
 30
0.0
 10
2.5963430758
 20
0.7753148653
 30
0.0
  0
SPLINE
  5
48B
100
AcDbEntity
  8
0
100
AcDbSpline
 62
9
  6
CONTINUOUS
 70
0
 71
3
 72
17
 73
13
 74
0
 42
0.0000001
 43
0.0000001
 44
0.0000000001
 40
0.0
 40
0.0
 40
0.0
 40
0.0
 40
0.1179818922
 40
0.2399117007
 40
0.3673941277
 40
0.4332428767
 40
0.4999988034
 40
0.5667527935
 40
0.6326025127
 40
0.7600878076
 40
0.8820183391
 40
1.0
 40
1.0
 40
1.0
 40
1.0
 10
2.5963430916
 20
0.7753148748
 30
0.0
 10
2.5988408912
 20
0.7769682803
 30
0.0
 10
2.6040284808
 20
0.7801733514
 30
0.0
 10
2.6124091948
 20
0.7843118837
 30
0.0
 10
2.6200633668
 20
0.7867985903
 30
0.0
 10
2.6265846721
 20
0.7879093179
 30
0.0
 10
2.6316494213
 20
0.7881888801
 30
0.0
 10
2.6367142195
 20
0.7879094662
 30
0.0
 10
2.6432355111
 20
0.7867983948
 30
0.0
 10
2.6508899231
 20
0.78431218
 30
0.0
 10
2.6592708313
 20
0.7801737353
 30
0.0
 10
2.6644582012
 20
0.7769682931
 30
0.0
 10
2.6669559854
 20
0.7753148748
 30
0.0
  0
SPLINE
  5
48C
100
AcDbEntity
  8
0
100
AcDbSpline
 62
9
  6
CONTINUOUS
 70
0
 71
3
 72
11
 73
7
 74
0
 42
0.0000001
 43
0.0000001
 44
0.0000000001
 40
0.0
 40
0.0
 40
0.0
 40
0.0
 40
0.2469239305
 40
0.5049370475
 40
0.7602176899
 40
1.0
 40
1.0
 40
1.0
 40
1.0
 10
2.6669560016
 20
0.7753148649
 30
0.0
 10
2.6655729869
 20
0.7658377587
 30
0.0
 10
2.6635565164
 20
0.7463353475
 30
0.0
 10
2.6625422504
 20
0.7168434058
 30
0.0
 10
2.6636096012
 20
0.6876307168
 30
0.0
 10
2.6656129718
 20
0.6685136042
 30
0.0
 10
2.6669559837
 20
0.6593105978
 30
0.0
  0
SPLINE
  5
48D
100
AcDbEntity
  8
0
100
AcDbSpline
 62
9
  6
CONTINUOUS
 70
0
 71
3
 72
15
 73
11
 74
0
 42
0.0000001
 43
0.0000001
 44
0.0000000001
 40
0.0
 40
0.0
 40
0.0
 40
0.0
 40
0.1324579571
 40
0.2597156839
 40
0.3816944923
 40
0.5000014126
 40
0.6183078596
 40
0.7402856676
 40
0.8675424492
 40
1.0
 40
1.0
 40
1.0
 40
1.0
 10
2.6669555723
 20
0.6593111396
 30
0.0
 10
2.6641530492
 20
0.6574574929
 30
0.0
 10
2.6585096624
 20
0.6540371244
 30
0.0
 10
2.6497155703
 20
0.6499281076
 30
0.0
 10
2.6407566603
 20
0.6472070691
 30
0.0
 10
2.6316494367
 20
0.6461904355
 30
0.0
 10
2.6225422378
 20
0.6472070679
 30
0.0
 10
2.6135833936
 20
0.6499281152
 30
0.0
 10
2.6047893718
 20
0.6540371407
 30
0.0
 10
2.5991460216
 20
0.6574575016
 30
0.0
 10
2.5963435054
 20
0.6593111401
 30
0.0
  0
SPLINE
  5
48E
100
AcDbEntity
  8
0
100
AcDbSpline
 62
9
  6
CONTINUOUS
 70
0
 71
3
 72
15
 73
11
 74
0
 42
0.0000001
 43
0.0000001
 44
0.0000000001
 40
0.0
 40
0.0
 40
0.0
 40
0.0
 40
0.1076262827
 40
0.2179316821
 40
0.3326463575
 40
0.4532034637
 40
0.5804276743
 40
0.714460023
 40
0.8548212059
 40
1.0
 40
1.0
 40
1.0
 40
1.0
 10
2.7351792087
 20
0.5904925455
 30
0.0
 10
2.7351792087
 20
0.5942250484
 30
0.0
 10
2.734341115
 20
0.6018057037
 30
0.0
 10
2.7306752359
 20
0.6128263405
 30
0.0
 10
2.724665054
 20
0.6232806148
 30
0.0
 10
2.716508591
 20
0.6329266691
 30
0.0
 10
2.7063949233
 20
0.6415538088
 30
0.0
 10
2.694565227
 20
0.6489906975
 30
0.0
 10
2.6812945667
 20
0.6550488149
 30
0.0
 10
2.6718329163
 20
0.6580595618
 30
0.0
 10
2.6669559854
 20
0.6593105933
 30
0.0
  0
SPLINE
  5
48F
100
AcDbEntity
  8
0
100
AcDbSpline
 62
9
  6
CONTINUOUS
 70
0
 71
3
 72
15
 73
11
 74
0
 42
0.0000001
 43
0.0000001
 44
0.0000000001
 40
0.0
 40
0.0
 40
0.0
 40
0.0
 40
0.1451787941
 40
0.285539977
 40
0.4195723257
 40
0.5467965363
 40
0.6673536425
 40
0.7820683179
 40
0.8923737173
 40
1.0
 40
1.0
 40
1.0
 40
1.0
 10
2.5963430916
 20
0.6593105933
 30
0.0
 10
2.5914661606
 20
0.6580595618
 30
0.0
 10
2.5820045102
 20
0.6550488149
 30
0.0
 10
2.56873385
 20
0.6489906975
 30
0.0
 10
2.5569041537
 20
0.6415538088
 30
0.0
 10
2.5467904859
 20
0.6329266691
 30
0.0
 10
2.5386340229
 20
0.6232806148
 30
0.0
 10
2.532623841
 20
0.6128263405
 30
0.0
 10
2.5289579619
 20
0.6018057037
 30
0.0
 10
2.5281198682
 20
0.5942250484
 30
0.0
 10
2.5281198682
 20
0.5904925455
 30
0.0
  0
SPLINE
  5
490
100
AcDbEntity
  8
0
100
AcDbSpline
 62
9
  6
CONTINUOUS
 70
0
 71
3
 72
15
 73
11
 74
0
 42
0.0000001
 43
0.0000001
 44
0.0000000001
 40
0.0
 40
0.0
 40
0.0
 40
0.0
 40
0.1076262827
 40
0.2179316821
 40
0.3326463575
 40
0.4532034637
 40
0.5804276743
 40
0.714460023
 40
0.8548212059
 40
1.0
 40
1.0
 40
1.0
 40
1.0
 10
2.5281198682
 20
0.8441329227
 30
0.0
 10
2.5281198682
 20
0.8404004198
 30
0.0
 10
2.5289579619
 20
0.8328197644
 30
0.0
 10
2.532623841
 20
0.8217991276
 30
0.0
 10
2.5386340229
 20
0.8113448533
 30
0.0
 10
2.5467904859
 20
0.801698799
 30
0.0
 10
2.5569041537
 20
0.7930716593
 30
0.0
 10
2.56873385
 20
0.7856347707
 30
0.0
 10
2.5820045102
 20
0.7795766533
 30
0.0
 10
2.5914661606
 20
0.7765659064
 30
0.0
 10
2.5963430916
 20
0.7753148748
 30
0.0
  0
SPLINE
  5
491
100
AcDbEntity
  8
0
100
AcDbSpline
 62
9
  6
CONTINUOUS
 70
0
 71
3
 72
15
 73
11
 74
0
 42
0.0000001
 43
0.0000001
 44
0.0000000001
 40
0.0
 40
0.0
 40
0.0
 40
0.0
 40
0.1451787941
 40
0.285539977
 40
0.4195723257
 40
0.5467965363
 40
0.6673536425
 40
0.7820683179
 40
0.8923737173
 40
1.0
 40
1.0
 40
1.0
 40
1.0
 10
2.6669559854
 20
0.7753148748
 30
0.0
 10
2.6718329163
 20
0.7765659064
 30
0.0
 10
2.6812945667
 20
0.7795766533
 30
0.0
 10
2.694565227
 20
0.7856347707
 30
0.0
 10
2.7063949233
 20
0.7930716593
 30
0.0
 10
2.716508591
 20
0.801698799
 30
0.0
 10
2.724665054
 20
0.8113448533
 30
0.0
 10
2.7306752359
 20
0.8217991276
 30
0.0
 10
2.734341115
 20
0.8328197644
 30
0.0
 10
2.7351792087
 20
0.8404004198
 30
0.0
 10
2.7351792087
 20
0.8441329227
 30
0.0
  0
SPLINE
  5
492
100
AcDbEntity
  8
0
100
AcDbSpline
 62
7
  6
CONTINUOUS
 70
0
 71
3
 72
9
 73
5
 74
0
 42
0.0000001
 43
0.0000001
 44
0.0000000001
 40
0.0
 40
0.0
 40
0.0
 40
0.0
 40
0.2469192119
 40
1.0
 40
1.0
 40
1.0
 40
1.0
 10
2.5102695077
 20
0.6959200365
 30
0.0
 10
2.5106489085
 20
0.697458091
 30
0.0
 10
2.5120277232
 20
0.7037244802
 30
0.0
 10
2.5127484514
 20
0.7101392215
 30
0.0
 10
2.5128782566
 20
0.7149690131
 30
0.0
  0
SPLINE
  5
493
100
AcDbEntity
  8
0
100
AcDbSpline
 62
7
  6
CONTINUOUS
 70
0
 71
3
 72
9
 73
5
 74
0
 42
0.0000001
 43
0.0000001
 44
0.0000000001
 40
0.0
 40
0.0
 40
0.0
 40
0.0
 40
0.2525825655
 40
1.0
 40
1.0
 40
1.0
 40
1.0
 10
2.5128781362
 20
0.7196606554
 30
0.0
 10
2.5128345237
 20
0.7212803072
 30
0.0
 10
2.5124828489
 20
0.7276871396
 30
0.0
 10
2.5114177568
 20
0.7340505533
 30
0.0
 10
2.5102694988
 20
0.738705472
 30
0.0
  0
SPLINE
  5
494
100
AcDbEntity
  8
0
100
AcDbSpline
 62
7
  6
CONTINUOUS
 70
0
 71
3
 72
9
 73
5
 74
0
 42
0.0000001
 43
0.0000001
 44
0.0000000001
 40
0.0
 40
0.0
 40
0.0
 40
0.0
 40
0.5188121803
 40
1.0
 40
1.0
 40
1.0
 40
1.0
 10
2.5091239241
 20
0.7434938137
 30
0.0
 10
2.5081748176
 20
0.7475942497
 30
0.0
 10
2.5064970138
 20
0.7555342749
 30
0.0
 10
2.5052796615
 20
0.7635628397
 30
0.0
 10
2.5048563467
 20
0.7674434383
 30
0.0
  0
SPLINE
  5
495
100
AcDbEntity
  8
0
100
AcDbSpline
 62
7
  6
CONTINUOUS
 70
0
 71
3
 72
11
 73
7
 74
0
 42
0.0000001
 43
0.0000001
 44
0.0000000001
 40
0.0
 40
0.0
 40
0.0
 40
0.0
 40
0.2898575131
 40
0.5543350328
 40
0.7913331809
 40
1.0
 40
1.0
 40
1.0
 40
1.0
 10
2.5048563467
 20
0.7674434383
 30
0.0
 10
2.504596923
 20
0.7698216186
 30
0.0
 10
2.5042156344
 20
0.7743837228
 30
0.0
 10
2.5040961611
 20
0.7809197302
 30
0.0
 10
2.5044660581
 20
0.7867758504
 30
0.0
 10
2.5050564791
 20
0.7904158028
 30
0.0
 10
2.5054457274
 20
0.7920934324
 30
0.0
  0
SPLINE
  5
496
100
AcDbEntity
  8
0
100
AcDbSpline
 62
7
  6
CONTINUOUS
 70
0
 71
3
 72
9
 73
5
 74
0
 42
0.0000001
 43
0.0000001
 44
0.0000000001
 40
0.0
 40
0.0
 40
0.0
 40
0.0
 40
0.5360146427
 40
1.0
 40
1.0
 40
1.0
 40
1.0
 10
2.5041616622
 20
0.6554408907
 30
0.0
 10
2.5041616622
 20
0.6531193387
 30
0.0
 10
2.5043385732
 20
0.6487851082
 30
0.0
 10
2.5049901048
 20
0.6444889991
 30
0.0
 10
2.5054454699
 20
0.6425316876
 30
0.0
  0
SPLINE
  5
497
100
AcDbEntity
  8
0
100
AcDbSpline
 62
7
  6
CONTINUOUS
 70
0
 71
3
 72
9
 73
5
 74
0
 42
0.0000001
 43
0.0000001
 44
0.0000000001
 40
0.0
 40
0.0
 40
0.0
 40
0.0
 40
0.5244300446
 40
1.0
 40
1.0
 40
1.0
 40
1.0
 10
2.5091349538
 20
0.6911813436
 30
0.0
 10
2.5080080994
 20
0.6863200687
 30
0.0
 10
2.5060714399
 20
0.6769989569
 30
0.0
 10
2.5048129716
 20
0.6675513194
 30
0.0
 10
2.5044684459
 20
0.6630392079
 30
0.0
  0
LINE
  5
498
100
AcDbEntity
  8
0
100
AcDbLine
 62
7
  6
CONTINUOUS
 10
2.5044684459
 20
0.6630392079
 11
2.5041616622
 21
0.6554408907
  0
SPLINE
  5
499
100
AcDbEntity
  8
0
100
AcDbSpline
 62
9
  6
CONTINUOUS
 70
0
 71
3
 72
13
 73
9
 74
0
 42
0.0000001
 43
0.0000001
 44
0.0000000001
 40
0.0
 40
0.0
 40
0.0
 40
0.0
 40
0.1024596071
 40
0.2064181291
 40
0.3153723554
 40
0.4319139875
 40
0.6927667606
 40
1.0
 40
1.0
 40
1.0
 40
1.0
 10
2.4968995385
 20
0.7173127281
 30
0.0
 10
2.4968995386
 20
0.7182019352
 30
0.0
 10
2.4970398889
 20
0.7199967113
 30
0.0
 10
2.4976822263
 20
0.7226676601
 30
0.0
 10
2.498746961
 20
0.7253305799
 30
0.0
 10
2.5007932643
 20
0.7290329971
 30
0.0
 10
2.5045474627
 20
0.733693142
 30
0.0
 10
2.5082207699
 20
0.7369988051
 30
0.0
 10
2.510269547
 20
0.7387052566
 30
0.0
  0
SPLINE
  5
49A
100
AcDbEntity
  8
0
100
AcDbSpline
 62
9
  6
CONTINUOUS
 70
0
 71
3
 72
9
 73
5
 74
0
 42
0.0000001
 43
0.0000001
 44
0.0000000001
 40
0.0
 40
0.0
 40
0.0
 40
0.0
 40
0.5083249787
 40
1.0
 40
1.0
 40
1.0
 40
1.0
 10
2.728276754
 20
0.5642093536
 30
0.0
 10
2.7304950381
 20
0.5682855296
 30
0.0
 10
2.7339600119
 20
0.5768394375
 30
0.0
 10
2.7351792087
 20
0.5860038601
 30
0.0
 10
2.7351792087
 20
0.5904925455
 30
0.0
  0
SPLINE
  5
49B
100
AcDbEntity
  8
0
100
AcDbSpline
 62
9
  6
CONTINUOUS
 70
0
 71
3
 72
9
 73
5
 74
0
 42
0.0000001
 43
0.0000001
 44
0.0000000001
 40
0.0
 40
0.0
 40
0.0
 40
0.0
 40
0.5083249787
 40
1.0
 40
1.0
 40
1.0
 40
1.0
 10
2.535022323
 20
0.8704161146
 30
0.0
 10
2.5328040388
 20
0.8663399385
 30
0.0
 10
2.529339065
 20
0.8577860307
 30
0.0
 10
2.5281198682
 20
0.8486216081
 30
0.0
 10
2.5281198682
 20
0.8441329227
 30
0.0
  0
SPLINE
  5
49C
100
AcDbEntity
  8
0
100
AcDbSpline
 62
9
  6
CONTINUOUS
 70
0
 71
3
 72
11
 73
7
 74
0
 42
0.0000001
 43
0.0000001
 44
0.0000000001
 40
0.0
 40
0.0
 40
0.0
 40
0.0
 40
0.2069228094
 40
0.4335497481
 40
0.6947545826
 40
1.0
 40
1.0
 40
1.0
 40
1.0
 10
2.4968995385
 20
0.7173124197
 30
0.0
 10
2.4969004249
 20
0.715518648
 30
0.0
 10
2.4975353033
 20
0.7117409173
 30
0.0
 10
2.5002353537
 20
0.7062881472
 30
0.0
 10
2.5045708078
 20
0.7009034067
 30
0.0
 10
2.5082203549
 20
0.6975941831
 30
0.0
 10
2.5102694896
 20
0.6959199821
 30
0.0
  0
SPLINE
  5
49D
100
AcDbEntity
  8
0
100
AcDbSpline
 62
9
  6
CONTINUOUS
 70
0
 71
3
 72
19
 73
15
 74
0
 42
0.0000001
 43
0.0000001
 44
0.0000000001
 40
0.0
 40
0.0
 40
0.0
 40
0.0
 40
0.0533640501
 40
0.1095206576
 40
0.1687289419
 40
0.2309076505
 40
0.3624761388
 40
0.5000018933
 40
0.6375273074
 40
0.7690948545
 40
0.8312729435
 40
0.890480555
 40
0.9466365134
 40
1.0
 40
1.0
 40
1.0
 40
1.0
 10
2.5350253248
 20
0.435777577
 30
0.0
 10
2.536931835
 20
0.4392838154
 30
0.0
 10
2.5415544294
 20
0.4461097811
 30
0.0
 10
2.5503332586
 20
0.455245879
 30
0.0
 10
2.5609326333
 20
0.463324539
 30
0.0
 10
2.5774487125
 20
0.4726501273
 30
0.0
 10
2.6011878412
 20
0.4805833773
 30
0.0
 10
2.6316512295
 20
0.4837688192
 30
0.0
 10
2.662114476
 20
0.4805826837
 30
0.0
 10
2.6858532749
 20
0.4726488776
 30
0.0
 10
2.702368944
 20
0.463322899
 30
0.0
 10
2.7129679467
 20
0.4552439876
 30
0.0
 10
2.7217463564
 20
0.4461076799
 30
0.0
 10
2.7263686327
 20
0.4392816058
 30
0.0
 10
2.7282749766
 20
0.435775325
 30
0.0
  0
SPLINE
  5
49E
100
AcDbEntity
  8
0
100
AcDbSpline
 62
9
  6
CONTINUOUS
 70
0
 71
3
 72
19
 73
15
 74
0
 42
0.0000001
 43
0.0000001
 44
0.0000000001
 40
0.0
 40
0.0
 40
0.0
 40
0.0
 40
0.0533640501
 40
0.1095206576
 40
0.1687289419
 40
0.2309076505
 40
0.3624761388
 40
0.5000018933
 40
0.6375273074
 40
0.7690948545
 40
0.8312729435
 40
0.890480555
 40
0.9466365134
 40
1.0
 40
1.0
 40
1.0
 40
1.0
 10
2.7282737522
 20
0.9988478912
 30
0.0
 10
2.7263672419
 20
0.9953416528
 30
0.0
 10
2.7217446475
 20
0.988515687
 30
0.0
 10
2.7129658183
 20
0.9793795892
 30
0.0
 10
2.7023664437
 20
0.9713009291
 30
0.0
 10
2.6858503644
 20
0.9619753409
 30
0.0
 10
2.6621112357
 20
0.9540420909
 30
0.0
 10
2.6316478474
 20
0.950856649
 30
0.0
 10
2.6011846009
 20
0.9540427845
 30
0.0
 10
2.577445802
 20
0.9619765906
 30
0.0
 10
2.5609301329
 20
0.9713025692
 30
0.0
 10
2.5503311302
 20
0.9793814806
 30
0.0
 10
2.5415527205
 20
0.9885177883
 30
0.0
 10
2.5369304442
 20
0.9953438623
 30
0.0
 10
2.5350241003
 20
0.9988501432
 30
0.0
  0
SPLINE
  5
49F
100
AcDbEntity
  8
0
100
AcDbSpline
 62
7
  6
CONTINUOUS
 70
0
 71
3
 72
16
 73
12
 74
0
 42
0.0000001
 43
0.0000001
 44
0.0000000001
 40
0.0
 40
0.0
 40
0.0
 40
0.0
 40
0.0230101157
 40
0.0442595183
 40
0.0728208463
 40
0.1524090572
 40
0.2621808396
 40
0.4020517546
 40
0.5718169804
 40
0.7712244849
 40
1.0
 40
1.0
 40
1.0
 40
1.0
 10
3.3780221249
 20
1.0207891352
 30
0.0
 10
3.3780221362
 20
1.020872753
 30
0.0
 10
3.3778507896
 20
1.0209842362
 30
0.0
 10
3.3776202132
 20
1.0210775035
 30
0.0
 10
3.3771618556
 20
1.0212158874
 30
0.0
 10
3.3763898503
 20
1.0213699965
 30
0.0
 10
3.3752043662
 20
1.021550245
 30
0.0
 10
3.373691666
 20
1.0217300588
 30
0.0
 10
3.3718504032
 20
1.0219121928
 30
0.0
 10
3.3696852253
 20
1.0220947383
 30
0.0
 10
3.368133378
 20
1.0222090632
 30
0.0
 10
3.3673040355
 20
1.0222669495
 30
0.0
  0
LINE
  5
4A0
100
AcDbEntity
  8
0
100
AcDbLine
 62
7
  6
CONTINUOUS
 10
3.0653058905
 20
1.0328320713
 11
3.0644303847
 21
1.0331131569
  0
SPLINE
  5
4A1
100
AcDbEntity
  8
0
100
AcDbSpline
 62
7
  6
CONTINUOUS
 70
0
 71
3
 72
14
 73
10
 74
0
 42
0.0000001
 43
0.0000001
 44
0.0000000001
 40
0.0
 40
0.0
 40
0.0
 40
0.0
 40
0.0243489268
 40
0.0741939164
 40
0.153201903
 40
0.2621559885
 40
0.4013523437
 40
0.5708946148
 40
1.0
 40
1.0
 40
1.0
 40
1.0
 10
2.9445825479
 20
0.5294186203
 30
0.0
 10
2.9445217654
 20
0.5294202413
 30
0.0
 10
2.9443891315
 20
0.5295994487
 30
0.0
 10
2.9442816589
 20
0.5299444029
 30
0.0
 10
2.9441409458
 20
0.5305333852
 30
0.0
 10
2.9440105995
 20
0.5313354766
 30
0.0
 10
2.9438729392
 20
0.5323712874
 30
0.0
 10
2.9436752448
 20
0.5342024713
 30
0.0
 10
2.9435509335
 20
0.535692819
 30
0.0
 10
2.9434694605
 20
0.5367612785
 30
0.0
  0
LINE
  5
4A2
100
AcDbEntity
  8
0
100
AcDbLine
 62
7
  6
CONTINUOUS
 10
2.9434694605
 20
0.5367612785
 11
2.9426640201
 21
0.5509352778
  0
LINE
  5
4A3
100
AcDbEntity
  8
0
100
AcDbLine
 62
7
  6
CONTINUOUS
 10
2.9426640201
 20
0.5509352778
 11
2.9418630402
 21
0.5717583481
  0
LINE
  5
4A4
100
AcDbEntity
  8
0
100
AcDbLine
 62
7
  6
CONTINUOUS
 10
2.9382533454
 20
0.7212648139
 11
2.9378517511
 21
0.7401730468
  0
LINE
  5
4A5
100
AcDbEntity
  8
0
100
AcDbLine
 62
7
  6
CONTINUOUS
 10
2.9347531747
 20
0.8645949211
 11
2.9346479498
 21
0.8676315622
  0
LINE
  5
4A6
100
AcDbEntity
  8
0
100
AcDbLine
 62
7
  6
CONTINUOUS
 10
2.9346479498
 20
0.8676315622
 11
2.933441924
 21
0.8944151528
  0
SPLINE
  5
4A7
100
AcDbEntity
  8
0
100
AcDbSpline
 62
7
  6
CONTINUOUS
 70
0
 71
3
 72
12
 73
8
 74
0
 42
0.0000001
 43
0.0000001
 44
0.0000000001
 40
0.0
 40
0.0
 40
0.0
 40
0.0
 40
0.3662314817
 40
0.6555786259
 40
0.8669204139
 40
0.9432260981
 40
1.0
 40
1.0
 40
1.0
 40
1.0
 10
2.933441924
 20
0.8944151528
 30
0.0
 10
2.9333618843
 20
0.8956761417
 30
0.0
 10
2.9332075334
 20
0.8979328426
 30
0.0
 10
2.9329505984
 20
0.9009126362
 30
0.0
 10
2.9327262496
 20
0.9028916494
 30
0.0
 10
2.9325332292
 20
0.9040642231
 30
0.0
 10
2.932435419
 20
0.9045134541
 30
0.0
 10
2.9323821973
 20
0.9047019593
 30
0.0
  0
LINE
  5
4A8
100
AcDbEntity
  8
0
100
AcDbLine
 62
7
  6
CONTINUOUS
 10
2.9323821973
 20
0.9047019593
 11
2.9322287967
 21
0.9051060981
  0
SPLINE
  5
4A9
100
AcDbEntity
  8
0
100
AcDbSpline
 62
7
  6
CONTINUOUS
 70
0
 71
3
 72
15
 73
11
 74
0
 42
0.0000001
 43
0.0000001
 44
0.0000000001
 40
0.0
 40
0.0
 40
0.0
 40
0.0
 40
0.0251623346
 40
0.0468163275
 40
0.0755218378
 40
0.1550094997
 40
0.2644664244
 40
0.4038957845
 40
0.5731258633
 40
1.0
 40
1.0
 40
1.0
 40
1.0
 10
3.0642788191
 20
1.0332888744
 30
0.0
 10
3.0642792009
 20
1.0333547745
 30
0.0
 10
3.064394215
 20
1.0334509331
 30
0.0
 10
3.064565219
 20
1.0335321499
 30
0.0
 10
3.0648895759
 20
1.0336488517
 30
0.0
 10
3.0654425464
 20
1.0337795669
 30
0.0
 10
3.0662903712
 20
1.0339317092
 30
0.0
 10
3.0673745923
 20
1.0340837312
 30
0.0
 10
3.0692883611
 20
1.0343064627
 30
0.0
 10
3.0708435392
 20
1.0344457115
 30
0.0
 10
3.0719577877
 20
1.0345372253
 30
0.0
  0
SPLINE
  5
4AA
100
AcDbEntity
  8
0
100
AcDbSpline
 62
7
  6
CONTINUOUS
 70
0
 71
3
 72
11
 73
7
 74
0
 42
0.0000001
 43
0.0000001
 44
0.0000000001
 40
0.0
 40
0.0
 40
0.0
 40
0.0
 40
0.1647574659
 40
0.3904643906
 40
0.6712222976
 40
1.0
 40
1.0
 40
1.0
 40
1.0
 10
3.0719577877
 20
1.0345372253
 30
0.0
 10
3.0751722353
 20
1.0348012293
 30
0.0
 10
3.082802768
 20
1.0352678462
 30
0.0
 10
3.0959280836
 20
1.0358813768
 30
0.0
 10
3.1122672053
 20
1.0365008394
 30
0.0
 10
3.1241930362
 20
1.0368902951
 30
0.0
 10
3.1306260423
 20
1.0370901426
 30
0.0
  0
LINE
  5
4AB
100
AcDbEntity
  8
0
100
AcDbLine
 62
7
  6
CONTINUOUS
 10
3.1306260423
 20
1.0370901426
 11
3.3170251294
 21
1.042154237
  0
SPLINE
  5
4AC
100
AcDbEntity
  8
0
100
AcDbSpline
 62
7
  6
CONTINUOUS
 70
0
 71
3
 72
9
 73
5
 74
0
 42
0.0000001
 43
0.0000001
 44
0.0000000001
 40
0.0
 40
0.0
 40
0.0
 40
0.0
 40
0.5625393249
 40
1.0
 40
1.0
 40
1.0
 40
1.0
 10
3.3170251294
 20
1.042154237
 30
0.0
 10
3.3249948684
 20
1.0424096049
 30
0.0
 10
3.3391611883
 20
1.0428962855
 30
0.0
 10
3.3533235523
 20
1.04350226
 30
0.0
 10
3.3595154679
 20
1.0438354963
 30
0.0
  0
SPLINE
  5
4AD
100
AcDbEntity
  8
0
100
AcDbSpline
 62
7
  6
CONTINUOUS
 70
0
 71
3
 72
12
 73
8
 74
0
 42
0.0000001
 43
0.0000001
 44
0.0000000001
 40
0.0
 40
0.0
 40
0.0
 40
0.0
 40
0.375771495
 40
0.668786102
 40
0.8770434712
 40
0.9490887683
 40
1.0
 40
1.0
 40
1.0
 40
1.0
 10
3.3665099931
 20
1.0442540306
 30
0.0
 10
3.3679116592
 20
1.0443486183
 30
0.0
 10
3.3704057088
 20
1.0445301506
 30
0.0
 10
3.3736700765
 20
1.0448342195
 30
0.0
 10
3.3757991563
 20
1.0450978507
 30
0.0
 10
3.3770154697
 20
1.0453293278
 30
0.0
 10
3.3774615114
 20
1.0454462053
 30
0.0
 10
3.3776401227
 20
1.0455119761
 30
0.0
  0
SPLINE
  5
4AE
100
AcDbEntity
  8
0
100
AcDbSpline
 62
7
  6
CONTINUOUS
 70
0
 71
3
 72
15
 73
11
 74
0
 42
0.0000001
 43
0.0000001
 44
0.0000000001
 40
0.0
 40
0.0
 40
0.0
 40
0.0
 40
0.02340038
 40
0.0445707722
 40
0.0729510059
 40
0.1521010637
 40
0.2616267633
 40
0.4014984478
 40
0.5714221728
 40
1.0
 40
1.0
 40
1.0
 40
1.0
 10
3.3780140323
 20
1.0457859705
 30
0.0
 10
3.3780150614
 20
1.0458634079
 30
0.0
 10
3.3778641213
 20
1.0459717526
 30
0.0
 10
3.3776542627
 20
1.046061192
 30
0.0
 10
3.3772418871
 20
1.046193656
 30
0.0
 10
3.3765425029
 20
1.0463409324
 30
0.0
 10
3.3754666162
 20
1.0465129758
 30
0.0
 10
3.3740900859
 20
1.046684614
 30
0.0
 10
3.3716589601
 20
1.0469363467
 30
0.0
 10
3.3696843541
 20
1.0470937192
 30
0.0
 10
3.3682697437
 20
1.0471972183
 30
0.0
  0
LINE
  5
4AF
100
AcDbEntity
  8
0
100
AcDbLine
 62
7
  6
CONTINUOUS
 10
3.0651253469
 20
0.9828741527
 11
3.0644238103
 21
0.9831147785
  0
SPLINE
  5
4B0
100
AcDbEntity
  8
0
100
AcDbSpline
 62
7
  6
CONTINUOUS
 70
0
 71
3
 72
15
 73
11
 74
0
 42
0.0000001
 43
0.0000001
 44
0.0000000001
 40
0.0
 40
0.0
 40
0.0
 40
0.0
 40
0.0260205322
 40
0.0480425808
 40
0.0770404113
 40
0.1567976374
 40
0.2661130614
 40
0.4051404084
 40
0.5738618849
 40
1.0
 40
1.0
 40
1.0
 40
1.0
 10
3.3780147494
 20
0.9638358183
 30
0.0
 10
3.378012979
 20
0.9637724016
 30
0.0
 10
3.3779050585
 20
0.9636806555
 30
0.0
 10
3.3777429678
 20
0.963601454
 30
0.0
 10
3.3774400999
 20
0.9634894575
 30
0.0
 10
3.3769251594
 20
0.9633631168
 30
0.0
 10
3.3761375826
 20
0.9632164414
 30
0.0
 10
3.3751315301
 20
0.9630697956
 30
0.0
 10
3.3733548916
 20
0.9628550041
 30
0.0
 10
3.3719105651
 20
0.962720882
 30
0.0
 10
3.370875326
 20
0.9626328046
 30
0.0
  0
SPLINE
  5
4B1
100
AcDbEntity
  8
0
100
AcDbSpline
 62
7
  6
CONTINUOUS
 70
0
 71
3
 72
19
 73
15
 74
0
 42
0.0000001
 43
0.0000001
 44
0.0000000001
 40
0.0
 40
0.0
 40
0.0
 40
0.0
 40
0.0291383914
 40
0.0685595641
 40
0.1174970923
 40
0.1749074355
 40
0.2396163188
 40
0.3102690268
 40
0.4634071302
 40
0.6216238985
 40
0.7718175151
 40
0.9015315269
 40
0.955260341
 40
1.0
 40
1.0
 40
1.0
 40
1.0
 10
3.370875326
 20
0.9626328046
 30
0.0
 10
3.3681122596
 20
0.9623977247
 30
0.0
 10
3.361600201
 20
0.9619772826
 30
0.0
 10
3.3504320553
 20
0.9614221409
 30
0.0
 10
3.3365705103
 20
0.9608632472
 30
0.0
 10
3.320301114
 20
0.9602989524
 30
0.0
 10
3.3019640446
 20
0.9597329621
 30
0.0
 10
3.2745190454
 20
0.9589553232
 30
0.0
 10
3.2381762009
 20
0.9580149835
 30
0.0
 10
3.1942653104
 20
0.9569116429
 30
0.0
 10
3.1525843301
 20
0.9558117845
 30
0.0
 10
3.1208467422
 20
0.954859736
 30
0.0
 10
3.0991457303
 20
0.9540587814
 30
0.0
 10
3.0897835084
 20
0.9536476245
 30
0.0
 10
3.0855311315
 20
0.9534329284
 30
0.0
  0
SPLINE
  5
4B2
100
AcDbEntity
  8
0
100
AcDbSpline
 62
7
  6
CONTINUOUS
 70
0
 71
3
 72
12
 73
8
 74
0
 42
0.0000001
 43
0.0000001
 44
0.0000000001
 40
0.0
 40
0.0
 40
0.0
 40
0.0
 40
0.3686227625
 40
0.6601717234
 40
0.8711588844
 40
0.9458965098
 40
1.0
 40
1.0
 40
1.0
 40
1.0
 10
3.0855311315
 20
0.9534329284
 30
0.0
 10
3.0830211376
 20
0.9533062025
 30
0.0
 10
3.0785265857
 20
0.9530623545
 30
0.0
 10
3.0726012542
 20
0.9526575681
 30
0.0
 10
3.0686798638
 20
0.952304516
 30
0.0
 10
3.0663833752
 20
0.9519979063
 30
0.0
 10
3.06551768
 20
0.9518429791
 30
0.0
 10
3.0651590146
 20
0.9517568324
 30
0.0
  0
LINE
  5
4B3
100
AcDbEntity
  8
0
100
AcDbLine
 62
7
  6
CONTINUOUS
 10
3.0651590146
 20
0.9517568324
 11
3.0644399078
 21
0.9515144357
  0
LINE
  5
4B4
100
AcDbEntity
  8
0
100
AcDbLine
 62
7
  6
CONTINUOUS
 10
3.3769522
 20
0.9643010991
 11
3.3778658657
 21
0.9640114596
  0
SPLINE
  5
4B5
100
AcDbEntity
  8
0
100
AcDbSpline
 62
7
  6
CONTINUOUS
 70
0
 71
3
 72
15
 73
11
 74
0
 42
0.0000001
 43
0.0000001
 44
0.0000000001
 40
0.0
 40
0.0
 40
0.0
 40
0.0
 40
0.0253097389
 40
0.0470746042
 40
0.0758854266
 40
0.1554491773
 40
0.2647699254
 40
0.4039643463
 40
0.5729837383
 40
1.0
 40
1.0
 40
1.0
 40
1.0
 10
3.0642745385
 20
0.9832877341
 30
0.0
 10
3.0642745393
 20
0.9833530938
 30
0.0
 10
3.0643885778
 20
0.9834487933
 30
0.0
 10
3.0645578344
 20
0.9835294258
 30
0.0
 10
3.0648782126
 20
0.9836452892
 30
0.0
 10
3.0654232903
 20
0.983775228
 30
0.0
 10
3.0662582594
 20
0.9839265306
 30
0.0
 10
3.0673256197
 20
0.9840776544
 30
0.0
 10
3.0692116051
 20
0.9842991619
 30
0.0
 10
3.0707447664
 20
0.9844374258
 30
0.0
 10
3.0718437437
 20
0.9845282503
 30
0.0
  0
SPLINE
  5
4B6
100
AcDbEntity
  8
0
100
AcDbSpline
 62
7
  6
CONTINUOUS
 70
0
 71
3
 72
26
 73
22
 74
0
 42
0.0000001
 43
0.0000001
 44
0.0000000001
 40
0.0
 40
0.0
 40
0.0
 40
0.0
 40
0.0337069767
 40
0.0804282838
 40
0.1388746726
 40
0.2073460679
 40
0.2839105818
 40
0.3663606356
 40
0.4523437969
 40
0.5393799832
 40
0.6249836568
 40
0.70668889
 40
0.7821771691
 40
0.8492600408
 40
0.9060445229
 40
0.93003296
 40
0.9508645696
 40
0.9683945262
 40
0.982480993
 40
0.9930289448
 40
1.0
 40
1.0
 40
1.0
 40
1.0
 10
3.0718437437
 20
0.9845282503
 30
0.0
 10
3.0752628222
 20
0.9848108187
 30
0.0
 10
3.0834353907
 20
0.9853032547
 30
0.0
 10
3.0975551602
 20
0.9859513354
 30
0.0
 10
3.1152165959
 20
0.9866041027
 30
0.0
 10
3.1359167185
 20
0.9872644012
 30
0.0
 10
3.1590610774
 20
0.9879265613
 30
0.0
 10
3.1839883836
 20
0.9885907424
 30
0.0
 10
3.2099818584
 20
0.9892554955
 30
0.0
 10
3.2362963994
 20
0.9899207153
 30
0.0
 10
3.2621754032
 20
0.9905854692
 30
0.0
 10
3.28687866
 20
0.9912496489
 30
0.0
 10
3.309696211
 20
0.9919114873
 30
0.0
 10
3.3299761572
 20
0.9925712192
 30
0.0
 10
3.3450144466
 20
0.9931423139
 30
0.0
 10
3.3553451275
 20
0.9936140698
 30
0.0
 10
3.3616826305
 20
0.9939462303
 30
0.0
 10
3.3670104831
 20
0.994276892
 30
0.0
 10
3.3712905183
 20
0.9946018678
 30
0.0
 10
3.3744901305
 20
0.9949257605
 30
0.0
 10
3.3762589989
 20
0.9951730621
 30
0.0
 10
3.3769522
 20
0.9953243691
 30
0.0
  0
LINE
  5
4B7
100
AcDbEntity
  8
0
100
AcDbLine
 62
7
  6
CONTINUOUS
 10
3.3769522
 20
0.9953243691
 11
3.3778658759
 21
0.9956140144
  0
SPLINE
  5
4B8
100
AcDbEntity
  8
0
100
AcDbSpline
 62
7
  6
CONTINUOUS
 70
0
 71
3
 72
15
 73
11
 74
0
 42
0.0000001
 43
0.0000001
 44
0.0000000001
 40
0.0
 40
0.0
 40
0.0
 40
0.0
 40
0.0244371779
 40
0.0459004151
 40
0.0744918901
 40
0.1538209425
 40
0.2631315137
 40
0.402506263
 40
0.5718719519
 40
1.0
 40
1.0
 40
1.0
 40
1.0
 10
3.3780147527
 20
0.9888396499
 30
0.0
 10
3.3780166685
 20
0.9887710083
 30
0.0
 10
3.377892357
 20
0.9886696727
 30
0.0
 10
3.377711287
 20
0.9885866116
 30
0.0
 10
3.3773629126
 20
0.9884648496
 30
0.0
 10
3.3767701952
 20
0.9883292558
 30
0.0
 10
3.3758605667
 20
0.988170788
 30
0.0
 10
3.3746968662
 20
0.9880127079
 30
0.0
 10
3.3726389519
 20
0.9877807963
 30
0.0
 10
3.3709660757
 20
0.9876361436
 30
0.0
 10
3.3697667991
 20
0.9875410964
 30
0.0
  0
SPLINE
  5
4B9
100
AcDbEntity
  8
0
100
AcDbSpline
 62
7
  6
CONTINUOUS
 70
0
 71
3
 72
27
 73
23
 74
0
 42
0.0000001
 43
0.0000001
 44
0.0000000001
 40
0.0
 40
0.0
 40
0.0
 40
0.0
 40
0.0348484774
 40
0.0826362909
 40
0.1420421154
 40
0.2113274537
 40
0.2885330054
 40
0.3714325994
 40
0.4576690875
 40
0.5447647051
 40
0.6302342314
 40
0.7116103312
 40
0.7865842547
 40
0.8529868651
 40
0.9089570381
 40
0.9324994198
 40
0.952863575
 40
0.9699091908
 40
0.9834988759
 40
0.9935400308
 40
0.9972184813
 40
1.0
 40
1.0
 40
1.0
 40
1.0
 10
3.3697667991
 20
0.9875410964
 30
0.0
 10
3.3662363329
 20
0.9872612937
 30
0.0
 10
3.3578515437
 20
0.9867693073
 30
0.0
 10
3.3434309724
 20
0.9861209946
 30
0.0
 10
3.3255076153
 20
0.9854679523
 30
0.0
 10
3.3045934284
 20
0.9848077722
 30
0.0
 10
3.281290588
 20
0.9841457097
 30
0.0
 10
3.2562645007
 20
0.9834816881
 30
0.0
 10
3.2302329902
 20
0.9828171677
 30
0.0
 10
3.2039402334
 20
0.9821523429
 30
0.0
 10
3.1781415623
 20
0.9814881349
 30
0.0
 10
3.1535751863
 20
0.980824545
 30
0.0
 10
3.1309471871
 20
0.9801633441
 30
0.0
 10
3.1109022766
 20
0.9795042779
 30
0.0
 10
3.0960842199
 20
0.9789332365
 30
0.0
 10
3.0859449741
 20
0.9784613328
 30
0.0
 10
3.0797594908
 20
0.9781291735
 30
0.0
 10
3.0745867986
 20
0.9778001371
 30
0.0
 10
3.0704659807
 20
0.9774731851
 30
0.0
 10
3.0677043643
 20
0.9771871585
 30
0.0
 10
3.0660452594
 20
0.9769423664
 30
0.0
 10
3.0653999839
 20
0.9768182525
 30
0.0
 10
3.0651253469
 20
0.9767513155
 30
0.0
  0
LINE
  5
4BA
100
AcDbEntity
  8
0
100
AcDbLine
 62
7
  6
CONTINUOUS
 10
3.0651253469
 20
0.9767513155
 11
3.0644238207
 21
0.9765106957
  0
LINE
  5
4BB
100
AcDbEntity
  8
0
100
AcDbLine
 62
7
  6
CONTINUOUS
 10
3.3860256868
 20
1.0063159315
 11
3.3922380999
 21
1.0055568058
  0
LINE
  5
4BC
100
AcDbEntity
  8
0
100
AcDbLine
 62
7
  6
CONTINUOUS
 10
3.3922380999
 20
1.0055568058
 11
3.3928879661
 21
1.0053355356
  0
SPLINE
  5
4BD
100
AcDbEntity
  8
0
100
AcDbSpline
 62
7
  6
CONTINUOUS
 70
0
 71
3
 72
16
 73
12
 74
0
 42
0.0000001
 43
0.0000001
 44
0.0000000001
 40
0.0
 40
0.0
 40
0.0
 40
0.0
 40
0.0143918793
 40
0.0350643007
 40
0.0957570632
 40
0.1824630377
 40
0.2951553984
 40
0.4337127802
 40
0.5977709688
 40
0.7867368644
 40
1.0
 40
1.0
 40
1.0
 40
1.0
 10
3.392884344
 20
1.0050196956
 30
0.0
 10
3.3928052107
 20
1.0049742873
 30
0.0
 10
3.3925963741
 20
1.0048934383
 30
0.0
 10
3.3920109569
 20
1.0047337254
 30
0.0
 10
3.3909589217
 20
1.0045520013
 30
0.0
 10
3.3893239538
 20
1.0043424161
 30
0.0
 10
3.3871914059
 20
1.004131651
 30
0.0
 10
3.3845672754
 20
1.003918524
 30
0.0
 10
3.3814581727
 20
1.003704882
 30
0.0
 10
3.377874637
 20
1.0034904908
 30
0.0
 10
3.3753283063
 20
1.0033553492
 30
0.0
 10
3.3739780715
 20
1.0032870369
 30
0.0
  0
SPLINE
  5
4BE
100
AcDbEntity
  8
0
100
AcDbSpline
 62
7
  6
CONTINUOUS
 70
0
 71
3
 72
19
 73
15
 74
0
 42
0.0000001
 43
0.0000001
 44
0.0000000001
 40
0.0
 40
0.0
 40
0.0
 40
0.0
 40
0.0420198011
 40
0.0937242843
 40
0.2214662367
 40
0.3720311811
 40
0.5321593356
 40
0.687794269
 40
0.7595880074
 40
0.8252294764
 40
0.88325585
 40
0.9324217402
 40
0.9716194252
 40
1.0
 40
1.0
 40
1.0
 40
1.0
 10
3.3739780715
 20
1.0032870369
 30
0.0
 10
3.3695309802
 20
1.0030620457
 30
0.0
 10
3.3596080527
 20
1.0026359628
 30
0.0
 10
3.3361541796
 20
1.0018064596
 30
0.0
 10
3.3011966701
 20
1.0008281256
 30
0.0
 10
3.2547500856
 20
0.9996991833
 30
0.0
 10
3.2053469415
 20
0.9985659753
 30
0.0
 10
3.1642894223
 20
0.9976001492
 30
0.0
 10
3.1332434942
 20
0.9967998183
 30
0.0
 10
3.1125388451
 20
0.99621755
 30
0.0
 10
3.0942331097
 20
0.9956367063
 30
0.0
 10
3.0787307433
 20
0.9950623127
 30
0.0
 10
3.0663727753
 20
0.9944930286
 30
0.0
 10
3.0592235863
 20
0.9940601175
 30
0.0
 10
3.0562263147
 20
0.993812902
 30
0.0
  0
LINE
  5
4BF
100
AcDbEntity
  8
0
100
AcDbLine
 62
7
  6
CONTINUOUS
 10
3.0562263147
 20
0.993812902
 11
3.0500631693
 21
0.9930544372
  0
LINE
  5
4C0
100
AcDbEntity
  8
0
100
AcDbLine
 62
7
  6
CONTINUOUS
 10
3.0500631693
 20
0.9930544372
 11
3.0494174004
 21
0.9928335261
  0
LINE
  5
4C1
100
AcDbEntity
  8
0
100
AcDbLine
 62
7
  6
CONTINUOUS
 10
3.0496934716
 20
0.9429555312
 11
3.0500583522
 21
0.943057851
  0
SPLINE
  5
4C2
100
AcDbEntity
  8
0
100
AcDbSpline
 62
7
  6
CONTINUOUS
 70
0
 71
3
 72
12
 73
8
 74
0
 42
0.0000001
 43
0.0000001
 44
0.0000000001
 40
0.0
 40
0.0
 40
0.0
 40
0.0
 40
0.053862202
 40
0.1283036435
 40
0.3387645576
 40
0.6302841213
 40
1.0
 40
1.0
 40
1.0
 40
1.0
 10
3.0500583522
 20
0.943057851
 30
0.0
 10
3.0503794153
 20
0.9431357938
 30
0.0
 10
3.0511548503
 20
0.9432757769
 30
0.0
 10
3.0532143043
 20
0.9435524676
 30
0.0
 10
3.0567371012
 20
0.9438707481
 30
0.0
 10
3.0620712918
 20
0.9442367133
 30
0.0
 10
3.0661215362
 20
0.9444569472
 30
0.0
 10
3.0683864668
 20
0.9445714385
 30
0.0
  0
SPLINE
  5
4C3
100
AcDbEntity
  8
0
100
AcDbSpline
 62
7
  6
CONTINUOUS
 70
0
 71
3
 72
14
 73
10
 74
0
 42
0.0000001
 43
0.0000001
 44
0.0000000001
 40
0.0
 40
0.0
 40
0.0
 40
0.0
 40
0.0950323179
 40
0.2152005835
 40
0.4259520298
 40
0.6469798479
 40
0.8476069494
 40
0.9313460302
 40
1.0
 40
1.0
 40
1.0
 40
1.0
 10
3.0765650428
 20
0.9449504623
 30
0.0
 10
3.0857206576
 20
0.9453425933
 30
0.0
 10
3.1064609061
 20
0.946053327
 30
0.0
 10
3.1475195734
 20
0.9472009876
 30
0.0
 10
3.2007293585
 20
0.9484622552
 30
0.0
 10
3.2616965155
 20
0.9498567464
 30
0.0
 10
3.3104173008
 20
0.9510596229
 30
0.0
 10
3.3444436968
 20
0.9520883289
 30
0.0
 10
3.3591295805
 20
0.9526219819
 30
0.0
 10
3.3657438643
 20
0.9529049187
 30
0.0
  0
LINE
  5
4C4
100
AcDbEntity
  8
0
100
AcDbLine
 62
7
  6
CONTINUOUS
 10
3.38071587
 20
0.9536618738
 11
3.3860643242
 21
0.9540412751
  0
LINE
  5
4C5
100
AcDbEntity
  8
0
100
AcDbLine
 62
7
  6
CONTINUOUS
 10
3.3860643242
 20
0.9540412751
 11
3.3922415509
 21
0.9548010342
  0
LINE
  5
4C6
100
AcDbEntity
  8
0
100
AcDbLine
 62
7
  6
CONTINUOUS
 10
3.3922415509
 20
0.9548010342
 11
3.3930245385
 21
0.95517748
  0
SPLINE
  5
4C7
100
AcDbEntity
  8
0
100
AcDbSpline
 62
7
  6
CONTINUOUS
 70
0
 71
3
 72
16
 73
12
 74
0
 42
0.0000001
 43
0.0000001
 44
0.0000000001
 40
0.0
 40
0.0
 40
0.0
 40
0.0
 40
0.0142937091
 40
0.0349040962
 40
0.095563862
 40
0.1823151154
 40
0.2950762931
 40
0.4336731521
 40
0.5977339141
 40
0.7867007188
 40
1.0
 40
1.0
 40
1.0
 40
1.0
 10
3.0494209136
 20
0.967104932
 30
0.0
 10
3.0494995564
 20
0.967150548
 30
0.0
 10
3.0497080965
 20
0.9672315591
 30
0.0
 10
3.0502941755
 20
0.9673917025
 30
0.0
 10
3.0513494684
 20
0.9675738331
 30
0.0
 10
3.0529903659
 20
0.9677841073
 30
0.0
 10
3.0551309952
 20
0.9679955682
 30
0.0
 10
3.0577645533
 20
0.9682093904
 30
0.0
 10
3.060884274
 20
0.9684236344
 30
0.0
 10
3.0644799851
 20
0.9686385529
 30
0.0
 10
3.0670350252
 20
0.9687739765
 30
0.0
 10
3.0683899831
 20
0.9688424254
 30
0.0
  0
SPLINE
  5
4C8
100
AcDbEntity
  8
0
100
AcDbSpline
 62
7
  6
CONTINUOUS
 70
0
 71
3
 72
19
 73
15
 74
0
 42
0.0000001
 43
0.0000001
 44
0.0000000001
 40
0.0
 40
0.0
 40
0.0
 40
0.0
 40
0.0420582718
 40
0.0938188537
 40
0.2216076984
 40
0.3721300828
 40
0.5322082464
 40
0.6877761918
 40
0.7595559279
 40
0.8252032895
 40
0.8832459833
 40
0.9324201677
 40
0.9716071662
 40
1.0
 40
1.0
 40
1.0
 40
1.0
 10
3.0683899831
 20
0.9688424254
 30
0.0
 10
3.0728395855
 20
0.9690672078
 30
0.0
 10
3.0827690359
 20
0.96949285
 30
0.0
 10
3.1062296191
 20
0.9703212619
 30
0.0
 10
3.1411811414
 20
0.9712992172
 30
0.0
 10
3.1876064287
 20
0.9724278089
 30
0.0
 10
3.2369751786
 20
0.973559842
 30
0.0
 10
3.2780042711
 20
0.9745252554
 30
0.0
 10
3.3090312411
 20
0.9753252527
 30
0.0
 10
3.3297294254
 20
0.9759071814
 30
0.0
 10
3.3480319311
 20
0.976487123
 30
0.0
 10
3.3635302945
 20
0.9770607503
 30
0.0
 10
3.3758849056
 20
0.977631034
 30
0.0
 10
3.3830316417
 20
0.9780643251
 30
0.0
 10
3.386029289
 20
0.9783098137
 30
0.0
  0
LINE
  5
4C9
100
AcDbEntity
  8
0
100
AcDbLine
 62
7
  6
CONTINUOUS
 10
3.386029289
 20
0.9783098137
 11
3.3922276715
 21
0.9790661526
  0
LINE
  5
4CA
100
AcDbEntity
  8
0
100
AcDbLine
 62
7
  6
CONTINUOUS
 10
3.3922276715
 20
0.9790661526
 11
3.3928729104
 21
0.9792855879
  0
LINE
  5
4CB
100
AcDbEntity
  8
0
100
AcDbLine
 62
7
  6
CONTINUOUS
 10
3.0561995788
 20
0.9908154434
 11
3.0500516533
 21
0.9915714905
  0
LINE
  5
4CC
100
AcDbEntity
  8
0
100
AcDbLine
 62
7
  6
CONTINUOUS
 10
3.0500516533
 20
0.9915714905
 11
3.0494092901
 21
0.9917913852
  0
SPLINE
  5
4CD
100
AcDbEntity
  8
0
100
AcDbSpline
 62
7
  6
CONTINUOUS
 70
0
 71
3
 72
16
 73
12
 74
0
 42
0.0000001
 43
0.0000001
 44
0.0000000001
 40
0.0
 40
0.0
 40
0.0
 40
0.0
 40
0.0084875987
 40
0.0223495327
 40
0.0712387071
 40
0.1501931233
 40
0.2597222062
 40
0.3997905205
 40
0.5700944127
 40
0.7702861828
 40
1.0
 40
1.0
 40
1.0
 40
1.0
 10
2.9727120385
 20
0.5294060048
 30
0.0
 10
2.9727445885
 20
0.5294060048
 30
0.0
 10
2.9728235497
 20
0.5294607324
 30
0.0
 10
2.972950513
 20
0.5297017571
 30
0.0
 10
2.9730972026
 20
0.5302310222
 30
0.0
 10
2.9732601293
 20
0.5311246551
 30
0.0
 10
2.9734277562
 20
0.5323748094
 30
0.0
 10
2.9735974103
 20
0.533975876
 30
0.0
 10
2.9737684047
 20
0.5359266416
 30
0.0
 10
2.9739401319
 20
0.5382220302
 30
0.0
 10
2.9740476204
 20
0.5398672527
 30
0.0
 10
2.9741020655
 20
0.5407465248
 30
0.0
  0
SPLINE
  5
4CE
100
AcDbEntity
  8
0
100
AcDbSpline
 62
7
  6
CONTINUOUS
 70
0
 71
3
 72
16
 73
12
 74
0
 42
0.0000001
 43
0.0000001
 44
0.0000000001
 40
0.0
 40
0.0
 40
0.0
 40
0.0
 40
0.0084875987
 40
0.0223495327
 40
0.0712387071
 40
0.1501931233
 40
0.2597222062
 40
0.3997905205
 40
0.5700944127
 40
0.7702861828
 40
1.0
 40
1.0
 40
1.0
 40
1.0
 10
2.9695870385
 20
0.5294060048
 30
0.0
 10
2.9695544884
 20
0.5294060048
 30
0.0
 10
2.9694755272
 20
0.5294607324
 30
0.0
 10
2.969348564
 20
0.5297017571
 30
0.0
 10
2.9692018744
 20
0.5302310222
 30
0.0
 10
2.9690389477
 20
0.5311246551
 30
0.0
 10
2.9688713208
 20
0.5323748094
 30
0.0
 10
2.9687016666
 20
0.533975876
 30
0.0
 10
2.9685306722
 20
0.5359266416
 30
0.0
 10
2.968358945
 20
0.5382220302
 30
0.0
 10
2.9682514565
 20
0.5398672527
 30
0.0
 10
2.9681970114
 20
0.5407465248
 30
0.0
  0
SPLINE
  5
4CF
100
AcDbEntity
  8
0
100
AcDbSpline
 62
7
  6
CONTINUOUS
 70
0
 71
3
 72
10
 73
6
 74
0
 42
0.0000001
 43
0.0000001
 44
0.0000000001
 40
0.0
 40
0.0
 40
0.0
 40
0.0
 40
0.1873918383
 40
0.4182216765
 40
1.0
 40
1.0
 40
1.0
 40
1.0
 10
2.9681970114
 20
0.5407465248
 30
0.0
 10
2.9680467761
 20
0.5431727834
 30
0.0
 10
2.9677597056
 20
0.5485906744
 30
0.0
 10
2.9671969532
 20
0.5615508464
 30
0.0
 10
2.9668432556
 20
0.572086566
 30
0.0
 10
2.9666086174
 20
0.5796299278
 30
0.0
  0
SPLINE
  5
4D0
100
AcDbEntity
  8
0
100
AcDbSpline
 62
7
  6
CONTINUOUS
 70
0
 71
3
 72
14
 73
10
 74
0
 42
0.0000001
 43
0.0000001
 44
0.0000000001
 40
0.0
 40
0.0
 40
0.0
 40
0.0
 40
0.3765170146
 40
0.5345507236
 40
0.671586117
 40
0.7869930362
 40
0.8802869166
 40
0.9513094666
 40
1.0
 40
1.0
 40
1.0
 40
1.0
 10
2.9594652498
 20
0.8726496983
 30
0.0
 10
2.9593156913
 20
0.8766271651
 30
0.0
 10
2.9590873532
 20
0.8822735616
 30
0.0
 10
2.9587399382
 20
0.8893646267
 30
0.0
 10
2.9584957666
 20
0.89369711
 30
0.0
 10
2.9582524984
 20
0.8973438736
 30
0.0
 10
2.9580119341
 20
0.900291554
 30
0.0
 10
2.9577732314
 20
0.9025303166
 30
0.0
 10
2.9575902493
 20
0.9037841808
 30
0.0
 10
2.9574832722
 20
0.904287664
 30
0.0
  0
LINE
  5
4D1
100
AcDbEntity
  8
0
100
AcDbLine
 62
7
  6
CONTINUOUS
 10
2.9574832722
 20
0.904287664
 11
2.9572317249
 21
0.9050997297
  0
SPLINE
  5
4D2
100
AcDbEntity
  8
0
100
AcDbSpline
 62
7
  6
CONTINUOUS
 70
0
 71
3
 72
18
 73
14
 74
0
 42
0.0000001
 43
0.0000001
 44
0.0000000001
 40
0.0
 40
0.0
 40
0.0
 40
0.0
 40
0.0805792072
 40
0.1195732062
 40
0.1569672184
 40
0.2277721631
 40
0.294274144
 40
0.4191460303
 40
0.5384191179
 40
0.6550514544
 40
0.7704403789
 40
0.885286562
 40
1.0
 40
1.0
 40
1.0
 40
1.0
 10
3.5836495385
 20
0.8105107856
 30
0.0
 10
3.5860861174
 20
0.8105107856
 30
0.0
 10
3.5897200337
 20
0.8110325301
 30
0.0
 10
3.5942239682
 20
0.8125517582
 30
0.0
 10
3.5982462637
 20
0.8144815721
 30
0.0
 10
3.6026098703
 20
0.8175235878
 30
0.0
 10
3.6082642991
 20
0.8231210068
 30
0.0
 10
3.6134758748
 20
0.8310541013
 30
0.0
 10
3.6176340335
 20
0.8411828596
 30
0.0
 10
3.6203038483
 20
0.8514903248
 30
0.0
 10
3.6218792176
 20
0.8618743881
 30
0.0
 10
3.6225801309
 20
0.8722915036
 30
0.0
 10
3.6225254557
 20
0.8792403757
 30
0.0
 10
3.6223672746
 20
0.8827055075
 30
0.0
  0
SPLINE
  5
4D3
100
AcDbEntity
  8
0
100
AcDbSpline
 62
7
  6
CONTINUOUS
 70
0
 71
3
 72
17
 73
13
 74
0
 42
0.0000001
 43
0.0000001
 44
0.0000000001
 40
0.0
 40
0.0
 40
0.0
 40
0.0
 40
0.1132241463
 40
0.226926453
 40
0.3415873714
 40
0.4580753164
 40
0.5780146238
 40
0.7045293111
 40
0.7721634988
 40
0.8438179146
 40
0.9203708268
 40
1.0
 40
1.0
 40
1.0
 40
1.0
 10
3.6223672746
 20
0.8827055075
 30
0.0
 10
3.6222327986
 20
0.8856513542
 30
0.0
 10
3.6217734901
 20
0.8915489907
 30
0.0
 10
3.6204450043
 20
0.9003545828
 30
0.0
 10
3.6183484921
 20
0.9091016888
 30
0.0
 10
3.6152669027
 20
0.9177355102
 30
0.0
 10
3.6108519098
 20
0.9261364788
 30
0.0
 10
3.605670575
 20
0.9325728144
 30
0.0
 10
3.6003247813
 20
0.9370064902
 30
0.0
 10
3.5954527339
 20
0.9398756634
 30
0.0
 10
3.5898017514
 20
0.9418121311
 30
0.0
 10
3.5857234744
 20
0.9423127341
 30
0.0
 10
3.5836495385
 20
0.9423127341
 30
0.0
  0
SPLINE
  5
4D4
100
AcDbEntity
  8
0
100
AcDbSpline
 62
7
  6
CONTINUOUS
 70
0
 71
3
 72
33
 73
29
 74
0
 42
0.0000001
 43
0.0000001
 44
0.0000000001
 40
0.0
 40
0.0
 40
0.0
 40
0.0
 40
0.0312988544
 40
0.0470755125
 40
0.0627577391
 40
0.0940843322
 40
0.125353936
 40
0.1566105856
 40
0.1878427524
 40
0.2190788638
 40
0.250301597
 40
0.312726708
 40
0.3751510423
 40
0.4375734855
 40
0.4999970277
 40
0.5624223415
 40
0.6248464486
 40
0.6872726504
 40
0.7496989398
 40
0.7809220325
 40
0.8121584541
 40
0.8433905848
 40
0.8746473179
 40
0.905916507
 40
0.9372426901
 40
0.9529248973
 40
0.9687014565
 40
1.0
 40
1.0
 40
1.0
 40
1.0
 10
3.5836495632
 20
0.6241146825
 30
0.0
 10
3.5859232042
 20
0.6241146825
 30
0.0
 10
3.5893655579
 20
0.6247818922
 30
0.0
 10
3.5935393232
 20
0.6266351184
 30
0.0
 10
3.5974149461
 20
0.6290686684
 30
0.0
 10
3.6016270893
 20
0.6329544881
 30
0.0
 10
3.6058097874
 20
0.6383653327
 30
0.0
 10
3.6092482556
 20
0.6442617471
 30
0.0
 10
3.6120998145
 20
0.6504531574
 30
0.0
 10
3.6144503157
 20
0.6568465154
 30
0.0
 10
3.6170463263
 20
0.6655437534
 30
0.0
 10
3.6194264525
 20
0.6766464834
 30
0.0
 10
3.6212641897
 20
0.6901346881
 30
0.0
 10
3.6222900424
 20
0.7037068217
 30
0.0
 10
3.6226216332
 20
0.7173120865
 30
0.0
 10
3.6222909944
 20
0.7309175381
 30
0.0
 10
3.6212637396
 20
0.7444899427
 30
0.0
 10
3.6194270088
 20
0.7579786056
 30
0.0
 10
3.617046598
 20
0.7690815718
 30
0.0
 10
3.6144501384
 20
0.7777788053
 30
0.0
 10
3.6120998792
 20
0.7841722907
 30
0.0
 10
3.609248566
 20
0.7903638518
 30
0.0
 10
3.6058100447
 20
0.7962602148
 30
0.0
 10
3.6016270825
 20
0.8016708215
 30
0.0
 10
3.5974145978
 20
0.8055561505
 30
0.0
 10
3.5935390209
 20
0.8079896668
 30
0.0
 10
3.5893654567
 20
0.8098432165
 30
0.0
 10
3.5859231569
 20
0.8105107856
 30
0.0
 10
3.5836495385
 20
0.8105107856
 30
0.0
  0
SPLINE
  5
4D5
100
AcDbEntity
  8
0
100
AcDbSpline
 62
7
  6
CONTINUOUS
 70
0
 71
3
 72
16
 73
12
 74
0
 42
0.0000001
 43
0.0000001
 44
0.0000000001
 40
0.0
 40
0.0
 40
0.0
 40
0.0
 40
0.0790490506
 40
0.1556162401
 40
0.2953842151
 40
0.422857829
 40
0.5433036549
 40
0.6598731093
 40
0.7742792518
 40
0.8874732501
 40
1.0
 40
1.0
 40
1.0
 40
1.0
 10
3.5211495591
 20
0.6241146825
 30
0.0
 10
3.5192497848
 20
0.6241146825
 30
0.0
 10
3.5155015521
 20
0.6236907745
 30
0.0
 10
3.5086907518
 20
0.6215590149
 30
0.0
 10
3.5016348041
 20
0.6169628756
 30
0.0
 10
3.4953840493
 20
0.6099611078
 30
0.0
 10
3.4908884938
 20
0.6023954443
 30
0.0
 10
3.4876470619
 20
0.5945737726
 30
0.0
 10
3.4853369362
 20
0.5866177596
 30
0.0
 10
3.4837528261
 20
0.5785902967
 30
0.0
 10
3.483086821
 20
0.5732018742
 30
0.0
 10
3.4828409576
 20
0.5705087347
 30
0.0
  0
SPLINE
  5
4D6
100
AcDbEntity
  8
0
100
AcDbSpline
 62
7
  6
CONTINUOUS
 70
0
 71
3
 72
17
 73
13
 74
0
 42
0.0000001
 43
0.0000001
 44
0.0000000001
 40
0.0
 40
0.0
 40
0.0
 40
0.0
 40
0.1132241999
 40
0.2269266715
 40
0.3415876816
 40
0.4580763304
 40
0.5780158983
 40
0.704529777
 40
0.7721638442
 40
0.8438173611
 40
0.9203697971
 40
1.0
 40
1.0
 40
1.0
 40
1.0
 10
3.4824317843
 20
0.5519229339
 30
0.0
 10
3.4825662472
 20
0.5489769713
 30
0.0
 10
3.4830255017
 20
0.5430791014
 30
0.0
 10
3.4843535042
 20
0.5342730905
 30
0.0
 10
3.4864497232
 20
0.525525504
 30
0.0
 10
3.4895317976
 20
0.5168914566
 30
0.0
 10
3.4939466211
 20
0.50849
 30
0.0
 10
3.4991280635
 20
0.5020533595
 30
0.0
 10
3.5044737839
 20
0.4976192834
 30
0.0
 10
3.5093457553
 20
0.4947496011
 30
0.0
 10
3.5149970237
 20
0.4928131516
 30
0.0
 10
3.5190754817
 20
0.4923127341
 30
0.0
 10
3.5211495244
 20
0.4923127341
 30
0.0
  0
SPLINE
  5
4D7
100
AcDbEntity
  8
0
100
AcDbSpline
 62
7
  6
CONTINUOUS
 70
0
 71
3
 72
16
 73
12
 74
0
 42
0.0000001
 43
0.0000001
 44
0.0000000001
 40
0.0
 40
0.0
 40
0.0
 40
0.0
 40
0.0795203634
 40
0.1561162588
 40
0.2952425612
 40
0.4220401561
 40
0.5421414299
 40
0.658680262
 40
0.7733090507
 40
0.8869168817
 40
1.0
 40
1.0
 40
1.0
 40
1.0
 10
3.5836495385
 20
0.4923127341
 30
0.0
 10
3.5856787228
 20
0.4923127341
 30
0.0
 10
3.5896728604
 20
0.4927926237
 30
0.0
 10
3.5968594047
 20
0.4952003064
 30
0.0
 10
3.6041709067
 20
0.5003091884
 30
0.0
 10
3.6104907399
 20
0.5079607263
 30
0.0
 10
3.6149329652
 20
0.5161507144
 30
0.0
 10
3.6180577828
 20
0.5245750275
 30
0.0
 10
3.6202117094
 20
0.5331191287
 30
0.0
 10
3.6216083098
 20
0.5417246638
 30
0.0
 10
3.6221229405
 20
0.5474914627
 30
0.0
 10
3.6222876904
 20
0.5503723876
 30
0.0
  0
SPLINE
  5
4D8
100
AcDbEntity
  8
0
100
AcDbSpline
 62
7
  6
CONTINUOUS
 70
0
 71
3
 72
16
 73
12
 74
0
 42
0.0000001
 43
0.0000001
 44
0.0000000001
 40
0.0
 40
0.0
 40
0.0
 40
0.0
 40
0.1139121955
 40
0.2281658303
 40
0.3432132552
 40
0.4598530203
 40
0.5796271614
 40
0.7056168289
 40
0.7728845968
 40
0.844325625
 40
1.0
 40
1.0
 40
1.0
 40
1.0
 10
3.6225021157
 20
0.5597848243
 30
0.0
 10
3.6224660598
 20
0.5629273604
 30
0.0
 10
3.6221838872
 20
0.5692217765
 30
0.0
 10
3.6210752856
 20
0.578634677
 30
0.0
 10
3.6191647497
 20
0.5879995115
 30
0.0
 10
3.6162268014
 20
0.5972653582
 30
0.0
 10
3.6118929574
 20
0.6063189574
 30
0.0
 10
3.6066866108
 20
0.613318095
 30
0.0
 10
3.6012016615
 20
0.6181846941
 30
0.0
 10
3.5943130468
 20
0.6225325303
 30
0.0
 10
3.5879444652
 20
0.6241146825
 30
0.0
 10
3.5836495385
 20
0.6241146825
 30
0.0
  0
SPLINE
  5
4D9
100
AcDbEntity
  8
0
100
AcDbSpline
 62
7
  6
CONTINUOUS
 70
0
 71
3
 72
16
 73
12
 74
0
 42
0.0000001
 43
0.0000001
 44
0.0000000001
 40
0.0
 40
0.0
 40
0.0
 40
0.0
 40
0.0795361354
 40
0.1561327562
 40
0.2952346029
 40
0.4220103683
 40
0.5421026024
 40
0.6586412793
 40
0.7732776382
 40
0.8868988762
 40
1.0
 40
1.0
 40
1.0
 40
1.0
 10
3.5211495601
 20
0.9423127341
 30
0.0
 10
3.5191161933
 20
0.9423127341
 30
0.0
 10
3.5151141362
 20
0.9418314292
 30
0.0
 10
3.5079154703
 20
0.9394152548
 30
0.0
 10
3.5005971248
 20
0.9342884941
 30
0.0
 10
3.4942754681
 20
0.9266165517
 30
0.0
 10
3.4898347339
 20
0.9184068798
 30
0.0
 10
3.4867140363
 20
0.9099632578
 30
0.0
 10
3.4845653342
 20
0.901400396
 30
0.0
 10
3.4831749668
 20
0.8927763962
 30
0.0
 10
3.4826654056
 20
0.8869975126
 30
0.0
 10
3.4825033798
 20
0.8841105894
 30
0.0
  0
SPLINE
  5
4DA
100
AcDbEntity
  8
0
100
AcDbSpline
 62
7
  6
CONTINUOUS
 70
0
 71
3
 72
9
 73
5
 74
0
 42
0.0000001
 43
0.0000001
 44
0.0000000001
 40
0.0
 40
0.0
 40
0.0
 40
0.0
 40
0.4996647746
 40
1.0
 40
1.0
 40
1.0
 40
1.0
 10
3.4825033798
 20
0.8841105894
 30
0.0
 10
3.4822829254
 20
0.8801826037
 30
0.0
 10
3.4821828389
 20
0.8722993477
 30
0.0
 10
3.4827486613
 20
0.8644339654
 30
0.0
 10
3.4832214386
 20
0.8605229915
 30
0.0
  0
SPLINE
  5
4DB
100
AcDbEntity
  8
0
100
AcDbSpline
 62
7
  6
CONTINUOUS
 70
0
 71
3
 72
17
 73
13
 74
0
 42
0.0000001
 43
0.0000001
 44
0.0000000001
 40
0.0
 40
0.0
 40
0.0
 40
0.0
 40
0.2246904894
 40
0.3388887563
 40
0.4554737293
 40
0.576195475
 40
0.6391038466
 40
0.7043902727
 40
0.7728557765
 40
0.8449726617
 40
0.9214176722
 40
1.0
 40
1.0
 40
1.0
 40
1.0
 10
3.4832214386
 20
0.8605229915
 30
0.0
 10
3.4838373753
 20
0.8554277545
 30
0.0
 10
3.4852452405
 20
0.8477771774
 30
0.0
 10
3.4884601478
 20
0.837866968
 30
0.0
 10
3.4917812359
 20
0.8305347244
 30
0.0
 10
3.4955028843
 20
0.8247333687
 30
0.0
 10
3.49921713
 20
0.8204160519
 30
0.0
 10
3.5025216086
 20
0.8173573365
 30
0.0
 10
3.5063579464
 20
0.8146127534
 30
0.0
 10
3.5108063522
 20
0.8123702931
 30
0.0
 10
3.5158066689
 20
0.8108904085
 30
0.0
 10
3.5193545629
 20
0.8105107856
 30
0.0
 10
3.5211495232
 20
0.8105107856
 30
0.0
  0
SPLINE
  5
4DC
100
AcDbEntity
  8
0
100
AcDbSpline
 62
7
  6
CONTINUOUS
 70
0
 71
3
 72
33
 73
29
 74
0
 42
0.0000001
 43
0.0000001
 44
0.0000000001
 40
0.0
 40
0.0
 40
0.0
 40
0.0
 40
0.0312991107
 40
0.0470763833
 40
0.0627588449
 40
0.0940851884
 40
0.1253549801
 40
0.1566112604
 40
0.1878432612
 40
0.2190794208
 40
0.2503021836
 40
0.3127272346
 40
0.3751518353
 40
0.4375744873
 40
0.4999983613
 40
0.5624236823
 40
0.6248475919
 40
0.6872735011
 40
0.7496995194
 40
0.7809223987
 40
0.8121586345
 40
0.8433906208
 40
0.8746470429
 40
0.9059161119
 40
0.9372419322
 40
0.9529243134
 40
0.9687013087
 40
1.0
 40
1.0
 40
1.0
 40
1.0
 10
3.5211495589
 20
0.8105107856
 30
0.0
 10
3.5188759002
 20
0.8105107856
 30
0.0
 10
3.5154335014
 20
0.8098434597
 30
0.0
 10
3.5112596699
 20
0.8079902096
 30
0.0
 10
3.507383982
 20
0.8055566722
 30
0.0
 10
3.5031719708
 20
0.8016706936
 30
0.0
 10
3.4989891603
 20
0.79626001
 30
0.0
 10
3.4955504553
 20
0.790363749
 30
0.0
 10
3.4926991855
 20
0.7841722352
 30
0.0
 10
3.4903489527
 20
0.7777787968
 30
0.0
 10
3.4877528517
 20
0.7690815951
 30
0.0
 10
3.4853725217
 20
0.757978885
 30
0.0
 10
3.4835350817
 20
0.7444906165
 30
0.0
 10
3.4825089114
 20
0.7309184607
 30
0.0
 10
3.4821774138
 20
0.7173131458
 30
0.0
 10
3.4825084351
 20
0.7037077127
 30
0.0
 10
3.4835350799
 20
0.6901352982
 30
0.0
 10
3.4853724105
 20
0.6766467651
 30
0.0
 10
3.4877527558
 20
0.6655438745
 30
0.0
 10
3.4903488908
 20
0.656846596
 30
0.0
 10
3.492699088
 20
0.6504531316
 30
0.0
 10
3.4955503343
 20
0.6442615891
 30
0.0
 10
3.4989890025
 20
0.63836536
 30
0.0
 10
3.5031719462
 20
0.6329548313
 30
0.0
 10
3.5073843642
 20
0.6290694616
 30
0.0
 10
3.5112599743
 20
0.6266359642
 30
0.0
 10
3.5154335677
 20
0.624782368
 30
0.0
 10
3.5188758941
 20
0.6241146825
 30
0.0
 10
3.5211495223
 20
0.6241146825
 30
0.0
  0
SPLINE
  5
4DD
100
AcDbEntity
  8
0
100
AcDbSpline
 62
7
  6
CONTINUOUS
 70
0
 71
3
 72
13
 73
9
 74
0
 42
0.0000001
 43
0.0000001
 44
0.0000000001
 40
0.0
 40
0.0
 40
0.0
 40
0.0
 40
0.0436202045
 40
0.1100586947
 40
0.1998094577
 40
0.3130053165
 40
0.6097446302
 40
1.0
 40
1.0
 40
1.0
 40
1.0
 10
2.9484435578
 20
0.920322011
 30
0.0
 10
2.9484933846
 20
0.9202351645
 30
0.0
 10
2.9485774667
 20
0.9199942682
 30
0.0
 10
2.9486857756
 20
0.9195493275
 30
0.0
 10
2.9487955966
 20
0.9189401265
 30
0.0
 10
2.9489596477
 20
0.9178050518
 30
0.0
 10
2.949154573
 20
0.9159780366
 30
0.0
 10
2.949285318
 20
0.9144065779
 30
0.0
 10
2.9493532117
 20
0.9135133691
 30
0.0
  0
LINE
  5
4DE
100
AcDbEntity
  8
0
100
AcDbLine
 62
7
  6
CONTINUOUS
 10
2.9493532117
 20
0.9135133691
 11
2.9500481081
 21
0.9014016512
  0
LINE
  5
4DF
100
AcDbEntity
  8
0
100
AcDbLine
 62
7
  6
CONTINUOUS
 10
2.9500481081
 20
0.9014016512
 11
2.9514364936
 21
0.8609373285
  0
LINE
  5
4E0
100
AcDbEntity
  8
0
100
AcDbLine
 62
7
  6
CONTINUOUS
 10
2.9517838984
 20
0.847870689
 11
2.9521311535
 21
0.8338119752
  0
LINE
  5
4E1
100
AcDbEntity
  8
0
100
AcDbLine
 62
7
  6
CONTINUOUS
 10
2.9542168324
 20
0.7350127625
 11
2.9545613144
 21
0.7173127341
  0
SPLINE
  5
4E2
100
AcDbEntity
  8
0
100
AcDbSpline
 62
7
  6
CONTINUOUS
 70
0
 71
3
 72
16
 73
12
 74
0
 42
0.0000001
 43
0.0000001
 44
0.0000000001
 40
0.0
 40
0.0
 40
0.0
 40
0.0
 40
0.0136004686
 40
0.0335580093
 40
0.0931510757
 40
0.179306648
 40
0.2919020209
 40
0.4306213279
 40
0.5951182292
 40
0.7850332004
 40
1.0
 40
1.0
 40
1.0
 40
1.0
 10
2.9813542661
 20
0.5143051694
 30
0.0
 10
2.9813122403
 20
0.5143769052
 30
0.0
 10
2.9812386589
 20
0.5145702913
 30
0.0
 10
2.9810930413
 20
0.5151203872
 30
0.0
 10
2.9809289039
 20
0.5161221872
 30
0.0
 10
2.9807393538
 20
0.5176894431
 30
0.0
 10
2.9805488988
 20
0.5197440936
 30
0.0
 10
2.9803557809
 20
0.5222785397
 30
0.0
 10
2.9801619814
 20
0.525286907
 30
0.0
 10
2.9799674272
 20
0.5287620853
 30
0.0
 10
2.9798449745
 20
0.5312341128
 30
0.0
 10
2.9797830752
 20
0.5325467444
 30
0.0
  0
LINE
  5
4E3
100
AcDbEntity
  8
0
100
AcDbLine
 62
7
  6
CONTINUOUS
 10
2.9797830752
 20
0.5325467444
 11
2.9782680658
 21
0.5771479268
  0
LINE
  5
4E4
100
AcDbEntity
  8
0
100
AcDbLine
 62
7
  6
CONTINUOUS
 10
2.9778893585
 20
0.5917569042
 11
2.9775103665
 21
0.6075003643
  0
LINE
  5
4E5
100
AcDbEntity
  8
0
100
AcDbLine
 62
7
  6
CONTINUOUS
 10
2.9756194458
 20
0.6980077404
 11
2.9752377626
 21
0.7173127341
  0
LINE
  5
4E6
100
AcDbEntity
  8
0
100
AcDbLine
 62
7
  6
CONTINUOUS
 10
3.3860627355
 20
1.0313138166
 11
3.3922341913
 21
1.0305541499
  0
LINE
  5
4E7
100
AcDbEntity
  8
0
100
AcDbLine
 62
7
  6
CONTINUOUS
 10
3.3922341913
 20
1.0305541499
 11
3.3928790242
 21
1.0303338288
  0
SPLINE
  5
4E8
100
AcDbEntity
  8
0
100
AcDbSpline
 62
7
  6
CONTINUOUS
 70
0
 71
3
 72
14
 73
10
 74
0
 42
0.0000001
 43
0.0000001
 44
0.0000000001
 40
0.0
 40
0.0
 40
0.0
 40
0.0
 40
0.0387173626
 40
0.1017602664
 40
0.1896607544
 40
0.3025400604
 40
0.4402454784
 40
0.6025536882
 40
1.0
 40
1.0
 40
1.0
 40
1.0
 10
2.9563485034
 20
0.5143152264
 30
0.0
 10
2.9562781368
 20
0.5144405255
 30
0.0
 10
2.956169475
 20
0.5148074758
 30
0.0
 10
2.9560277482
 20
0.5154948105
 30
0.0
 10
2.9558859094
 20
0.5164652118
 30
0.0
 10
2.9557406759
 20
0.5177127464
 30
0.0
 10
2.9555948947
 20
0.5192385698
 30
0.0
 10
2.955384924
 20
0.5218187454
 30
0.0
 10
2.9552501128
 20
0.5238921584
 30
0.0
 10
2.955161892
 20
0.5253647031
 30
0.0
  0
LINE
  5
4E9
100
AcDbEntity
  8
0
100
AcDbLine
 62
7
  6
CONTINUOUS
 10
2.9547830752
 20
0.5325467444
 11
2.9532682067
 21
0.5771479302
  0
LINE
  5
4EA
100
AcDbEntity
  8
0
100
AcDbLine
 62
7
  6
CONTINUOUS
 10
2.9528895668
 20
0.591756909
 11
2.9525103665
 21
0.6075003643
  0
LINE
  5
4EB
100
AcDbEntity
  8
0
100
AcDbLine
 62
7
  6
CONTINUOUS
 10
2.9506223495
 20
0.6980077977
 11
2.9502377626
 21
0.7173127341
  0
SPLINE
  5
4EC
100
AcDbEntity
  8
0
100
AcDbSpline
 62
7
  6
CONTINUOUS
 70
0
 71
3
 72
13
 73
9
 74
0
 42
0.0000001
 43
0.0000001
 44
0.0000000001
 40
0.0
 40
0.0
 40
0.0
 40
0.0
 40
0.0440041562
 40
0.1105506685
 40
0.2002489586
 40
0.3133461195
 40
0.6100865943
 40
1.0
 40
1.0
 40
1.0
 40
1.0
 10
2.9475619198
 20
0.5295475989
 30
0.0
 10
2.9475087036
 20
0.5296404589
 30
0.0
 10
2.9474183618
 20
0.5298964793
 30
0.0
 10
2.947302557
 20
0.5303688679
 30
0.0
 10
2.9471855093
 20
0.5310141331
 30
0.0
 10
2.9470112223
 20
0.5322164619
 30
0.0
 10
2.9468050935
 20
0.5341513628
 30
0.0
 10
2.9466665659
 20
0.535815668
 30
0.0
 10
2.9465944605
 20
0.5367612785
 30
0.0
  0
LINE
  5
4ED
100
AcDbEntity
  8
0
100
AcDbLine
 62
7
  6
CONTINUOUS
 10
2.9465944605
 20
0.5367612785
 11
2.9457890201
 21
0.5509352778
  0
LINE
  5
4EE
100
AcDbEntity
  8
0
100
AcDbLine
 62
7
  6
CONTINUOUS
 10
2.9457890201
 20
0.5509352778
 11
2.9449880402
 21
0.5717583481
  0
LINE
  5
4EF
100
AcDbEntity
  8
0
100
AcDbLine
 62
7
  6
CONTINUOUS
 10
2.9413783454
 20
0.7212648139
 11
2.9409767511
 21
0.7401730468
  0
LINE
  5
4F0
100
AcDbEntity
  8
0
100
AcDbLine
 62
7
  6
CONTINUOUS
 10
2.9377729498
 20
0.8676315622
 11
2.936566924
 21
0.8944151528
  0
SPLINE
  5
4F1
100
AcDbEntity
  8
0
100
AcDbSpline
 62
7
  6
CONTINUOUS
 70
0
 71
3
 72
16
 73
12
 74
0
 42
0.0000001
 43
0.0000001
 44
0.0000000001
 40
0.0
 40
0.0
 40
0.0
 40
0.0
 40
0.2294347747
 40
0.4293525039
 40
0.5993490386
 40
0.7391760188
 40
0.8487196131
 40
0.9279685982
 40
0.9772627444
 40
0.9913243112
 40
1.0
 40
1.0
 40
1.0
 40
1.0
 10
2.936566924
 20
0.8944151528
 30
0.0
 10
2.9365137356
 20
0.8952531111
 30
0.0
 10
2.9364087402
 20
0.8968209019
 30
0.0
 10
2.9362410126
 20
0.8990078644
 30
0.0
 10
2.9360739598
 20
0.9008660479
 30
0.0
 10
2.9359080912
 20
0.9023915073
 30
0.0
 10
2.9357442728
 20
0.9035842109
 30
0.0
 10
2.9355850098
 20
0.9044389595
 30
0.0
 10
2.9354419652
 20
0.9049465937
 30
0.0
 10
2.9353177572
 20
0.9051784206
 30
0.0
 10
2.9352410315
 20
0.905231061
 30
0.0
 10
2.9352092821
 20
0.9052311994
 30
0.0
  0
SPLINE
  5
4F2
100
AcDbEntity
  8
0
100
AcDbSpline
 62
7
  6
CONTINUOUS
 70
0
 71
3
 72
16
 73
12
 74
0
 42
0.0000001
 43
0.0000001
 44
0.0000000001
 40
0.0
 40
0.0
 40
0.0
 40
0.0
 40
0.0142707895
 40
0.0348655591
 40
0.0955082531
 40
0.1822550669
 40
0.2950202935
 40
0.4336267816
 40
0.5977011626
 40
0.7866840166
 40
1.0
 40
1.0
 40
1.0
 40
1.0
 10
3.3928803492
 20
1.03002186
 30
0.0
 10
3.3928016356
 20
1.029976316
 30
0.0
 10
3.392592876
 20
1.0298954137
 30
0.0
 10
3.3920059913
 20
1.0297352357
 30
0.0
 10
3.39094897
 20
1.0295527232
 30
0.0
 10
3.3893051284
 20
1.0293417577
 30
0.0
 10
3.3871604457
 20
1.0291295212
 30
0.0
 10
3.3845217688
 20
1.0289150744
 30
0.0
 10
3.3813959205
 20
1.0287004283
 30
0.0
 10
3.3777931321
 20
1.0284852458
 30
0.0
 10
3.3752330626
 20
1.028349715
 30
0.0
 10
3.3738754421
 20
1.0282812166
 30
0.0
  0
SPLINE
  5
4F3
100
AcDbEntity
  8
0
100
AcDbSpline
 62
7
  6
CONTINUOUS
 70
0
 71
3
 72
19
 73
15
 74
0
 42
0.0000001
 43
0.0000001
 44
0.0000000001
 40
0.0
 40
0.0
 40
0.0
 40
0.0
 40
0.0420811683
 40
0.0938594995
 40
0.2216873496
 40
0.3722335141
 40
0.532314409
 40
0.6878687099
 40
0.7596331718
 40
0.8252633779
 40
0.8832928772
 40
0.9324560086
 40
0.9716292779
 40
1.0
 40
1.0
 40
1.0
 40
1.0
 10
3.3738754421
 20
1.0282812166
 30
0.0
 10
3.3694236751
 20
1.0280566035
 30
0.0
 10
3.3594905121
 20
1.0276312407
 30
0.0
 10
3.3360229266
 20
1.0268026689
 30
0.0
 10
3.3010649985
 20
1.0258249303
 30
0.0
 10
3.2546356054
 20
1.0246963463
 30
0.0
 10
3.2052685068
 20
1.0235643258
 30
0.0
 10
3.1642446916
 20
1.0225990421
 30
0.0
 10
3.1332244984
 20
1.0217990572
 30
0.0
 10
3.1125324131
 20
1.0212171204
 30
0.0
 10
3.094235414
 20
1.0206371823
 30
0.0
 10
3.0787420197
 20
1.0200636145
 30
0.0
 10
3.0663931328
 20
1.0194934978
 30
0.0
 10
3.0592506247
 20
1.0190603022
 30
0.0
 10
3.056255524
 20
1.0188146639
 30
0.0
  0
LINE
  5
4F4
100
AcDbEntity
  8
0
100
AcDbLine
 62
7
  6
CONTINUOUS
 10
3.056255524
 20
1.0188146639
 11
3.0500723874
 21
1.0180588078
  0
LINE
  5
4F5
100
AcDbEntity
  8
0
100
AcDbLine
 62
7
  6
CONTINUOUS
 10
3.0500723874
 20
1.0180588078
 11
3.049428506
 21
1.0178395594
  0
SPLINE
  5
4F6
100
AcDbEntity
  8
0
100
AcDbSpline
 62
7
  6
CONTINUOUS
 70
0
 71
3
 72
11
 73
7
 74
0
 42
0.0000001
 43
0.0000001
 44
0.0000000001
 40
0.0
 40
0.0
 40
0.0
 40
0.0
 40
0.3717399624
 40
0.6624706047
 40
0.8716126013
 40
1.0
 40
1.0
 40
1.0
 40
1.0
 10
2.9824345862
 20
0.519914411
 30
0.0
 10
2.9823776134
 20
0.519228406
 30
0.0
 10
2.9822671237
 20
0.5180069794
 30
0.0
 10
2.9820865369
 20
0.516401602
 30
0.0
 10
2.9819049118
 20
0.5152546814
 30
0.0
 10
2.9817677907
 20
0.5146398959
 30
0.0
 10
2.9816769866
 20
0.5144201799
 30
0.0
  0
LINE
  5
4F7
100
AcDbEntity
  8
0
100
AcDbLine
 62
7
  6
CONTINUOUS
 10
2.9318342612
 20
0.6074856371
 11
2.9322126248
 21
0.5917432456
  0
LINE
  5
4F8
100
AcDbEntity
  8
0
100
AcDbLine
 62
7
  6
CONTINUOUS
 10
2.9341069653
 20
0.5325395694
 11
2.9348645078
 21
0.5199141219
  0
SPLINE
  5
4F9
100
AcDbEntity
  8
0
100
AcDbSpline
 62
7
  6
CONTINUOUS
 70
0
 71
3
 72
11
 73
7
 74
0
 42
0.0000001
 43
0.0000001
 44
0.0000000001
 40
0.0
 40
0.0
 40
0.0
 40
0.0
 40
0.371744591
 40
0.662476752
 40
0.8716171474
 40
1.0
 40
1.0
 40
1.0
 40
1.0
 10
2.9348645078
 20
0.5199141219
 30
0.0
 10
2.9349214818
 20
0.5192281373
 30
0.0
 10
2.9350319736
 20
0.5180067511
 30
0.0
 10
2.9352125623
 20
0.5164014329
 30
0.0
 10
2.9353941867
 20
0.515254571
 30
0.0
 10
2.9355313039
 20
0.5146398219
 30
0.0
 10
2.9356221088
 20
0.514420126
 30
0.0
  0
SPLINE
  5
4FA
100
AcDbEntity
  8
0
100
AcDbSpline
 62
7
  6
CONTINUOUS
 70
0
 71
3
 72
11
 73
7
 74
0
 42
0.0000001
 43
0.0000001
 44
0.0000000001
 40
0.0
 40
0.0
 40
0.0
 40
0.0
 40
0.3717401381
 40
0.6624708415
 40
0.8716127808
 40
1.0
 40
1.0
 40
1.0
 40
1.0
 10
2.9324345726
 20
0.5199144112
 30
0.0
 10
2.9323776013
 20
0.5192284062
 30
0.0
 10
2.9322671154
 20
0.5180069797
 30
0.0
 10
2.9320865359
 20
0.5164016023
 30
0.0
 10
2.9319049175
 20
0.5152546818
 30
0.0
 10
2.931767801
 20
0.5146398962
 30
0.0
 10
2.9316769989
 20
0.5144201799
 30
0.0
  0
LINE
  5
4FB
100
AcDbEntity
  8
0
100
AcDbLine
 62
7
  6
CONTINUOUS
 10
2.9545613144
 20
0.7173127341
 11
2.9549372912
 21
0.6979994231
  0
LINE
  5
4FC
100
AcDbEntity
  8
0
100
AcDbLine
 62
7
  6
CONTINUOUS
 10
2.956834259
 20
0.607485733
 11
2.9572128271
 21
0.5917433338
  0
LINE
  5
4FD
100
AcDbEntity
  8
0
100
AcDbLine
 62
7
  6
CONTINUOUS
 10
2.9579706091
 20
0.5637942892
 11
2.9591069647
 21
0.5325395832
  0
LINE
  5
4FE
100
AcDbEntity
  8
0
100
AcDbLine
 62
7
  6
CONTINUOUS
 10
2.9591069647
 20
0.5325395832
 11
2.9598645129
 21
0.519914144
  0
SPLINE
  5
4FF
100
AcDbEntity
  8
0
100
AcDbSpline
 62
7
  6
CONTINUOUS
 70
0
 71
3
 72
11
 73
7
 74
0
 42
0.0000001
 43
0.0000001
 44
0.0000000001
 40
0.0
 40
0.0
 40
0.0
 40
0.0
 40
0.3717441867
 40
0.6624761829
 40
0.8716167052
 40
1.0
 40
1.0
 40
1.0
 40
1.0
 10
2.9598645129
 20
0.519914144
 30
0.0
 10
2.9599214855
 20
0.5192281577
 30
0.0
 10
2.9600319746
 20
0.5180067682
 30
0.0
 10
2.9602125602
 20
0.5164014451
 30
0.0
 10
2.9603941852
 20
0.5152545786
 30
0.0
 10
2.9605313048
 20
0.5146398267
 30
0.0
 10
2.960622111
 20
0.5144201297
 30
0.0
  0
SPLINE
  5
500
100
AcDbEntity
  8
0
100
AcDbSpline
 62
7
  6
CONTINUOUS
 70
0
 71
3
 72
15
 73
11
 74
0
 42
0.0000001
 43
0.0000001
 44
0.0000000001
 40
0.0
 40
0.0
 40
0.0
 40
0.0
 40
0.0252139183
 40
0.0469954596
 40
0.0758211463
 40
0.1553839265
 40
0.2646656092
 40
0.4038103505
 40
0.5728047789
 40
1.0
 40
1.0
 40
1.0
 40
1.0
 10
3.06428068
 20
1.0082877341
 30
0.0
 10
3.0642821785
 20
1.0083552332
 30
0.0
 10
3.0644023508
 20
1.0084512997
 30
0.0
 10
3.0645781538
 20
1.0085335676
 30
0.0
 10
3.0649113411
 20
1.0086513704
 30
0.0
 10
3.0654768447
 20
1.0087839785
 30
0.0
 10
3.0663428939
 20
1.0089383108
 30
0.0
 10
3.0674496531
 20
1.0090926332
 30
0.0
 10
3.0694059446
 20
1.0093188952
 30
0.0
 10
3.0709962988
 20
1.0094600669
 30
0.0
 10
3.072136447
 20
1.0095527424
 30
0.0
  0
SPLINE
  5
501
100
AcDbEntity
  8
0
100
AcDbSpline
 62
7
  6
CONTINUOUS
 70
0
 71
3
 72
26
 73
22
 74
0
 42
0.0000001
 43
0.0000001
 44
0.0000000001
 40
0.0
 40
0.0
 40
0.0
 40
0.0
 40
0.0338147937
 40
0.0803780482
 40
0.1384190461
 40
0.2062730279
 40
0.2820773146
 40
0.3636906083
 40
0.4488489023
 40
0.5351446198
 40
0.6201656363
 40
0.7015171688
 40
0.776927899
 40
0.8442777035
 40
0.9016987117
 40
0.9261705198
 40
0.9475707781
 40
0.9657703868
 40
0.9806462036
 40
0.9920791997
 40
1.0
 40
1.0
 40
1.0
 40
1.0
 10
3.072136447
 20
1.0095527424
 30
0.0
 10
3.0755579334
 20
1.0098308538
 30
0.0
 10
3.0837043569
 20
1.0103174657
 30
0.0
 10
3.0977414338
 20
1.0109583828
 30
0.0
 10
3.1152372133
 20
1.0116043152
 30
0.0
 10
3.1357026526
 20
1.0122576163
 30
0.0
 10
3.1585621716
 20
1.0129125438
 30
0.0
 10
3.1831789416
 20
1.0135695864
 30
0.0
 10
3.2088611197
 20
1.0142271534
 30
0.0
 10
3.2348893357
 20
1.0148851396
 30
0.0
 10
3.2605309927
 20
1.015542626
 30
0.0
 10
3.2850672826
 20
1.0161994422
 30
0.0
 10
3.3078090336
 20
1.0168543824
 30
0.0
 10
3.3281203777
 20
1.017507089
 30
0.0
 10
3.3432606365
 20
1.018072158
 30
0.0
 10
3.3537363366
 20
1.0185372354
 30
0.0
 10
3.3602324528
 20
1.0188663238
 30
0.0
 10
3.3657529247
 20
1.0191939938
 30
0.0
 10
3.3702601473
 20
1.0195173622
 30
0.0
 10
3.3737198977
 20
1.019838112
 30
0.0
 10
3.3756709028
 20
1.0200843026
 30
0.0
 10
3.3764621973
 20
1.0202272051
 30
0.0
  0
LINE
  5
502
100
AcDbEntity
  8
0
100
AcDbLine
 62
7
  6
CONTINUOUS
 10
3.3764621973
 20
1.0202272051
 11
3.3778722481
 21
1.0206152802
  0
LINE
  5
503
100
AcDbEntity
  8
0
100
AcDbLine
 62
7
  6
CONTINUOUS
 10
3.3773296834
 20
0.9892084711
 11
3.3778575656
 21
0.9890146644
  0
SPLINE
  5
504
100
AcDbEntity
  8
0
100
AcDbSpline
 62
7
  6
CONTINUOUS
 70
0
 71
3
 72
15
 73
11
 74
0
 42
0.0000001
 43
0.0000001
 44
0.0000000001
 40
0.0
 40
0.0
 40
0.0
 40
0.0
 40
0.0249645461
 40
0.0466270108
 40
0.0753749844
 40
0.1549039726
 40
0.2642763679
 40
0.4035774268
 40
0.5727312949
 40
1.0
 40
1.0
 40
1.0
 40
1.0
 10
3.0642848221
 20
0.9582877341
 30
0.0
 10
3.0642840214
 20
0.9583538382
 30
0.0
 10
3.0644012165
 20
0.9584509402
 30
0.0
 10
3.0645736577
 20
0.9585319615
 30
0.0
 10
3.0649023273
 20
0.9586493865
 30
0.0
 10
3.0654613949
 20
0.9587808719
 30
0.0
 10
3.0663183205
 20
0.9589343169
 30
0.0
 10
3.067413831
 20
0.9590876127
 30
0.0
 10
3.0693494137
 20
0.9593124191
 30
0.0
 10
3.0709227393
 20
0.959452766
 30
0.0
 10
3.0720504362
 20
0.9595449276
 30
0.0
  0
SPLINE
  5
505
100
AcDbEntity
  8
0
100
AcDbSpline
 62
7
  6
CONTINUOUS
 70
0
 71
3
 72
28
 73
24
 74
0
 42
0.0000001
 43
0.0000001
 44
0.0000000001
 40
0.0
 40
0.0
 40
0.0
 40
0.0
 40
0.0342897078
 40
0.0817328896
 40
0.1410186473
 40
0.2103908824
 40
0.2878569879
 40
0.3711408763
 40
0.4578333523
 40
0.545405772
 40
0.6313263544
 40
0.7130838587
 40
0.7883182915
 40
0.8548085659
 40
0.8841759146
 40
0.9106599063
 40
0.9340575
 40
0.9542194668
 40
0.9710060532
 40
0.9842806726
 40
0.9939537003
 40
0.9974302287
 40
1.0
 40
1.0
 40
1.0
 40
1.0
 10
3.0720504362
 20
0.9595449276
 30
0.0
 10
3.0755309526
 20
0.9598293747
 30
0.0
 10
3.0838412806
 20
0.9603251912
 30
0.0
 10
3.0981878414
 20
0.9609775631
 30
0.0
 10
3.1161105281
 20
0.9616348737
 30
0.0
 10
3.1370920013
 20
0.96229979
 30
0.0
 10
3.1605185873
 20
0.9629665006
 30
0.0
 10
3.1857096597
 20
0.9636353454
 30
0.0
 10
3.21193031
 20
0.964304816
 30
0.0
 10
3.238419559
 20
0.9649746571
 30
0.0
 10
3.2644060762
 20
0.9656439228
 30
0.0
 10
3.2891356703
 20
0.9663123112
 30
0.0
 10
3.3118857355
 20
0.9669785531
 30
0.0
 10
3.3293006621
 20
0.9675523488
 30
0.0
 10
3.3417513333
 20
0.9680212803
 30
0.0
 10
3.3498151859
 20
0.9683576272
 30
0.0
 10
3.3569407034
 20
0.9686932301
 30
0.0
 10
3.363077364
 20
0.9690276767
 30
0.0
 10
3.3681817441
 20
0.969358712
 30
0.0
 10
3.3722148239
 20
0.9696877114
 30
0.0
 10
3.3748918085
 20
0.9699750707
 30
0.0
 10
3.3764734736
 20
0.9702228317
 30
0.0
 10
3.377077138
 20
0.970348347
 30
0.0
 10
3.3773296834
 20
0.970416997
 30
0.0
  0
LINE
  5
506
100
AcDbEntity
  8
0
100
AcDbLine
 62
7
  6
CONTINUOUS
 10
3.3773296834
 20
0.970416997
 11
3.3778575755
 21
0.9706108093
  0
SPLINE
  5
507
100
AcDbEntity
  8
0
100
AcDbSpline
 62
7
  6
CONTINUOUS
 70
0
 71
3
 72
11
 73
7
 74
0
 42
0.0000001
 43
0.0000001
 44
0.0000000001
 40
0.0
 40
0.0
 40
0.0
 40
0.0
 40
0.3717400147
 40
0.6624706242
 40
0.8716125849
 40
1.0
 40
1.0
 40
1.0
 40
1.0
 10
2.9574345586
 20
0.5199144117
 30
0.0
 10
2.9573775899
 20
0.5192284067
 30
0.0
 10
2.9572671092
 20
0.5180069801
 30
0.0
 10
2.9570865364
 20
0.5164016021
 30
0.0
 10
2.9569049186
 20
0.5152546812
 30
0.0
 10
2.9567677995
 20
0.5146398954
 30
0.0
 10
2.9566769953
 20
0.5144201796
 30
0.0
  0
LINE
  5
508
100
AcDbEntity
  8
0
100
AcDbLine
 62
7
  6
CONTINUOUS
 10
2.9502377626
 20
0.7173127341
 11
2.9498530257
 21
0.7366252004
  0
LINE
  5
509
100
AcDbEntity
  8
0
100
AcDbLine
 62
7
  6
CONTINUOUS
 10
2.9479648452
 20
0.8271385615
 11
2.9475856465
 21
0.8428810705
  0
LINE
  5
50A
100
AcDbEntity
  8
0
100
AcDbLine
 62
7
  6
CONTINUOUS
 10
2.9475856465
 20
0.8428810705
 11
2.9473487711
 21
0.8521595449
  0
LINE
  5
50B
100
AcDbEntity
  8
0
100
AcDbLine
 62
7
  6
CONTINUOUS
 10
2.9473487711
 20
0.8521595449
 11
2.9472070064
 21
0.8574890625
  0
LINE
  5
50C
100
AcDbEntity
  8
0
100
AcDbLine
 62
7
  6
CONTINUOUS
 10
2.9468284919
 20
0.8708303755
 11
2.9456921378
 21
0.9020853434
  0
LINE
  5
50D
100
AcDbEntity
  8
0
100
AcDbLine
 62
7
  6
CONTINUOUS
 10
2.9456921378
 20
0.9020853434
 11
2.9449345546
 21
0.9147110564
  0
SPLINE
  5
50E
100
AcDbEntity
  8
0
100
AcDbSpline
 62
7
  6
CONTINUOUS
 70
0
 71
3
 72
11
 73
7
 74
0
 42
0.0000001
 43
0.0000001
 44
0.0000000001
 40
0.0
 40
0.0
 40
0.0
 40
0.0
 40
0.371740114
 40
0.6624707661
 40
0.8716126973
 40
1.0
 40
1.0
 40
1.0
 40
1.0
 10
2.9449345546
 20
0.9147110564
 30
0.0
 10
2.9448775862
 20
0.9153970614
 30
0.0
 10
2.9447671064
 20
0.916618488
 30
0.0
 10
2.9445865358
 20
0.9182238659
 30
0.0
 10
2.944404921
 20
0.9193707867
 30
0.0
 10
2.9442678044
 20
0.9199855725
 30
0.0
 10
2.9441770014
 20
0.9202052885
 30
0.0
  0
LINE
  5
50F
100
AcDbEntity
  8
0
100
AcDbLine
 62
7
  6
CONTINUOUS
 10
2.9472697907
 20
0.9135183065
 11
2.9479672272
 21
0.9196608891
  0
LINE
  5
510
100
AcDbEntity
  8
0
100
AcDbLine
 62
7
  6
CONTINUOUS
 10
2.9479672272
 20
0.9196608891
 11
2.9483113073
 21
0.9204377341
  0
SPLINE
  5
511
100
AcDbEntity
  8
0
100
AcDbSpline
 62
7
  6
CONTINUOUS
 70
0
 71
3
 72
14
 73
10
 74
0
 42
0.0000001
 43
0.0000001
 44
0.0000000001
 40
0.0
 40
0.0
 40
0.0
 40
0.0
 40
0.023601545
 40
0.073428799
 40
0.1527183277
 40
0.2620159092
 40
0.401432384
 40
0.5709514218
 40
1.0
 40
1.0
 40
1.0
 40
1.0
 10
2.9602120385
 20
0.9052277021
 30
0.0
 10
2.9602786323
 20
0.9052262077
 30
0.0
 10
2.9604193962
 20
0.9050159996
 30
0.0
 10
2.9605324781
 20
0.9046296859
 30
0.0
 10
2.960682933
 20
0.9039578742
 30
0.0
 10
2.9608219613
 20
0.9030487611
 30
0.0
 10
2.9609691991
 20
0.9018750895
 30
0.0
 10
2.9611807911
 20
0.8998040833
 30
0.0
 10
2.9613138378
 20
0.8981192674
 30
0.0
 10
2.9614008668
 20
0.8969114958
 30
0.0
  0
SPLINE
  5
512
100
AcDbEntity
  8
0
100
AcDbSpline
 62
7
  6
CONTINUOUS
 70
0
 71
3
 72
10
 73
6
 74
0
 42
0.0000001
 43
0.0000001
 44
0.0000000001
 40
0.0
 40
0.0
 40
0.0
 40
0.0
 40
0.1800170862
 40
0.4082744081
 40
1.0
 40
1.0
 40
1.0
 40
1.0
 10
2.9614008668
 20
0.8969114958
 30
0.0
 10
2.9615543798
 20
0.8947810732
 30
0.0
 10
2.9618427417
 20
0.8899450893
 30
0.0
 10
2.9624087652
 20
0.8780932833
 30
0.0
 10
2.9627554394
 20
0.8683698168
 30
0.0
 10
2.9629867049
 20
0.8613526594
 30
0.0
  0
LINE
  5
513
100
AcDbEntity
  8
0
100
AcDbLine
 62
7
  6
CONTINUOUS
 10
2.9665574615
 20
0.7128059112
 11
2.9669543935
 21
0.6941172572
  0
SPLINE
  5
514
100
AcDbEntity
  8
0
100
AcDbSpline
 62
7
  6
CONTINUOUS
 70
0
 71
3
 72
17
 73
13
 74
0
 42
0.0000001
 43
0.0000001
 44
0.0000000001
 40
0.0
 40
0.0
 40
0.0
 40
0.0
 40
0.2123495008
 40
0.4015258562
 40
0.5663592465
 40
0.7058986221
 40
0.8195331846
 40
0.9066964793
 40
0.9401869044
 40
0.9668772513
 40
0.9867804271
 40
1.0
 40
1.0
 40
1.0
 40
1.0
 10
2.9701306909
 20
0.5675728923
 30
0.0
 10
2.9702249963
 20
0.5648818196
 30
0.0
 10
2.9704115072
 20
0.559793625
 30
0.0
 10
2.9707061003
 20
0.5526178425
 30
0.0
 10
2.9709998656
 20
0.5463662018
 30
0.0
 10
2.9712920467
 20
0.5410735198
 30
0.0
 10
2.9715824777
 20
0.5367676287
 30
0.0
 10
2.9718363667
 20
0.5338069555
 30
0.0
 10
2.9720503389
 20
0.5319509112
 30
0.0
 10
2.9721943721
 20
0.5309450135
 30
0.0
 10
2.9723372521
 20
0.5302007501
 30
0.0
 10
2.9724477321
 20
0.5297930614
 30
0.0
 10
2.9725134777
 20
0.5296388597
 30
0.0
  0
LINE
  5
515
100
AcDbEntity
  8
0
100
AcDbLine
 62
7
  6
CONTINUOUS
 10
2.9752377626
 20
0.7173127341
 11
2.9748877527
 21
0.7350199648
  0
LINE
  5
516
100
AcDbEntity
  8
0
100
AcDbLine
 62
7
  6
CONTINUOUS
 10
2.9728068417
 20
0.8338249358
 11
2.9724596785
 21
0.8478829084
  0
LINE
  5
517
100
AcDbEntity
  8
0
100
AcDbLine
 62
7
  6
CONTINUOUS
 10
2.9724596785
 20
0.8478829084
 11
2.9723500499
 21
0.8521223324
  0
LINE
  5
518
100
AcDbEntity
  8
0
100
AcDbLine
 62
7
  6
CONTINUOUS
 10
2.9723500499
 20
0.8521223324
 11
2.9721126268
 21
0.8609486989
  0
LINE
  5
519
100
AcDbEntity
  8
0
100
AcDbLine
 62
7
  6
CONTINUOUS
 10
2.9717655676
 20
0.8729179504
 11
2.9707233042
 21
0.901408941
  0
LINE
  5
51A
100
AcDbEntity
  8
0
100
AcDbLine
 62
7
  6
CONTINUOUS
 10
2.9707233042
 20
0.901408941
 11
2.9700293196
 21
0.9135178653
  0
LINE
  5
51B
100
AcDbEntity
  8
0
100
AcDbLine
 62
7
  6
CONTINUOUS
 10
2.9700293196
 20
0.9135178653
 11
2.9693373743
 21
0.9196608246
  0
LINE
  5
51C
100
AcDbEntity
  8
0
100
AcDbLine
 62
7
  6
CONTINUOUS
 10
2.9693373743
 20
0.9196608246
 11
2.9689877626
 21
0.9204377341
  0
SPLINE
  5
51D
100
AcDbEntity
  8
0
100
AcDbSpline
 62
7
  6
CONTINUOUS
 70
0
 71
3
 72
10
 73
6
 74
0
 42
0.0000001
 43
0.0000001
 44
0.0000000001
 40
0.0
 40
0.0
 40
0.0
 40
0.0
 40
0.5923460349
 40
0.8202957125
 40
1.0
 40
1.0
 40
1.0
 40
1.0
 10
3.0859117311
 20
1.0453235502
 30
0.0
 10
3.0800412921
 20
1.045103298
 30
0.0
 10
3.0719123636
 20
1.0447729065
 30
0.0
 10
3.0620095762
 20
1.0442320836
 30
0.0
 10
3.0579757504
 20
1.0439566146
 30
0.0
 10
3.0561995788
 20
1.0438100248
 30
0.0
  0
LINE
  5
51E
100
AcDbEntity
  8
0
100
AcDbLine
 62
7
  6
CONTINUOUS
 10
3.0561995788
 20
1.0438100248
 11
3.0500515981
 21
1.0430539457
  0
LINE
  5
51F
100
AcDbEntity
  8
0
100
AcDbLine
 62
7
  6
CONTINUOUS
 10
3.0500515981
 20
1.0430539457
 11
3.0494092501
 21
1.0428340599
  0
LINE
  5
520
100
AcDbEntity
  8
0
100
AcDbLine
 62
7
  6
CONTINUOUS
 10
2.9722697914
 20
0.913518316
 11
2.9729617174
 21
0.9196608908
  0
LINE
  5
521
100
AcDbEntity
  8
0
100
AcDbLine
 62
7
  6
CONTINUOUS
 10
2.9449153195
 20
0.5300622639
 11
2.944728934
 21
0.5295410354
  0
SPLINE
  5
522
100
AcDbEntity
  8
0
100
AcDbSpline
 62
7
  6
CONTINUOUS
 70
0
 71
3
 72
13
 73
9
 74
0
 42
0.0000001
 43
0.0000001
 44
0.0000000001
 40
0.0
 40
0.0
 40
0.0
 40
0.0
 40
0.0453988475
 40
0.1132018628
 40
0.2038880946
 40
0.3175316396
 40
0.613422041
 40
1.0
 40
1.0
 40
1.0
 40
1.0
 10
2.9350658862
 20
0.9051088255
 30
0.0
 10
2.9350172044
 20
0.9050254479
 30
0.0
 10
2.9349334448
 20
0.9047973265
 30
0.0
 10
2.9348262348
 20
0.9043777133
 30
0.0
 10
2.9347177404
 20
0.903808631
 30
0.0
 10
2.9345568295
 20
0.902757109
 30
0.0
 10
2.9343657275
 20
0.9010742384
 30
0.0
 10
2.9342370278
 20
0.8996285734
 30
0.0
 10
2.9341701556
 20
0.8988091667
 30
0.0
  0
SPLINE
  5
523
100
AcDbEntity
  8
0
100
AcDbSpline
 62
7
  6
CONTINUOUS
 70
0
 71
3
 72
13
 73
9
 74
0
 42
0.0000001
 43
0.0000001
 44
0.0000000001
 40
0.0
 40
0.0
 40
0.0
 40
0.0
 40
0.0456149549
 40
0.1134732899
 40
0.2040744538
 40
0.3175565191
 40
0.6131697412
 40
1.0
 40
1.0
 40
1.0
 40
1.0
 10
3.0644335142
 20
1.0015107168
 30
0.0
 10
3.0645363731
 20
1.00156977
 30
0.0
 10
3.0648161207
 20
1.0016715752
 30
0.0
 10
3.0653297842
 20
1.0018023013
 30
0.0
 10
3.0660250893
 20
1.0019346116
 30
0.0
 10
3.0673093971
 20
1.0021309701
 30
0.0
 10
3.0693664521
 20
1.0023643548
 30
0.0
 10
3.0711339394
 20
1.0025212548
 30
0.0
 10
3.072136447
 20
1.0026027424
 30
0.0
  0
SPLINE
  5
524
100
AcDbEntity
  8
0
100
AcDbSpline
 62
7
  6
CONTINUOUS
 70
0
 71
3
 72
31
 73
27
 74
0
 42
0.0000001
 43
0.0000001
 44
0.0000000001
 40
0.0
 40
0.0
 40
0.0
 40
0.0
 40
0.0349829285
 40
0.0834603928
 40
0.1440149059
 40
0.2148043829
 40
0.2937464523
 40
0.3784738481
 40
0.4664689249
 40
0.5550839045
 40
0.6416788963
 40
0.7236460755
 40
0.7985612198
 40
0.8326517278
 40
0.8641591226
 40
0.8928582972
 40
0.9185244446
 40
0.940953977
 40
0.9600009805
 40
0.975530297
 40
0.9819343151
 40
0.9874111417
 40
0.9919551691
 40
0.9955649529
 40
0.9982424117
 40
1.0
 40
1.0
 40
1.0
 40
1.0
 10
3.072136447
 20
1.0026027424
 30
0.0
 10
3.0756921983
 20
1.0028917674
 30
0.0
 10
3.0841897994
 20
1.003393958
 30
0.0
 10
3.0988610172
 20
1.0040550207
 30
0.0
 10
3.1171869946
 20
1.0047213337
 30
0.0
 10
3.1386208704
 20
1.0053954282
 30
0.0
 10
3.1625209418
 20
1.0060713367
 30
0.0
 10
3.1881761552
 20
1.0067493337
 30
0.0
 10
3.2148181096
 20
1.0074278824
 30
0.0
 10
3.2416505668
 20
1.0081067281
 30
0.0
 10
3.2678681381
 20
1.0087847874
 30
0.0
 10
3.2926881632
 20
1.0094621124
 30
0.0
 10
3.3121545702
 20
1.0100409383
 30
0.0
 10
3.3264760235
 20
1.0105123514
 30
0.0
 10
3.3360861503
 20
1.0108544125
 30
0.0
 10
3.3448366182
 20
1.0111958109
 30
0.0
 10
3.3526605994
 20
1.0115364325
 30
0.0
 10
3.3594992972
 20
1.0118761235
 30
0.0
 10
3.3653028324
 20
1.0122142989
 30
0.0
 10
3.3694717828
 20
1.0125087615
 30
0.0
 10
3.3722564545
 20
1.0127517529
 30
0.0
 10
3.3739229776
 20
1.0129214504
 30
0.0
 10
3.3753025644
 20
1.0130904319
 30
0.0
 10
3.3763954304
 20
1.0132567402
 30
0.0
 10
3.3771980904
 20
1.0134217094
 30
0.0
 10
3.3776354078
 20
1.0135493906
 30
0.0
 10
3.3777973564
 20
1.0136261875
 30
0.0
  0
SPLINE
  5
525
100
AcDbEntity
  8
0
100
AcDbSpline
 62
7
  6
CONTINUOUS
 70
0
 71
3
 72
13
 73
9
 74
0
 42
0.0000001
 43
0.0000001
 44
0.0000000001
 40
0.0
 40
0.0
 40
0.0
 40
0.0
 40
0.0459147131
 40
0.1140763096
 40
0.2050303525
 40
0.3188232353
 40
0.6145154323
 40
1.0
 40
1.0
 40
1.0
 40
1.0
 10
3.0644325144
 20
1.0265144919
 30
0.0
 10
3.0645337232
 20
1.026572481
 30
0.0
 10
3.0648083364
 20
1.0266728047
 30
0.0
 10
3.0653125448
 20
1.0268013501
 30
0.0
 10
3.0659942464
 20
1.0269313156
 30
0.0
 10
3.0672508775
 20
1.0271239102
 30
0.0
 10
3.0692581688
 20
1.0273527444
 30
0.0
 10
3.0709817651
 20
1.0275070641
 30
0.0
 10
3.0719577877
 20
1.0275872253
 30
0.0
  0
SPLINE
  5
526
100
AcDbEntity
  8
0
100
AcDbSpline
 62
7
  6
CONTINUOUS
 70
0
 71
3
 72
20
 73
16
 74
0
 42
0.0000001
 43
0.0000001
 44
0.0000000001
 40
0.0
 40
0.0
 40
0.0
 40
0.0
 40
0.0309537968
 40
0.0729556788
 40
0.1249997371
 40
0.1859203286
 40
0.254269993
 40
0.3284959177
 40
0.4875258031
 40
0.6483075578
 40
0.7959882355
 40
0.8605838531
 40
0.9169424435
 40
0.9637874294
 40
1.0
 40
1.0
 40
1.0
 40
1.0
 10
3.0719577877
 20
1.0275872253
 30
0.0
 10
3.0749885557
 20
1.0278361436
 30
0.0
 10
3.0821430776
 20
1.028280422
 30
0.0
 10
3.094409342
 20
1.0288652321
 30
0.0
 10
3.1096223817
 20
1.0294558655
 30
0.0
 10
3.1274251888
 20
1.0300509661
 30
0.0
 10
3.1474082256
 20
1.0306487178
 30
0.0
 10
3.1770273845
 20
1.0314659609
 30
0.0
 10
3.2157260208
 20
1.0324517811
 30
0.0
 10
3.2616388686
 20
1.0336116793
 30
0.0
 10
3.2982755065
 20
1.0346090388
 30
0.0
 10
3.3246537133
 20
1.0354417293
 30
0.0
 10
3.341128147
 20
1.0360349395
 30
0.0
 10
3.3548121124
 20
1.0366229582
 30
0.0
 10
3.3629604592
 20
1.0370644999
 30
0.0
 10
3.3665099931
 20
1.0373040306
 30
0.0
  0
SPLINE
  5
527
100
AcDbEntity
  8
0
100
AcDbSpline
 62
7
  6
CONTINUOUS
 70
0
 71
3
 72
12
 73
8
 74
0
 42
0.0000001
 43
0.0000001
 44
0.0000000001
 40
0.0
 40
0.0
 40
0.0
 40
0.0
 40
0.375771495
 40
0.668786102
 40
0.8770434712
 40
0.9490887683
 40
1.0
 40
1.0
 40
1.0
 40
1.0
 10
3.3665099931
 20
1.0373040306
 30
0.0
 10
3.3679116592
 20
1.0373986183
 30
0.0
 10
3.3704057088
 20
1.0375801506
 30
0.0
 10
3.3736700765
 20
1.0378842195
 30
0.0
 10
3.3757991563
 20
1.0381478507
 30
0.0
 10
3.3770154697
 20
1.0383793278
 30
0.0
 10
3.3774615114
 20
1.0384962053
 30
0.0
 10
3.3776401227
 20
1.0385619761
 30
0.0
  0
LINE
  5
528
100
AcDbEntity
  8
0
100
AcDbLine
 62
7
  6
CONTINUOUS
 10
3.3776401227
 20
1.0385619761
 11
3.3780140292
 21
1.0388357525
  0
SPLINE
  5
529
100
AcDbEntity
  8
0
100
AcDbSpline
 62
7
  6
CONTINUOUS
 70
0
 71
3
 72
10
 73
6
 74
0
 42
0.0000001
 43
0.0000001
 44
0.0000000001
 40
0.0
 40
0.0
 40
0.0
 40
0.0
 40
0.6938761551
 40
0.88711526
 40
1.0
 40
1.0
 40
1.0
 40
1.0
 10
3.0653058905
 20
1.0258820713
 30
0.0
 10
3.0650442932
 20
1.0259402384
 30
0.0
 10
3.0647066603
 20
1.0260259757
 30
0.0
 10
3.0643609951
 20
1.0261892796
 30
0.0
 10
3.0642785101
 20
1.0262954106
 30
0.0
 10
3.06427882
 20
1.0263390074
 30
0.0
  0
ELLIPSE
  5
52A
100
AcDbEntity
  8
0
100
AcDbEllipse
 62
7
  6
CONTINUOUS
 10
3.2211495385
 20
1.0355107856
 30
0.0
 11
0.0
 21
0.171875
 31
0.0
 40
1.0
 41
-2.5835516523
 42
-2.1439009259
  0
ELLIPSE
  5
52B
100
AcDbEntity
  8
0
100
AcDbEllipse
 62
7
  6
CONTINUOUS
 10
3.2211495385
 20
1.0355107856
 30
0.0
 11
0.171875
 21
0.0
 31
0.0
 40
1.0
 41
-2.2147160544
 42
-1.0127553255
  0
ELLIPSE
  5
52C
100
AcDbEntity
  8
0
100
AcDbEllipse
 62
7
  6
CONTINUOUS
 10
3.2211495385
 20
1.0355107856
 30
0.0
 11
-0.0
 21
0.171875
 31
0.0
 40
1.0
 41
-4.1392843813
 42
-3.7855123812
  0
ENDSEC
  0
SECTION
  2
OBJECTS
  0
DICTIONARY
  5
C
100
AcDbDictionary
280
0
281
1
  3
ACAD_GROUP
350
D
  3
ACAD_MLINESTYLE
350
17
  3
ACAD_LAYOUT
350
1A
  3
ACAD_PLOTSETTINGS
350
19
  3
ACAD_PLOTSTYLENAME
350
E
  0
DICTIONARY
  5
D
102
{ACAD_REACTORS
330
C
102
}
100
AcDbDictionary
280
0
281
1
  0
ACDBDICTIONARYWDFLT
  5
E
102
{ACAD_REACTORS
330
C
102
}
100
AcDbDictionary
281
1
  3
Normal
350
F
100
AcDbDictionaryWithDefault
340
F
  0
DICTIONARY
  5
17
102
{ACAD_REACTORS
330
C
102
}
100
AcDbDictionary
280
0
281
1
  3
Standard
350
18
  0
DICTIONARY
  5
19
102
{ACAD_REACTORS
330
C
102
}
100
AcDbDictionary
281
1
  0
DICTIONARY
  5
1A
102
{ACAD_REACTORS
330
C
102
}
100
AcDbDictionary
281
1
  3
Model
350
52D
  3
Layout1
350
52E
  0
ACDBPLACEHOLDER
  5
F
102
{ACAD_REACTORS
330
E
102
}
  0
MLINESTYLE
  5
18
102
{ACAD_REACTORS
330
17
102
}
100
AcDbMlineStyle
  2
STANDARD
 70
0
  3

 62
256
 51
90.0
 52
90.0
 71
2
 49
0.5
 62
256
  6
BYLAYER
 49
-0.5
 62
256
  6
BYLAYER
  0
LAYOUT
  5
52D
102
{ACAD_REACTORS
330
1A
102
}
100
AcDbPlotSettings
  1

  2
none_device
  4

  6

 40
0.0
 41
0.0
 42
0.0
 43
0.0
 44
215.9
 45
279.4
 46
0.0
 47
0.0
 48
0.0
 49
0.0
140
0.0
141
0.0
142
1.0
143
1.0
 70
1024
 72
0
 73
0
 74
0
  7

 75
0
147
1.0
148
0.0
149
0.0
100
AcDbLayout
  1
Model
 70
0
 71
0
 10
0.0
 20
0.0
 11
8.5
 21
11.0
 12
0.0
 22
0.0
 32
0.0
 14
0.0
 24
0.0
 34
0.0
 15
0.0
 25
0.0
 35
0.0
146
0.0
 13
0.0
 23
0.0
 33
0.0
 16
1.0
 26
0.0
 36
0.0
 17
0.0
 27
1.0
 37
0.0
 76
0
330
225
345
0
346
0
  0
LAYOUT
  5
52E
102
{ACAD_REACTORS
330
1A
102
}
100
AcDbPlotSettings
  1

  2
none_device
  4

  6

 40
0.0
 41
0.0
 42
0.0
 43
0.0
 44
215.9
 45
279.4
 46
0.0
 47
0.0
 48
0.0
 49
0.0
140
0.0
141
0.0
142
1.0
143
1.0
 70
0
 72
0
 73
0
 74
0
  7

 75
0
147
1.0
148
0.0
149
0.0
100
AcDbLayout
  1
Layout1
 70
0
 71
1
 10
0.0
 20
0.0
 11
8.5
 21
11.0
 12
0.0
 22
0.0
 32
0.0
 14
0.0
 24
0.0
 34
0.0
 15
0.0
 25
0.0
 35
0.0
146
0.0
 13
0.0
 23
0.0
 33
0.0
 16
1.0
 26
0.0
 36
0.0
 17
0.0
 27
1.0
 37
0.0
 76
0
330
226
345
0
346
0
  0
ENDSEC
  0
EOF
