  0
SECTION
  2
HEADER
  9
$ACADVER
  1
AC1015
  9
$DWGCODEPAGE
  3
ANSI_1252
  9
$EXTMAX
 10
17.0
 20
22.0
 30
0.0
  9
$EXTMIN
 10
0.0
 20
0.0
 30
0.0
  9
$LIMMIN
 10
0.0
 20
0.0
  9
$LIMMAX
 10
17.0
 20
22.0
  9
$VIEWCTR
 10
8.5
 20
11.0
  9
$VIEWSIZE
 40
22.0
  9
$CLAYER
  8
0
  9
$LTSCALE
 40
1.4340740741
  9
$CELTYPE
  6
BYLAYER
  9
$DIMSCALE
 40
1.0
  9
$DIMASZ
 40
0.1
  9
$DIMEXO
 40
0.162962963
  9
$DIMDLI
 40
0.9908148148
  9
$DIMEXE
 40
0.4693333333
  9
$DIMCEN
 40
0.2346666667
  9
$DIMLFAC
 40
1.0
  9
$DIMBLK
  1
_FILLED
  9
$DIMTXT
 40
0.08
  9
$DIMTOL
 70
1
  9
$DIMLIM
 70
0
  9
$DIMTFAC
 40
1.0
  9
$DIMTP
 40
0.01
  9
$DIMTM
 40
0.01
  9
$PDMODE
 70
3
  9
$PDSIZE
 40
0.06
  9
$HANDSEED
  5
2CB
  9
$TILEMODE
 70
1
  9
$MEASUREMENT
 70
0
  9
$INSUNITS
 70
1
  0
ENDSEC
  0
SECTION
  2
CLASSES
  0
CLASS
  1
ACDBDICTIONARYWDFLT
  2
AcDbDictionaryWithDefault
  3
AutoCAD 2000
 90
0
280
0
281
0
  0
CLASS
  1
ACDBPLACEHOLDER
  2
AcDbPlaceHolder
  3
AutoCAD 2000
 90
0
280
0
281
0
  0
CLASS
  1
LAYOUT
  2
AcDbLayout
  3
AutoCAD 2000
 90
0
280
0
281
0
  0
ENDSEC
  0
SECTION
  2
TABLES
  0
TABLE
  2
VPORT
  5
8
100
AcDbSymbolTable
 70
2
  0
VPORT
  5
1F4
100
AcDbSymbolTableRecord
100
AcDbViewportTableRecord
  2
*ACTIVE
 70
0
 10
0.0
 20
0.0
 11
1.0
 21
1.0
 12
8.5
 22
11.0
 13
0.0
 23
0.0
 14
1.0
 24
1.0
 15
0.0
 25
0.0
 16
0.0
 26
0.0
 36
1.0
 17
0.0
 27
0.0
 37
0.0
 40
22.0
 41
0.7727272727
 42
50.0
 43
0.0
 44
0.0
 50
0.0
 51
0.0
 71
0
 72
100
 73
1
 74
1
 75
0
 76
0
 77
0
 78
0
  0
ENDTAB
  0
TABLE
  2
LTYPE
  5
5
100
AcDbSymbolTable
 70
6
  0
LTYPE
  5
14
100
AcDbSymbolTableRecord
100
AcDbLinetypeTableRecord
  2
BYBLOCK
 70
0
  3

 72
65
 73
0
 40
0.0
  0
LTYPE
  5
15
100
AcDbSymbolTableRecord
100
AcDbLinetypeTableRecord
  2
BYLAYER
 70
0
  3

 72
65
 73
0
 40
0.0
  0
LTYPE
  5
16
100
AcDbSymbolTableRecord
100
AcDbLinetypeTableRecord
  2
CONTINUOUS
 70
64
  3
Solid line
 72
65
 73
0
 40
0.0
  0
LTYPE
  5
1F5
100
AcDbSymbolTableRecord
100
AcDbLinetypeTableRecord
  2
CENTER
 70
64
  3
____ _ ____ _ ____ _ ____ _ ____ _ ____ _ ____
 72
65
 73
4
 40
0.6
 49
0.375
 74
0
 49
-0.075
 74
0
 49
0.075
 74
0
 49
-0.075
 74
0
  0
LTYPE
  5
1F6
100
AcDbSymbolTableRecord
100
AcDbLinetypeTableRecord
  2
HIDDEN
 70
64
  3
- - - - - - - - - - - - - - - - - - - -
 72
65
 73
2
 40
0.2
 49
0.1
 74
0
 49
-0.1
 74
0
  0
LTYPE
  5
1F7
100
AcDbSymbolTableRecord
100
AcDbLinetypeTableRecord
  2
PHANTOM
 70
64
  3
_____ _ _ _____ _ _ _____ _ _ _____
 72
65
 73
6
 40
0.8
 49
0.45
 74
0
 49
-0.05
 74
0
 49
0.1
 74
0
 49
-0.05
 74
0
 49
0.1
 74
0
 49
-0.05
 74
0
  0
LTYPE
  5
1F8
100
AcDbSymbolTableRecord
100
AcDbLinetypeTableRecord
  2
DOT
 70
64
  3
. . . . . . . . . . . . . . . . . . . .
 72
65
 73
2
 40
0.2
 49
0.1
 74
0
 49
-0.1
 74
0
  0
LTYPE
  5
1F9
100
AcDbSymbolTableRecord
100
AcDbLinetypeTableRecord
  2
DASHED
 70
64
  3
- - - - - - - - - - - - - - - - - - - -
 72
65
 73
2
 40
0.2
 49
0.1
 74
0
 49
-0.1
 74
0
  0
ENDTAB
  0
TABLE
  2
LAYER
  5
2
100
AcDbSymbolTable
 70
36
  0
LAYER
  5
10
100
AcDbSymbolTableRecord
100
AcDbLayerTableRecord
  2
0
 70
0
 62
7
  6
CONTINUOUS
370
-3
390
F
  0
LAYER
  5
1FA
100
AcDbSymbolTableRecord
100
AcDbLayerTableRecord
  2
DEFAULT_1
 70
0
 62
7
  6
CENTER
370
-3
390
F
  0
LAYER
  5
1FB
100
AcDbSymbolTableRecord
100
AcDbLayerTableRecord
  2
DEFAULT_2
 70
0
 62
8
  6
HIDDEN
370
-3
390
F
  0
LAYER
  5
1FC
100
AcDbSymbolTableRecord
100
AcDbLayerTableRecord
  2
DEFAULT_3
 70
0
 62
7
  6
PHANTOM
370
-3
390
F
  0
LAYER
  5
1FD
100
AcDbSymbolTableRecord
100
AcDbLayerTableRecord
  2
DEFAULT_COORDINATE_SYSTEM
 70
0
 62
7
  6
CONTINUOUS
370
-3
390
F
  0
LAYER
  5
1FE
100
AcDbSymbolTableRecord
100
AcDbLayerTableRecord
  2
DEFAULT_DATUM_AXES
 70
0
 62
7
  6
CONTINUOUS
370
-3
390
F
  0
LAYER
  5
1FF
100
AcDbSymbolTableRecord
100
AcDbLayerTableRecord
  2
DEFAULT_DATUM_CURVES
 70
0
 62
7
  6
CONTINUOUS
370
-3
390
F
  0
LAYER
  5
200
100
AcDbSymbolTableRecord
100
AcDbLayerTableRecord
  2
DEFAULT_DATUM_PLANES
 70
0
 62
7
  6
CONTINUOUS
370
-3
390
F
  0
ENDTAB
  0
TABLE
  2
STYLE
  5
3
100
AcDbSymbolTable
 70
1
  0
STYLE
  5
11
100
AcDbSymbolTableRecord
100
AcDbTextStyleTableRecord
  2
STANDARD
 70
0
 40
0.0
 41
0.8
 50
0.0
 71
0
 42
0.2
  3
txt
  4

  0
STYLE
  5
201
100
AcDbSymbolTableRecord
100
AcDbTextStyleTableRecord
  2
TEXTSTYLE_1
 70
0
 40
0.0
 41
0.8
 50
0.0
 71
0
 42
0.2
  3
gdt
  4

  0
ENDTAB
  0
TABLE
  2
VIEW
  5
6
100
AcDbSymbolTable
 70
0
  0
ENDTAB
  0
TABLE
  2
UCS
  5
7
100
AcDbSymbolTable
 70
0
  0
ENDTAB
  0
TABLE
  2
APPID
  5
9
100
AcDbSymbolTable
 70
1
  0
APPID
  5
202
100
AcDbSymbolTableRecord
100
AcDbRegAppTableRecord
  2
ACAD
 70
0
  0
ENDTAB
  0
TABLE
  2
BLOCK_RECORD
  5
1
100
AcDbSymbolTable
 70
0
  0
BLOCK_RECORD
  5
203
100
AcDbSymbolTableRecord
100
AcDbBlockTableRecord
  2
*Model_Space
  0
BLOCK_RECORD
  5
204
100
AcDbSymbolTableRecord
100
AcDbBlockTableRecord
  2
*Paper_Space
  0
ENDTAB
  0
TABLE
  2
DIMSTYLE
  5
A
100
AcDbSymbolTable
 70
1
100
AcDbDimStyleTable
 71
0
  0
DIMSTYLE
105
205
100
AcDbSymbolTableRecord
100
AcDbDimStyleTableRecord
  2
STANDARD
 70
0
  3

  4

 40
1.0
 41
0.1
 42
0.0625
 43
0.38
 44
0.18
 45
0.0
 46
0.0
 47
0.01
 48
0.01
140
0.08
141
0.09
142
0.0
143
25.4
144
1.0
145
0.0
146
1.0
147
0.09
 71
1.0
 72
0.0
 73
1
 74
1
 75
0
 76
0
 77
0
 78
4
170
0
171
2
172
0
173
0
174
0
175
0
176
0
177
0
178
0
270
2
271
2
272
2
273
2
274
2
275
0
280
0
281
0
282
0
283
1
284
4
285
0
286
0
287
3
288
0
340
11
  0
ENDTAB
  0
ENDSEC
  0
SECTION
  2
BLOCKS
  0
BLOCK
  5
20
100
AcDbEntity
  8
0
100
AcDbBlockBegin
  2
*Model_Space
 70
0
 10
0.0
 20
0.0
 30
0.0
  3
*Model_Space
  1

  0
ENDBLK
  5
21
100
AcDbEntity
  8
0
100
AcDbBlockEnd
  0
BLOCK
  5
1C
100
AcDbEntity
  8
0
100
AcDbBlockBegin
  2
*Paper_Space
 70
0
 10
0.0
 20
0.0
 30
0.0
  3
*Paper_Space
  1

  0
ENDBLK
  5
1D
100
AcDbEntity
  8
0
100
AcDbBlockEnd
  0
ENDSEC
  0
SECTION
  2
ENTITIES
  0
LINE
  5
206
100
AcDbEntity
  8
0
100
AcDbLine
 62
6
  6
CONTINUOUS
 10
7.7152511527
 20
21.8217867875
 11
7.7152511527
 21
21.6947867875
  0
LINE
  5
207
100
AcDbEntity
  8
0
100
AcDbLine
 62
6
  6
CONTINUOUS
 10
7.7477511527
 20
21.6747867875
 11
7.7477511527
 21
21.6447867875
  0
LINE
  5
208
100
AcDbEntity
  8
0
100
AcDbLine
 62
6
  6
CONTINUOUS
 10
7.8877511527
 20
21.6047867875
 11
7.8877511527
 21
2.6112087496
  0
LINE
  5
209
100
AcDbEntity
  8
0
100
AcDbLine
 62
7
  6
CONTINUOUS
 10
8.1377511527
 20
1.7940367875
 11
8.1377511527
 21
1.7923981696
  0
LINE
  5
20A
100
AcDbEntity
  8
0
100
AcDbLine
 62
6
  6
CONTINUOUS
 10
8.3877511527
 20
21.6047867875
 11
8.3877511527
 21
2.6112087496
  0
LINE
  5
20B
100
AcDbEntity
  8
0
100
AcDbLine
 62
6
  6
CONTINUOUS
 10
8.5277511527
 20
21.6747867875
 11
8.5277511527
 21
21.6447867875
  0
LINE
  5
20C
100
AcDbEntity
  8
0
100
AcDbLine
 62
6
  6
CONTINUOUS
 10
8.5602511527
 20
21.8217867875
 11
8.5602511527
 21
21.6947867875
  0
LINE
  5
20D
100
AcDbEntity
  8
0
100
AcDbLine
 62
9
  6
CONTINUOUS
 10
8.3877511527
 20
21.6047867875
 11
7.8877511527
 21
21.6047867875
  0
LINE
  5
20E
100
AcDbEntity
  8
0
100
AcDbLine
 62
9
  6
CONTINUOUS
 10
7.7678096071
 20
21.6247867875
 11
8.5076926984
 21
21.6247867875
  0
LINE
  5
20F
100
AcDbEntity
  8
0
100
AcDbLine
 62
9
  6
CONTINUOUS
 10
7.7477511527
 20
21.6447867875
 11
8.5277511527
 21
21.6447867875
  0
LINE
  5
210
100
AcDbEntity
  8
0
100
AcDbLine
 62
9
  6
CONTINUOUS
 10
7.7477511527
 20
21.6747867875
 11
8.5277511527
 21
21.6747867875
  0
LINE
  5
211
100
AcDbEntity
  8
0
100
AcDbLine
 62
6
  6
CONTINUOUS
 10
7.7153165884
 20
21.6947867875
 11
8.5601857171
 21
21.6947867875
  0
LINE
  5
212
100
AcDbEntity
  8
0
100
AcDbLine
 62
6
  6
CONTINUOUS
 10
7.7153165884
 20
21.8217867875
 11
8.5601857171
 21
21.8217867875
  0
ARC
  5
213
100
AcDbEntity
  8
0
100
AcDbCircle
 62
6
  6
CONTINUOUS
 10
8.1374792116
 20
1.3877989101
 40
0.4056600059
100
AcDbArc
 50
180.0381146578
 51
269.9605790712
  0
ARC
  5
214
100
AcDbEntity
  8
0
100
AcDbCircle
 62
6
  6
CONTINUOUS
 10
8.1374359712
 20
1.3887120681
 40
0.4035002092
100
AcDbArc
 50
121.6780573838
 51
121.898842611
  0
ARC
  5
215
100
AcDbEntity
  8
0
100
AcDbCircle
 62
6
  6
CONTINUOUS
 10
8.1374338155
 20
1.3887164489
 40
0.4029107269
100
AcDbArc
 50
121.6748339185
 51
121.8915236236
  0
ARC
  5
216
100
AcDbEntity
  8
0
100
AcDbCircle
 62
6
  6
CONTINUOUS
 10
8.1374328426
 20
1.3887180386
 40
0.4012702457
100
AcDbArc
 50
121.675001045
 51
121.8709544653
  0
ARC
  5
217
100
AcDbEntity
  8
0
100
AcDbCircle
 62
6
  6
CONTINUOUS
 10
8.1374646456
 20
1.3886398105
 40
0.4007687642
100
AcDbArc
 50
121.7694629851
 51
122.2640386841
  0
ARC
  5
218
100
AcDbEntity
  8
0
100
AcDbCircle
 62
6
  6
CONTINUOUS
 10
8.1375407903
 20
1.3878707628
 40
0.3996607466
100
AcDbArc
 50
153.4529328294
 51
269.9435895386
  0
ARC
  5
219
100
AcDbEntity
  8
0
100
AcDbCircle
 62
6
  6
CONTINUOUS
 10
8.1374634001
 20
1.3886418701
 40
0.3991277404
100
AcDbArc
 50
121.7894680782
 51
122.2642075128
  0
ARC
  5
21A
100
AcDbEntity
  8
0
100
AcDbCircle
 62
6
  6
CONTINUOUS
 10
8.137546022
 20
1.3878730891
 40
0.3990802009
100
AcDbArc
 50
153.448695798
 51
269.9496025176
  0
ARC
  5
21B
100
AcDbEntity
  8
0
100
AcDbCircle
 62
6
  6
CONTINUOUS
 10
8.1375454633
 20
1.3878726012
 40
0.3974409271
100
AcDbArc
 50
153.6466162619
 51
269.9710704232
  0
ARC
  5
21C
100
AcDbEntity
  8
0
100
AcDbCircle
 62
6
  6
CONTINUOUS
 10
8.1375454056
 20
1.3878725757
 40
0.3968562531
100
AcDbArc
 50
153.6388902952
 51
269.9787673252
  0
ARC
  5
21D
100
AcDbEntity
  8
0
100
AcDbCircle
 62
6
  6
CONTINUOUS
 10
8.1368586598
 20
1.3883693411
 40
0.3966294545
100
AcDbArc
 50
153.4899769136
 51
153.6668747162
  0
ARC
  5
21E
100
AcDbEntity
  8
0
100
AcDbCircle
 62
6
  6
CONTINUOUS
 10
8.1369134253
 20
1.3883509194
 40
0.3961020636
100
AcDbArc
 50
153.4499835289
 51
153.6602963249
  0
ARC
  5
21F
100
AcDbEntity
  8
0
100
AcDbCircle
 62
6
  6
CONTINUOUS
 10
8.1375454794
 20
1.3878726315
 40
0.3952177211
100
AcDbArc
 50
153.6176147183
 51
269.9709267895
  0
ARC
  5
220
100
AcDbEntity
  8
0
100
AcDbCircle
 62
6
  6
CONTINUOUS
 10
8.1375455954
 20
1.3878726867
 40
0.3946331931
100
AcDbArc
 50
153.6097574393
 51
269.979034145
  0
ARC
  5
221
100
AcDbEntity
  8
0
100
AcDbCircle
 62
6
  6
CONTINUOUS
 10
8.1369114772
 20
1.3883518807
 40
0.3944612738
100
AcDbArc
 50
153.4501342026
 51
153.6390551153
  0
ARC
  5
222
100
AcDbEntity
  8
0
100
AcDbCircle
 62
6
  6
CONTINUOUS
 10
8.1375457629
 20
1.3878727736
 40
0.3929947483
100
AcDbArc
 50
153.5884501638
 51
269.9418221996
  0
ARC
  5
223
100
AcDbEntity
  8
0
100
AcDbCircle
 62
6
  6
CONTINUOUS
 10
8.1375441059
 20
1.3878717682
 40
0.392408439
100
AcDbArc
 50
153.5597177778
 51
269.9494205785
  0
ARC
  5
224
100
AcDbEntity
  8
0
100
AcDbCircle
 62
6
  6
CONTINUOUS
 10
8.1374734557
 20
1.387790434
 40
0.3906717523
100
AcDbArc
 50
185.4204841188
 51
269.9814213128
  0
ARC
  5
225
100
AcDbEntity
  8
0
100
AcDbCircle
 62
6
  6
CONTINUOUS
 10
8.1374572943
 20
1.3873101945
 40
0.3901774103
100
AcDbArc
 50
270.1037010464
 51
345.1944803019
  0
ARC
  5
226
100
AcDbEntity
  8
0
100
AcDbCircle
 62
6
  6
CONTINUOUS
 10
8.1374734184
 20
1.3877903272
 40
0.3900870339
100
AcDbArc
 50
185.4161403226
 51
269.9895606755
  0
ARC
  5
227
100
AcDbEntity
  8
0
100
AcDbCircle
 62
6
  6
CONTINUOUS
 10
8.1374543844
 20
1.3873136969
 40
0.3895970402
100
AcDbArc
 50
270.0961204114
 51
345.184387573
  0
ARC
  5
228
100
AcDbEntity
  8
0
100
AcDbCircle
 62
6
  6
CONTINUOUS
 10
8.1369705827
 20
1.3883261958
 40
0.389494519
100
AcDbArc
 50
153.3281479151
 51
153.5724162445
  0
ARC
  5
229
100
AcDbEntity
  8
0
100
AcDbCircle
 62
6
  6
CONTINUOUS
 10
8.1374734763
 20
1.3877904016
 40
0.3884485078
100
AcDbArc
 50
185.394550991
 51
269.9817210953
  0
ARC
  5
22A
100
AcDbEntity
  8
0
100
AcDbCircle
 62
6
  6
CONTINUOUS
 10
8.1374573513
 20
1.3873100036
 40
0.38795401
100
AcDbArc
 50
270.1040701259
 51
345.1664317609
  0
ARC
  5
22B
100
AcDbEntity
  8
0
100
AcDbCircle
 62
6
  6
CONTINUOUS
 10
8.1374731389
 20
1.3877899001
 40
0.3878633306
100
AcDbArc
 50
185.5683485769
 51
269.989540266
  0
ARC
  5
22C
100
AcDbEntity
  8
0
100
AcDbCircle
 62
6
  6
CONTINUOUS
 10
8.1374505408
 20
1.3873198429
 40
0.3873806018
100
AcDbArc
 50
270.0976807551
 51
344.4567908844
  0
ARC
  5
22D
100
AcDbEntity
  8
0
100
AcDbCircle
 62
6
  6
CONTINUOUS
 10
8.1374730011
 20
1.387789791
 40
0.3862245525
100
AcDbArc
 50
185.5684392287
 51
270.041264148
  0
ARC
  5
22E
100
AcDbEntity
  8
0
100
AcDbCircle
 62
6
  6
CONTINUOUS
 10
8.1374506185
 20
1.3873201895
 40
0.3857421558
100
AcDbArc
 50
270.0446389156
 51
344.4568512917
  0
ARC
  5
22F
100
AcDbEntity
  8
0
100
AcDbCircle
 62
6
  6
CONTINUOUS
 10
8.137471354
 20
1.387791488
 40
0.3856406674
100
AcDbArc
 50
185.3356327523
 51
270.0415712433
  0
ARC
  5
230
100
AcDbEntity
  8
0
100
AcDbCircle
 62
6
  6
CONTINUOUS
 10
8.1367306895
 20
1.3877930327
 40
0.3854946327
100
AcDbArc
 50
185.3193200338
 51
185.5796245297
  0
ARC
  5
231
100
AcDbEntity
  8
0
100
AcDbCircle
 62
6
  6
CONTINUOUS
 10
8.1374547445
 20
1.3873133717
 40
0.3851501381
100
AcDbArc
 50
270.0440936759
 51
345.1312024964
  0
ARC
  5
232
100
AcDbEntity
  8
0
100
AcDbCircle
 62
6
  6
CONTINUOUS
 10
8.1374713531
 20
1.387791487
 40
0.3840020488
100
AcDbArc
 50
185.3358097734
 51
270.0417487859
  0
ARC
  5
233
100
AcDbEntity
  8
0
100
AcDbCircle
 62
6
  6
CONTINUOUS
 10
8.137451487
 20
1.3873183965
 40
0.3835170164
100
AcDbArc
 50
270.0447681429
 51
345.120969635
  0
ARC
  5
234
100
AcDbEntity
  8
0
100
AcDbCircle
 62
6
  6
CONTINUOUS
 10
8.137473164
 20
1.3877900775
 40
0.383416995
100
AcDbArc
 50
185.4666892028
 51
270.0415419721
  0
ARC
  5
235
100
AcDbEntity
  8
0
100
AcDbCircle
 62
6
  6
CONTINUOUS
 10
8.1374564048
 20
1.3873111417
 40
0.3829243659
100
AcDbArc
 50
270.0441015114
 51
345.114875635
  0
ARC
  5
236
100
AcDbEntity
  8
0
100
AcDbCircle
 62
6
  6
CONTINUOUS
 10
8.1374193634
 20
1.3876911634
 40
0.3446477473
100
AcDbArc
 50
270.2969992857
 51
275.3449152583
  0
ARC
  5
237
100
AcDbEntity
  8
0
100
AcDbCircle
 62
6
  6
CONTINUOUS
 10
8.1374295644
 20
1.3873756226
 40
0.3443312655
100
AcDbArc
 50
275.348116127
 51
320.3723507659
  0
ARC
  5
238
100
AcDbEntity
  8
0
100
AcDbCircle
 62
6
  6
CONTINUOUS
 10
7.8677511527
 20
21.6047867875
 40
0.02
100
AcDbArc
 50
0.0
 51
90.0
  0
ARC
  5
239
100
AcDbEntity
  8
0
100
AcDbCircle
 62
6
  6
CONTINUOUS
 10
7.7677511527
 20
21.6747867875
 40
0.02
100
AcDbArc
 50
90.0
 51
180.0
  0
ARC
  5
23A
100
AcDbEntity
  8
0
100
AcDbCircle
 62
6
  6
CONTINUOUS
 10
7.7677511527
 20
21.6447867875
 40
0.02
100
AcDbArc
 50
180.0
 51
270.0
  0
CIRCLE
  5
23B
100
AcDbEntity
  8
0
100
AcDbCircle
 62
6
  6
CONTINUOUS
 10
8.1377511527
 20
1.3875367875
 40
1.25
  0
ARC
  5
23C
100
AcDbEntity
  8
0
100
AcDbCircle
 62
6
  6
CONTINUOUS
 10
8.1377511527
 20
1.3875367875
 40
0.4065
100
AcDbArc
 50
121.830053596
 51
90.0748474869
  0
ARC
  5
23D
100
AcDbEntity
  8
0
100
AcDbCircle
 62
6
  6
CONTINUOUS
 10
8.13809491
 20
1.3876337775
 40
0.406402469
100
AcDbArc
 50
90.1276990112
 51
121.917678794
  0
ARC
  5
23E
100
AcDbEntity
  8
0
100
AcDbCircle
 62
6
  6
CONTINUOUS
 10
8.1379189381
 20
1.3878607238
 40
0.4061131867
100
AcDbArc
 50
121.9135338191
 51
180.0467943149
  0
ARC
  5
23F
100
AcDbEntity
  8
0
100
AcDbCircle
 62
6
  6
CONTINUOUS
 10
8.1380949244
 20
1.3876332385
 40
0.4047643749
100
AcDbArc
 50
90.106794907
 51
121.6772412493
  0
ARC
  5
240
100
AcDbEntity
  8
0
100
AcDbCircle
 62
6
  6
CONTINUOUS
 10
8.1380949675
 20
1.3876330987
 40
0.4041798972
100
AcDbArc
 50
90.0992965957
 51
121.6739554655
  0
ARC
  5
241
100
AcDbEntity
  8
0
100
AcDbCircle
 62
6
  6
CONTINUOUS
 10
8.1380949622
 20
1.3876331278
 40
0.4025412525
100
AcDbArc
 50
90.1073877703
 51
121.6741190499
  0
ARC
  5
242
100
AcDbEntity
  8
0
100
AcDbCircle
 62
6
  6
CONTINUOUS
 10
8.1380950905
 20
1.3876330452
 40
0.4019567078
100
AcDbArc
 50
90.1002837513
 51
121.7703072421
  0
ARC
  5
243
100
AcDbEntity
  8
0
100
AcDbCircle
 62
6
  6
CONTINUOUS
 10
8.1380950778
 20
1.387633135
 40
0.4003180049
100
AcDbArc
 50
90.1381222863
 51
121.7902578719
  0
ARC
  5
244
100
AcDbEntity
  8
0
100
AcDbCircle
 62
6
  6
CONTINUOUS
 10
8.1380146837
 20
1.3877805408
 40
0.4001504937
100
AcDbArc
 50
122.2651188141
 51
153.471702886
  0
ARC
  5
245
100
AcDbEntity
  8
0
100
AcDbCircle
 62
6
  6
CONTINUOUS
 10
8.1380950631
 20
1.3876351673
 40
0.3997318458
100
AcDbArc
 50
90.1103141341
 51
121.8140403933
  0
ARC
  5
246
100
AcDbEntity
  8
0
100
AcDbCircle
 62
6
  6
CONTINUOUS
 10
8.1379917008
 20
1.3878007232
 40
0.399535771
100
AcDbArc
 50
121.8139603225
 51
153.4679816225
  0
ARC
  5
247
100
AcDbEntity
  8
0
100
AcDbCircle
 62
6
  6
CONTINUOUS
 10
8.1380950561
 20
1.3876351882
 40
0.3980932067
100
AcDbArc
 50
90.1166577137
 51
121.8142441883
  0
ARC
  5
248
100
AcDbEntity
  8
0
100
AcDbCircle
 62
6
  6
CONTINUOUS
 10
8.1379916972
 20
1.3878007414
 40
0.39789714
100
AcDbArc
 50
121.8141640952
 51
153.4895335729
  0
ARC
  5
249
100
AcDbEntity
  8
0
100
AcDbCircle
 62
6
  6
CONTINUOUS
 10
8.1380950752
 20
1.3876327703
 40
0.3975105242
100
AcDbArc
 50
90.1009508449
 51
121.6453874861
  0
ARC
  5
24A
100
AcDbEntity
  8
0
100
AcDbCircle
 62
6
  6
CONTINUOUS
 10
8.1380149591
 20
1.3877801979
 40
0.3973430503
100
AcDbArc
 50
121.8066218782
 51
153.4473629633
  0
ARC
  5
24B
100
AcDbEntity
  8
0
100
AcDbCircle
 62
6
  6
CONTINUOUS
 10
8.1380622483
 20
1.3877290076
 40
0.3957722904
100
AcDbArc
 50
90.1044561765
 51
153.4439350007
  0
ARC
  5
24C
100
AcDbEntity
  8
0
100
AcDbCircle
 62
6
  6
CONTINUOUS
 10
8.138062239
 20
1.387729068
 40
0.395187615
100
AcDbArc
 50
90.0966461166
 51
153.4699949196
  0
ARC
  5
24D
100
AcDbEntity
  8
0
100
AcDbCircle
 62
6
  6
CONTINUOUS
 10
8.1380621575
 20
1.3877291814
 40
0.3935488661
100
AcDbArc
 50
90.1346780944
 51
153.4701321675
  0
ARC
  5
24E
100
AcDbEntity
  8
0
100
AcDbCircle
 62
6
  6
CONTINUOUS
 10
8.1380619854
 20
1.3877294056
 40
0.3929640054
100
AcDbArc
 50
90.1268634325
 51
153.5747535465
  0
ARC
  5
24F
100
AcDbEntity
  8
0
100
AcDbCircle
 62
6
  6
CONTINUOUS
 10
8.1380620285
 20
1.3877293459
 40
0.3913254603
100
AcDbArc
 50
90.1053510847
 51
153.5749383845
  0
ARC
  5
250
100
AcDbEntity
  8
0
100
AcDbCircle
 62
6
  6
CONTINUOUS
 10
8.1378351536
 20
1.3878894654
 40
0.3910494379
100
AcDbArc
 50
153.5808827761
 51
185.4299229479
  0
ARC
  5
251
100
AcDbEntity
  8
0
100
AcDbCircle
 62
6
  6
CONTINUOUS
 10
8.1380624185
 20
1.3877285986
 40
0.3907416196
100
AcDbArc
 50
90.0979815998
 51
153.3217099516
  0
ARC
  5
252
100
AcDbEntity
  8
0
100
AcDbCircle
 62
6
  6
CONTINUOUS
 10
8.137928808
 20
1.3878528893
 40
0.3905633254
100
AcDbArc
 50
153.5728019189
 51
167.6065653562
  0
ARC
  5
253
100
AcDbEntity
  8
0
100
AcDbCircle
 62
6
  6
CONTINUOUS
 10
8.1377573499
 20
1.3878898988
 40
0.390387379
100
AcDbArc
 50
167.606469684
 51
185.4267555165
  0
ARC
  5
254
100
AcDbEntity
  8
0
100
AcDbCircle
 62
6
  6
CONTINUOUS
 10
8.1379862342
 20
1.3872286795
 40
0.389622999
100
AcDbArc
 50
345.1861932515
 51
89.9756017121
  0
ARC
  5
255
100
AcDbEntity
  8
0
100
AcDbCircle
 62
6
  6
CONTINUOUS
 10
8.1380405909
 20
1.3877710457
 40
0.3890574718
100
AcDbArc
 50
90.1031513764
 51
167.5908195004
  0
ARC
  5
256
100
AcDbEntity
  8
0
100
AcDbCircle
 62
6
  6
CONTINUOUS
 10
8.1379861739
 20
1.3872286329
 40
0.3890384442
100
AcDbArc
 50
345.1764722208
 51
89.9832356586
  0
ARC
  5
257
100
AcDbEntity
  8
0
100
AcDbCircle
 62
6
  6
CONTINUOUS
 10
8.137757268
 20
1.3878899145
 40
0.3887486829
100
AcDbArc
 50
167.5989563383
 51
185.4052204571
  0
ARC
  5
258
100
AcDbEntity
  8
0
100
AcDbCircle
 62
6
  6
CONTINUOUS
 10
8.138042174
 20
1.3877691982
 40
0.3884750941
100
AcDbArc
 50
90.0954833313
 51
167.5917673668
  0
ARC
  5
259
100
AcDbEntity
  8
0
100
AcDbCircle
 62
6
  6
CONTINUOUS
 10
8.1377548624
 20
1.387890121
 40
0.3881616561
100
AcDbArc
 50
167.6000868421
 51
185.5790370732
  0
ARC
  5
25A
100
AcDbEntity
  8
0
100
AcDbCircle
 62
6
  6
CONTINUOUS
 10
8.1379864211
 20
1.3872287545
 40
0.3873995762
100
AcDbArc
 50
345.1580156922
 51
90.034797256
  0
ARC
  5
25B
100
AcDbEntity
  8
0
100
AcDbCircle
 62
6
  6
CONTINUOUS
 10
8.1380407818
 20
1.3877708835
 40
0.3868344557
100
AcDbArc
 50
90.0428974893
 51
167.5830763605
  0
ARC
  5
25C
100
AcDbEntity
  8
0
100
AcDbCircle
 62
6
  6
CONTINUOUS
 10
8.1379862839
 20
1.3872286392
 40
0.3868151259
100
AcDbArc
 50
345.1548762316
 51
90.0348295211
  0
ARC
  5
25D
100
AcDbEntity
  8
0
100
AcDbCircle
 62
6
  6
CONTINUOUS
 10
8.1377518758
 20
1.3878903036
 40
0.3865200689
100
AcDbArc
 50
167.5911559138
 51
185.3196434176
  0
ARC
  5
25E
100
AcDbEntity
  8
0
100
AcDbCircle
 62
6
  6
CONTINUOUS
 10
8.1385039124
 20
1.3869585772
 40
0.3862626211
100
AcDbArc
 50
344.4665493183
 51
345.1739264076
  0
ARC
  5
25F
100
AcDbEntity
  8
0
100
AcDbCircle
 62
6
  6
CONTINUOUS
 10
8.1380434528
 20
1.3877673922
 40
0.3862539279
100
AcDbArc
 50
90.0433582274
 51
167.5787707267
  0
ARC
  5
260
100
AcDbEntity
  8
0
100
AcDbCircle
 62
6
  6
CONTINUOUS
 10
8.1378582745
 20
1.3878890845
 40
0.3860410512
100
AcDbArc
 50
167.5904976793
 51
185.3447150866
  0
ARC
  5
261
100
AcDbEntity
  8
0
100
AcDbCircle
 62
6
  6
CONTINUOUS
 10
8.1379863459
 20
1.3872286686
 40
0.3851764448
100
AcDbArc
 50
345.1354288254
 51
90.0349869277
  0
ARC
  5
262
100
AcDbEntity
  8
0
100
AcDbCircle
 62
6
  6
CONTINUOUS
 10
8.1385058172
 20
1.3869580822
 40
0.3846220361
100
AcDbArc
 50
344.466699363
 51
345.154536526
  0
ARC
  5
263
100
AcDbEntity
  8
0
100
AcDbCircle
 62
6
  6
CONTINUOUS
 10
8.1380412306
 20
1.3877700196
 40
0.3846121232
100
AcDbArc
 50
90.0432122092
 51
167.5706266342
  0
ARC
  5
264
100
AcDbEntity
  8
0
100
AcDbCircle
 62
6
  6
CONTINUOUS
 10
8.1379862323
 20
1.3872285919
 40
0.3845919409
100
AcDbArc
 50
345.1230921571
 51
90.0350231756
  0
ARC
  5
265
100
AcDbEntity
  8
0
100
AcDbCircle
 62
6
  6
CONTINUOUS
 10
8.1378576203
 20
1.3878891066
 40
0.3844017862
100
AcDbArc
 50
167.5820702984
 51
185.344943134
  0
ARC
  5
266
100
AcDbEntity
  8
0
100
AcDbCircle
 62
6
  6
CONTINUOUS
 10
8.1380423407
 20
1.3877689646
 40
0.3840288918
100
AcDbArc
 50
90.0434434865
 51
167.5675505825
  0
ARC
  5
267
100
AcDbEntity
  8
0
100
AcDbCircle
 62
6
  6
CONTINUOUS
 10
8.1377561095
 20
1.3878902094
 40
0.3837164487
100
AcDbArc
 50
167.5760287614
 51
185.3553181291
  0
ARC
  5
268
100
AcDbEntity
  8
0
100
AcDbCircle
 62
6
  6
CONTINUOUS
 10
8.1379347631
 20
1.3872064011
 40
0.3830048268
100
AcDbArc
 50
345.1185978622
 51
72.8943458486
  0
ARC
  5
269
100
AcDbEntity
  8
0
100
AcDbCircle
 62
6
  6
CONTINUOUS
 10
8.1381094761
 20
1.3875282217
 40
0.3826371296
100
AcDbArc
 50
72.9051758503
 51
90.0752914082
  0
ARC
  5
26A
100
AcDbEntity
  8
0
100
AcDbCircle
 62
6
  6
CONTINUOUS
 10
8.1379369508
 20
1.3872081087
 40
0.3824181315
100
AcDbArc
 50
345.1112996979
 51
72.8982353026
  0
ARC
  5
26B
100
AcDbEntity
  8
0
100
AcDbCircle
 62
6
  6
CONTINUOUS
 10
8.1377511527
 20
1.3875367875
 40
0.3821502168
100
AcDbArc
 50
72.8571188915
 51
167.5227907937
  0
CIRCLE
  5
26C
100
AcDbEntity
  8
0
100
AcDbCircle
 62
7
  6
CONTINUOUS
 10
8.1377511527
 20
1.3875367875
 40
0.34125
  0
ARC
  5
26D
100
AcDbEntity
  8
0
100
AcDbCircle
 62
6
  6
CONTINUOUS
 10
8.4077511527
 20
21.6047867875
 40
0.02
100
AcDbArc
 50
90.0
 51
180.0
  0
ARC
  5
26E
100
AcDbEntity
  8
0
100
AcDbCircle
 62
6
  6
CONTINUOUS
 10
8.5077511527
 20
21.6747867875
 40
0.02
100
AcDbArc
 50
0.0
 51
90.0
  0
ARC
  5
26F
100
AcDbEntity
  8
0
100
AcDbCircle
 62
6
  6
CONTINUOUS
 10
8.5077511527
 20
21.6447867875
 40
0.02
100
AcDbArc
 50
270.0
 51
360.0
  0
SPLINE
  5
270
100
AcDbEntity
  8
0
100
AcDbSpline
 62
6
  6
CONTINUOUS
 70
0
 71
3
 72
29
 73
25
 74
23
 42
0.0000001
 43
0.0000001
 44
0.0000000001
 12
-0.1126269713
 22
-0.6747744835
 32
0.0
 13
0.6763792629
 23
0.1025501385
 33
0.0
 40
0.0
 40
0.0
 40
0.0
 40
0.0
 40
0.0624900685
 40
0.0937607013
 40
0.1250237799
 40
0.1875163393
 40
0.2500151547
 40
0.2812780625
 40
0.312541222
 40
0.343804906
 40
0.3750700783
 40
0.4375763767
 40
0.5000842946
 40
0.5313505832
 40
0.5626158328
 40
0.6251120934
 40
0.6875980714
 40
0.7188515273
 40
0.7501028582
 40
0.8125725143
 40
0.8750386371
 40
0.9062844913
 40
0.9375333784
 40
1.0
 40
1.0
 40
1.0
 40
1.0
 10
7.7646265506
 20
1.4701008201
 30
0.0
 10
7.7622805282
 20
1.4560452522
 30
0.0
 10
7.7599429367
 20
1.4347329592
 30
0.0
 10
7.7592344872
 20
1.4062209473
 30
0.0
 10
7.7601409608
 20
1.377710865
 30
0.0
 10
7.7643039097
 20
1.342241446
 30
0.0
 10
7.7724803949
 20
1.3074750233
 30
0.0
 10
7.7813749332
 20
1.2803738611
 30
0.0
 10
7.7892070069
 20
1.2604589139
 30
0.0
 10
7.7981752016
 20
1.241028346
 30
0.0
 10
7.8116120222
 20
1.2158652909
 30
0.0
 10
7.8311154877
 20
1.185935642
 30
0.0
 10
7.8539863952
 20
1.1584914261
 30
0.0
 10
7.8741098362
 20
1.1382701811
 30
0.0
 10
7.8953915326
 20
1.119275755
 30
0.0
 10
7.9240443683
 20
1.0979479035
 30
0.0
 10
7.9550334283
 20
1.080186459
 30
0.0
 10
7.9809506669
 20
1.068289128
 30
0.0
 10
8.0075328587
 20
1.0579729992
 30
0.0
 10
8.0418563204
 20
1.0481215534
 30
0.0
 10
8.0771223294
 20
1.0425135183
 30
0.0
 10
8.1055727642
 20
1.040639379
 30
0.0
 10
8.1340809383
 20
1.0405158222
 30
0.0
 10
8.1554399803
 20
1.0424066307
 30
0.0
 10
8.1695236894
 20
1.0445419509
 30
0.0
 11
7.7646265506
 21
1.4701008201
 31
0.0
 11
7.7599669499
 21
1.4276054861
 31
0.0
 11
7.7594364268
 21
1.4062195369
 31
0.0
 11
7.7601166942
 21
1.3848429976
 31
0.0
 11
7.7651062934
 21
1.34238343
 31
0.0
 11
7.7748987017
 21
1.3007638951
 31
0.0
 11
7.7815681907
 21
1.280443164
 31
0.0
 11
7.7893962784
 21
1.2605398325
 31
0.0
 11
7.7983602368
 21
1.2411211723
 31
0.0
 11
7.8084354154
 21
1.2222539723
 31
0.0
 11
7.8317886738
 21
1.1864330281
 31
0.0
 11
7.8591664348
 21
1.1535838625
 31
0.0
 11
7.8742550656
 21
1.1384231781
 31
0.0
 11
7.8902127801
 21
1.1241811953
 31
0.0
 11
7.9245139847
 21
1.0986595406
 31
0.0
 11
7.9616034268
 21
1.0774063217
 31
0.0
 11
7.9810346789
 21
1.0684864507
 31
0.0
 11
8.0009662345
 21
1.0607528499
 31
0.0
 11
8.0420458433
 21
1.0489699269
 31
0.0
 11
8.084249915
 21
1.0422631187
 31
0.0
 11
8.1055792778
 21
1.0408582763
 31
0.0
 11
8.126956736
 21
1.0407672212
 31
0.0
 11
8.1695236894
 21
1.0445419509
 31
0.0
  0
LINE
  5
271
100
AcDbEntity
  8
0
100
AcDbLine
 62
6
  6
CONTINUOUS
 10
8.1377511527
 20
1.7879516869
 11
8.137130035
 21
1.7879506536
  0
LINE
  5
272
100
AcDbEntity
  8
0
100
AcDbLine
 62
6
  6
CONTINUOUS
 10
8.1371473279
 20
0.988233433
 11
8.1377511527
 21
0.988233509
  0
LINE
  5
273
100
AcDbEntity
  8
0
100
AcDbLine
 62
6
  6
CONTINUOUS
 10
8.1377511527
 20
1.7923981696
 11
8.137340474
 21
1.7923976012
  0
SPLINE
  5
274
100
AcDbEntity
  8
0
100
AcDbSpline
 62
6
  6
CONTINUOUS
 70
0
 71
3
 72
35
 73
31
 74
29
 42
0.0000001
 43
0.0000001
 44
0.0000000001
 12
-0.8865659176
 22
-0.5518137
 32
0.0
 13
1.0442688679
 23
-0.0001318822
 33
0.0
 40
0.0
 40
0.0
 40
0.0
 40
0.0
 40
0.0624615025
 40
0.1249218976
 40
0.1561772467
 40
0.1874329613
 40
0.2186889486
 40
0.2499457116
 40
0.2812027721
 40
0.3124598203
 40
0.343716713
 40
0.3749727255
 40
0.4062285405
 40
0.4374843674
 40
0.4999464315
 40
0.5624076867
 40
0.5936634488
 40
0.6249193311
 40
0.6561748346
 40
0.6874305425
 40
0.7186863095
 40
0.7499427873
 40
0.7812002287
 40
0.8124588327
 40
0.8437169268
 40
0.8749716764
 40
0.9062271572
 40
0.9374917141
 40
0.968760477
 40
1.0
 40
1.0
 40
1.0
 40
1.0
 10
7.9242179124
 20
1.7312766289
 30
0.0
 10
7.9057591659
 20
1.7197875913
 30
0.0
 10
7.8706357627
 20
1.6937830706
 30
0.0
 10
7.8325476355
 20
1.6546485922
 30
0.0
 10
7.8061649782
 20
1.6200102011
 30
0.0
 10
7.788526326
 20
1.592503708
 30
0.0
 10
7.7731607182
 20
1.5636670452
 30
0.0
 10
7.7601747901
 20
1.5336824666
 30
0.0
 10
7.7496428683
 20
1.5027501562
 30
0.0
 10
7.7416462227
 20
1.4710675279
 30
0.0
 10
7.7362257878
 20
1.4388443893
 30
0.0
 10
7.7334249061
 20
1.4062895748
 30
0.0
 10
7.7332588323
 20
1.3736134652
 30
0.0
 10
7.7365475148
 20
1.3301962958
 30
0.0
 10
7.7472210389
 20
1.2766326355
 30
0.0
 10
7.7663814043
 20
1.2254868577
 30
0.0
 10
7.7864722569
 20
1.1868578559
 30
0.0
 10
7.8038369166
 20
1.1591772615
 30
0.0
 10
7.8233787918
 20
1.1329905904
 30
0.0
 10
7.8449717203
 20
1.1084672758
 30
0.0
 10
7.8684713492
 20
1.0857640193
 30
0.0
 10
7.8937307402
 20
1.0650355524
 30
0.0
 10
7.920578455
 20
1.0464083026
 30
0.0
 10
7.9488466547
 20
1.0300155229
 30
0.0
 10
7.9783426502
 20
1.0159539847
 30
0.0
 10
8.0088774101
 20
1.0043215331
 30
0.0
 10
8.0402539095
 20
0.9951929348
 30
0.0
 10
8.0722708188
 20
0.9886276839
 30
0.0
 10
8.104705969
 20
0.9846751025
 30
0.0
 10
8.1264743742
 20
0.9837882476
 30
0.0
 10
8.137348528
 20
0.9837868743
 30
0.0
 11
7.9242179124
 21
1.7312766289
 31
0.0
 11
7.8717999106
 21
1.6924582977
 31
0.0
 11
7.8263015312
 21
1.6457222693
 31
0.0
 11
7.8065244593
 21
1.6197574665
 31
0.0
 11
7.7889052554
 21
1.5922821662
 31
0.0
 11
7.7735574826
 21
1.5634760396
 31
0.0
 11
7.7605838523
 21
1.5335246647
 31
0.0
 11
7.7500654163
 21
1.502625106
 31
0.0
 11
7.7420755695
 21
1.4709773299
 31
0.0
 11
7.7366623325
 21
1.4387887349
 31
0.0
 11
7.7338640327
 21
1.4062692286
 31
0.0
 11
7.7336977595
 21
1.3736301773
 31
0.0
 11
7.7361644127
 21
1.3410840293
 31
0.0
 11
7.7489182143
 21
1.2771158592
 31
0.0
 11
7.7717950006
 21
1.2160328934
 31
0.0
 11
7.7868539867
 21
1.1870750163
 31
0.0
 11
7.804199862
 21
1.1594261372
 31
0.0
 11
7.8237205926
 21
1.1332678659
 31
0.0
 11
7.8452894496
 21
1.1087706738
 31
0.0
 11
7.8687643815
 21
1.0860933809
 31
0.0
 11
7.8939950611
 21
1.0653860559
 31
0.0
 11
7.9208147835
 21
1.0467809846
 31
0.0
 11
7.9490515875
 21
1.0304039168
 31
0.0
 11
7.9785170137
 21
1.0163583003
 31
0.0
 11
8.0090170938
 21
1.0047390146
 31
0.0
 11
8.0403567856
 21
0.9956211063
 31
0.0
 11
8.0723400086
 21
0.9890633045
 31
0.0
 11
8.1047529606
 21
0.9851112556
 31
0.0
 11
8.137348528
 21
0.9837868743
 31
0.0
  0
LINE
  5
275
100
AcDbEntity
  8
0
100
AcDbLine
 62
6
  6
CONTINUOUS
 10
8.137348528
 20
0.9837868743
 11
8.1377511527
 21
0.9837870253
  0
LINE
  5
276
100
AcDbEntity
  8
0
100
AcDbLine
 62
6
  6
CONTINUOUS
 10
8.1377511527
 20
1.7901749291
 11
8.1373404902
 21
1.7901743576
  0
SPLINE
  5
277
100
AcDbEntity
  8
0
100
AcDbSpline
 62
6
  6
CONTINUOUS
 70
0
 71
3
 72
37
 73
33
 74
31
 42
0.0000001
 43
0.0000001
 44
0.0000000001
 12
-0.8822127778
 22
-0.5485086774
 32
0.0
 13
1.0388268083
 23
-0.000129839
 33
0.0
 40
0.0
 40
0.0
 40
0.0
 40
0.0
 40
0.0312532166
 40
0.0625059553
 40
0.0937581193
 40
0.1250105026
 40
0.1562633337
 40
0.1875172965
 40
0.2187716828
 40
0.2500265762
 40
0.2812815317
 40
0.3125361578
 40
0.343790438
 40
0.3750435933
 40
0.4062962515
 40
0.4375485759
 40
0.5000030299
 40
0.5624573893
 40
0.5937104636
 40
0.6249640143
 40
0.6562169855
 40
0.6874697115
 40
0.7187222178
 40
0.7499751541
 40
0.7812288566
 40
0.8124834609
 40
0.8437373966
 40
0.8749875821
 40
0.9062380852
 40
0.9374981873
 40
0.9687635367
 40
1.0
 40
1.0
 40
1.0
 40
1.0
 10
7.9255589873
 20
1.7294925674
 30
0.0
 10
7.9163683249
 20
1.7237783472
 30
0.0
 10
7.8984412049
 20
1.7116006707
 30
0.0
 10
7.8731137936
 20
1.6912352263
 30
0.0
 10
7.8495122709
 20
1.6688896578
 30
0.0
 10
7.8277873603
 20
1.6447165106
 30
0.0
 10
7.808082523
 20
1.6188689961
 30
0.0
 10
7.7905270613
 20
1.5915155454
 30
0.0
 10
7.7752307058
 20
1.5628365407
 30
0.0
 10
7.762302658
 20
1.5330146459
 30
0.0
 10
7.7518156437
 20
1.5022492553
 30
0.0
 10
7.7438505944
 20
1.470736805
 30
0.0
 10
7.7384493941
 20
1.4386858831
 30
0.0
 10
7.7356530337
 20
1.4063045753
 30
0.0
 10
7.7354793934
 20
1.3738020756
 30
0.0
 10
7.738738323
 20
1.3306151808
 30
0.0
 10
7.7493424407
 20
1.2773341444
 30
0.0
 10
7.7683898744
 20
1.2264563707
 30
0.0
 10
7.7883664124
 20
1.1880282862
 30
0.0
 10
7.8056347631
 20
1.1604913897
 30
0.0
 10
7.825068374
 20
1.1344397637
 30
0.0
 10
7.8465437555
 20
1.1100438502
 30
0.0
 10
7.8699152951
 20
1.0874579739
 30
0.0
 10
7.8950380356
 20
1.0668371282
 30
0.0
 10
7.9217408502
 20
1.0483066389
 30
0.0
 10
7.9498565922
 20
1.0319985883
 30
0.0
 10
7.9791941547
 20
1.0180106564
 30
0.0
 10
8.0095644902
 20
1.0064382736
 30
0.0
 10
8.0407724295
 20
0.9973571768
 30
0.0
 10
8.0726179245
 20
0.9908260253
 30
0.0
 10
8.104880208
 20
0.9868938065
 30
0.0
 10
8.126532931
 20
0.9860114671
 30
0.0
 10
8.1373493562
 20
0.9860101152
 30
0.0
 11
7.9255589873
 21
1.7294925674
 31
0.0
 11
7.89870158
 21
1.7112507212
 31
0.0
 11
7.8734012544
 21
1.6909050443
 31
0.0
 11
7.8498250946
 21
1.6685851213
 31
0.0
 11
7.8281242027
 21
1.6444376502
 31
0.0
 11
7.8084410435
 21
1.6186184225
 31
0.0
 11
7.7909037147
 21
1.5912948482
 31
0.0
 11
7.7756255258
 21
1.5626462685
 31
0.0
 11
7.7627095115
 21
1.5328574288
 31
0.0
 11
7.7522359297
 21
1.5021246018
 31
0.0
 11
7.7442778583
 21
1.4706468404
 31
0.0
 11
7.7388834709
 21
1.4386303195
 31
0.0
 11
7.7360901388
 21
1.406284092
 31
0.0
 11
7.7359158682
 21
1.3738184602
 31
0.0
 11
7.7383605182
 21
1.3414448787
 31
0.0
 11
7.7510308229
 21
1.277814737
 31
0.0
 11
7.7737727233
 21
1.21705188
 31
0.0
 11
7.7887462877
 21
1.1882444496
 31
0.0
 11
7.8059957659
 21
1.1607387536
 31
0.0
 11
7.8254087599
 21
1.1347156025
 31
0.0
 11
7.8468598346
 21
1.1103454655
 31
0.0
 11
7.8702070071
 21
1.0877856139
 31
0.0
 11
7.8953010722
 21
1.067185753
 31
0.0
 11
7.9219760276
 21
1.0486772467
 31
0.0
 11
7.9500606185
 21
1.0323850816
 31
0.0
 11
7.9793676944
 21
1.0184126414
 31
0.0
 11
8.0097036391
 21
1.0068536066
 31
0.0
 11
8.0408746089
 21
0.9977831661
 31
0.0
 11
8.0726864098
 21
0.9912594318
 31
0.0
 11
8.1049268421
 21
0.9873277176
 31
0.0
 11
8.1373493562
 21
0.9860101152
 31
0.0
  0
LINE
  5
278
100
AcDbEntity
  8
0
100
AcDbLine
 62
6
  6
CONTINUOUS
 10
8.1373493562
 20
0.9860101152
 11
8.1377511527
 21
0.9860102671
  0
LINE
  5
279
100
AcDbEntity
  8
0
100
AcDbLine
 62
6
  6
CONTINUOUS
 10
8.1377511527
 20
1.7857284462
 11
8.1372845141
 21
1.7857277572
  0
LINE
  5
27A
100
AcDbEntity
  8
0
100
AcDbLine
 62
6
  6
CONTINUOUS
 10
8.1373448014
 20
0.9904565956
 11
8.1377511527
 21
0.9904567486
  0
LINE
  5
27B
100
AcDbEntity
  8
0
100
AcDbLine
 62
6
  6
CONTINUOUS
 10
8.1377511527
 20
1.7812819637
 11
8.1371370825
 21
1.7812809304
  0
LINE
  5
27C
100
AcDbEntity
  8
0
100
AcDbLine
 62
6
  6
CONTINUOUS
 10
7.785956189
 20
1.5635119786
 11
7.785549074
 21
1.5626938976
  0
LINE
  5
27D
100
AcDbEntity
  8
0
100
AcDbLine
 62
6
  6
CONTINUOUS
 10
8.1371467437
 20
0.9949031553
 11
8.1377511527
 21
0.9949032322
  0
LINE
  5
27E
100
AcDbEntity
  8
0
100
AcDbLine
 62
6
  6
CONTINUOUS
 10
8.1377511527
 20
1.783505206
 11
8.1373407073
 21
1.7835046253
  0
LINE
  5
27F
100
AcDbEntity
  8
0
100
AcDbLine
 62
6
  6
CONTINUOUS
 10
8.1373449494
 20
0.9926798363
 11
8.1377511527
 21
0.9926799902
  0
LINE
  5
280
100
AcDbEntity
  8
0
100
AcDbLine
 62
6
  6
CONTINUOUS
 10
8.1377511527
 20
1.7790587228
 11
8.1373424823
 21
1.779058139
  0
LINE
  5
281
100
AcDbEntity
  8
0
100
AcDbLine
 62
6
  6
CONTINUOUS
 10
8.1373467792
 20
0.997126316
 11
8.1377511527
 21
0.9971264719
  0
LINE
  5
282
100
AcDbEntity
  8
0
100
AcDbLine
 62
6
  6
CONTINUOUS
 10
8.1377511527
 20
1.7768354828
 11
8.1373401464
 21
1.776834891
  0
LINE
  5
283
100
AcDbEntity
  8
0
100
AcDbLine
 62
6
  6
CONTINUOUS
 10
8.1373495532
 20
0.9993495561
 11
8.1377511527
 21
0.9993497133
  0
LINE
  5
284
100
AcDbEntity
  8
0
100
AcDbLine
 62
6
  6
CONTINUOUS
 10
8.1377511527
 20
0.9837870253
 11
8.1381620227
 21
0.9837875956
  0
SPLINE
  5
285
100
AcDbEntity
  8
0
100
AcDbSpline
 62
6
  6
CONTINUOUS
 70
0
 71
3
 72
48
 73
44
 74
42
 42
0.0000001
 43
0.0000001
 44
0.0000000001
 12
1.2654541662
 22
0.0024039608
 32
0.0
 13
-1.2654564398
 23
0.0001573304
 33
0.0
 40
0.0
 40
0.0
 40
0.0
 40
0.0
 40
0.0312350916
 40
0.0624957706
 40
0.078126323
 40
0.0937539299
 40
0.1249975273
 40
0.1406253247
 40
0.1562538174
 40
0.1718824666
 40
0.1875109626
 40
0.2187582765
 40
0.234386335
 40
0.2500143004
 40
0.2812609559
 40
0.3125076752
 40
0.3437551844
 40
0.3750033173
 40
0.4062520792
 40
0.4375006202
 40
0.4687486604
 40
0.4999957027
 40
0.5312424997
 40
0.5624897679
 40
0.5937368709
 40
0.6249836797
 40
0.6562304891
 40
0.6874778873
 40
0.7031061725
 40
0.718734309
 40
0.7499812118
 40
0.7656093159
 40
0.7812375676
 40
0.812485509
 40
0.8281145952
 40
0.843744036
 40
0.8593733897
 40
0.8750019934
 40
0.9062466275
 40
0.9218744482
 40
0.9375049911
 40
0.9687652359
 40
1.0
 40
1.0
 40
1.0
 40
1.0
 10
8.1381620227
 20
0.9837875956
 30
0.0
 10
8.1513375483
 20
0.9838126249
 30
0.0
 10
8.1777136443
 20
0.9851599721
 30
0.0
 10
8.2103590837
 20
0.9900499793
 30
0.0
 10
8.2360905879
 20
0.9958693447
 30
0.0
 10
8.2614981739
 20
1.0029384004
 30
0.0
 10
8.2863568777
 20
1.01186778
 30
0.0
 10
8.3104529766
 20
1.0225840586
 30
0.0
 10
8.3281165626
 20
1.0314976573
 30
0.0
 10
8.34532314
 20
1.0412650695
 30
0.0
 10
8.3675921005
 20
1.0553951297
 30
0.0
 10
8.3887966709
 20
1.0711480388
 30
0.0
 10
8.408756177
 20
1.0883869247
 30
0.0
 10
8.4278454105
 20
1.1065856717
 30
0.0
 10
8.4500029229
 20
1.1310545885
 30
0.0
 10
8.4735810188
 20
1.1628747524
 30
0.0
 10
8.4939354749
 20
1.1968503578
 30
0.0
 10
8.5108610032
 20
1.2326581536
 30
0.0
 10
8.5242045571
 20
1.2699498706
 30
0.0
 10
8.5338254882
 20
1.3083705905
 30
0.0
 10
8.5396439803
 20
1.3475471716
 30
0.0
 10
8.5415903737
 20
1.3871048914
 30
0.0
 10
8.5396593007
 20
1.426663036
 30
0.0
 10
8.5338554965
 20
1.4658408076
 30
0.0
 10
8.5242480419
 20
1.50426303
 30
0.0
 10
8.5109163707
 20
1.541557328
 30
0.0
 10
8.4940000631
 20
1.5773665728
 30
0.0
 10
8.4770385474
 20
1.6056867422
 30
0.0
 10
8.4618626334
 20
1.6272577919
 30
0.0
 10
8.4456449834
 20
1.6480556998
 30
0.0
 10
8.4279140087
 20
1.6676357265
 30
0.0
 10
8.4088216474
 20
1.6858306085
 30
0.0
 10
8.3888574536
 20
1.7030649616
 30
0.0
 10
8.3676468313
 20
1.7188108991
 30
0.0
 10
8.3453700513
 20
1.7329302999
 30
0.0
 10
8.3281569074
 20
1.7426881056
 30
0.0
 10
8.3104863714
 20
1.7515902959
 30
0.0
 10
8.2863809783
 20
1.762288542
 30
0.0
 10
8.2615129572
 20
1.7711951987
 30
0.0
 10
8.2360970731
 20
1.7782364677
 30
0.0
 10
8.2103586038
 20
1.7840247028
 30
0.0
 10
8.1777064723
 20
1.7888694743
 30
0.0
 10
8.1513282552
 20
1.7901734426
 30
0.0
 10
8.1381528441
 20
1.7901750806
 30
0.0
 11
8.1381620227
 21
0.9837875956
 31
0.0
 11
8.1776374103
 21
0.9857999775
 31
0.0
 11
8.2167594396
 21
0.9916637234
 31
0.0
 11
8.2360521726
 21
0.9960260948
 31
0.0
 11
8.2551044519
 21
1.0013273249
 31
0.0
 11
8.2923137588
 21
1.0146942398
 31
0.0
 11
8.3103839869
 21
1.0227297098
 31
0.0
 11
8.3280402923
 21
1.0316399065
 31
0.0
 11
8.3452394855
 21
1.0414037333
 31
0.0
 11
8.3619387458
 21
1.0519995625
 31
0.0
 11
8.3936806719
 21
1.0755798291
 31
0.0
 11
8.408647432
 21
1.0885069744
 31
0.0
 11
8.4229617253
 21
1.102152902
 31
0.0
 11
8.4495013137
 21
1.131464388
 31
0.0
 11
8.4730435043
 21
1.1632336279
 31
0.0
 11
8.4933637947
 21
1.1971553643
 31
0.0
 11
8.5102638755
 21
1.2329051627
 31
0.0
 11
8.5235841452
 21
1.2701381343
 31
0.0
 11
8.5331918106
 21
1.3084968938
 31
0.0
 11
8.5389986847
 21
1.3476112358
 31
0.0
 11
8.5409441344
 21
1.38710512
 31
0.0
 11
8.5390138656
 21
1.4265994385
 31
0.0
 11
8.5332215388
 21
1.4657149497
 31
0.0
 11
8.5236272943
 21
1.5040751925
 31
0.0
 11
8.5103189421
 21
1.5413098009
 31
0.0
 11
8.493427476
 21
1.5770618181
 31
0.0
 11
8.4731123976
 21
1.6109865122
 31
0.0
 11
8.4617323442
 21
1.6271612062
 31
0.0
 11
8.4495714043
 21
1.642757053
 31
0.0
 11
8.4230295762
 21
1.672066933
 31
0.0
 11
8.4087127395
 21
1.6857104466
 31
0.0
 11
8.3937425881
 21
1.6986340386
 31
0.0
 11
8.3619915564
 21
1.7222033753
 31
0.0
 11
8.3452863969
 21
1.7327912968
 31
0.0
 11
8.3280806122
 21
1.7425455347
 31
0.0
 11
8.3104173293
 21
1.7514443133
 31
0.0
 11
8.2923399851
 21
1.7594662774
 31
0.0
 11
8.2551170122
 21
1.7727989801
 31
0.0
 11
8.2360586584
 21
1.778079344
 31
0.0
 11
8.2167606702
 21
1.7824183532
 31
0.0
 11
8.1776310745
 21
1.7882276521
 31
0.0
 11
8.1381528441
 21
1.7901750806
 31
0.0
  0
LINE
  5
286
100
AcDbEntity
  8
0
100
AcDbLine
 62
6
  6
CONTINUOUS
 10
8.1381528441
 20
1.7901750806
 11
8.1377511527
 21
1.7901749291
  0
LINE
  5
287
100
AcDbEntity
  8
0
100
AcDbLine
 62
6
  6
CONTINUOUS
 10
8.1377511527
 20
0.9860102671
 11
8.1381612125
 21
0.986010839
  0
SPLINE
  5
288
100
AcDbEntity
  8
0
100
AcDbSpline
 62
6
  6
CONTINUOUS
 70
0
 71
3
 72
47
 73
43
 74
41
 42
0.0000001
 43
0.0000001
 44
0.0000000001
 12
1.2584607521
 22
0.0024013298
 32
0.0
 13
-1.2584630332
 23
0.0001575138
 33
0.0
 40
0.0
 40
0.0
 40
0.0
 40
0.0
 40
0.0312352963
 40
0.0624960148
 40
0.0781265771
 40
0.0937542175
 40
0.1249979495
 40
0.1406258197
 40
0.1562543712
 40
0.1718830654
 40
0.1875116004
 40
0.2187590159
 40
0.2343871614
 40
0.2500152704
 40
0.2812625755
 40
0.3125108148
 40
0.3437603748
 40
0.3750101687
 40
0.4062601255
 40
0.4375095127
 40
0.4687582012
 40
0.5000055735
 40
0.5312522708
 40
0.562498936
 40
0.5937458668
 40
0.6249934426
 40
0.6562413496
 40
0.6874896486
 40
0.718737271
 40
0.7499844504
 40
0.7656125888
 40
0.7812407802
 40
0.8124883705
 40
0.8281171286
 40
0.843746146
 40
0.8593750423
 40
0.8750031851
 40
0.9062468558
 40
0.9218742292
 40
0.9375044781
 40
0.9687648124
 40
1.0
 40
1.0
 40
1.0
 40
1.0
 10
8.1381612125
 20
0.986010839
 30
0.0
 10
8.1512640107
 20
0.9860358411
 30
0.0
 10
8.1774944352
 20
0.9873759131
 30
0.0
 10
8.2099595334
 20
0.9922391486
 30
0.0
 10
8.2355488357
 20
0.9980265041
 30
0.0
 10
8.260816059
 20
1.0050565951
 30
0.0
 10
8.285537436
 20
1.0139367771
 30
0.0
 10
8.3095004645
 20
1.0245938935
 30
0.0
 10
8.3270665066
 20
1.0334582544
 30
0.0
 10
8.3441780346
 20
1.04317174
 30
0.0
 10
8.3663239461
 20
1.0572238252
 30
0.0
 10
8.3874114916
 20
1.0728896186
 30
0.0
 10
8.4072607989
 20
1.0900333308
 30
0.0
 10
8.4262448328
 20
1.1081317244
 30
0.0
 10
8.4482807443
 20
1.1324659693
 30
0.0
 10
8.4717293212
 20
1.1641119214
 30
0.0
 10
8.4919723819
 20
1.1979016574
 30
0.0
 10
8.5088051924
 20
1.2335134815
 30
0.0
 10
8.5220748435
 20
1.2706008174
 30
0.0
 10
8.5316426735
 20
1.3088103573
 30
0.0
 10
8.5374283427
 20
1.3477713148
 30
0.0
 10
8.5393635849
 20
1.3871108033
 30
0.0
 10
8.5374426368
 20
1.4264501567
 30
0.0
 10
8.5316706994
 20
1.4654109846
 30
0.0
 10
8.5221158533
 20
1.5036208498
 30
0.0
 10
8.5088572351
 20
1.5407092037
 30
0.0
 10
8.4920330701
 20
1.5763226407
 30
0.0
 10
8.4717952611
 20
1.6101138175
 30
0.0
 10
8.4483482019
 20
1.6417600156
 30
0.0
 10
8.4263103484
 20
1.6660922966
 30
0.0
 10
8.4073230076
 20
1.6841872292
 30
0.0
 10
8.3874692343
 20
1.701325968
 30
0.0
 10
8.3663755602
 20
1.7169841006
 30
0.0
 10
8.3442223514
 20
1.7310253005
 30
0.0
 10
8.3271047073
 20
1.7407288268
 30
0.0
 10
8.3095321897
 20
1.7495812925
 30
0.0
 10
8.285560602
 20
1.7602197857
 30
0.0
 10
8.2608308015
 20
1.7690770702
 30
0.0
 10
8.2355560499
 20
1.776079194
 30
0.0
 10
8.2099600783
 20
1.7818353337
 30
0.0
 10
8.1774883064
 20
1.7866533275
 30
0.0
 10
8.1512556548
 20
1.7879501992
 30
0.0
 10
8.1381528785
 20
1.7879518392
 30
0.0
 11
8.1381612125
 21
0.986010839
 31
0.0
 11
8.1774186866
 21
0.9880123969
 31
0.0
 11
8.2163245217
 21
0.993844009
 31
0.0
 11
8.2355106244
 21
0.9981823782
 31
0.0
 11
8.2544576341
 21
1.0034543942
 31
0.0
 11
8.2914614213
 21
1.0167476233
 31
0.0
 11
8.3094318631
 21
1.0247387392
 31
0.0
 11
8.3269906598
 21
1.0335997262
 31
0.0
 11
8.3440948402
 21
1.0433096443
 31
0.0
 11
8.3607018345
 21
1.053846976
 31
0.0
 11
8.3922684986
 21
1.077296933
 31
0.0
 11
8.40715264
 21
1.0901526972
 31
0.0
 11
8.4213879868
 21
1.103723306
 31
0.0
 11
8.4477815733
 21
1.132873305
 31
0.0
 11
8.4711946621
 21
1.1644686144
 31
0.0
 11
8.4914039004
 21
1.198205148
 31
0.0
 11
8.5082113084
 21
1.2337593492
 31
0.0
 11
8.5214579623
 21
1.270788155
 31
0.0
 11
8.5310124033
 21
1.308936059
 31
0.0
 11
8.5367866776
 21
1.3478351402
 31
0.0
 11
8.538720891
 21
1.3871112055
 31
0.0
 11
8.5368008041
 21
1.4263871136
 31
0.0
 11
8.5310402506
 21
1.465285655
 31
0.0
 11
8.5214986619
 21
1.5034335891
 31
0.0
 11
8.5082630662
 21
1.5404631671
 31
0.0
 11
8.4914642054
 21
1.576018781
 31
0.0
 11
8.4712601978
 21
1.609756598
 31
0.0
 11
8.4478485695
 21
1.6413520233
 31
0.0
 11
8.4214525847
 21
1.670499637
 31
0.0
 11
8.4072147205
 21
1.6840676585
 31
0.0
 11
8.3923272456
 21
1.6969196505
 31
0.0
 11
8.3607516158
 21
1.7203579027
 31
0.0
 11
8.3441391069
 21
1.7308870627
 31
0.0
 11
8.3270288115
 21
1.7405870261
 31
0.0
 11
8.3094635365
 21
1.7494361286
 31
0.0
 11
8.2914865343
 21
1.7574133207
 31
0.0
 11
8.2544704037
 21
1.7706719115
 31
0.0
 11
8.2355179115
 21
1.7759229259
 31
0.0
 11
8.2163269259
 21
1.780237846
 31
0.0
 11
8.1774134649
 21
1.7860150614
 31
0.0
 11
8.1381528785
 21
1.7879518392
 31
0.0
  0
LINE
  5
289
100
AcDbEntity
  8
0
100
AcDbLine
 62
6
  6
CONTINUOUS
 10
8.1381528785
 20
1.7879518392
 11
8.1377511527
 21
1.7879516869
  0
LINE
  5
28A
100
AcDbEntity
  8
0
100
AcDbLine
 62
6
  6
CONTINUOUS
 10
8.1377511527
 20
0.988233509
 11
8.1381644279
 21
0.9882340903
  0
SPLINE
  5
28B
100
AcDbEntity
  8
0
100
AcDbSpline
 62
6
  6
CONTINUOUS
 70
0
 71
3
 72
47
 73
43
 74
41
 42
0.0000001
 43
0.0000001
 44
0.0000000001
 12
1.251473736
 22
0.0024114671
 32
0.0
 13
-1.2514760488
 23
0.0001626468
 33
0.0
 40
0.0
 40
0.0
 40
0.0
 40
0.0
 40
0.0312355077
 40
0.06249739
 40
0.0781289103
 40
0.0937575742
 40
0.1250031651
 40
0.1562518178
 40
0.1718810774
 40
0.187509827
 40
0.21875687
 40
0.2343847771
 40
0.2500127491
 40
0.2812598481
 40
0.2968881176
 40
0.3125164853
 40
0.3437639873
 40
0.375010927
 40
0.40625791
 40
0.4375052002
 40
0.4687526248
 40
0.4999994531
 40
0.5312461914
 40
0.5624935395
 40
0.593741583
 40
0.6249905983
 40
0.6562397703
 40
0.6874889329
 40
0.7187370604
 40
0.7499844558
 40
0.7656125929
 40
0.781240707
 40
0.8124878844
 40
0.8281162857
 40
0.8437448587
 40
0.8593733192
 40
0.8750011566
 40
0.9062450929
 40
0.9218729607
 40
0.9375037473
 40
0.968764719
 40
1.0
 40
1.0
 40
1.0
 40
1.0
 10
8.1381644279
 20
0.9882340903
 30
0.0
 10
8.1511945671
 20
0.9882591981
 30
0.0
 10
8.1772798769
 20
0.9895924076
 30
0.0
 10
8.2095657114
 20
0.9944293766
 30
0.0
 10
8.2350139014
 20
1.0001853434
 30
0.0
 10
8.260143013
 20
1.0071778793
 30
0.0
 10
8.2908662372
 20
1.0182140889
 30
0.0
 10
8.3203600059
 20
1.0322078672
 30
0.0
 10
8.3430441111
 20
1.0450854909
 30
0.0
 10
8.3650675437
 20
1.0590599194
 30
0.0
 10
8.3860368075
 20
1.0746397158
 30
0.0
 10
8.4057752791
 20
1.0916887665
 30
0.0
 10
8.4246530273
 20
1.1096862898
 30
0.0
 10
8.4421860944
 20
1.129051766
 30
0.0
 10
8.458224671
 20
1.1496200216
 30
0.0
 10
8.4732341005
 20
1.1709520766
 30
0.0
 10
8.4900116456
 20
1.1989573489
 30
0.0
 10
8.5067487792
 20
1.2343674184
 30
0.0
 10
8.5199435467
 20
1.2712461237
 30
0.0
 10
8.5294577482
 20
1.3092408075
 30
0.0
 10
8.5352117458
 20
1.3479837571
 30
0.0
 10
8.5371367534
 20
1.3871040653
 30
0.0
 10
8.5352271685
 20
1.4262251094
 30
0.0
 10
8.5294879443
 20
1.4649705075
 30
0.0
 10
8.5199862962
 20
1.5029696668
 30
0.0
 10
8.5068012696
 20
1.5398537933
 30
0.0
 10
8.4900702182
 20
1.5752710218
 30
0.0
 10
8.4699444202
 20
1.6088756667
 30
0.0
 10
8.4466272918
 20
1.6403468086
 30
0.0
 10
8.4247116757
 20
1.6645442973
 30
0.0
 10
8.405829781
 20
1.6825388797
 30
0.0
 10
8.3860864545
 20
1.6995824034
 30
0.0
 10
8.3651102547
 20
1.7151534952
 30
0.0
 10
8.3430805467
 20
1.7291165879
 30
0.0
 10
8.3260585082
 20
1.7387661925
 30
0.0
 10
8.3085841162
 20
1.7475695279
 30
0.0
 10
8.2847458899
 20
1.7581490895
 30
0.0
 10
8.2601532078
 20
1.7669572451
 30
0.0
 10
8.2350183528
 20
1.7739209611
 30
0.0
 10
8.209563871
 20
1.7796455769
 30
0.0
 10
8.177271881
 20
1.7844370838
 30
0.0
 10
8.1511845755
 20
1.7857269057
 30
0.0
 10
8.1381545068
 20
1.7857285992
 30
0.0
 11
8.1381644279
 21
0.9882340903
 31
0.0
 11
8.1772041699
 21
0.9902253126
 31
0.0
 11
8.2158953345
 21
0.9960254696
 31
0.0
 11
8.2349759919
 21
1.0003404294
 31
0.0
 11
8.2538189097
 21
1.0055839937
 31
0.0
 11
8.2906191372
 21
1.0188050521
 31
0.0
 11
8.3259522079
 21
1.035565927
 31
0.0
 11
8.3429617679
 21
1.0452227666
 31
0.0
 11
8.3594766505
 21
1.055701954
 31
0.0
 11
8.3908667651
 21
1.0790226736
 31
0.0
 11
8.4056676513
 21
1.0918073221
 31
0.0
 11
8.4198234866
 21
1.1053028389
 31
0.0
 11
8.4460693217
 21
1.1342917485
 31
0.0
 11
8.4580959715
 21
1.149715461
 31
0.0
 11
8.469351177
 21
1.1657109718
 31
0.0
 11
8.4894459808
 21
1.1992585357
 31
0.0
 11
8.5061583863
 21
1.2346121868
 31
0.0
 11
8.5193300724
 21
1.271431965
 31
0.0
 11
8.5288310357
 21
1.3093654746
 31
0.0
 11
8.5345736082
 21
1.3480469361
 31
0.0
 11
8.5364976588
 21
1.3871042309
 31
0.0
 11
8.5345889311
 21
1.4261621647
 31
0.0
 11
8.5288609622
 21
1.4648456946
 31
0.0
 11
8.5193725523
 21
1.5027833179
 31
0.0
 11
8.5062103171
 21
1.5396091766
 31
0.0
 11
8.4895043926
 21
1.5749689806
 31
0.0
 11
8.4694122214
 21
1.6085205435
 31
0.0
 11
8.4461303436
 21
1.639941167
 31
0.0
 11
8.4198808348
 21
1.6689272505
 31
0.0
 11
8.405722071
 21
1.6824199944
 31
0.0
 11
8.3909173734
 21
1.6952006254
 31
0.0
 11
8.3595175764
 21
1.7185085888
 31
0.0
 11
8.3429977452
 21
1.7289791592
 31
0.0
 11
8.3259830393
 21
1.7386251871
 31
0.0
 11
8.3085158859
 21
1.7474251366
 31
0.0
 11
8.2906391115
 21
1.7553580423
 31
0.0
 11
8.2538282442
 21
1.7685433083
 31
0.0
 11
8.2349804383
 21
1.7737655458
 31
0.0
 11
8.2158953903
 21
1.778056861
 31
0.0
 11
8.1771972256
 21
1.7838023732
 31
0.0
 11
8.1381545068
 21
1.7857285992
 31
0.0
  0
LINE
  5
28C
100
AcDbEntity
  8
0
100
AcDbLine
 62
6
  6
CONTINUOUS
 10
8.1381545068
 20
1.7857285992
 11
8.1377511527
 21
1.7857284462
  0
LINE
  5
28D
100
AcDbEntity
  8
0
100
AcDbLine
 62
6
  6
CONTINUOUS
 10
8.1377511527
 20
0.9904567486
 11
8.1381622904
 21
0.990457329
  0
SPLINE
  5
28E
100
AcDbEntity
  8
0
100
AcDbSpline
 62
6
  6
CONTINUOUS
 70
0
 71
3
 72
47
 73
43
 74
41
 42
0.0000001
 43
0.0000001
 44
0.0000000001
 12
1.2444916903
 22
0.002404657
 32
0.0
 13
-1.2444940021
 23
0.0001688139
 33
0.0
 40
0.0
 40
0.0
 40
0.0
 40
0.0
 40
0.0312353591
 40
0.062496479
 40
0.0781273888
 40
0.0937553745
 40
0.1249994892
 40
0.1406273551
 40
0.1562558277
 40
0.1718843968
 40
0.1875127757
 40
0.2187598971
 40
0.2343879764
 40
0.2500161015
 40
0.281263552
 40
0.3125117838
 40
0.3437611027
 40
0.3750104691
 40
0.4062597587
 40
0.4375081718
 40
0.4687558443
 40
0.5000026341
 40
0.531249381
 40
0.5624967518
 40
0.5937440456
 40
0.6249909952
 40
0.6562378818
 40
0.687485332
 40
0.7031136957
 40
0.7187419615
 40
0.7499890224
 40
0.7656169717
 40
0.781244826
 40
0.8124916422
 40
0.828120247
 40
0.8437493535
 40
0.8749976954
 40
0.9062430072
 40
0.9218715296
 40
0.9375029043
 40
0.9687645879
 40
1.0
 40
1.0
 40
1.0
 40
1.0
 10
8.1381622904
 20
0.990457329
 30
0.0
 10
8.1511196721
 20
0.9904823657
 30
0.0
 10
8.1770590961
 20
0.9918081737
 30
0.0
 10
8.2091640624
 20
0.9966181431
 30
0.0
 10
8.234469641
 20
1.0023419098
 30
0.0
 10
8.2594566691
 20
1.0092946422
 30
0.0
 10
8.2839038001
 20
1.0180766836
 30
0.0
 10
8.3076007442
 20
1.0286160272
 30
0.0
 10
8.3249715369
 20
1.037382325
 30
0.0
 10
8.341892831
 20
1.0469882013
 30
0.0
 10
8.3637925846
 20
1.0608843928
 30
0.0
 10
8.3846456444
 20
1.0763764922
 30
0.0
 10
8.4042743357
 20
1.0933300186
 30
0.0
 10
8.4230474991
 20
1.1112277318
 30
0.0
 10
8.4448385929
 20
1.1352921382
 30
0.0
 10
8.4680267984
 20
1.1665868324
 30
0.0
 10
8.4880447314
 20
1.2000014274
 30
0.0
 10
8.5046904762
 20
1.2352174419
 30
0.0
 10
8.5178124978
 20
1.271892308
 30
0.0
 10
8.5272741785
 20
1.3096765605
 30
0.0
 10
8.5329957483
 20
1.3482039484
 30
0.0
 10
8.5349099956
 20
1.3871060904
 30
0.0
 10
8.533010942
 20
1.4260088742
 30
0.0
 10
8.527303369
 20
1.4645377685
 30
0.0
 10
8.5178552961
 20
1.5023237685
 30
0.0
 10
8.5047445468
 20
1.5390004881
 30
0.0
 10
8.4881088113
 20
1.574216834
 30
0.0
 10
8.4714284386
 20
1.6020680848
 30
0.0
 10
8.4565040483
 20
1.623282031
 30
0.0
 10
8.4405551706
 20
1.6437357105
 30
0.0
 10
8.4231180122
 20
1.6629915563
 30
0.0
 10
8.4043423341
 20
1.6808852235
 30
0.0
 10
8.3847096781
 20
1.6978340233
 30
0.0
 10
8.3638514885
 20
1.7133189046
 30
0.0
 10
8.3419441936
 20
1.7272044013
 30
0.0
 10
8.3193792383
 20
1.7399966904
 30
0.0
 10
8.2900398533
 20
1.7538907323
 30
0.0
 10
8.2594778503
 20
1.7648367895
 30
0.0
 10
8.2344814511
 20
1.7717626451
 30
0.0
 10
8.2091684419
 20
1.7774556469
 30
0.0
 10
8.1770559512
 20
1.7822207534
 30
0.0
 10
8.1511138756
 20
1.7835036019
 30
0.0
 10
8.138156448
 20
1.7835053595
 30
0.0
 11
8.1381622904
 21
0.990457329
 31
0.0
 11
8.1769840363
 21
0.9924375659
 31
0.0
 11
8.2154583853
 21
0.9982053381
 31
0.0
 11
8.2344318496
 21
1.002496058
 31
0.0
 11
8.2531688494
 21
1.007710068
 31
0.0
 11
8.2897621172
 21
1.0208565229
 31
0.0
 11
8.3075329268
 21
1.0287592809
 31
0.0
 11
8.3248965533
 21
1.0375222202
 31
0.0
 11
8.3418105825
 21
1.0471245595
 31
0.0
 11
8.3582329532
 21
1.0575450122
 31
0.0
 11
8.3894486271
 21
1.0807348641
 31
0.0
 11
8.4041673528
 21
1.0934480346
 31
0.0
 11
8.4182445668
 21
1.1068681632
 31
0.0
 11
8.4443450431
 21
1.1356949653
 31
0.0
 11
8.4674980935
 21
1.1669396652
 31
0.0
 11
8.4874826528
 21
1.2003015839
 31
0.0
 11
8.5041032223
 21
1.2354606724
 31
0.0
 11
8.5172025784
 21
1.2720776666
 31
0.0
 11
8.5266509204
 21
1.3098008874
 31
0.0
 11
8.5323612442
 21
1.3482668864
 31
0.0
 11
8.5342744506
 21
1.3871062361
 31
0.0
 11
8.5323762174
 21
1.4259462669
 31
0.0
 11
8.5266799456
 21
1.4644139697
 31
0.0
 11
8.5172447989
 21
1.5021390572
 31
0.0
 11
8.5041570461
 21
1.5387571078
 31
0.0
 11
8.4875456801
 21
1.5739171323
 31
0.0
 11
8.4675673817
 21
1.6072800901
 31
0.0
 11
8.4563759319
 21
1.6231870323
 31
0.0
 11
8.4444164946
 21
1.6385247791
 31
0.0
 11
8.4183144868
 21
1.6673495404
 31
0.0
 11
8.4042351581
 21
1.6807671333
 31
0.0
 11
8.3895135964
 21
1.6934765913
 31
0.0
 11
8.358290017
 21
1.7166551606
 31
0.0
 11
8.3418622191
 21
1.7270675804
 31
0.0
 11
8.3249420297
 21
1.7366604166
 31
0.0
 11
8.2897941402
 21
1.7533016764
 31
0.0
 11
8.253187214
 21
1.7664144697
 31
0.0
 11
8.2344438422
 21
1.7716080281
 31
0.0
 11
8.2154645972
 21
1.7758757434
 31
0.0
 11
8.1769814951
 21
1.7815896015
 31
0.0
 11
8.138156448
 21
1.7835053595
 31
0.0
  0
LINE
  5
28F
100
AcDbEntity
  8
0
100
AcDbLine
 62
6
  6
CONTINUOUS
 10
8.138156448
 20
1.7835053595
 11
8.1377511527
 21
1.783505206
  0
LINE
  5
290
100
AcDbEntity
  8
0
100
AcDbLine
 62
6
  6
CONTINUOUS
 10
8.1377511527
 20
0.9926799902
 11
8.138160535
 21
0.9926805705
  0
SPLINE
  5
291
100
AcDbEntity
  8
0
100
AcDbSpline
 62
6
  6
CONTINUOUS
 70
0
 71
3
 72
46
 73
42
 74
40
 42
0.0000001
 43
0.0000001
 44
0.0000000001
 12
1.2374980334
 22
0.0023990856
 32
0.0
 13
-1.2375003467
 23
0.0001733637
 33
0.0
 40
0.0
 40
0.0
 40
0.0
 40
0.0
 40
0.0312355592
 40
0.0624962893
 40
0.0781267625
 40
0.093754338
 40
0.1249982855
 40
0.140626468
 40
0.1562553851
 40
0.171884433
 40
0.1875132569
 40
0.2187610851
 40
0.2343894028
 40
0.2500176815
 40
0.2812651879
 40
0.312513177
 40
0.3437619109
 40
0.3750103538
 40
0.4062584508
 40
0.437505721
 40
0.4687526364
 40
0.499999567
 40
0.5312467729
 40
0.5624944751
 40
0.5937419053
 40
0.6249891133
 40
0.6562363098
 40
0.6874840421
 40
0.7031124508
 40
0.7187407396
 40
0.7343690598
 40
0.7499973798
 40
0.781244815
 40
0.812493544
 40
0.8437438318
 40
0.874993822
 40
0.9062405259
 40
0.9218697126
 40
0.9375016917
 40
0.9687642032
 40
1.0
 40
1.0
 40
1.0
 40
1.0
 10
8.138160535
 20
0.9926805705
 30
0.0
 10
8.1510451827
 20
0.9927055494
 30
0.0
 10
8.17683875
 20
0.994024036
 30
0.0
 10
8.2087630174
 20
0.9988070596
 30
0.0
 10
8.2339258986
 20
1.0044984925
 30
0.0
 10
8.2587721437
 20
1.0114119123
 30
0.0
 10
8.2830817241
 20
1.0201447461
 30
0.0
 10
8.3066457715
 20
1.0306248394
 30
0.0
 10
8.323919495
 20
1.0393419208
 30
0.0
 10
8.3407462628
 20
1.0488939674
 30
0.0
 10
8.3625235099
 20
1.0627124351
 30
0.0
 10
8.3832599411
 20
1.0781176808
 30
0.0
 10
8.4027787062
 20
1.0949761897
 30
0.0
 10
8.4214465507
 20
1.1127733997
 30
0.0
 10
8.4431153264
 20
1.1367024271
 30
0.0
 10
8.4661731549
 20
1.1678209012
 30
0.0
 10
8.4860786276
 20
1.2010468505
 30
0.0
 10
8.502630686
 20
1.2360637879
 30
0.0
 10
8.5156793063
 20
1.2725309938
 30
0.0
 10
8.5250882395
 20
1.3101014836
 30
0.0
 10
8.5307786706
 20
1.3484114678
 30
0.0
 10
8.5326831178
 20
1.3870948889
 30
0.0
 10
8.5307958009
 20
1.4257794671
 30
0.0
 10
8.5251217653
 20
1.4640924683
 30
0.0
 10
8.5157272944
 20
1.5016665367
 30
0.0
 10
8.5026918637
 20
1.5381380748
 30
0.0
 10
8.4861498908
 20
1.5731569329
 30
0.0
 10
8.4695643661
 20
1.6008529605
 30
0.0
 10
8.4547246816
 20
1.6219477322
 30
0.0
 10
8.4428274233
 20
1.6372057287
 30
0.0
 10
8.4301962176
 20
1.6518617612
 30
0.0
 10
8.4124223172
 20
1.6705510041
 30
0.0
 10
8.3885117318
 20
1.6922412792
 30
0.0
 10
8.3574146568
 20
1.7153295397
 30
0.0
 10
8.3241978531
 20
1.7352544608
 30
0.0
 10
8.2891931977
 20
1.7518309966
 30
0.0
 10
8.2588005313
 20
1.7627170566
 30
0.0
 10
8.233943763
 20
1.7696044697
 30
0.0
 10
8.2087721703
 20
1.7752658949
 30
0.0
 10
8.1768394396
 20
1.7800044877
 30
0.0
 10
8.1510426528
 20
1.7812803129
 30
0.0
 10
8.138157883
 20
1.781282118
 30
0.0
 11
8.138160535
 21
0.9926805705
 31
0.0
 11
8.1767643516
 21
0.9946499048
 31
0.0
 11
8.2150219931
 21
1.0003853067
 31
0.0
 11
8.2338883138
 21
1.0046517585
 31
0.0
 11
8.2525195463
 21
1.0098362678
 31
0.0
 11
8.2889069562
 21
1.0229088321
 31
0.0
 11
8.3065782953
 21
1.0307672536
 31
0.0
 11
8.3238449152
 21
1.0394810368
 31
0.0
 11
8.3406644729
 21
1.0490295926
 31
0.0
 11
8.3569950376
 21
1.0593917533
 31
0.0
 11
8.3880360821
 21
1.0824516854
 31
0.0
 11
8.4026723501
 21
1.0950935661
 31
0.0
 11
8.4166706313
 21
1.1084383681
 31
0.0
 11
8.4426246203
 21
1.1371030952
 31
0.0
 11
8.4656475537
 21
1.1681718393
 31
0.0
 11
8.4855197751
 21
1.2013454496
 31
0.0
 11
8.5020468711
 21
1.2363057249
 31
0.0
 11
8.5150728213
 21
1.2727153016
 31
0.0
 11
8.5244685361
 21
1.3102249544
 31
0.0
 11
8.5301476752
 21
1.3484737053
 31
0.0
 11
8.5320511587
 21
1.387094914
 31
0.0
 11
8.5301647026
 21
1.4257172994
 31
0.0
 11
8.5245016685
 21
1.4639694223
 31
0.0
 11
8.5151204319
 21
1.5014829029
 31
0.0
 11
8.5021074485
 21
1.5378959477
 31
0.0
 11
8.4855900916
 21
1.5728591195
 31
0.0
 11
8.4657251742
 21
1.6060356594
 31
0.0
 11
8.4545970013
 21
1.6218535482
 31
0.0
 11
8.4427051033
 21
1.6371053962
 31
0.0
 11
8.4300793551
 21
1.651755587
 31
0.0
 11
8.4167507952
 21
1.6657694046
 31
0.0
 11
8.3881112757
 21
1.6917510757
 31
0.0
 11
8.3570620465
 21
1.7148018567
 31
0.0
 11
8.323899639
 21
1.7346965058
 31
0.0
 11
8.2889477901
 21
1.7512458896
 31
0.0
 11
8.2525450923
 21
1.7642859398
 31
0.0
 11
8.2339063139
 21
1.7694507265
 31
0.0
 11
8.2150330312
 21
1.7736947773
 31
0.0
 11
8.1767652113
 21
1.7793768979
 31
0.0
 11
8.138157883
 21
1.781282118
 31
0.0
  0
LINE
  5
292
100
AcDbEntity
  8
0
100
AcDbLine
 62
6
  6
CONTINUOUS
 10
8.138157883
 20
1.781282118
 11
8.1377511527
 21
1.7812819637
  0
LINE
  5
293
100
AcDbEntity
  8
0
100
AcDbLine
 62
6
  6
CONTINUOUS
 10
8.1377511527
 20
0.9949032322
 11
8.1381604784
 21
0.9949038156
  0
SPLINE
  5
294
100
AcDbEntity
  8
0
100
AcDbSpline
 62
6
  6
CONTINUOUS
 70
0
 71
3
 72
48
 73
44
 74
42
 42
0.0000001
 43
0.0000001
 44
0.0000000001
 12
1.2305425918
 22
0.0023988878
 32
0.0
 13
-1.2305449193
 23
0.0001624141
 33
0.0
 40
0.0
 40
0.0
 40
0.0
 40
0.0
 40
0.0312348941
 40
0.0624951488
 40
0.0781255974
 40
0.0937532724
 40
0.1249976463
 40
0.1406261455
 40
0.1562554149
 40
0.1718847867
 40
0.1875138225
 40
0.2187617247
 40
0.2343899537
 40
0.2500180536
 40
0.281265013
 40
0.2968931932
 40
0.3125215488
 40
0.3437691122
 40
0.375016013
 40
0.4062628028
 40
0.4375098072
 40
0.4687569642
 40
0.500003724
 40
0.5312507836
 40
0.5624988973
 40
0.5937475514
 40
0.6249964856
 40
0.65624488
 40
0.6874927072
 40
0.7187395721
 40
0.7499861431
 40
0.7656140585
 40
0.7812420871
 40
0.8124893478
 40
0.8281178338
 40
0.8437464746
 40
0.8593749603
 40
0.8750027522
 40
0.9062462867
 40
0.921873855
 40
0.9375043565
 40
0.9687649624
 40
1.0
 40
1.0
 40
1.0
 40
1.0
 10
8.1381604784
 20
0.9949038156
 30
0.0
 10
8.1509724343
 20
0.994928792
 30
0.0
 10
8.1766205474
 20
0.9962400705
 30
0.0
 10
8.2083648603
 20
1.0009964774
 30
0.0
 10
8.2333860937
 20
1.0066561446
 30
0.0
 10
8.2580928141
 20
1.0135310185
 30
0.0
 10
8.282266027
 20
1.0222150748
 30
0.0
 10
8.3056978318
 20
1.0326369276
 30
0.0
 10
8.3228746451
 20
1.0413055655
 30
0.0
 10
8.3396070251
 20
1.0508043174
 30
0.0
 10
8.3612620304
 20
1.0645453684
 30
0.0
 10
8.3818813838
 20
1.079864777
 30
0.0
 10
8.4012902174
 20
1.0966289005
 30
0.0
 10
8.4198523579
 20
1.114325471
 30
0.0
 10
8.4370923332
 20
1.1333668631
 30
0.0
 10
8.4528625667
 20
1.1535910644
 30
0.0
 10
8.4676209934
 20
1.1745662897
 30
0.0
 10
8.4841182151
 20
1.2021030037
 30
0.0
 10
8.5005755457
 20
1.2369206996
 30
0.0
 10
8.5135498497
 20
1.2731822947
 30
0.0
 10
8.5229051109
 20
1.3105411481
 30
0.0
 10
8.5285632043
 20
1.3486358074
 30
0.0
 10
8.5304563578
 20
1.387101796
 30
0.0
 10
8.5285790959
 20
1.4255689836
 30
0.0
 10
8.5229357491
 20
1.4636670404
 30
0.0
 10
8.5135934207
 20
1.5010313116
 30
0.0
 10
8.5006287948
 20
1.5372984009
 30
0.0
 10
8.4841782957
 20
1.5721226013
 30
0.0
 10
8.464389983
 20
1.6051641229
 30
0.0
 10
8.4414638635
 20
1.6361079028
 30
0.0
 10
8.4199157641
 20
1.6599002851
 30
0.0
 10
8.4013501796
 20
1.677593768
 30
0.0
 10
8.3819372855
 20
1.694352351
 30
0.0
 10
8.3613120837
 20
1.7096632962
 30
0.0
 10
8.3396508718
 20
1.7233931103
 30
0.0
 10
8.3229135279
 20
1.7328814696
 30
0.0
 10
8.305731431
 20
1.7415376776
 30
0.0
 10
8.2822921305
 20
1.7519403782
 30
0.0
 10
8.2581111273
 20
1.7606013227
 30
0.0
 10
8.2333970742
 20
1.7674485656
 30
0.0
 10
8.2083687208
 20
1.7730774302
 30
0.0
 10
8.1766171999
 20
1.7777888534
 30
0.0
 10
8.1509664619
 20
1.7790571874
 30
0.0
 10
8.1381544229
 20
1.7790588784
 30
0.0
 11
8.1381604784
 21
0.9949038156
 31
0.0
 11
8.176546484
 21
0.9968624132
 31
0.0
 11
8.2145884602
 21
1.0025658782
 31
0.0
 11
8.2333486688
 21
1.0068085367
 31
0.0
 11
8.2518752498
 21
1.0119641246
 31
0.0
 11
8.2880584926
 21
1.0249637915
 31
0.0
 11
8.3056307155
 21
1.0327785394
 31
0.0
 11
8.3228005026
 21
1.0414438823
 31
0.0
 11
8.3395257477
 21
1.0509391853
 31
0.0
 11
8.3557646453
 21
1.0612434032
 31
0.0
 11
8.3866307264
 21
1.0841745463
 31
0.0
 11
8.4011844407
 21
1.0967455411
 31
0.0
 11
8.4151036734
 21
1.1100154078
 31
0.0
 11
8.4409105745
 21
1.1385192131
 31
0.0
 11
8.4527360108
 21
1.1536848737
 31
0.0
 11
8.4638030003
 21
1.1694128184
 31
0.0
 11
8.4835620004
 21
1.2023992116
 31
0.0
 11
8.499995076
 21
1.2371614257
 31
0.0
 11
8.5129466461
 21
1.2733650699
 31
0.0
 11
8.5222889025
 21
1.3106637234
 31
0.0
 11
8.5279357305
 21
1.3486978541
 31
0.0
 11
8.5298279601
 21
1.3871018074
 31
0.0
 11
8.5279514709
 21
1.4255069024
 31
0.0
 11
8.5223193178
 21
1.4635443991
 31
0.0
 11
8.5129897398
 21
1.5008483185
 31
0.0
 11
8.500047707
 21
1.5370581752
 31
0.0
 11
8.4836218158
 21
1.5718258176
 31
0.0
 11
8.4638667275
 21
1.6048149319
 31
0.0
 11
8.4409753932
 21
1.6357089593
 31
0.0
 11
8.4151659341
 21
1.6642098036
 31
0.0
 11
8.4012443112
 21
1.6774768336
 31
0.0
 11
8.3866874254
 21
1.6900437786
 31
0.0
 11
8.3558129699
 21
1.7129623204
 31
0.0
 11
8.3395694432
 21
1.7232579758
 31
0.0
 11
8.3228393038
 21
1.7327428289
 31
0.0
 11
8.305664316
 21
1.7413957162
 31
0.0
 11
8.2880866361
 21
1.7491960367
 31
0.0
 11
8.2518919941
 21
1.7621608683
 31
0.0
 11
8.2333597991
 21
1.767295748
 31
0.0
 11
8.2145943081
 21
1.7715152774
 31
0.0
 11
8.176543841
 21
1.777164762
 31
0.0
 11
8.1381544229
 21
1.7790588784
 31
0.0
  0
LINE
  5
295
100
AcDbEntity
  8
0
100
AcDbLine
 62
6
  6
CONTINUOUS
 10
8.1381544229
 20
1.7790588784
 11
8.1377511527
 21
1.7790587228
  0
LINE
  5
296
100
AcDbEntity
  8
0
100
AcDbLine
 62
6
  6
CONTINUOUS
 10
8.1377511527
 20
0.9971264719
 11
8.1381634972
 21
0.9971270646
  0
LINE
  5
297
100
AcDbEntity
  8
0
100
AcDbLine
 62
6
  6
CONTINUOUS
 10
8.1381521407
 20
1.7768356396
 11
8.1377511527
 21
1.7768354828
  0
LINE
  5
298
100
AcDbEntity
  8
0
100
AcDbLine
 62
6
  6
CONTINUOUS
 10
8.1377511527
 20
0.9993497133
 11
8.138162029
 21
0.9993503065
  0
SPLINE
  5
299
100
AcDbEntity
  8
0
100
AcDbSpline
 62
6
  6
CONTINUOUS
 70
0
 71
3
 72
31
 73
27
 74
25
 42
0.0000001
 43
0.0000001
 44
0.0000000001
 12
0.4860423524
 22
0.5231047591
 32
0.0
 13
-0.6708293857
 23
0.2446705798
 33
0.0
 40
0.0
 40
0.0
 40
0.0
 40
0.0
 40
0.0624557594
 40
0.0936999938
 40
0.1249429771
 40
0.1874043955
 40
0.2498736573
 40
0.2811279603
 40
0.312385319
 40
0.3748771331
 40
0.4061410403
 40
0.4374055694
 40
0.499905257
 40
0.5311687186
 40
0.562431764
 40
0.5936939674
 40
0.6249557739
 40
0.6562172006
 40
0.6874778064
 40
0.7187384299
 40
0.7499992256
 40
0.8124925356
 40
0.8749809235
 40
0.9062436881
 40
0.9375144462
 40
1.0
 40
1.0
 40
1.0
 40
1.0
 10
8.4026344126
 20
1.1677634389
 30
0.0
 10
8.4127531274
 20
1.1786537406
 30
0.0
 10
8.4268934799
 20
1.1960062061
 30
0.0
 10
8.4433731749
 20
1.2207786438
 30
0.0
 10
8.4582332837
 20
1.2465616967
 30
0.0
 10
8.4736675087
 20
1.2804959158
 30
0.0
 10
8.4846723907
 20
1.3161152015
 30
0.0
 10
8.4907294161
 20
1.3452576781
 30
0.0
 10
8.4949467865
 20
1.3747262635
 30
0.0
 10
8.4963767531
 20
1.4045396158
 30
0.0
 10
8.4950244254
 20
1.4342815324
 30
0.0
 10
8.491827075
 20
1.4638839373
 30
0.0
 10
8.4858879018
 20
1.4931361238
 30
0.0
 10
8.4772971695
 20
1.521642344
 30
0.0
 10
8.4695570783
 20
1.5425968262
 30
0.0
 10
8.4605511551
 20
1.5630375227
 30
0.0
 10
8.4503179372
 20
1.5828919421
 30
0.0
 10
8.4389015001
 20
1.6020899002
 30
0.0
 10
8.4263435234
 20
1.6205607003
 30
0.0
 10
8.4126957367
 20
1.6382420687
 30
0.0
 10
8.3931227053
 20
1.6606741055
 30
0.0
 10
8.3661869611
 20
1.6864523385
 30
0.0
 10
8.3363794162
 20
1.7088445639
 30
0.0
 10
8.3110832308
 20
1.7245467471
 30
0.0
 10
8.2849073004
 20
1.7387250992
 30
0.0
 10
8.2643644411
 20
1.7476129698
 30
0.0
 10
8.2503920593
 20
1.7527090953
 30
0.0
 11
8.4026344126
 21
1.1677634389
 31
0.0
 11
8.4308121225
 21
1.2023307672
 31
0.0
 11
8.4431707484
 21
1.2209051096
 31
0.0
 11
8.4543110753
 21
1.2402337175
 31
0.0
 11
8.4727808752
 21
1.2808306441
 31
0.0
 11
8.4859559171
 21
1.3234470945
 31
0.0
 11
8.4904991605
 21
1.3452970744
 31
0.0
 11
8.4936605999
 21
1.3673915391
 31
0.0
 11
8.4958069456
 21
1.4119625352
 31
0.0
 11
8.4947937665
 21
1.4342637077
 31
0.0
 11
8.4923972399
 21
1.4564593224
 31
0.0
 11
8.4835205329
 21
1.5001958785
 31
0.0
 11
8.4770811803
 21
1.5215708489
 31
0.0
 11
8.4693460066
 21
1.5425114419
 31
0.0
 11
8.4603465381
 21
1.5629399534
 31
0.0
 11
8.450120659
 21
1.5827826662
 31
0.0
 11
8.4387111138
 21
1.6019689119
 31
0.0
 11
8.4261618771
 21
1.6204291459
 31
0.0
 11
8.4125232173
 21
1.6380997741
 31
0.0
 11
8.3978476335
 21
1.6549193125
 31
0.0
 11
8.3656118388
 21
1.685775906
 31
0.0
 11
8.3299409076
 21
1.7125816296
 31
0.0
 11
8.3109747943
 21
1.7243552844
 31
0.0
 11
8.2913413941
 21
1.7349909256
 31
0.0
 11
8.2503920593
 21
1.7527090953
 31
0.0
  0
LINE
  5
29A
100
AcDbEntity
  8
0
100
AcDbLine
 62
6
  6
CONTINUOUS
 10
8.1373254416
 20
1.78736646
 11
8.1377511527
 21
1.7873670641
  0
LINE
  5
29B
100
AcDbEntity
  8
0
100
AcDbLine
 62
6
  6
CONTINUOUS
 10
8.1377511527
 20
0.9888181305
 11
8.1371950123
 21
0.988818027
  0
LINE
  5
29C
100
AcDbEntity
  8
0
100
AcDbLine
 62
6
  6
CONTINUOUS
 10
8.1377511527
 20
0.9821484072
 11
8.1372001138
 21
0.9821483028
  0
LINE
  5
29D
100
AcDbEntity
  8
0
100
AcDbLine
 62
6
  6
CONTINUOUS
 10
8.1371891323
 20
1.7940359076
 11
8.1377511527
 21
1.7940367875
  0
LINE
  5
29E
100
AcDbEntity
  8
0
100
AcDbLine
 62
6
  6
CONTINUOUS
 10
8.1377511527
 20
0.984371649
 11
8.1374021754
 21
0.9843714946
  0
SPLINE
  5
29F
100
AcDbEntity
  8
0
100
AcDbSpline
 62
6
  6
CONTINUOUS
 70
0
 71
3
 72
37
 73
33
 74
31
 42
0.0000001
 43
0.0000001
 44
0.0000000001
 12
-1.0429698727
 22
-0.0000075613
 32
0.0
 13
0.8855334787
 23
0.5510141682
 33
0.0
 40
0.0
 40
0.0
 40
0.0
 40
0.0
 40
0.0312363834
 40
0.0625017172
 40
0.0937618467
 40
0.1250123615
 40
0.1562625416
 40
0.1875164739
 40
0.218771082
 40
0.2500247881
 40
0.2812777284
 40
0.3125302361
 40
0.3437829637
 40
0.3750359351
 40
0.4062894873
 40
0.4375425654
 40
0.4999969389
 40
0.5624514049
 40
0.5937037307
 40
0.6249563895
 40
0.6562095431
 40
0.687463822
 40
0.7187184495
 40
0.749973405
 40
0.7812283022
 40
0.8124826909
 40
0.8437366588
 40
0.8749894952
 40
0.9062418811
 40
0.9374940463
 40
0.9687467831
 40
1.0
 40
1.0
 40
1.0
 40
1.0
 10
8.1374021754
 20
0.9843714946
 30
0.0
 10
8.1265426398
 20
0.9843714159
 30
0.0
 10
8.1048034793
 20
0.9852543351
 30
0.0
 10
8.0724119959
 20
0.9891976206
 30
0.0
 10
8.0404385037
 20
0.995749996
 30
0.0
 10
8.009104662
 20
1.0048623831
 30
0.0
 10
7.9786112859
 20
1.0164758705
 30
0.0
 10
7.9491543149
 20
1.030514527
 30
0.0
 10
7.920923498
 20
1.0468825306
 30
0.0
 10
7.8941107131
 20
1.0654819132
 30
0.0
 10
7.8688837631
 20
1.0861801007
 30
0.0
 10
7.8454144393
 20
1.1088513156
 30
0.0
 10
7.8238483163
 20
1.1333400331
 30
0.0
 10
7.8043315381
 20
1.1594913275
 30
0.0
 10
7.7869881738
 20
1.1871341879
 30
0.0
 10
7.7669230643
 20
1.2257109019
 30
0.0
 10
7.7477873846
 20
1.2767869546
 30
0.0
 10
7.7371273561
 20
1.330277736
 30
0.0
 10
7.7338438893
 20
1.3736359957
 30
0.0
 10
7.7340093552
 20
1.4062681615
 30
0.0
 10
7.7368077486
 20
1.438779392
 30
0.0
 10
7.7422212987
 20
1.4709596808
 30
0.0
 10
7.7502088087
 20
1.5026001529
 30
0.0
 10
7.7607283771
 20
1.5334913973
 30
0.0
 10
7.7736987943
 20
1.563436205
 30
0.0
 10
7.7890470893
 20
1.5922344195
 30
0.0
 10
7.8066637798
 20
1.6197025959
 30
0.0
 10
7.8264386697
 20
1.6456596978
 30
0.0
 10
7.8482421291
 20
1.6699365218
 30
0.0
 10
7.8719301004
 20
1.692379308
 30
0.0
 10
7.8973514128
 20
1.7128348062
 30
0.0
 10
7.9153456922
 20
1.7250674217
 30
0.0
 10
7.9245709488
 20
1.7308077435
 30
0.0
 11
8.1374021754
 21
0.9843714946
 31
0.0
 11
8.1048502581
 21
0.9856899414
 31
0.0
 11
8.0724806978
 21
0.9896327178
 31
0.0
 11
8.0405410112
 21
0.9961776676
 31
0.0
 11
8.0092442788
 21
1.0052793546
 31
0.0
 11
7.9787854369
 21
1.0168794565
 31
0.0
 11
7.9493590677
 21
1.0309025563
 31
0.0
 11
7.9211595252
 21
1.047254629
 31
0.0
 11
7.8943747086
 21
1.0658319469
 31
0.0
 11
7.8691765446
 21
1.0865090746
 31
0.0
 11
7.8457316923
 21
1.109154175
 31
0.0
 11
7.8241899646
 21
1.1336170158
 31
0.0
 11
7.8046939008
 21
1.1597397394
 31
0.0
 11
7.7873694756
 21
1.1873512764
 31
0.0
 11
7.7723295272
 21
1.2162701354
 31
0.0
 11
7.7494822326
 21
1.2772698409
 31
0.0
 11
7.7367451092
 21
1.3411505204
 31
0.0
 11
7.7342820701
 21
1.3736525624
 31
0.0
 11
7.7344481617
 21
1.4062477207
 31
0.0
 11
7.7372435448
 21
1.4387237337
 31
0.0
 11
7.7426502475
 21
1.4708694901
 31
0.0
 11
7.7506307768
 21
1.5024751376
 31
0.0
 11
7.761136866
 21
1.533333689
 31
0.0
 11
7.7740952097
 21
1.5632453166
 31
0.0
 11
7.7894252908
 21
1.5920129751
 31
0.0
 11
7.807023772
 21
1.6194511676
 31
0.0
 11
7.8267769295
 21
1.645379854
 31
0.0
 11
7.8485562703
 21
1.6696309096
 31
0.0
 11
7.8722188035
 21
1.6920479322
 31
0.0
 11
7.8976129264
 21
1.7124835816
 31
0.0
 11
7.9245709488
 21
1.7308077435
 31
0.0
  0
LINE
  5
2A0
100
AcDbEntity
  8
0
100
AcDbLine
 62
6
  6
CONTINUOUS
 10
8.1373945017
 20
1.7918130769
 11
8.1377511527
 21
1.7918135472
  0
LINE
  5
2A1
100
AcDbEntity
  8
0
100
AcDbLine
 62
6
  6
CONTINUOUS
 10
8.1377511527
 20
0.9865948911
 11
8.1374015374
 21
0.9865947358
  0
SPLINE
  5
2A2
100
AcDbEntity
  8
0
100
AcDbSpline
 62
6
  6
CONTINUOUS
 70
0
 71
3
 72
39
 73
35
 74
33
 42
0.0000001
 43
0.0000001
 44
0.0000000001
 12
-1.0347121474
 22
-0.0000058842
 32
0.0
 13
0.8749491909
 23
0.5523523706
 33
0.0
 40
0.0
 40
0.0
 40
0.0
 40
0.0
 40
0.0312335703
 40
0.0624962408
 40
0.0937539038
 40
0.1250016381
 40
0.1562483046
 40
0.1874981538
 40
0.218748753
 40
0.2499989326
 40
0.2812487031
 40
0.3124982778
 40
0.3437482645
 40
0.3749987159
 40
0.4062500417
 40
0.4375013188
 40
0.4687525863
 40
0.5000032616
 40
0.531253157
 40
0.5625026656
 40
0.5937518517
 40
0.6250013818
 40
0.6562510396
 40
0.6875012289
 40
0.7187511232
 40
0.7500007261
 40
0.781250318
 40
0.812500159
 40
0.8437503227
 40
0.8750000424
 40
0.9062497427
 40
0.9374991617
 40
0.9687490636
 40
1.0
 40
1.0
 40
1.0
 40
1.0
 10
8.1374015374
 20
0.9865947358
 30
0.0
 10
8.1266289526
 20
0.9865946745
 30
0.0
 10
8.1050638523
 20
0.9874683691
 30
0.0
 10
8.0729305427
 20
0.9913704043
 30
0.0
 10
8.0412097667
 20
0.997854281
 30
0.0
 10
8.010120736
 20
1.0068717541
 30
0.0
 10
7.9798617418
 20
1.0183641593
 30
0.0
 10
7.9506262242
 20
1.0322572137
 30
0.0
 10
7.9226012454
 20
1.0484567136
 30
0.0
 10
7.8959757504
 20
1.066865922
 30
0.0
 10
7.8709157108
 20
1.0873546242
 30
0.0
 10
7.8475910973
 20
1.1097990836
 30
0.0
 10
7.8261458055
 20
1.1340457035
 30
0.0
 10
7.8067244537
 20
1.1599428009
 30
0.0
 10
7.7894506401
 20
1.1873194301
 30
0.0
 10
7.7744347211
 20
1.2159972434
 30
0.0
 10
7.7617807569
 20
1.2457923414
 30
0.0
 10
7.7515605061
 20
1.2765069986
 30
0.0
 10
7.743852129
 20
1.3079456054
 30
0.0
 10
7.7386936174
 20
1.3399011325
 30
0.0
 10
7.7361276381
 20
1.3721684764
 30
0.0
 10
7.7361643564
 20
1.404537554
 30
0.0
 10
7.7388056137
 20
1.4367992296
 30
0.0
 10
7.7440364824
 20
1.4687433506
 30
0.0
 10
7.7518159574
 20
1.5001642896
 30
0.0
 10
7.7621035786
 20
1.5308553755
 30
0.0
 10
7.7748210457
 20
1.5606218382
 30
0.0
 10
7.7898970101
 20
1.5892663504
 30
0.0
 10
7.8072241082
 20
1.6166078591
 30
0.0
 10
7.8266961302
 20
1.6424658713
 30
0.0
 10
7.8481842043
 20
1.6666737405
 30
0.0
 10
7.871548303
 20
1.689077477
 30
0.0
 10
7.896639257
 20
1.7095258182
 30
0.0
 10
7.9144112469
 20
1.721774852
 30
0.0
 10
7.9235255741
 20
1.727528695
 30
0.0
 11
8.1374015374
 21
0.9865947358
 31
0.0
 11
8.1051101285
 21
0.9878994096
 31
0.0
 11
8.0729984115
 21
0.9918009474
 31
0.0
 11
8.0413108364
 21
0.9982775795
 31
0.0
 11
8.0102582903
 21
1.0072844732
 31
0.0
 11
7.980033481
 21
1.0187637681
 31
0.0
 11
7.9508283924
 21
1.0326414143
 31
0.0
 11
7.922834368
 21
1.0488250805
 31
0.0
 11
7.8962364995
 21
1.0672126242
 31
0.0
 11
7.8712048884
 21
1.0876806345
 31
0.0
 11
7.8479044419
 21
1.1100993118
 31
0.0
 11
7.8264832929
 21
1.13432058
 31
0.0
 11
7.8070825909
 21
1.1601890806
 31
0.0
 11
7.7898269727
 21
1.187536269
 31
0.0
 11
7.7748283639
 21
1.2161834949
 31
0.0
 11
7.7621862771
 21
1.2459458673
 31
0.0
 11
7.7519790487
 21
1.2766280125
 31
0.0
 11
7.744277062
 21
1.3080319733
 31
0.0
 11
7.7391256887
 21
1.3399532331
 31
0.0
 11
7.7365614249
 21
1.3721853048
 31
0.0
 11
7.7365984416
 21
1.4045195521
 31
0.0
 11
7.7392371917
 21
1.4367461009
 31
0.0
 11
7.7444612731
 21
1.468656256
 31
0.0
 11
7.7522340188
 21
1.5000427771
 31
0.0
 11
7.7625085542
 21
1.5307012785
 31
0.0
 11
7.7752140771
 21
1.56043474
 31
0.0
 11
7.790272141
 21
1.5890490796
 31
0.0
 11
7.8075816879
 21
1.6163607419
 31
0.0
 11
7.8270321699
 21
1.6421908861
 31
0.0
 11
7.8484969342
 21
1.6663731149
 31
0.0
 11
7.8718359321
 21
1.6887514226
 31
0.0
 11
7.8969000987
 21
1.7091797693
 31
0.0
 11
7.9235255741
 21
1.727528695
 31
0.0
  0
LINE
  5
2A3
100
AcDbEntity
  8
0
100
AcDbLine
 62
6
  6
CONTINUOUS
 10
8.1373915522
 20
1.7895898266
 11
8.1377511527
 21
1.7895903048
  0
LINE
  5
2A4
100
AcDbEntity
  8
0
100
AcDbLine
 62
6
  6
CONTINUOUS
 10
8.1377511527
 20
0.9910413721
 11
8.1373983477
 21
0.9910412151
  0
LINE
  5
2A5
100
AcDbEntity
  8
0
100
AcDbLine
 62
6
  6
CONTINUOUS
 10
7.9285937572
 20
1.7254548727
 11
7.9295370421
 21
1.726038059
  0
LINE
  5
2A6
100
AcDbEntity
  8
0
100
AcDbLine
 62
6
  6
CONTINUOUS
 10
8.1373946908
 20
1.7851433462
 11
8.1377511527
 21
1.7851438241
  0
LINE
  5
2A7
100
AcDbEntity
  8
0
100
AcDbLine
 62
6
  6
CONTINUOUS
 10
8.1371918824
 20
1.7806964374
 11
8.1377511527
 21
1.7806973407
  0
LINE
  5
2A8
100
AcDbEntity
  8
0
100
AcDbLine
 62
6
  6
CONTINUOUS
 10
8.1377511527
 20
0.9954878538
 11
8.137197718
 21
0.9954877471
  0
LINE
  5
2A9
100
AcDbEntity
  8
0
100
AcDbLine
 62
6
  6
CONTINUOUS
 10
8.1377511527
 20
0.9932646143
 11
8.1374011991
 21
0.9932644564
  0
LINE
  5
2AA
100
AcDbEntity
  8
0
100
AcDbLine
 62
6
  6
CONTINUOUS
 10
7.7840162135
 20
1.5632911607
 11
7.7844905091
 21
1.5642446791
  0
LINE
  5
2AB
100
AcDbEntity
  8
0
100
AcDbLine
 62
6
  6
CONTINUOUS
 10
8.1373956329
 20
1.7829201028
 11
8.1377511527
 21
1.7829205817
  0
LINE
  5
2AC
100
AcDbEntity
  8
0
100
AcDbLine
 62
6
  6
CONTINUOUS
 10
8.1377511527
 20
0.9977110952
 11
8.1374023457
 21
0.9977109355
  0
LINE
  5
2AD
100
AcDbEntity
  8
0
100
AcDbLine
 62
6
  6
CONTINUOUS
 10
8.1373942042
 20
1.7784736139
 11
8.1377511527
 21
1.7784741009
  0
LINE
  5
2AE
100
AcDbEntity
  8
0
100
AcDbLine
 62
6
  6
CONTINUOUS
 10
8.1377511527
 20
0.9999343375
 11
8.1374023332
 21
0.9999341769
  0
LINE
  5
2AF
100
AcDbEntity
  8
0
100
AcDbLine
 62
6
  6
CONTINUOUS
 10
8.1373947701
 20
1.7762503699
 11
8.1377511527
 21
1.7762508586
  0
LINE
  5
2B0
100
AcDbEntity
  8
0
100
AcDbLine
 62
6
  6
CONTINUOUS
 10
7.7557914973
 20
1.3512622613
 11
7.7557142212
 21
1.3520771921
  0
LINE
  5
2B1
100
AcDbEntity
  8
0
100
AcDbLine
 62
6
  6
CONTINUOUS
 10
8.1377511527
 20
1.7918135472
 11
8.1381000386
 21
1.7918137012
  0
SPLINE
  5
2B2
100
AcDbEntity
  8
0
100
AcDbSpline
 62
6
  6
CONTINUOUS
 70
0
 71
3
 72
48
 73
44
 74
42
 42
0.0000001
 43
0.0000001
 44
0.0000000001
 12
1.2707094215
 22
0.0000095328
 32
0.0
 13
-1.270707458
 23
-0.0022338662
 33
0.0
 40
0.0
 40
0.0
 40
0.0
 40
0.0
 40
0.0312346967
 40
0.0624949464
 40
0.0781255004
 40
0.0937533281
 40
0.1249979639
 40
0.1406265679
 40
0.1562559235
 40
0.1718853672
 40
0.1875144567
 40
0.2187624025
 40
0.2343906572
 40
0.2500187639
 40
0.2812656702
 40
0.2968938092
 40
0.3125220967
 40
0.3437694985
 40
0.3750163114
 40
0.4062631236
 40
0.4375102299
 40
0.4687575015
 40
0.5000043019
 40
0.5312513475
 40
0.5624993911
 40
0.5937479354
 40
0.6249967005
 40
0.6562448362
 40
0.6874923484
 40
0.7187390705
 40
0.7499857292
 40
0.7656136969
 40
0.7812417581
 40
0.8124890755
 40
0.8281175741
 40
0.8437462259
 40
0.8593747201
 40
0.8750025179
 40
0.9062461171
 40
0.9218737312
 40
0.9375042952
 40
0.9687649787
 40
1.0
 40
1.0
 40
1.0
 40
1.0
 10
8.1381000386
 20
1.7918137012
 30
0.0
 10
8.1513301131
 20
1.7918138005
 30
0.0
 10
8.1778179753
 20
1.7905077768
 30
0.0
 10
8.210606214
 20
1.7856468084
 30
0.0
 10
8.2364521954
 20
1.7798374753
 30
0.0
 10
8.2619743622
 20
1.7727697578
 30
0.0
 10
8.2869465475
 20
1.7638287065
 30
0.0
 10
8.3111530472
 20
1.7530883963
 30
0.0
 10
8.3288977668
 20
1.7441508969
 30
0.0
 10
8.3461832382
 20
1.7343541201
 30
0.0
 10
8.3685537017
 20
1.7201780094
 30
0.0
 10
8.3898536204
 20
1.7043683717
 30
0.0
 10
8.4099019466
 20
1.6870639292
 30
0.0
 10
8.429074817
 20
1.6687948294
 30
0.0
 10
8.4468806202
 20
1.6491346193
 30
0.0
 10
8.4631667655
 20
1.6282512883
 30
0.0
 10
8.4784068016
 20
1.6065914821
 30
0.0
 10
8.4954400258
 20
1.5781545172
 30
0.0
 10
8.5124279027
 20
1.542197247
 30
0.0
 10
8.5258159976
 20
1.5047485094
 30
0.0
 10
8.5354641272
 20
1.4661669774
 30
0.0
 10
8.5412924962
 20
1.4268266316
 30
0.0
 10
8.5432317259
 20
1.3871042707
 30
0.0
 10
8.5412770527
 20
1.3473823393
 30
0.0
 10
8.5354338734
 20
1.308043198
 30
0.0
 10
8.525772146
 20
1.2694631913
 30
0.0
 10
8.5123720483
 20
1.2320170712
 30
0.0
 10
8.4953748352
 20
1.1960612929
 30
0.0
 10
8.4749342433
 20
1.1619456203
 30
0.0
 10
8.4512564459
 20
1.1299947052
 30
0.0
 10
8.4290053418
 20
1.1054256605
 30
0.0
 10
8.4098355449
 20
1.08715275
 30
0.0
 10
8.3897918562
 20
1.0698438367
 30
0.0
 10
8.368497944
 20
1.0540272923
 30
0.0
 10
8.3461352627
 20
1.0398405873
 30
0.0
 10
8.3288563327
 20
1.0300342552
 30
0.0
 10
8.3111185407
 20
1.0210853994
 30
0.0
 10
8.2869213073
 20
1.0103271263
 30
0.0
 10
8.2619584158
 20
1.0013634206
 30
0.0
 10
8.2364445266
 20
0.9942679845
 30
0.0
 10
8.2106054905
 20
0.9884275897
 30
0.0
 10
8.1778239256
 20
0.9835214706
 30
0.0
 10
8.1513381755
 20
0.9821721349
 30
0.0
 10
8.1381079839
 20
0.9821488766
 30
0.0
 11
8.1381000386
 21
1.7918137012
 31
0.0
 11
8.1777423079
 21
1.7898632357
 31
0.0
 11
8.2170350341
 21
1.7840345075
 31
0.0
 11
8.2364136369
 21
1.7796796804
 31
0.0
 11
8.2555516899
 21
1.7743794837
 31
0.0
 11
8.2929305606
 21
1.7609952929
 31
0.0
 11
8.311083726
 21
1.7529417889
 31
0.0
 11
8.3288211614
 21
1.7440077161
 31
0.0
 11
8.346099242
 21
1.734214522
 31
0.0
 11
8.3628746524
 21
1.7235840728
 31
0.0
 11
8.3947593487
 21
1.6999194011
 31
0.0
 11
8.4097925862
 21
1.6869432507
 31
0.0
 11
8.4241697931
 21
1.6732440843
 31
0.0
 11
8.450823629
 21
1.6438141899
 31
0.0
 11
8.4630359294
 21
1.6281542862
 31
0.0
 11
8.4744640659
 21
1.6119130404
 31
0.0
 11
8.4948650266
 21
1.5778484482
 31
0.0
 11
8.5118279499
 21
1.5419486507
 31
0.0
 11
8.5251926251
 21
1.5045598608
 31
0.0
 11
8.5348274843
 21
1.4660405758
 31
0.0
 11
8.5406443265
 21
1.4267627594
 31
0.0
 11
8.5425827472
 21
1.3871045007
 31
0.0
 11
8.5406290228
 21
1.347446681
 31
0.0
 11
8.5347975112
 21
1.3081700481
 31
0.0
 11
8.5251491096
 21
1.2696522693
 31
0.0
 11
8.5117723964
 21
1.2322651489
 31
0.0
 11
8.4948007458
 21
1.1963676172
 31
0.0
 11
8.4743944668
 21
1.162306047
 31
0.0
 11
8.4507527363
 21
1.130406272
 31
0.0
 11
8.4241010514
 21
1.1009748543
 31
0.0
 11
8.4097263477
 21
1.0872733171
 31
0.0
 11
8.3946964635
 21
1.074293659
 31
0.0
 11
8.3628208055
 21
1.0506181537
 31
0.0
 11
8.3460512666
 21
1.0399798463
 31
0.0
 11
8.3287797526
 21
1.0301771143
 31
0.0
 11
8.3110492724
 21
1.0212316757
 31
0.0
 11
8.2929032029
 21
1.013164718
 31
0.0
 11
8.2555379626
 21
0.9997464178
 31
0.0
 11
8.2364059682
 21
0.994425406
 31
0.0
 11
8.2170326058
 21
0.9900472679
 31
0.0
 11
8.1777474223
 21
0.9841641944
 31
0.0
 11
8.1381079839
 21
0.9821488766
 31
0.0
  0
LINE
  5
2B3
100
AcDbEntity
  8
0
100
AcDbLine
 62
6
  6
CONTINUOUS
 10
8.1381079839
 20
0.9821488766
 11
8.1377511527
 21
0.9821484072
  0
LINE
  5
2B4
100
AcDbEntity
  8
0
100
AcDbLine
 62
6
  6
CONTINUOUS
 10
8.1377511527
 20
1.7895903048
 11
8.1381000686
 21
1.7895904597
  0
SPLINE
  5
2B5
100
AcDbEntity
  8
0
100
AcDbSpline
 62
6
  6
CONTINUOUS
 70
0
 71
3
 72
47
 73
43
 74
41
 42
0.0000001
 43
0.0000001
 44
0.0000000001
 12
1.263715861
 22
0.0000093723
 32
0.0
 13
-1.2637138907
 23
-0.0022315793
 33
0.0
 40
0.0
 40
0.0
 40
0.0
 40
0.0
 40
0.0312351197
 40
0.06249546
 40
0.0781257206
 40
0.0937531012
 40
0.1249967736
 40
0.1406249168
 40
0.1562538149
 40
0.1718828352
 40
0.1875115964
 40
0.2187591909
 40
0.2343873852
 40
0.2500155261
 40
0.2812627089
 40
0.3125103343
 40
0.3437586369
 40
0.3750065475
 40
0.406254127
 40
0.4375010613
 40
0.46874773
 40
0.4999944307
 40
0.5312418064
 40
0.5624904984
 40
0.593739889
 40
0.6249898492
 40
0.6562396463
 40
0.6874892092
 40
0.7187374509
 40
0.7499847589
 40
0.7656128701
 40
0.7812410183
 40
0.8124884373
 40
0.828116975
 40
0.8437456717
 40
0.8593742248
 40
0.8750020955
 40
0.9062458293
 40
0.9218734769
 40
0.9375040508
 40
0.9687647739
 40
1.0
 40
1.0
 40
1.0
 40
1.0
 10
8.1381000686
 20
1.7895904597
 30
0.0
 10
8.1512575074
 20
1.7895905572
 30
0.0
 10
8.1775998021
 20
1.7882916302
 30
0.0
 10
8.2102076784
 20
1.7834574407
 30
0.0
 10
8.2359111588
 20
1.7776802049
 30
0.0
 10
8.2612921877
 20
1.7706516354
 30
0.0
 10
8.2861261465
 20
1.7617599589
 30
0.0
 10
8.3101988358
 20
1.7510794063
 30
0.0
 10
8.3278455338
 20
1.7421916359
 30
0.0
 10
8.3450355025
 20
1.7324491429
 30
0.0
 10
8.3672823904
 20
1.7183512364
 30
0.0
 10
8.3884653601
 20
1.7026294101
 30
0.0
 10
8.4084032651
 20
1.6854205884
 30
0.0
 10
8.4274711152
 20
1.6672514381
 30
0.0
 10
8.4496024895
 20
1.6428189665
 30
0.0
 10
8.473149156
 20
1.6110419479
 30
0.0
 10
8.4934730001
 20
1.5771106449
 30
0.0
 10
8.5103687423
 20
1.54134918
 30
0.0
 10
8.5236837899
 20
1.5041063918
 30
0.0
 10
8.5332793166
 20
1.4657372228
 30
0.0
 10
8.5390758246
 20
1.4266138279
 30
0.0
 10
8.541004937
 20
1.387110264
 30
0.0
 10
8.5390614227
 20
1.3476065668
 30
0.0
 10
8.5332510761
 20
1.3084830493
 30
0.0
 10
8.5236424565
 20
1.2701142208
 30
0.0
 10
8.5103162705
 20
1.2328724765
 30
0.0
 10
8.4934117795
 20
1.1971126635
 30
0.0
 10
8.4730825872
 20
1.1631828527
 30
0.0
 10
8.4495343144
 20
1.1314061424
 30
0.0
 10
8.4274048151
 20
1.1069717666
 30
0.0
 10
8.4083402227
 20
1.0887992069
 30
0.0
 10
8.3884067381
 20
1.0715854653
 30
0.0
 10
8.367229856
 20
1.0558560345
 30
0.0
 10
8.3449902294
 20
1.0417473008
 30
0.0
 10
8.3278063526
 20
1.0319948928
 30
0.0
 10
8.3101661082
 20
1.0230952722
 30
0.0
 10
8.2861019501
 20
1.012396157
 30
0.0
 10
8.26127639
 20
1.003481644
 30
0.0
 10
8.235902868
 20
0.9964251674
 30
0.0
 10
8.2102060384
 20
0.9906167767
 30
0.0
 10
8.1776048191
 20
0.9857374216
 30
0.0
 10
8.1512647434
 20
0.9843953544
 30
0.0
 10
8.1381072803
 20
0.9843721198
 30
0.0
 11
8.1381000686
 21
1.7895904597
 31
0.0
 11
8.1775246912
 21
1.7876506455
 31
0.0
 11
8.2166012799
 21
1.7818540021
 31
0.0
 11
8.235872877
 21
1.7775232656
 31
0.0
 11
8.2549050643
 21
1.7722524204
 31
0.0
 11
8.2920770838
 21
1.7589423463
 31
0.0
 11
8.3101299036
 21
1.7509336177
 31
0.0
 11
8.3277693277
 21
1.7420492253
 31
0.0
 11
8.344951916
 21
1.7323103098
 31
0.0
 11
8.3616346726
 21
1.7217386254
 31
0.0
 11
8.3933439647
 21
1.6982050468
 31
0.0
 11
8.4082945254
 21
1.6853005005
 31
0.0
 11
8.4225927594
 21
1.6716768291
 31
0.0
 11
8.4491007546
 21
1.6424092084
 31
0.0
 11
8.4726118297
 21
1.6106831787
 31
0.0
 11
8.492901726
 21
1.5768054677
 31
0.0
 11
8.5097720492
 21
1.5411020748
 31
0.0
 11
8.5230639741
 21
1.503918318
 31
0.0
 11
8.532646183
 21
1.4656113486
 31
0.0
 11
8.5384312575
 21
1.426550511
 31
0.0
 11
8.5403595037
 21
1.3871106683
 31
0.0
 11
8.5384170237
 21
1.3476706701
 31
0.0
 11
8.5326181209
 21
1.3086092981
 31
0.0
 11
8.5230229515
 21
1.270302373
 31
0.0
 11
8.5097198621
 21
1.2331194138
 31
0.0
 11
8.4928408891
 21
1.1974174723
 31
0.0
 11
8.4725456655
 21
1.1635410957
 31
0.0
 11
8.4490330416
 21
1.1318152446
 31
0.0
 11
8.4225273649
 21
1.1025453107
 31
0.0
 11
8.4082316116
 21
1.0889190906
 31
0.0
 11
8.39328435
 21
1.0760108121
 31
0.0
 11
8.3615839621
 21
1.0524656127
 31
0.0
 11
8.3449066933
 21
1.0418858004
 31
0.0
 11
8.327730196
 21
1.0321369746
 31
0.0
 11
8.3100972283
 21
1.0232407428
 31
0.0
 11
8.2920509486
 21
1.0152181361
 31
0.0
 11
8.2548912351
 21
1.0018735145
 31
0.0
 11
8.2358645137
 21
0.9965817128
 31
0.0
 11
8.2165977849
 21
0.9922275727
 31
0.0
 11
8.1775288014
 21
0.9863766237
 31
0.0
 11
8.1381072803
 21
0.9843721198
 31
0.0
  0
LINE
  5
2B6
100
AcDbEntity
  8
0
100
AcDbLine
 62
6
  6
CONTINUOUS
 10
8.1381072803
 20
0.9843721198
 11
8.1377511527
 21
0.984371649
  0
LINE
  5
2B7
100
AcDbEntity
  8
0
100
AcDbLine
 62
6
  6
CONTINUOUS
 10
8.1377511527
 20
1.7873670641
 11
8.1381014827
 21
1.7873672198
  0
SPLINE
  5
2B8
100
AcDbEntity
  8
0
100
AcDbSpline
 62
6
  6
CONTINUOUS
 70
0
 71
3
 72
47
 73
43
 74
41
 42
0.0000001
 43
0.0000001
 44
0.0000000001
 12
1.256729514
 22
0.0000049137
 32
0.0
 13
-1.256727517
 23
-0.0022403836
 33
0.0
 40
0.0
 40
0.0
 40
0.0
 40
0.0
 40
0.0312352121
 40
0.0624961888
 40
0.0781269873
 40
0.0937548627
 40
0.124998802
 40
0.1406266402
 40
0.1562551027
 40
0.1718836785
 40
0.1875120828
 40
0.2187592641
 40
0.234387381
 40
0.2500155205
 40
0.2812629191
 40
0.3125110496
 40
0.3437602156
 40
0.3750093911
 40
0.4062584102
 40
0.4375064574
 40
0.4687538091
 40
0.5000005509
 40
0.5312473826
 40
0.5624948106
 40
0.593742104
 40
0.6249890904
 40
0.6562360334
 40
0.6874835388
 40
0.7031119088
 40
0.7187401808
 40
0.7499872828
 40
0.765615257
 40
0.7812431666
 40
0.8124902136
 40
0.8281189667
 40
0.8437482294
 40
0.8749968827
 40
0.9062424759
 40
0.921871147
 40
0.9375026787
 40
0.9687645642
 40
1.0
 40
1.0
 40
1.0
 40
1.0
 10
8.1381014827
 20
1.7873672198
 30
0.0
 10
8.1511862203
 20
1.7873672709
 30
0.0
 10
8.1773831837
 20
1.7860754064
 30
0.0
 10
8.2098112984
 20
1.7812677161
 30
0.0
 10
8.235373307
 20
1.7755220111
 30
0.0
 10
8.2606144575
 20
1.7685318542
 30
0.0
 10
8.2853113153
 20
1.7596893107
 30
0.0
 10
8.3092506587
 20
1.749067692
 30
0.0
 10
8.3267992406
 20
1.7402290528
 30
0.0
 10
8.3438936128
 20
1.7305404815
 30
0.0
 10
8.3660170125
 20
1.7165206816
 30
0.0
 10
8.3870825203
 20
1.7008858935
 30
0.0
 10
8.4069099907
 20
1.6837722824
 30
0.0
 10
8.4258724071
 20
1.6657034759
 30
0.0
 10
8.4478815586
 20
1.6414057859
 30
0.0
 10
8.4712983096
 20
1.6098038067
 30
0.0
 10
8.4915101551
 20
1.5760590145
 30
0.0
 10
8.5083127927
 20
1.5404937333
 30
0.0
 10
8.5215542521
 20
1.5034551455
 30
0.0
 10
8.5310965806
 20
1.4652966556
 30
0.0
 10
8.5368603678
 20
1.4263886658
 30
0.0
 10
8.538778106
 20
1.3871033903
 30
0.0
 10
8.5368448117
 20
1.3478188572
 30
0.0
 10
8.5310661183
 20
1.308913337
 30
0.0
 10
8.5215111099
 20
1.2707593604
 30
0.0
 10
8.5082597888
 20
1.2337262455
 30
0.0
 10
8.4914509583
 20
1.1981681941
 30
0.0
 10
8.4746016028
 20
1.1700461724
 30
0.0
 10
8.4595279715
 20
1.1486254042
 30
0.0
 10
8.4434208221
 20
1.1279717727
 30
0.0
 10
8.4258128535
 20
1.1085261656
 30
0.0
 10
8.4068545271
 20
1.0904544832
 30
0.0
 10
8.3870318593
 20
1.0733354054
 30
0.0
 10
8.3659732402
 20
1.0576919762
 30
0.0
 10
8.3438560664
 20
1.0436609092
 30
0.0
 10
8.3210754954
 20
1.0307314072
 30
0.0
 10
8.2914564673
 20
1.0166819121
 30
0.0
 10
8.2606030192
 20
1.0056028226
 30
0.0
 10
8.2353675798
 20
0.9985839161
 30
0.0
 10
8.2098118399
 20
0.9928069347
 30
0.0
 10
8.1773898599
 20
0.9879538746
 30
0.0
 10
8.151194883
 20
0.9866186958
 30
0.0
 10
8.1381100725
 20
0.9865953694
 30
0.0
 11
8.1381014827
 21
1.7873672198
 31
0.0
 11
8.1773082583
 21
1.7854379765
 31
0.0
 11
8.2161695752
 21
1.779673051
 31
0.0
 11
8.235335249
 21
1.7753659244
 31
0.0
 11
8.2542627644
 21
1.7701238596
 31
0.0
 11
8.2912295471
 21
1.7568871157
 31
0.0
 11
8.3091821497
 21
1.7489226757
 31
0.0
 11
8.3267234616
 21
1.7400874373
 31
0.0
 11
8.3438104692
 21
1.7304024577
 31
0.0
 11
8.3604005572
 21
1.7198893625
 31
0.0
 11
8.3919340352
 21
1.6964860688
 31
0.0
 11
8.406801828
 21
1.6836528799
 31
0.0
 11
8.4210209707
 21
1.6701044814
 31
0.0
 11
8.4473825072
 21
1.6409983785
 31
0.0
 11
8.4707638468
 21
1.609447134
 31
0.0
 11
8.490941919
 21
1.575755656
 31
0.0
 11
8.5077193149
 21
1.5402480481
 31
0.0
 11
8.5209378836
 21
1.5032679829
 31
0.0
 11
8.5304669127
 21
1.4651712973
 31
0.0
 11
8.5362193956
 21
1.4263254462
 31
0.0
 11
8.5381362714
 21
1.3871035571
 31
0.0
 11
8.5362039394
 21
1.3478823131
 31
0.0
 11
8.5304367205
 21
1.3090385501
 31
0.0
 11
8.5208950109
 21
1.270946015
 31
0.0
 11
8.507666872
 21
1.2339720852
 31
0.0
 11
8.4908828823
 21
1.1984706971
 31
0.0
 11
8.4707020737
 21
1.1647832909
 31
0.0
 11
8.4593987254
 21
1.1487212607
 31
0.0
 11
8.4473206568
 21
1.1332335262
 31
0.0
 11
8.4209627039
 21
1.1041246809
 31
0.0
 11
8.4067464471
 21
1.0905735555
 31
0.0
 11
8.3918824269
 21
1.0777363955
 31
0.0
 11
8.3603585589
 21
1.054320442
 31
0.0
 11
8.3437733834
 21
1.0437987805
 31
0.0
 11
8.326691488
 21
1.0341030382
 31
0.0
 11
8.2912083702
 21
1.0172754409
 31
0.0
 11
8.2542521765
 21
1.0040030115
 31
0.0
 11
8.2353295276
 21
0.998739674
 31
0.0
 11
8.2161682256
 21
0.994408958
 31
0.0
 11
8.1773138829
 21
0.9885894985
 31
0.0
 11
8.1381100725
 21
0.9865953694
 31
0.0
  0
LINE
  5
2B9
100
AcDbEntity
  8
0
100
AcDbLine
 62
6
  6
CONTINUOUS
 10
8.1381100725
 20
0.9865953694
 11
8.1377511527
 21
0.9865948911
  0
LINE
  5
2BA
100
AcDbEntity
  8
0
100
AcDbLine
 62
6
  6
CONTINUOUS
 10
8.1377511527
 20
1.7851438241
 11
8.1381031689
 21
1.7851439806
  0
SPLINE
  5
2BB
100
AcDbEntity
  8
0
100
AcDbSpline
 62
6
  6
CONTINUOUS
 70
0
 71
3
 72
47
 73
43
 74
41
 42
0.0000001
 43
0.0000001
 44
0.0000000001
 12
1.2497474429
 22
-0.000000443
 32
0.0
 13
-1.2497454453
 23
-0.0022344673
 33
0.0
 40
0.0
 40
0.0
 40
0.0
 40
0.0
 40
0.0312353419
 40
0.0624970298
 40
0.0781284162
 40
0.0937569461
 40
0.1250022609
 40
0.1562506041
 40
0.1718797139
 40
0.1875083224
 40
0.2187551431
 40
0.2343830002
 40
0.2500109517
 40
0.281258016
 40
0.2968862844
 40
0.3125146506
 40
0.3437621046
 40
0.3750089948
 40
0.4062559479
 40
0.4375032451
 40
0.4687506195
 40
0.4999973698
 40
0.5312441631
 40
0.5624918391
 40
0.5937402557
 40
0.6249895489
 40
0.6562389185
 40
0.6874882405
 40
0.7187364749
 40
0.7499839283
 40
0.7656120556
 40
0.7812401375
 40
0.8124872623
 40
0.8281156439
 40
0.8437442157
 40
0.8593726901
 40
0.8750005566
 40
0.9062446737
 40
0.9218726669
 40
0.9375035884
 40
0.9687647123
 40
1.0
 40
1.0
 40
1.0
 40
1.0
 10
8.1381031689
 20
1.7851439806
 30
0.0
 10
8.1511152651
 20
1.785143976
 30
0.0
 10
8.1771669995
 20
1.7838591016
 30
0.0
 10
8.2094156194
 20
1.7790778318
 30
0.0
 10
8.2348361606
 20
1.7733637574
 30
0.0
 10
8.2599388671
 20
1.7664114739
 30
0.0
 10
8.2906310636
 20
1.755422465
 30
0.0
 10
8.3200956709
 20
1.7414726364
 30
0.0
 10
8.3427570583
 20
1.7286284147
 30
0.0
 10
8.3647580572
 20
1.7146862254
 30
0.0
 10
8.3857055619
 20
1.6991376599
 30
0.0
 10
8.4054223701
 20
1.6821187838
 30
0.0
 10
8.424278579
 20
1.6641509091
 30
0.0
 10
8.4417905891
 20
1.644814888
 30
0.0
 10
8.4578079856
 20
1.6242757908
 30
0.0
 10
8.4727965211
 20
1.602973092
 30
0.0
 10
8.489548631
 20
1.5750050482
 30
0.0
 10
8.506255968
 20
1.5396406756
 30
0.0
 10
8.5194231727
 20
1.5028095118
 30
0.0
 10
8.5289119494
 20
1.4648641936
 30
0.0
 10
8.534644114
 20
1.426172714
 30
0.0
 10
8.5365513486
 20
1.387105701
 30
0.0
 10
8.534628842
 20
1.3480393331
 30
0.0
 10
8.5288826051
 20
1.3093493688
 30
0.0
 10
8.5193801414
 20
1.271405811
 30
0.0
 10
8.5062015889
 20
1.2345765186
 30
0.0
 10
8.4894841633
 20
1.1992124966
 30
0.0
 10
8.4693800952
 20
1.1656578076
 30
0.0
 10
8.4460921852
 20
1.1342323378
 30
0.0
 10
8.4242074946
 20
1.1100677866
 30
0.0
 10
8.4053537638
 20
1.092095898
 30
0.0
 10
8.3856408863
 20
1.0750723341
 30
0.0
 10
8.3646984801
 20
1.0595165907
 30
0.0
 10
8.3427050002
 20
1.0455637463
 30
0.0
 10
8.3257113489
 20
1.0359189442
 30
0.0
 10
8.3082663445
 20
1.027117384
 30
0.0
 10
8.2844682568
 20
1.0165360393
 30
0.0
 10
8.2599169274
 20
1.0077196666
 30
0.0
 10
8.2348235849
 20
1.0007405497
 30
0.0
 10
8.2094104633
 20
0.9949957507
 30
0.0
 10
8.1771693577
 20
0.9901696682
 30
0.0
 10
8.1511202688
 20
0.9888418729
 30
0.0
 10
8.1381082159
 20
0.9888186082
 30
0.0
 11
8.1381031689
 21
1.7851439806
 31
0.0
 11
8.1770922729
 21
1.7832252304
 31
0.0
 11
8.2157385327
 21
1.7774919835
 31
0.0
 11
8.2347984087
 21
1.7732084686
 31
0.0
 11
8.2536214963
 21
1.767995094
 31
0.0
 11
8.2903843521
 21
1.7548308439
 31
0.0
 11
8.3256822442
 21
1.738122778
 31
0.0
 11
8.3426747435
 21
1.7284909983
 31
0.0
 11
8.3591728066
 21
1.718036064
 31
0.0
 11
8.3905300788
 21
1.6947621835
 31
0.0
 11
8.4053147414
 21
1.6820001771
 31
0.0
 11
8.4194544563
 21
1.6685269395
 31
0.0
 11
8.4456685067
 21
1.6395821753
 31
0.0
 11
8.4576793224
 21
1.6241803753
 31
0.0
 11
8.4689188726
 21
1.6082068842
 31
0.0
 11
8.4889830874
 21
1.5747040316
 31
0.0
 11
8.5056659429
 21
1.5393962257
 31
0.0
 11
8.5188100501
 21
1.5026239888
 31
0.0
 11
8.5282858406
 21
1.4647398504
 31
0.0
 11
8.5340066544
 21
1.4261098314
 31
0.0
 11
8.5359130635
 21
1.3871058473
 31
0.0
 11
8.5339916035
 21
1.3481025481
 31
0.0
 11
8.5282566614
 21
1.3094742429
 31
0.0
 11
8.518767598
 21
1.2715919847
 31
0.0
 11
8.5056118101
 21
1.2348208191
 31
0.0
 11
8.4889196754
 21
1.1995139716
 31
0.0
 11
8.4688491272
 21
1.1660121912
 31
0.0
 11
8.4455965334
 21
1.1346369317
 31
0.0
 11
8.4193839555
 21
1.1056901781
 31
0.0
 11
8.4052463285
 21
1.0922144313
 31
0.0
 11
8.3904644759
 21
1.0794487404
 31
0.0
 11
8.3591150634
 21
1.0561636367
 31
0.0
 11
8.34262241
 21
1.0457006998
 31
0.0
 11
8.3256360554
 21
1.0360594497
 31
0.0
 11
8.3081982488
 21
1.0272612628
 31
0.0
 11
8.2903515912
 21
1.0193270125
 31
0.0
 11
8.253602374
 21
1.0061291644
 31
0.0
 11
8.2347856503
 21
1.0008953694
 31
0.0
 11
8.2157315479
 21
0.9965888806
 31
0.0
 11
8.1770940284
 21
0.9908017793
 31
0.0
 11
8.1381082159
 21
0.9888186082
 31
0.0
  0
LINE
  5
2BC
100
AcDbEntity
  8
0
100
AcDbLine
 62
6
  6
CONTINUOUS
 10
8.1381082159
 20
0.9888186082
 11
8.1377511527
 21
0.9888181305
  0
LINE
  5
2BD
100
AcDbEntity
  8
0
100
AcDbLine
 62
6
  6
CONTINUOUS
 10
8.1377511527
 20
1.7829205817
 11
8.1381044154
 21
1.7829207392
  0
SPLINE
  5
2BE
100
AcDbEntity
  8
0
100
AcDbSpline
 62
6
  6
CONTINUOUS
 70
0
 71
3
 72
46
 73
42
 74
40
 42
0.0000001
 43
0.0000001
 44
0.0000000001
 12
1.2427536939
 22
-0.0000043962
 32
0.0
 13
-1.2427516939
 23
-0.0022296266
 33
0.0
 40
0.0
 40
0.0
 40
0.0
 40
0.0
 40
0.0312357257
 40
0.0624982407
 40
0.0781302316
 40
0.0937594258
 40
0.1250061326
 40
0.1562561237
 40
0.1875064169
 40
0.2187551509
 40
0.2500025906
 40
0.2656309132
 40
0.2812592361
 40
0.2968875276
 40
0.3125159387
 40
0.3437636747
 40
0.375010875
 40
0.4062580866
 40
0.4375055202
 40
0.468753226
 40
0.5000004355
 40
0.5312473695
 40
0.5624942885
 40
0.5937415621
 40
0.6249896628
 40
0.6562381091
 40
0.6874868464
 40
0.7187348383
 40
0.7499823478
 40
0.7656106288
 40
0.7812389493
 40
0.8124867812
 40
0.828115608
 40
0.8437446586
 40
0.8593735773
 40
0.8750017602
 40
0.9062457089
 40
0.9218732916
 40
0.9375037766
 40
0.9687645119
 40
1.0
 40
1.0
 40
1.0
 40
1.0
 10
8.1381044154
 20
1.7829207392
 30
0.0
 10
8.1510438532
 20
1.7829206934
 30
0.0
 10
8.1769502991
 20
1.7816428545
 30
0.0
 10
8.2090191613
 20
1.7768881139
 30
0.0
 10
8.2342982904
 20
1.771205628
 30
0.0
 10
8.2592613711
 20
1.7642917982
 30
0.0
 10
8.289784245
 20
1.7533627973
 30
0.0
 10
8.3249391507
 20
1.7367193464
 30
0.0
 10
8.3582987896
 20
1.7167128562
 30
0.0
 10
8.3895297844
 20
1.6935291266
 30
0.0
 10
8.413543489
 20
1.6717485336
 30
0.0
 10
8.4313941043
 20
1.6529811457
 30
0.0
 10
8.4440798582
 20
1.6382636896
 30
0.0
 10
8.4560285248
 20
1.6229416195
 30
0.0
 10
8.4709323623
 20
1.6017581055
 30
0.0
 10
8.4875896322
 20
1.5739452898
 30
0.0
 10
8.5042032239
 20
1.5387784152
 30
0.0
 10
8.5172951213
 20
1.5021524383
 30
0.0
 10
8.5267303143
 20
1.4644190582
 30
0.0
 10
8.5324289556
 20
1.4259434749
 30
0.0
 10
8.5343244703
 20
1.3870946697
 30
0.0
 10
8.5324117816
 20
1.3482470251
 30
0.0
 10
8.5266967005
 20
1.3097744681
 30
0.0
 10
8.5172470048
 20
1.2720446765
 30
0.0
 10
8.5041418732
 20
1.2354230465
 30
0.0
 10
8.4875181557
 20
1.2002580996
 30
0.0
 10
8.4675265677
 20
1.1668920513
 30
0.0
 10
8.4443690543
 20
1.1356427921
 30
0.0
 10
8.4226066961
 20
1.1116136101
 30
0.0
 10
8.4038582949
 20
1.0937422149
 30
0.0
 10
8.3842553526
 20
1.0768136577
 30
0.0
 10
8.3634295827
 20
1.0613447565
 30
0.0
 10
8.3415586163
 20
1.0474696229
 30
0.0
 10
8.3246594953
 20
1.0378786415
 30
0.0
 10
8.3073115644
 20
1.0291262885
 30
0.0
 10
8.2836463807
 20
1.0186041816
 30
0.0
 10
8.25923261
 20
1.0098370033
 30
0.0
 10
8.2342800583
 20
1.0028971868
 30
0.0
 10
8.209009641
 20
0.997184708
 30
0.0
 10
8.1769492399
 20
0.9923855532
 30
0.0
 10
8.15104601
 20
0.9910650642
 30
0.0
 10
8.1381066914
 20
0.9910418497
 30
0.0
 11
8.1381044154
 21
1.7829207392
 31
0.0
 11
8.1768757999
 21
1.7810125455
 31
0.0
 11
8.2153067808
 21
1.7753110545
 31
0.0
 11
8.2342606981
 21
1.771051213
 31
0.0
 11
8.2529791966
 21
1.7658666183
 31
0.0
 11
8.2895378345
 21
1.7527751273
 31
0.0
 11
8.324639698
 21
1.7361589505
 31
0.0
 11
8.3579446962
 21
1.7161828547
 31
0.0
 11
8.3891276335
 21
1.6930367702
 31
0.0
 11
8.4178906547
 21
1.6669469161
 31
0.0
 11
8.4312767424
 21
1.6528745038
 31
0.0
 11
8.4439570149
 21
1.6381629154
 31
0.0
 11
8.4559002966
 21
1.6228470201
 31
0.0
 11
8.4670765765
 21
1.6069625884
 31
0.0
 11
8.4870274218
 21
1.5736461623
 31
0.0
 11
8.5036162834
 21
1.5385352176
 31
0.0
 11
8.5166856347
 21
1.5019679928
 31
0.0
 11
8.5261075314
 21
1.4642954677
 31
0.0
 11
8.5317951228
 21
1.425881032
 31
0.0
 11
8.5336897714
 21
1.3870946947
 31
0.0
 11
8.5317780515
 21
1.3483095377
 31
0.0
 11
8.5260743119
 21
1.309898485
 31
0.0
 11
8.5166378955
 21
1.2722297991
 31
0.0
 11
8.503555534
 21
1.2356660534
 31
0.0
 11
8.486956894
 21
1.2005580175
 31
0.0
 11
8.4669987038
 21
1.1672445402
 31
0.0
 11
8.4438762463
 21
1.1360452272
 31
0.0
 11
8.4178101728
 21
1.1072605362
 31
0.0
 11
8.4037514865
 21
1.0938601087
 31
0.0
 11
8.3890520985
 21
1.0811656996
 31
0.0
 11
8.3578773271
 21
1.058010498
 31
0.0
 11
8.3414764846
 21
1.0476058435
 31
0.0
 11
8.3245846055
 21
1.0380183676
 31
0.0
 11
8.3072438094
 21
1.0292693277
 31
0.0
 11
8.2894966269
 21
1.021379404
 31
0.0
 11
8.2529532801
 21
1.0082554276
 31
0.0
 11
8.2342423304
 21
1.0030511242
 31
0.0
 11
8.2152953775
 21
0.9987688935
 31
0.0
 11
8.1768745725
 21
0.9930141409
 31
0.0
 11
8.1381066914
 21
0.9910418497
 31
0.0
  0
LINE
  5
2BF
100
AcDbEntity
  8
0
100
AcDbLine
 62
6
  6
CONTINUOUS
 10
8.1381066914
 20
0.9910418497
 11
8.1377511527
 21
0.9910413721
  0
LINE
  5
2C0
100
AcDbEntity
  8
0
100
AcDbLine
 62
6
  6
CONTINUOUS
 10
8.1377511527
 20
1.7806973407
 11
8.1381014103
 21
1.780697499
  0
SPLINE
  5
2C1
100
AcDbEntity
  8
0
100
AcDbSpline
 62
6
  6
CONTINUOUS
 70
0
 71
3
 72
48
 73
44
 74
42
 42
0.0000001
 43
0.0000001
 44
0.0000000001
 12
1.2357979063
 22
0.0000051181
 32
0.0
 13
-1.2357958952
 23
-0.0022294555
 33
0.0
 40
0.0
 40
0.0
 40
0.0
 40
0.0
 40
0.0312349673
 40
0.0624955787
 40
0.0781260924
 40
0.0937536683
 40
0.1249972053
 40
0.1406249979
 40
0.1562534855
 40
0.1718821291
 40
0.187510618
 40
0.2187578828
 40
0.2343859145
 40
0.2500138325
 40
0.2812604071
 40
0.312507275
 40
0.3437551055
 40
0.3750035031
 40
0.4062524409
 40
0.4375010985
 40
0.4687492159
 40
0.4999962789
 40
0.5312430421
 40
0.5624902026
 40
0.5937372101
 40
0.6249840034
 40
0.6562309076
 40
0.6874784744
 40
0.7031068321
 40
0.7187350148
 40
0.7499819773
 40
0.7656100796
 40
0.7812383115
 40
0.8124862177
 40
0.8281152566
 40
0.8437446312
 40
0.8593739022
 40
0.8750024015
 40
0.9062467762
 40
0.9218744581
 40
0.9375049182
 40
0.9687651774
 40
1.0
 40
1.0
 40
1.0
 40
1.0
 10
8.1381014103
 20
1.780697499
 30
0.0
 10
8.1509681127
 20
1.7806975523
 30
0.0
 10
8.1767284975
 20
1.779427176
 30
0.0
 10
8.2086161294
 20
1.7746995725
 30
0.0
 10
8.2337519988
 20
1.7690496231
 30
0.0
 10
8.2585723367
 20
1.7621759449
 30
0.0
 10
8.2828575056
 20
1.7534806191
 30
0.0
 10
8.3063979147
 20
1.7430358694
 30
0.0
 10
8.3236541962
 20
1.7343443641
 30
0.0
 10
8.3404638694
 20
1.7248170451
 30
0.0
 10
8.3622187679
 20
1.7110305337
 30
0.0
 10
8.3829332734
 20
1.6956559027
 30
0.0
 10
8.4024303084
 20
1.6788272442
 30
0.0
 10
8.4210764114
 20
1.661059551
 30
0.0
 10
8.4427180427
 20
1.637166986
 30
0.0
 10
8.465743784
 20
1.6060923945
 30
0.0
 10
8.4856181479
 20
1.5729107524
 30
0.0
 10
8.5021402408
 20
1.5379385242
 30
0.0
 10
8.5151613147
 20
1.5015169958
 30
0.0
 10
8.5245443398
 20
1.4639934114
 30
0.0
 10
8.5302122717
 20
1.4257327784
 30
0.0
 10
8.5320977099
 20
1.3871013739
 30
0.0
 10
8.5301962961
 20
1.3484711742
 30
0.0
 10
8.5245135358
 20
1.3102139565
 30
0.0
 10
8.5151174996
 20
1.2726958192
 30
0.0
 10
8.5020866757
 20
1.2362798195
 30
0.0
 10
8.4855576838
 20
1.2013141417
 30
0.0
 10
8.4689886814
 20
1.1736606753
 30
0.0
 10
8.4541660778
 20
1.1525967317
 30
0.0
 10
8.4383272968
 20
1.1322871479
 30
0.0
 10
8.4210124441
 20
1.1131656168
 30
0.0
 10
8.4023697497
 20
1.0953948753
 30
0.0
 10
8.3828767416
 20
1.0785607111
 30
0.0
 10
8.3621680535
 20
1.0631776534
 30
0.0
 10
8.3404193308
 20
1.0493799451
 30
0.0
 10
8.3236145999
 20
1.0398422622
 30
0.0
 10
8.3063635818
 20
1.0311383562
 30
0.0
 10
8.2828306451
 20
1.0206744944
 30
0.0
 10
8.2585532468
 20
1.0119560987
 30
0.0
 10
8.233740226
 20
1.0050548318
 30
0.0
 10
8.2086114648
 20
0.9993741222
 30
0.0
 10
8.1767310296
 20
0.9946015869
 30
0.0
 10
8.1509732637
 20
0.9932883067
 30
0.0
 10
8.1381066419
 20
0.9932650945
 30
0.0
 11
8.1381014103
 21
1.780697499
 31
0.0
 11
8.1766548688
 21
1.7788003659
 31
0.0
 11
8.2148684719
 21
1.7731314716
 31
0.0
 11
8.2337145803
 21
1.7688961342
 31
0.0
 11
8.2523264766
 21
1.7637414314
 31
0.0
 11
8.2886770189
 21
1.7507251321
 31
0.0
 11
8.3063305208
 21
1.7428932832
 31
0.0
 11
8.323579662
 21
1.7342051135
 31
0.0
 11
8.3403820988
 21
1.7246813155
 31
0.0
 11
8.3566958785
 21
1.7143431427
 31
0.0
 11
8.387704009
 21
1.6913292864
 31
0.0
 11
8.4023239875
 21
1.6787097925
 31
0.0
 11
8.4163059872
 21
1.6653871179
 31
0.0
 11
8.4422274704
 21
1.6367662764
 31
0.0
 11
8.4652182654
 21
1.6057416539
 31
0.0
 11
8.4850592577
 21
1.5726126523
 31
0.0
 11
8.5015566282
 21
1.5376972313
 31
0.0
 11
8.5145550088
 21
1.5013331898
 31
0.0
 11
8.5239252235
 21
1.4638702248
 31
0.0
 11
8.5295819121
 21
1.4256704213
 31
0.0
 11
8.5314665727
 21
1.3871013854
 31
0.0
 11
8.5295660878
 21
1.348533497
 31
0.0
 11
8.5238946425
 21
1.3103370772
 31
0.0
 11
8.5145116718
 21
1.2728794072
 31
0.0
 11
8.5015036826
 21
1.2365216164
 31
0.0
 11
8.484999058
 21
1.2016116653
 31
0.0
 11
8.4651540888
 21
1.1684854256
 31
0.0
 11
8.4540389753
 21
1.1526909577
 31
0.0
 11
8.4421621392
 21
1.1374612705
 31
0.0
 11
8.4162431573
 21
1.108837517
 31
0.0
 11
8.4022635209
 21
1.0955120326
 31
0.0
 11
8.3876466888
 21
1.0828885159
 31
0.0
 11
8.3566468859
 21
1.0598621142
 31
0.0
 11
8.340337712
 21
1.0495154081
 31
0.0
 11
8.3235401475
 21
1.039981189
 31
0.0
 11
8.3062961867
 21
1.0312805927
 31
0.0
 11
8.2886481234
 21
1.0234343462
 31
0.0
 11
8.2523089512
 21
1.0103832743
 31
0.0
 11
8.2337026578
 21
1.0052078952
 31
0.0
 11
8.2148618229
 21
1.0009494604
 31
0.0
 11
8.1766566973
 21
0.9952266481
 31
0.0
 11
8.1381066419
 21
0.9932650945
 31
0.0
  0
LINE
  5
2C2
100
AcDbEntity
  8
0
100
AcDbLine
 62
6
  6
CONTINUOUS
 10
8.1381066419
 20
0.9932650945
 11
8.1377511527
 21
0.9932646143
  0
LINE
  5
2C3
100
AcDbEntity
  8
0
100
AcDbLine
 62
6
  6
CONTINUOUS
 10
8.1377511527
 20
1.7784741009
 11
8.1380994284
 21
1.7784742601
  0
SPLINE
  5
2C4
100
AcDbEntity
  8
0
100
AcDbSpline
 62
6
  6
CONTINUOUS
 70
0
 71
3
 72
47
 73
43
 74
41
 42
0.0000001
 43
0.0000001
 44
0.0000000001
 12
1.2288034617
 22
0.0000115343
 32
0.0
 13
-1.2288014243
 23
-0.002237674
 33
0.0
 40
0.0
 40
0.0
 40
0.0
 40
0.0
 40
0.031234843
 40
0.0624953546
 40
0.0781262672
 40
0.093754549
 40
0.1249999897
 40
0.140628848
 40
0.1562583884
 40
0.1718879692
 40
0.1875171576
 40
0.2187651895
 40
0.234393436
 40
0.2500214939
 40
0.2812681319
 40
0.2968960168
 40
0.312523967
 40
0.3437707314
 40
0.3750174988
 40
0.4062646882
 40
0.4375121097
 40
0.4687594645
 40
0.5000061822
 40
0.5312529656
 40
0.5625005744
 40
0.5937484245
 40
0.6249963188
 40
0.656243504
 40
0.6874902405
 40
0.7031180898
 40
0.718745905
 40
0.7343738481
 40
0.7500018704
 40
0.7812488482
 40
0.8124971749
 40
0.8437469788
 40
0.8749964664
 40
0.9062426308
 40
0.9218714698
 40
0.9375030479
 40
0.9687647231
 40
1.0
 40
1.0
 40
1.0
 40
1.0
 10
8.1380994284
 20
1.7784742601
 30
0.0
 10
8.1508932561
 20
1.7784743802
 30
0.0
 10
8.176507766
 20
1.7772115247
 30
0.0
 10
8.2082150038
 20
1.772510705
 30
0.0
 10
8.2332090203
 20
1.7668927002
 30
0.0
 10
8.257890107
 20
1.7600577545
 30
0.0
 10
8.2820393189
 20
1.7514113017
 30
0.0
 10
8.3054478853
 20
1.7410247336
 30
0.0
 10
8.3226075084
 20
1.7323816437
 30
0.0
 10
8.3393229658
 20
1.7229076606
 30
0.0
 10
8.3609556876
 20
1.7091988081
 30
0.0
 10
8.3815530046
 20
1.693910198
 30
0.0
 10
8.4009399788
 20
1.6771761923
 30
0.0
 10
8.4194802777
 20
1.6595094759
 30
0.0
 10
8.4366984904
 20
1.6404975967
 30
0.0
 10
8.4524471283
 20
1.6203030886
 30
0.0
 10
8.4671841987
 20
1.5993579437
 30
0.0
 10
8.4836553781
 20
1.5718590722
 30
0.0
 10
8.5000825666
 20
1.5370875483
 30
0.0
 10
8.5130293923
 20
1.5008736245
 30
0.0
 10
8.5223592933
 20
1.4635641013
 30
0.0
 10
8.5279955144
 20
1.4255210269
 30
0.0
 10
8.529870957
 20
1.3871087534
 30
0.0
 10
8.527980834
 20
1.3486971267
 30
0.0
 10
8.5223311533
 20
1.310655755
 30
0.0
 10
8.5129884621
 20
1.2733489113
 30
0.0
 10
8.5000317612
 20
1.2371378987
 30
0.0
 10
8.483596878
 20
1.2023697199
 30
0.0
 10
8.467122495
 20
1.1748724272
 30
0.0
 10
8.4523848294
 20
1.1539285493
 30
0.0
 10
8.4405704358
 20
1.1387791195
 30
0.0
 10
8.4280280092
 20
1.1242267236
 30
0.0
 10
8.4103801235
 20
1.1056684484
 30
0.0
 10
8.3866411604
 20
1.0841275944
 30
0.0
 10
8.355769778
 20
1.06119322
 30
0.0
 10
8.3227961913
 20
1.0413935763
 30
0.0
 10
8.2880487584
 20
1.0249118718
 30
0.0
 10
8.2578795589
 20
1.0140772
 30
0.0
 10
8.2332048852
 20
1.0072136334
 30
0.0
 10
8.2082171646
 20
1.0015642363
 30
0.0
 10
8.1765159465
 20
0.9968179875
 30
0.0
 10
8.1509032477
 20
0.9955116396
 30
0.0
 10
8.1381092634
 20
0.9954883415
 30
0.0
 11
8.1380994284
 21
1.7784742601
 31
0.0
 11
8.1764345428
 21
1.7765881912
 31
0.0
 11
8.2144317608
 21
1.7709515338
 31
0.0
 11
8.233171694
 21
1.7667401178
 31
0.0
 11
8.2516791158
 21
1.7616144679
 31
0.0
 11
8.2878261599
 21
1.748671158
 31
0.0
 11
8.3053808692
 21
1.7408829401
 31
0.0
 11
8.3225334454
 21
1.7322431783
 31
0.0
 11
8.3392417581
 21
1.7227726689
 31
0.0
 11
8.3554639464
 21
1.7124925744
 31
0.0
 11
8.3862969315
 21
1.6896078718
 31
0.0
 11
8.4008342392
 21
1.6770594869
 31
0.0
 11
8.4147371213
 21
1.663811987
 31
0.0
 11
8.4405114164
 21
1.6353525992
 31
0.0
 11
8.4523206441
 21
1.620209272
 31
0.0
 11
8.4633715829
 21
1.604503921
 31
0.0
 11
8.4830991866
 21
1.5715632982
 31
0.0
 11
8.4995024236
 21
1.5368473498
 31
0.0
 11
8.5124265307
 21
1.5006911535
 31
0.0
 11
8.5217436887
 21
1.4634417838
 31
0.0
 11
8.5273687482
 21
1.4254591906
 31
0.0
 11
8.5292433676
 21
1.3871089054
 31
0.0
 11
8.5273542824
 21
1.3487592494
 31
0.0
 11
8.5217156831
 21
1.3107783482
 31
0.0
 11
8.512386121
 21
1.2735315403
 31
0.0
 11
8.4994519224
 21
1.2373780329
 31
0.0
 11
8.4830412189
 21
1.2026650455
 31
0.0
 11
8.463309859
 21
1.1697267126
 31
0.0
 11
8.4522582315
 21
1.1540219978
 31
0.0
 11
8.4404491379
 21
1.1388786747
 31
0.0
 11
8.42791214
 21
1.1243320377
 31
0.0
 11
8.4146780936
 21
1.1104164091
 31
0.0
 11
8.3862440127
 21
1.0846135768
 31
0.0
 11
8.355420053
 21
1.0617161118
 31
0.0
 11
8.3225002983
 21
1.0419464494
 31
0.0
 11
8.287805158
 21
1.0254914443
 31
0.0
 11
8.2516698343
 21
1.0125128181
 31
0.0
 11
8.2331676085
 21
1.0073658885
 31
0.0
 11
8.2144321654
 21
1.0031308313
 31
0.0
 11
8.1764416548
 21
0.9974394835
 31
0.0
 11
8.1381092634
 21
0.9954883415
 31
0.0
  0
LINE
  5
2C5
100
AcDbEntity
  8
0
100
AcDbLine
 62
6
  6
CONTINUOUS
 10
8.1381092634
 20
0.9954883415
 11
8.1377511527
 21
0.9954878538
  0
LINE
  5
2C6
100
AcDbEntity
  8
0
100
AcDbLine
 62
6
  6
CONTINUOUS
 10
8.1377511527
 20
1.7762508586
 11
8.1380999992
 21
1.7762510187
  0
LINE
  5
2C7
100
AcDbEntity
  8
0
100
AcDbLine
 62
6
  6
CONTINUOUS
 10
8.1381079884
 20
0.9977115834
 11
8.1377511527
 21
0.9977110952
  0
LINE
  5
2C8
100
AcDbEntity
  8
0
100
AcDbLine
 62
6
  6
CONTINUOUS
 10
8.138110975
 20
0.9999348339
 11
8.1377511527
 21
0.9999343375
  0
ENDSEC
  0
SECTION
  2
OBJECTS
  0
DICTIONARY
  5
C
100
AcDbDictionary
280
0
281
1
  3
ACAD_GROUP
350
D
  3
ACAD_MLINESTYLE
350
17
  3
ACAD_LAYOUT
350
1A
  3
ACAD_PLOTSETTINGS
350
19
  3
ACAD_PLOTSTYLENAME
350
E
  0
DICTIONARY
  5
D
102
{ACAD_REACTORS
330
C
102
}
100
AcDbDictionary
280
0
281
1
  0
ACDBDICTIONARYWDFLT
  5
E
102
{ACAD_REACTORS
330
C
102
}
100
AcDbDictionary
281
1
  3
Normal
350
F
100
AcDbDictionaryWithDefault
340
F
  0
DICTIONARY
  5
17
102
{ACAD_REACTORS
330
C
102
}
100
AcDbDictionary
280
0
281
1
  3
Standard
350
18
  0
DICTIONARY
  5
19
102
{ACAD_REACTORS
330
C
102
}
100
AcDbDictionary
281
1
  0
DICTIONARY
  5
1A
102
{ACAD_REACTORS
330
C
102
}
100
AcDbDictionary
281
1
  3
Model
350
2C9
  3
Layout1
350
2CA
  0
ACDBPLACEHOLDER
  5
F
102
{ACAD_REACTORS
330
E
102
}
  0
MLINESTYLE
  5
18
102
{ACAD_REACTORS
330
17
102
}
100
AcDbMlineStyle
  2
STANDARD
 70
0
  3

 62
256
 51
90.0
 52
90.0
 71
2
 49
0.5
 62
256
  6
BYLAYER
 49
-0.5
 62
256
  6
BYLAYER
  0
LAYOUT
  5
2C9
102
{ACAD_REACTORS
330
1A
102
}
100
AcDbPlotSettings
  1

  2
none_device
  4

  6

 40
0.0
 41
0.0
 42
0.0
 43
0.0
 44
431.8
 45
558.8
 46
0.0
 47
0.0
 48
0.0
 49
0.0
140
0.0
141
0.0
142
1.0
143
1.0
 70
1024
 72
0
 73
0
 74
0
  7

 75
0
147
1.0
148
0.0
149
0.0
100
AcDbLayout
  1
Model
 70
0
 71
0
 10
0.0
 20
0.0
 11
17.0
 21
22.0
 12
0.0
 22
0.0
 32
0.0
 14
0.0
 24
0.0
 34
0.0
 15
0.0
 25
0.0
 35
0.0
146
0.0
 13
0.0
 23
0.0
 33
0.0
 16
1.0
 26
0.0
 36
0.0
 17
0.0
 27
1.0
 37
0.0
 76
0
330
203
345
0
346
0
  0
LAYOUT
  5
2CA
102
{ACAD_REACTORS
330
1A
102
}
100
AcDbPlotSettings
  1

  2
none_device
  4

  6

 40
0.0
 41
0.0
 42
0.0
 43
0.0
 44
431.8
 45
558.8
 46
0.0
 47
0.0
 48
0.0
 49
0.0
140
0.0
141
0.0
142
1.0
143
1.0
 70
0
 72
0
 73
0
 74
0
  7

 75
0
147
1.0
148
0.0
149
0.0
100
AcDbLayout
  1
Layout1
 70
0
 71
1
 10
0.0
 20
0.0
 11
17.0
 21
22.0
 12
0.0
 22
0.0
 32
0.0
 14
0.0
 24
0.0
 34
0.0
 15
0.0
 25
0.0
 35
0.0
146
0.0
 13
0.0
 23
0.0
 33
0.0
 16
1.0
 26
0.0
 36
0.0
 17
0.0
 27
1.0
 37
0.0
 76
0
330
204
345
0
346
0
  0
ENDSEC
  0
EOF
