999
DXF file: C:\Prowork\plots\482-1_front.dxf
999
Pro/ENGINEER 2018500 by Parametric Technology Corporation
  0
SECTION
  2
HEADER
  9
$ACADVER
  1
AC1032
  9
$DWGCODEPAGE
  3
ANSI_1252
  9
$EXTMAX
 10
8.5
 20
11.0
 30
0.0
  9
$EXTMIN
 10
0.0
 20
0.0
 30
0.0
  9
$LIMMIN
 10
0.0
 20
0.0
  9
$LIMMAX
 10
8.5
 20
11.0
  9
$VIEWCTR
 10
4.25
 20
5.5
  9
$VIEWSIZE
 40
11.0
  9
$CLAYER
  8
0
  9
$LTSCALE
 40
0.717037037
  9
$CELTYPE
  6
BYLAYER
  9
$DIMSCALE
 40
1.0
  9
$DIMASZ
 40
0.1
  9
$DIMEXO
 40
0.0625
  9
$DIMDLI
 40
0.4954074074
  9
$DIMEXE
 40
0.125
  9
$DIMCEN
 40
0.1173333333
  9
$DIMLFAC
 40
1.0
  9
$DIMBLK
  1
_FILLED
  9
$DIMALT
 70
1
  9
$DIMALTD
 70
2
  9
$DIMALTTD
 70
2
  9
$DIMALTF
 40
25.4
  9
$DIMTXT
 40
0.08
  9
$DIMTOL
 70
1
  9
$DIMLIM
 70
0
  9
$DIMTFAC
 40
1.0
  9
$DIMTP
 40
0.001
  9
$DIMTM
 40
0.001
  9
$DIMGAP
 40
0.09
  9
$DIMDSEP
 70
46
  9
$AUNITS
 70
0
  9
$PDMODE
 70
3
  9
$PDSIZE
 40
0.06
  9
$HANDSEED
  5
2A8
  9
$TILEMODE
 70
1
  9
$MEASUREMENT
 70
0
  9
$INSUNITS
 70
1
  0
ENDSEC
  0
SECTION
  2
CLASSES
  0
CLASS
  1
ACDBDICTIONARYWDFLT
  2
AcDbDictionaryWithDefault
  3
AutoCAD 2000
 90
0
 91
1
280
0
281
0
  0
CLASS
  1
ACDBPLACEHOLDER
  2
AcDbPlaceHolder
  3
AutoCAD 2000
 90
0
 91
1
280
0
281
0
  0
CLASS
  1
LAYOUT
  2
AcDbLayout
  3
AutoCAD 2000
 90
0
 91
0
280
0
281
0
  0
ENDSEC
  0
SECTION
  2
TABLES
  0
TABLE
  2
VPORT
  5
8
100
AcDbSymbolTable
 70
2
  0
VPORT
  5
1F4
100
AcDbSymbolTableRecord
100
AcDbViewportTableRecord
  2
*ACTIVE
 70
0
 10
0.0
 20
0.0
 11
1.0
 21
1.0
 12
4.25
 22
5.5
 13
0.0
 23
0.0
 14
1.0
 24
1.0
 15
0.0
 25
0.0
 16
0.0
 26
0.0
 36
1.0
 17
0.0
 27
0.0
 37
0.0
 40
11.0
 41
0.7727272727
 42
50.0
 43
0.0
 44
0.0
 50
0.0
 51
0.0
 71
0
 72
100
 73
1
 74
1
 75
0
 76
0
 77
0
 78
0
  0
ENDTAB
  0
TABLE
  2
LTYPE
  5
5
100
AcDbSymbolTable
 70
6
  0
LTYPE
  5
14
100
AcDbSymbolTableRecord
100
AcDbLinetypeTableRecord
  2
BYBLOCK
 70
0
  3

 72
65
 73
0
 40
0.0
  0
LTYPE
  5
15
100
AcDbSymbolTableRecord
100
AcDbLinetypeTableRecord
  2
BYLAYER
 70
0
  3

 72
65
 73
0
 40
0.0
  0
LTYPE
  5
16
100
AcDbSymbolTableRecord
100
AcDbLinetypeTableRecord
  2
CONTINUOUS
 70
64
  3
Solid line
 72
65
 73
0
 40
0.0
  0
LTYPE
  5
1F5
100
AcDbSymbolTableRecord
100
AcDbLinetypeTableRecord
  2
CENTER
 70
64
  3
____ _ ____ _ ____ _ ____ _ ____ _ ____ _ ____
 72
65
 73
4
 40
0.6
 49
0.375
 74
0
 49
-0.075
 74
0
 49
0.075
 74
0
 49
-0.075
 74
0
  0
LTYPE
  5
1F6
100
AcDbSymbolTableRecord
100
AcDbLinetypeTableRecord
  2
HIDDEN
 70
64
  3
- - - - - - - - - - - - - - - - - - - -
 72
65
 73
2
 40
0.2
 49
0.1
 74
0
 49
-0.1
 74
0
  0
LTYPE
  5
1F7
100
AcDbSymbolTableRecord
100
AcDbLinetypeTableRecord
  2
PHANTOM
 70
64
  3
_____ _ _ _____ _ _ _____ _ _ _____
 72
65
 73
6
 40
0.8
 49
0.45
 74
0
 49
-0.05
 74
0
 49
0.1
 74
0
 49
-0.05
 74
0
 49
0.1
 74
0
 49
-0.05
 74
0
  0
LTYPE
  5
1F8
100
AcDbSymbolTableRecord
100
AcDbLinetypeTableRecord
  2
DOT
 70
64
  3
. . . . . . . . . . . . . . . . . . . .
 72
65
 73
2
 40
0.2
 49
0.1
 74
0
 49
-0.1
 74
0
  0
LTYPE
  5
1F9
100
AcDbSymbolTableRecord
100
AcDbLinetypeTableRecord
  2
DASHED
 70
64
  3
- - - - - - - - - - - - - - - - - - - -
 72
65
 73
2
 40
0.2
 49
0.1
 74
0
 49
-0.1
 74
0
  0
ENDTAB
  0
TABLE
  2
LAYER
  5
2
100
AcDbSymbolTable
 70
36
  0
LAYER
  5
10
100
AcDbSymbolTableRecord
100
AcDbLayerTableRecord
  2
0
 70
0
 62
7
  6
CONTINUOUS
370
-3
390
F
  0
LAYER
  5
1FA
100
AcDbSymbolTableRecord
100
AcDbLayerTableRecord
  2
DEFAULT_1
 70
0
 62
7
  6
CENTER
370
-3
390
F
  0
LAYER
  5
1FB
100
AcDbSymbolTableRecord
100
AcDbLayerTableRecord
  2
DEFAULT_2
 70
0
 62
8
  6
HIDDEN
370
-3
390
F
  0
LAYER
  5
1FC
100
AcDbSymbolTableRecord
100
AcDbLayerTableRecord
  2
DEFAULT_3
 70
0
 62
7
  6
PHANTOM
370
-3
390
F
  0
LAYER
  5
1FD
100
AcDbSymbolTableRecord
100
AcDbLayerTableRecord
  2
1-134
 70
0
 62
7
  6
CONTINUOUS
370
-3
390
F
  0
LAYER
  5
1FE
100
AcDbSymbolTableRecord
100
AcDbLayerTableRecord
  2
403-1
 70
0
 62
7
  6
CONTINUOUS
370
-3
390
F
  0
LAYER
  5
1FF
100
AcDbSymbolTableRecord
100
AcDbLayerTableRecord
  2
436
 70
0
 62
7
  6
CONTINUOUS
370
-3
390
F
  0
LAYER
  5
200
100
AcDbSymbolTableRecord
100
AcDbLayerTableRecord
  2
441
 70
0
 62
7
  6
CONTINUOUS
370
-3
390
F
  0
LAYER
  5
201
100
AcDbSymbolTableRecord
100
AcDbLayerTableRecord
  2
50359
 70
0
 62
7
  6
CONTINUOUS
370
-3
390
F
  0
LAYER
  5
202
100
AcDbSymbolTableRecord
100
AcDbLayerTableRecord
  2
50362
 70
0
 62
7
  6
CONTINUOUS
370
-3
390
F
  0
LAYER
  5
203
100
AcDbSymbolTableRecord
100
AcDbLayerTableRecord
  2
50392
 70
0
 62
7
  6
CONTINUOUS
370
-3
390
F
  0
LAYER
  5
204
100
AcDbSymbolTableRecord
100
AcDbLayerTableRecord
  2
50729
 70
0
 62
7
  6
CONTINUOUS
370
-3
390
F
  0
LAYER
  5
205
100
AcDbSymbolTableRecord
100
AcDbLayerTableRecord
  2
50733
 70
0
 62
7
  6
CONTINUOUS
370
-3
390
F
  0
LAYER
  5
206
100
AcDbSymbolTableRecord
100
AcDbLayerTableRecord
  2
50738
 70
0
 62
7
  6
CONTINUOUS
370
-3
390
F
  0
LAYER
  5
207
100
AcDbSymbolTableRecord
100
AcDbLayerTableRecord
  2
50741
 70
0
 62
7
  6
CONTINUOUS
370
-3
390
F
  0
LAYER
  5
208
100
AcDbSymbolTableRecord
100
AcDbLayerTableRecord
  2
50742
 70
0
 62
7
  6
CONTINUOUS
370
-3
390
F
  0
LAYER
  5
209
100
AcDbSymbolTableRecord
100
AcDbLayerTableRecord
  2
50743
 70
0
 62
7
  6
CONTINUOUS
370
-3
390
F
  0
LAYER
  5
20A
100
AcDbSymbolTableRecord
100
AcDbLayerTableRecord
  2
6-034
 70
0
 62
7
  6
CONTINUOUS
370
-3
390
F
  0
LAYER
  5
20B
100
AcDbSymbolTableRecord
100
AcDbLayerTableRecord
  2
91022
 70
0
 62
7
  6
CONTINUOUS
370
-3
390
F
  0
LAYER
  5
20C
100
AcDbSymbolTableRecord
100
AcDbLayerTableRecord
  2
91203
 70
0
 62
7
  6
CONTINUOUS
370
-3
390
F
  0
LAYER
  5
20D
100
AcDbSymbolTableRecord
100
AcDbLayerTableRecord
  2
92087
 70
0
 62
7
  6
CONTINUOUS
370
-3
390
F
  0
LAYER
  5
20E
100
AcDbSymbolTableRecord
100
AcDbLayerTableRecord
  2
ALL_ASSEMBLY_MEMBERS
 70
0
 62
7
  6
CONTINUOUS
370
-3
390
F
  0
LAYER
  5
20F
100
AcDbSymbolTableRecord
100
AcDbLayerTableRecord
  2
COLOR147
 70
0
 62
7
  6
CONTINUOUS
370
-3
390
F
  0
LAYER
  5
210
100
AcDbSymbolTableRecord
100
AcDbLayerTableRecord
  2
COLOR32
 70
0
 62
7
  6
CONTINUOUS
370
-3
390
F
  0
LAYER
  5
211
100
AcDbSymbolTableRecord
100
AcDbLayerTableRecord
  2
COLOR54
 70
0
 62
7
  6
CONTINUOUS
370
-3
390
F
  0
LAYER
  5
212
100
AcDbSymbolTableRecord
100
AcDbLayerTableRecord
  2
COLOR66
 70
0
 62
7
  6
CONTINUOUS
370
-3
390
F
  0
LAYER
  5
213
100
AcDbSymbolTableRecord
100
AcDbLayerTableRecord
  2
DEFAULT_COORDINATE_SYSTEM
 70
0
 62
7
  6
CONTINUOUS
370
-3
390
F
  0
LAYER
  5
214
100
AcDbSymbolTableRecord
100
AcDbLayerTableRecord
  2
DEFAULT_DATUM_AXES
 70
0
 62
7
  6
CONTINUOUS
370
-3
390
F
  0
LAYER
  5
215
100
AcDbSymbolTableRecord
100
AcDbLayerTableRecord
  2
DEFAULT_DATUM_PLANES
 70
0
 62
7
  6
CONTINUOUS
370
-3
390
F
  0
LAYER
  5
216
100
AcDbSymbolTableRecord
100
AcDbLayerTableRecord
  2
DEFAULT_SURFACES
 70
0
 62
7
  6
CONTINUOUS
370
-3
390
F
  0
LAYER
  5
217
100
AcDbSymbolTableRecord
100
AcDbLayerTableRecord
  2
INTF_441
 70
0
 62
7
  6
CONTINUOUS
370
-3
390
F
  0
LAYER
  5
218
100
AcDbSymbolTableRecord
100
AcDbLayerTableRecord
  2
INTF_50359
 70
0
 62
7
  6
CONTINUOUS
370
-3
390
F
  0
LAYER
  5
219
100
AcDbSymbolTableRecord
100
AcDbLayerTableRecord
  2
INTF_50362
 70
0
 62
7
  6
CONTINUOUS
370
-3
390
F
  0
LAYER
  5
21A
100
AcDbSymbolTableRecord
100
AcDbLayerTableRecord
  2
INTF_50392
 70
0
 62
7
  6
CONTINUOUS
370
-3
390
F
  0
LAYER
  5
21B
100
AcDbSymbolTableRecord
100
AcDbLayerTableRecord
  2
INTF_50729
 70
0
 62
7
  6
CONTINUOUS
370
-3
390
F
  0
LAYER
  5
21C
100
AcDbSymbolTableRecord
100
AcDbLayerTableRecord
  2
INTF_50733
 70
0
 62
7
  6
CONTINUOUS
370
-3
390
F
  0
LAYER
  5
21D
100
AcDbSymbolTableRecord
100
AcDbLayerTableRecord
  2
INTF_50738
 70
0
 62
7
  6
CONTINUOUS
370
-3
390
F
  0
LAYER
  5
21E
100
AcDbSymbolTableRecord
100
AcDbLayerTableRecord
  2
INTF_50741
 70
0
 62
7
  6
CONTINUOUS
370
-3
390
F
  0
LAYER
  5
21F
100
AcDbSymbolTableRecord
100
AcDbLayerTableRecord
  2
INTF_50742
 70
0
 62
7
  6
CONTINUOUS
370
-3
390
F
  0
LAYER
  5
220
100
AcDbSymbolTableRecord
100
AcDbLayerTableRecord
  2
INTF_50743
 70
0
 62
7
  6
CONTINUOUS
370
-3
390
F
  0
LAYER
  5
221
100
AcDbSymbolTableRecord
100
AcDbLayerTableRecord
  2
INTF_91022
 70
0
 62
7
  6
CONTINUOUS
370
-3
390
F
  0
LAYER
  5
222
100
AcDbSymbolTableRecord
100
AcDbLayerTableRecord
  2
INTF_91203
 70
0
 62
7
  6
CONTINUOUS
370
-3
390
F
  0
LAYER
  5
223
100
AcDbSymbolTableRecord
100
AcDbLayerTableRecord
  2
INTF_92087
 70
0
 62
7
  6
CONTINUOUS
370
-3
390
F
  0
LAYER
  5
224
100
AcDbSymbolTableRecord
100
AcDbLayerTableRecord
  2
INTF_BLANK
 70
0
 62
7
  6
CONTINUOUS
370
-3
390
F
  0
LAYER
  5
225
100
AcDbSymbolTableRecord
100
AcDbLayerTableRecord
  2
QUILT
 70
0
 62
7
  6
CONTINUOUS
370
-3
390
F
  0
LAYER
  5
226
100
AcDbSymbolTableRecord
100
AcDbLayerTableRecord
  2
QUILT_1
 70
0
 62
7
  6
CONTINUOUS
370
-3
390
F
  0
LAYER
  5
227
100
AcDbSymbolTableRecord
100
AcDbLayerTableRecord
  2
QUILT_2
 70
0
 62
7
  6
CONTINUOUS
370
-3
390
F
  0
LAYER
  5
228
100
AcDbSymbolTableRecord
100
AcDbLayerTableRecord
  2
SURFACES
 70
0
 62
7
  6
CONTINUOUS
370
-3
390
F
  0
LAYER
  5
229
100
AcDbSymbolTableRecord
100
AcDbLayerTableRecord
  2
WETTED_SURFACE
 70
0
 62
7
  6
CONTINUOUS
370
-3
390
F
  0
LAYER
  5
22A
100
AcDbSymbolTableRecord
100
AcDbLayerTableRecord
  2
WETTED_SURFACES
 70
0
 62
7
  6
CONTINUOUS
370
-3
390
F
  0
LAYER
  5
22B
100
AcDbSymbolTableRecord
100
AcDbLayerTableRecord
  2
_BLACK_HOLE
 70
0
 62
7
  6
CONTINUOUS
370
-3
390
F
  0
ENDTAB
  0
TABLE
  2
STYLE
  5
3
100
AcDbSymbolTable
 70
1
  0
STYLE
  5
11
100
AcDbSymbolTableRecord
100
AcDbTextStyleTableRecord
  2
STANDARD
 70
0
 40
0.0
 41
0.8
 50
0.0
 71
0
 42
0.2
  3
txt
  4

  0
STYLE
  5
22C
100
AcDbSymbolTableRecord
100
AcDbTextStyleTableRecord
  2
TEXTSTYLE_1
 70
0
 40
0.0
 41
0.8
 50
0.0
 71
0
 42
0.2
  3
gdt
  4

  0
ENDTAB
  0
TABLE
  2
VIEW
  5
6
100
AcDbSymbolTable
 70
0
  0
ENDTAB
  0
TABLE
  2
UCS
  5
7
100
AcDbSymbolTable
 70
0
  0
ENDTAB
  0
TABLE
  2
APPID
  5
9
100
AcDbSymbolTable
 70
1
  0
APPID
  5
22D
100
AcDbSymbolTableRecord
100
AcDbRegAppTableRecord
  2
ACAD
 70
0
  0
ENDTAB
  0
TABLE
  2
BLOCK_RECORD
  5
1
100
AcDbSymbolTable
 70
0
  0
BLOCK_RECORD
  5
22E
100
AcDbSymbolTableRecord
100
AcDbBlockTableRecord
  2
*Model_Space
  0
BLOCK_RECORD
  5
22F
100
AcDbSymbolTableRecord
100
AcDbBlockTableRecord
  2
*Paper_Space
  0
BLOCK_RECORD
  5
230
100
AcDbSymbolTableRecord
100
AcDbBlockTableRecord
  2
_FILLED
  0
ENDTAB
  0
TABLE
  2
DIMSTYLE
  5
A
100
AcDbSymbolTable
 70
1
100
AcDbDimStyleTable
 71
0
  0
DIMSTYLE
105
231
100
AcDbSymbolTableRecord
100
AcDbDimStyleTableRecord
  2
STANDARD
 70
0
  3

  4

 40
1.0
 41
0.1
 42
0.0625
 43
0.38
 44
0.125
 45
0.0
 46
0.0
 47
0.001
 48
0.001
140
0.08
141
0.09
142
0.0
143
25.4
144
1.0
145
0.0
146
1.0
147
0.09
 71
1.0
 72
0.0
 73
1
 74
1
 75
0
 76
0
 77
0
 78
4
 79
1
170
1
171
2
172
0
173
0
174
0
175
0
176
0
177
0
178
0
270
2
179
3
271
3
272
3
273
2
274
2
275
0
280
0
281
0
282
0
283
1
284
4
285
0
286
0
287
3
288
0
340
11
278
46
341
230
342
230
343
230
344
230
  0
ENDTAB
  0
ENDSEC
  0
SECTION
  2
BLOCKS
  0
BLOCK
  5
20
100
AcDbEntity
  8
0
100
AcDbBlockBegin
  2
*Model_Space
 70
0
 10
0.0
 20
0.0
 30
0.0
  3
*Model_Space
  1

  0
ENDBLK
  5
21
100
AcDbEntity
  8
0
100
AcDbBlockEnd
  0
BLOCK
  5
1C
100
AcDbEntity
  8
0
100
AcDbBlockBegin
  2
*Paper_Space
 70
0
 10
0.0
 20
0.0
 30
0.0
  3
*Paper_Space
  1

  0
ENDBLK
  5
1D
100
AcDbEntity
  8
0
100
AcDbBlockEnd
  0
BLOCK
  5
232
100
AcDbEntity
  8
0
100
AcDbBlockBegin
  2
_FILLED
 70
64
 10
0.0
 20
0.0
  3
_FILLED
  1

  0
SOLID
  5
233
100
AcDbEntity
  8
0
  6
BYBLOCK
 62
0
100
AcDbTrace
 10
0.0
 20
0.0
 11
-1.0
 21
0.2
 12
-1.0
 22
-0.2
 13
-1.0
 23
-0.2
  0
ENDBLK
  5
234
100
AcDbEntity
  8
0
  6
BYBLOCK
 62
0
100
AcDbBlockEnd
  0
ENDSEC
  0
SECTION
  2
ENTITIES
  0
MTEXT
  5
235
100
AcDbEntity
  8
0
100
AcDbMText
 62
7
  6
CONTINUOUS
  7
STANDARD
 71
1
 72
1
 10
7.0247670807
 20
0.3235403727
 30
0.0
 11
1.0
 21
0.0
 31
0.0
 73
2
 44
0.9
  1
SCALE: .50
 40
0.08
 41
0.64
  0
LINE
  5
236
100
AcDbEntity
  8
0
100
AcDbLine
 62
7
  6
CONTINUOUS
 10
0.0
 20
0.0
 11
8.5
 21
0.0
  0
LINE
  5
237
100
AcDbEntity
  8
0
100
AcDbLine
 62
7
  6
CONTINUOUS
 10
0.0
 20
0.0
 11
0.0
 21
11.0
  0
LINE
  5
238
100
AcDbEntity
  8
0
100
AcDbLine
 62
7
  6
CONTINUOUS
 10
8.5
 20
0.0
 11
8.5
 21
11.0
  0
LINE
  5
239
100
AcDbEntity
  8
0
100
AcDbLine
 62
7
  6
CONTINUOUS
 10
0.0
 20
11.0
 11
8.5
 21
11.0
  0
LINE
  5
23A
100
AcDbEntity
  8
0
100
AcDbLine
 62
7
  6
CONTINUOUS
 10
4.1955978261
 20
0.1199104037
 11
4.3880978261
 21
0.1199104037
  0
LINE
  5
23B
100
AcDbEntity
  8
0
100
AcDbLine
 62
7
  6
CONTINUOUS
 10
4.0418478261
 20
1.0925854037
 11
4.5418478261
 21
1.0925854037
  0
LINE
  5
23C
100
AcDbEntity
  8
0
100
AcDbLine
 62
7
  6
CONTINUOUS
 10
4.4693202897
 20
1.1425854037
 11
4.1143753625
 21
1.1425854037
  0
LINE
  5
23D
100
AcDbEntity
  8
0
100
AcDbLine
 62
7
  6
CONTINUOUS
 10
4.1143676758
 20
1.3575854037
 11
4.1513478261
 21
1.3575854037
  0
LINE
  5
23E
100
AcDbEntity
  8
0
100
AcDbLine
 62
7
  6
CONTINUOUS
 10
4.4323478261
 20
1.3575854037
 11
4.4693279764
 21
1.3575854037
  0
LINE
  5
23F
100
AcDbEntity
  8
0
100
AcDbLine
 62
7
  6
CONTINUOUS
 10
4.4323478261
 20
1.4275854037
 11
4.1513478261
 21
1.4275854037
  0
LINE
  5
240
100
AcDbEntity
  8
0
100
AcDbLine
 62
7
  6
CONTINUOUS
 10
4.4288277254
 20
1.1259399617
 11
4.4195768328
 21
1.1312888023
  0
LINE
  5
241
100
AcDbEntity
  8
0
100
AcDbLine
 62
7
  6
CONTINUOUS
 10
4.1548017019
 20
1.1259773066
 11
4.164149736
 21
1.1205710039
  0
LINE
  5
242
100
AcDbEntity
  8
0
100
AcDbLine
 62
7
  6
CONTINUOUS
 10
4.4302328565
 20
1.1042587738
 11
4.4195229922
 21
1.1104537275
  0
LINE
  5
243
100
AcDbEntity
  8
0
100
AcDbLine
 62
7
  6
CONTINUOUS
 10
4.1970209382
 20
1.1087053166
 11
4.2042771376
 21
1.1025854037
  0
LINE
  5
244
100
AcDbEntity
  8
0
100
AcDbLine
 62
7
  6
CONTINUOUS
 10
4.4303728261
 20
1.1250071324
 11
4.4302289922
 21
1.1251582692
  0
LINE
  5
245
100
AcDbEntity
  8
0
100
AcDbLine
 62
7
  6
CONTINUOUS
 10
4.4303728261
 20
1.1041737811
 11
4.4302329255
 21
1.1043228551
  0
LINE
  5
246
100
AcDbEntity
  8
0
100
AcDbLine
 62
7
  6
CONTINUOUS
 10
4.1533228261
 20
1.1268303509
 11
4.1534244748
 21
1.1267032863
  0
LINE
  5
247
100
AcDbEntity
  8
0
100
AcDbLine
 62
7
  6
CONTINUOUS
 10
4.3922949872
 20
10.6057285122
 11
4.4126490963
 21
10.6409828633
  0
LINE
  5
248
100
AcDbEntity
  8
0
100
AcDbLine
 62
7
  6
CONTINUOUS
 10
4.0418478261
 20
0.7175854037
 11
4.0418478261
 21
1.0925854037
  0
LINE
  5
249
100
AcDbEntity
  8
0
100
AcDbLine
 62
7
  6
CONTINUOUS
 10
4.0805978261
 20
10.8800854037
 11
4.0805978261
 21
10.8175854037
  0
LINE
  5
24A
100
AcDbEntity
  8
0
100
AcDbLine
 62
7
  6
CONTINUOUS
 10
4.0918478261
 20
10.7875854037
 11
4.0918478261
 21
10.8175854037
  0
LINE
  5
24B
100
AcDbEntity
  8
0
100
AcDbLine
 62
7
  6
CONTINUOUS
 10
4.1143478261
 20
1.3575854037
 11
4.1143478261
 21
1.1425854037
  0
LINE
  5
24C
100
AcDbEntity
  8
0
100
AcDbLine
 62
7
  6
CONTINUOUS
 10
4.1513478261
 20
1.3575854037
 11
4.1513478261
 21
1.4275854037
  0
LINE
  5
24D
100
AcDbEntity
  8
0
100
AcDbLine
 62
7
  6
CONTINUOUS
 10
4.1533228261
 20
1.1353981602
 11
4.1533228261
 21
1.1268902244
  0
LINE
  5
24E
100
AcDbEntity
  8
0
100
AcDbLine
 62
7
  6
CONTINUOUS
 10
4.1533228261
 20
1.1145291011
 11
4.1533228261
 21
1.0925854037
  0
LINE
  5
24F
100
AcDbEntity
  8
0
100
AcDbLine
 62
7
  6
CONTINUOUS
 10
4.1643478261
 20
10.6659828633
 11
4.1643478261
 21
10.7875854037
  0
LINE
  5
250
100
AcDbEntity
  8
0
100
AcDbLine
 62
7
  6
CONTINUOUS
 10
4.1955978261
 20
0.1199104037
 11
4.1955978261
 21
0.5687153229
  0
LINE
  5
251
100
AcDbEntity
  8
0
100
AcDbLine
 62
7
  6
CONTINUOUS
 10
4.1970209382
 20
1.1087053166
 11
4.1970209382
 21
1.0964654909
  0
LINE
  5
252
100
AcDbEntity
  8
0
100
AcDbLine
 62
7
  6
CONTINUOUS
 10
4.1980978261
 20
1.4275854037
 11
4.1980978261
 21
10.5807312293
  0
LINE
  5
253
100
AcDbEntity
  8
0
100
AcDbLine
 62
7
  6
CONTINUOUS
 10
4.3855978261
 20
1.4275854037
 11
4.3855978261
 21
10.5807312293
  0
LINE
  5
254
100
AcDbEntity
  8
0
100
AcDbLine
 62
7
  6
CONTINUOUS
 10
4.3880978261
 20
0.5687152761
 11
4.3880978261
 21
0.1199104037
  0
LINE
  5
255
100
AcDbEntity
  8
0
100
AcDbLine
 62
7
  6
CONTINUOUS
 10
4.4193478261
 20
10.6659828633
 11
4.4193478261
 21
10.7875854037
  0
LINE
  5
256
100
AcDbEntity
  8
0
100
AcDbLine
 62
7
  6
CONTINUOUS
 10
4.4303728261
 20
1.1425854037
 11
4.4303728261
 21
1.1372893578
  0
LINE
  5
257
100
AcDbEntity
  8
0
100
AcDbLine
 62
7
  6
CONTINUOUS
 10
4.4303728261
 20
1.1249631867
 11
4.4303728261
 21
1.1164878714
  0
LINE
  5
258
100
AcDbEntity
  8
0
100
AcDbLine
 62
7
  6
CONTINUOUS
 10
4.4303728261
 20
1.1040984744
 11
4.4303728261
 21
1.0925854037
  0
LINE
  5
259
100
AcDbEntity
  8
0
100
AcDbLine
 62
7
  6
CONTINUOUS
 10
4.4323478261
 20
1.4275854037
 11
4.4323478261
 21
1.3575854037
  0
LINE
  5
25A
100
AcDbEntity
  8
0
100
AcDbLine
 62
7
  6
CONTINUOUS
 10
4.4693478261
 20
1.3575854037
 11
4.4693478261
 21
1.1425854037
  0
LINE
  5
25B
100
AcDbEntity
  8
0
100
AcDbLine
 62
7
  6
CONTINUOUS
 10
4.4918478261
 20
10.7875854037
 11
4.4918478261
 21
10.8175854037
  0
LINE
  5
25C
100
AcDbEntity
  8
0
100
AcDbLine
 62
7
  6
CONTINUOUS
 10
4.5030978261
 20
10.8800854037
 11
4.5030978261
 21
10.8175854037
  0
LINE
  5
25D
100
AcDbEntity
  8
0
100
AcDbLine
 62
7
  6
CONTINUOUS
 10
4.5418478261
 20
1.0925854037
 11
4.5418478261
 21
0.7175854037
  0
LINE
  5
25E
100
AcDbEntity
  8
0
100
AcDbLine
 62
7
  6
CONTINUOUS
 10
4.191400665
 20
10.6057285122
 11
4.1710465559
 21
10.6409828633
  0
LINE
  5
25F
100
AcDbEntity
  8
0
100
AcDbLine
 62
7
  6
CONTINUOUS
 10
4.4303728261
 20
1.1372470075
 11
4.4302758088
 21
1.137122881
  0
LINE
  5
260
100
AcDbEntity
  8
0
100
AcDbLine
 62
7
  6
CONTINUOUS
 10
4.4303728261
 20
1.1164136924
 11
4.4302640501
 21
1.116282241
  0
LINE
  5
261
100
AcDbEntity
  8
0
100
AcDbLine
 62
7
  6
CONTINUOUS
 10
4.1533228261
 20
1.1354238095
 11
4.1534613047
 21
1.1355720956
  0
LINE
  5
262
100
AcDbEntity
  8
0
100
AcDbLine
 62
7
  6
CONTINUOUS
 10
4.1533228261
 20
1.1145904557
 11
4.1534668405
 21
1.1147416973
  0
LINE
  5
263
100
AcDbEntity
  8
0
100
AcDbLine
 62
7
  6
CONTINUOUS
 10
4.2042771376
 20
1.1025854037
 11
4.1970209382
 21
1.0964654909
  0
LINE
  5
264
100
AcDbEntity
  8
0
100
AcDbLine
 62
7
  6
CONTINUOUS
 10
4.1641484955
 20
1.120872346
 11
4.154901481
 21
1.1155245097
  0
LINE
  5
265
100
AcDbEntity
  8
0
100
AcDbLine
 62
7
  6
CONTINUOUS
 10
4.4195221713
 20
1.1101501288
 11
4.4288711322
 21
1.115557971
  0
LINE
  5
266
100
AcDbEntity
  8
0
100
AcDbLine
 62
7
  6
CONTINUOUS
 10
4.1640880235
 20
1.1417026359
 11
4.1548335014
 21
1.1363529813
  0
LINE
  5
267
100
AcDbEntity
  8
0
100
AcDbLine
 62
7
  6
CONTINUOUS
 10
4.4195752085
 20
1.1309905739
 11
4.4289227872
 21
1.1363953765
  0
LINE
  5
268
100
AcDbEntity
  8
0
100
AcDbLine
 62
9
  6
CONTINUOUS
 10
4.1980978261
 20
10.5807312293
 11
4.3855978261
 21
10.5807312293
  0
LINE
  5
269
100
AcDbEntity
  8
0
100
AcDbLine
 62
9
  6
CONTINUOUS
 10
4.3922949872
 20
10.6057285122
 11
4.191400665
 21
10.6057285122
  0
LINE
  5
26A
100
AcDbEntity
  8
0
100
AcDbLine
 62
9
  6
CONTINUOUS
 10
4.1710465491
 20
10.6409828751
 11
4.4126489426
 21
10.6409825972
  0
LINE
  5
26B
100
AcDbEntity
  8
0
100
AcDbLine
 62
9
  6
CONTINUOUS
 10
4.4193478261
 20
10.6659828768
 11
4.1643478261
 21
10.6659828768
  0
LINE
  5
26C
100
AcDbEntity
  8
0
100
AcDbLine
 62
7
  6
CONTINUOUS
 10
4.091883709
 20
10.7875854037
 11
4.4918119432
 21
10.7875854037
  0
LINE
  5
26D
100
AcDbEntity
  8
0
100
AcDbLine
 62
7
  6
CONTINUOUS
 10
4.5030650243
 20
10.8175854037
 11
4.0808658436
 21
10.8175854037
  0
LINE
  5
26E
100
AcDbEntity
  8
0
100
AcDbLine
 62
7
  6
CONTINUOUS
 10
4.5030650243
 20
10.8800854037
 11
4.0806306279
 21
10.8800854037
  0
ARC
  5
26F
100
AcDbEntity
  8
0
100
AcDbCircle
 62
7
  6
CONTINUOUS
 10
4.1988932798
 20
0.5626861692
 40
0.5751086381
100
AcDbArc
 50
92.6913106033
 51
93.3481055679
  0
ARC
  5
270
100
AcDbEntity
  8
0
100
AcDbCircle
 62
7
  6
CONTINUOUS
 10
4.1393754575
 20
8.1154441507
 40
6.9850698072
100
AcDbArc
 50
271.2507701932
 51
271.3695400134
  0
ARC
  5
271
100
AcDbEntity
  8
0
100
AcDbCircle
 62
7
  6
CONTINUOUS
 10
4.2143478261
 20
10.6659828633
 40
0.05
100
AcDbArc
 50
180.0
 51
209.9999999993
  0
ARC
  5
272
100
AcDbEntity
  8
0
100
AcDbCircle
 62
7
  6
CONTINUOUS
 10
4.1480978261
 20
10.5807312294
 40
0.05
100
AcDbArc
 50
0.0
 51
29.9969165241
  0
ARC
  5
273
100
AcDbEntity
  8
0
100
AcDbCircle
 62
7
  6
CONTINUOUS
 10
4.2918478261
 20
0.7175854037
 40
0.625
100
AcDbArc
 50
106.504744188
 51
73.4958705105
  0
ARC
  5
274
100
AcDbEntity
  8
0
100
AcDbCircle
 62
9
  6
CONTINUOUS
 10
4.2918478261
 20
0.7175854037
 40
0.5837863299
100
AcDbArc
 50
279.4945108664
 51
72.2933887758
  0
ARC
  5
275
100
AcDbEntity
  8
0
100
AcDbCircle
 62
9
  6
CONTINUOUS
 10
4.2918478261
 20
0.7175854037
 40
0.5837863299
100
AcDbArc
 50
107.7074204662
 51
260.505856614
  0
ARC
  5
276
100
AcDbEntity
  8
0
100
AcDbCircle
 62
9
  6
CONTINUOUS
 10
4.2918478261
 20
0.7175854037
 40
0.2654936464
100
AcDbArc
 50
160.3715708662
 51
248.7275092033
  0
ARC
  5
277
100
AcDbEntity
  8
0
100
AcDbCircle
 62
9
  6
CONTINUOUS
 10
4.2918478261
 20
0.7175854037
 40
0.2654936464
100
AcDbArc
 50
291.2724907967
 51
19.6284291339
  0
ARC
  5
278
100
AcDbEntity
  8
0
100
AcDbCircle
 62
7
  6
CONTINUOUS
 10
4.2918478261
 20
0.7175854037
 40
0.25
100
AcDbArc
 50
292.6663064548
 51
247.3336935452
  0
ARC
  5
279
100
AcDbEntity
  8
0
100
AcDbCircle
 62
9
  6
CONTINUOUS
 10
4.2918478261
 20
0.7175854037
 40
0.2449999923
100
AcDbArc
 50
293.1635381304
 51
246.8364611622
  0
CIRCLE
  5
27A
100
AcDbEntity
  8
0
100
AcDbCircle
 62
7
  6
CONTINUOUS
 10
4.2918478261
 20
0.7175854037
 40
0.1775
  0
ARC
  5
27B
100
AcDbEntity
  8
0
100
AcDbCircle
 62
7
  6
CONTINUOUS
 10
4.5554496156
 20
-10.7393185059
 40
11.8534497438
100
AcDbArc
 50
91.2742710777
 51
91.7327943682
  0
ARC
  5
27C
100
AcDbEntity
  8
0
100
AcDbCircle
 62
7
  6
CONTINUOUS
 10
4.444396483
 20
-5.8548550714
 40
6.9885588618
100
AcDbArc
 50
91.2507712435
 51
91.3695713716
  0
ARC
  5
27D
100
AcDbEntity
  8
0
100
AcDbCircle
 62
7
  6
CONTINUOUS
 10
4.3846063591
 20
1.7140129037
 40
0.5791410631
100
AcDbArc
 50
272.6919778157
 51
273.3441981481
  0
ARC
  5
27E
100
AcDbEntity
  8
0
100
AcDbCircle
 62
7
  6
CONTINUOUS
 10
4.3693478261
 20
10.6659828633
 40
0.05
100
AcDbArc
 50
330.0000000007
 51
360.0
  0
ARC
  5
27F
100
AcDbEntity
  8
0
100
AcDbCircle
 62
7
  6
CONTINUOUS
 10
4.4355978261
 20
10.5807312294
 40
0.05
100
AcDbArc
 50
150.0030834759
 51
180.0
  0
SPLINE
  5
280
100
AcDbEntity
  8
0
100
AcDbSpline
 62
7
  6
CONTINUOUS
 70
0
 71
3
 72
13
 73
9
 74
0
 42
0.0000001
 43
0.0000001
 44
0.0000000001
 40
0.0
 40
0.0
 40
0.0
 40
0.0
 40
0.0461216154
 40
0.1144673646
 40
0.2054386532
 40
0.3191215895
 40
0.6144862198
 40
1.0
 40
1.0
 40
1.0
 40
1.0
 10
4.4302320519
 20
1.1043228379
 30
0.0
 10
4.4301407931
 20
1.1043711942
 30
0.0
 10
4.4298962681
 20
1.1044544166
 30
0.0
 10
4.4294493046
 20
1.1045614773
 30
0.0
 10
4.4288471109
 20
1.1046696929
 30
0.0
 10
4.4277390106
 20
1.104830059
 30
0.0
 10
4.425969458
 20
1.1050206798
 30
0.0
 10
4.4244502109
 20
1.1051490708
 30
0.0
 10
4.4235895207
 20
1.1052157549
 30
0.0
  0
SPLINE
  5
281
100
AcDbEntity
  8
0
100
AcDbSpline
 62
7
  6
CONTINUOUS
 70
0
 71
3
 72
13
 73
9
 74
0
 42
0.0000001
 43
0.0000001
 44
0.0000000001
 40
0.0
 40
0.0
 40
0.0
 40
0.0
 40
0.0464242658
 40
0.11499624
 40
0.2061060432
 40
0.3198370317
 40
0.6150248469
 40
1.0
 40
1.0
 40
1.0
 40
1.0
 10
4.4302280982
 20
1.1251582388
 30
0.0
 10
4.4301360244
 20
1.1252063539
 30
0.0
 10
4.4298904333
 20
1.1252893665
 30
0.0
 10
4.4294421649
 20
1.1253962145
 30
0.0
 10
4.4288394246
 20
1.1255042138
 30
0.0
 10
4.4277319837
 20
1.1256641655
 30
0.0
 10
4.4259650839
 20
1.1258543711
 30
0.0
 10
4.4244484339
 20
1.1259825326
 30
0.0
 10
4.4235895157
 20
1.1260490886
 30
0.0
  0
SPLINE
  5
282
100
AcDbEntity
  8
0
100
AcDbSpline
 62
7
  6
CONTINUOUS
 70
0
 71
3
 72
13
 73
9
 74
0
 42
0.0000001
 43
0.0000001
 44
0.0000000001
 40
0.0
 40
0.0
 40
0.0
 40
0.0
 40
0.0464381508
 40
0.1150204515
 40
0.206136554
 40
0.3198697073
 40
0.6150494128
 40
1.0
 40
1.0
 40
1.0
 40
1.0
 10
4.1534677355
 20
1.1147416712
 30
0.0
 10
4.1535598462
 20
1.1147897765
 30
0.0
 10
4.1538054862
 20
1.1148727815
 30
0.0
 10
4.1542538147
 20
1.1149796214
 30
0.0
 10
4.1548565809
 20
1.1150876116
 30
0.0
 10
4.1559639938
 20
1.1152475443
 30
0.0
 10
4.1577307764
 20
1.1154377283
 30
0.0
 10
4.1592473112
 20
1.1155658753
 30
0.0
 10
4.1601061506
 20
1.1156324231
 30
0.0
  0
LINE
  5
283
100
AcDbEntity
  8
0
100
AcDbLine
 62
7
  6
CONTINUOUS
 10
4.1601061506
 20
1.1156324231
 11
4.1718890642
 21
1.1163271592
  0
SPLINE
  5
284
100
AcDbEntity
  8
0
100
AcDbSpline
 62
7
  6
CONTINUOUS
 70
0
 71
3
 72
11
 73
7
 74
0
 42
0.0000001
 43
0.0000001
 44
0.0000000001
 40
0.0
 40
0.0
 40
0.0
 40
0.0
 40
0.1836012228
 40
0.4226867891
 40
0.7012663051
 40
1.0
 40
1.0
 40
1.0
 40
1.0
 10
4.1718890642
 20
1.1163271592
 30
0.0
 10
4.1792253696
 20
1.1166783704
 30
0.0
 10
4.1961237424
 20
1.1172965102
 30
0.0
 10
4.2241643402
 20
1.1181324058
 30
0.0
 10
4.2568128697
 20
1.1189600033
 30
0.0
 10
4.2799014933
 20
1.119486334
 30
0.0
 10
4.2918478261
 20
1.1197988242
 30
0.0
  0
SPLINE
  5
285
100
AcDbEntity
  8
0
100
AcDbSpline
 62
7
  6
CONTINUOUS
 70
0
 71
3
 72
13
 73
9
 74
0
 42
0.0000001
 43
0.0000001
 44
0.0000000001
 40
0.0
 40
0.0
 40
0.0
 40
0.0
 40
0.0460105272
 40
0.1142733257
 40
0.2051938794
 40
0.3188592638
 40
0.6142888085
 40
1.0
 40
1.0
 40
1.0
 40
1.0
 10
4.1534621707
 20
1.1355720682
 30
0.0
 10
4.1535531311
 20
1.1356205096
 30
0.0
 10
4.1537972669
 20
1.1357038027
 30
0.0
 10
4.1542437522
 20
1.1358109362
 30
0.0
 10
4.1548457465
 20
1.1359192286
 30
0.0
 10
4.1559540896
 20
1.1360797472
 30
0.0
 10
4.1577246159
 20
1.1362705294
 30
0.0
 10
4.1592448158
 20
1.1363990175
 30
0.0
 10
4.1601061559
 20
1.1364657568
 30
0.0
  0
LINE
  5
286
100
AcDbEntity
  8
0
100
AcDbLine
 62
7
  6
CONTINUOUS
 10
4.1601061559
 20
1.1364657568
 11
4.1653056616
 21
1.1368131739
  0
SPLINE
  5
287
100
AcDbEntity
  8
0
100
AcDbSpline
 62
7
  6
CONTINUOUS
 70
0
 71
3
 72
11
 73
7
 74
0
 42
0.0000001
 43
0.0000001
 44
0.0000000001
 40
0.0
 40
0.0
 40
0.0
 40
0.0
 40
0.1847519069
 40
0.4219783043
 40
0.6987271234
 40
1.0
 40
1.0
 40
1.0
 40
1.0
 10
4.1718890768
 20
1.1371604668
 30
0.0
 10
4.178380676
 20
1.1374712427
 30
0.0
 10
4.193214651
 20
1.13803004
 30
0.0
 10
4.2177822943
 20
1.1387811344
 30
0.0
 10
4.2464503111
 20
1.1395444101
 30
0.0
 10
4.2667780246
 20
1.140013389
 30
0.0
 10
4.2773728128
 20
1.1402702832
 30
0.0
  0
LINE
  5
288
100
AcDbEntity
  8
0
100
AcDbLine
 62
7
  6
CONTINUOUS
 10
4.2773728128
 20
1.1402702832
 11
4.2918478261
 21
1.1406321575
  0
LINE
  5
289
100
AcDbEntity
  8
0
100
AcDbLine
 62
7
  6
CONTINUOUS
 10
4.4296123497
 20
1.1375940062
 11
4.4303728261
 21
1.1372470076
  0
LINE
  5
28A
100
AcDbEntity
  8
0
100
AcDbLine
 62
7
  6
CONTINUOUS
 10
4.2918478261
 20
1.1406321575
 11
4.3063337524
 21
1.1409943028
  0
LINE
  5
28B
100
AcDbEntity
  8
0
100
AcDbLine
 62
7
  6
CONTINUOUS
 10
4.1540832802
 20
1.1350769671
 11
4.1533228261
 21
1.1354238096
  0
SPLINE
  5
28C
100
AcDbEntity
  8
0
100
AcDbSpline
 62
7
  6
CONTINUOUS
 70
0
 71
3
 72
18
 73
14
 74
0
 42
0.0000001
 43
0.0000001
 44
0.0000000001
 40
0.0
 40
0.0
 40
0.0
 40
0.0
 40
0.1875978778
 40
0.3663069808
 40
0.5309016249
 40
0.6767918526
 40
0.7998438013
 40
0.8516067771
 40
0.8963814553
 40
0.9338587425
 40
0.9637358187
 40
0.9858092533
 40
1.0
 40
1.0
 40
1.0
 40
1.0
 10
4.2773611659
 20
1.1317073286
 30
0.0
 10
4.2696474677
 20
1.131523167
 30
0.0
 10
4.254586095
 20
1.1311414731
 30
0.0
 10
4.2327574113
 20
1.1305776574
 30
0.0
 10
4.2126442433
 20
1.1300320127
 30
0.0
 10
4.1948213443
 20
1.1294818205
 30
0.0
 10
4.1816392815
 20
1.1290026679
 30
0.0
 10
4.172616216
 20
1.1286074063
 30
0.0
 10
4.1671110181
 20
1.1283299838
 30
0.0
 10
4.1625076081
 20
1.1280538029
 30
0.0
 10
4.1588385021
 20
1.1277834256
 30
0.0
 10
4.1561327479
 20
1.1275127552
 30
0.0
 10
4.1546522368
 20
1.1273074945
 30
0.0
 10
4.1540832719
 20
1.1271773259
 30
0.0
  0
LINE
  5
28D
100
AcDbEntity
  8
0
100
AcDbLine
 62
7
  6
CONTINUOUS
 10
4.1540832719
 20
1.1271773259
 11
4.1533228261
 21
1.126830351
  0
LINE
  5
28E
100
AcDbEntity
  8
0
100
AcDbLine
 62
7
  6
CONTINUOUS
 10
4.4296123489
 20
1.1167606496
 11
4.4303728261
 21
1.1164136925
  0
SPLINE
  5
28F
100
AcDbEntity
  8
0
100
AcDbSpline
 62
7
  6
CONTINUOUS
 70
0
 71
3
 72
19
 73
15
 74
0
 42
0.0000001
 43
0.0000001
 44
0.0000000001
 40
0.0
 40
0.0
 40
0.0
 40
0.0
 40
0.1829695955
 40
0.3602082389
 40
0.5251587127
 40
0.6724919077
 40
0.7974008011
 40
0.8500607306
 40
0.8955900288
 40
0.9336415511
 40
0.9638726157
 40
0.9860243223
 40
0.9940371415
 40
1.0
 40
1.0
 40
1.0
 40
1.0
 10
4.2918478261
 20
1.1197988242
 30
0.0
 10
4.3002542813
 20
1.1200187189
 30
0.0
 10
4.3168048467
 20
1.1204139812
 30
0.0
 10
4.3409345314
 20
1.1209848533
 30
0.0
 10
4.3634251157
 20
1.1215861227
 30
0.0
 10
4.3835097423
 20
1.1221833537
 30
0.0
 10
4.3984336846
 20
1.1226950318
 30
0.0
 10
4.4086786364
 20
1.123118881
 30
0.0
 10
4.4149331633
 20
1.1234180475
 30
0.0
 10
4.4201557981
 20
1.1237144118
 30
0.0
 10
4.4243016667
 20
1.1240087942
 30
0.0
 10
4.4270664661
 20
1.124265951
 30
0.0
 10
4.4287121573
 20
1.1244871411
 30
0.0
 10
4.429345219
 20
1.1245992018
 30
0.0
 10
4.4296123758
 20
1.1246603015
 30
0.0
  0
LINE
  5
290
100
AcDbEntity
  8
0
100
AcDbLine
 62
7
  6
CONTINUOUS
 10
4.4296123758
 20
1.1246603015
 11
4.4303728261
 21
1.1250071324
  0
LINE
  5
291
100
AcDbEntity
  8
0
100
AcDbLine
 62
7
  6
CONTINUOUS
 10
4.1970209382
 20
1.0964654909
 11
4.268753325
 21
1.0984059239
  0
LINE
  5
292
100
AcDbEntity
  8
0
100
AcDbLine
 62
7
  6
CONTINUOUS
 10
4.268753325
 20
1.0984059239
 11
4.2918478261
 21
1.0989654909
  0
LINE
  5
293
100
AcDbEntity
  8
0
100
AcDbLine
 62
7
  6
CONTINUOUS
 10
4.1540832807
 20
1.114243621
 11
4.1533228261
 21
1.1145904558
  0
LINE
  5
294
100
AcDbEntity
  8
0
100
AcDbLine
 62
7
  6
CONTINUOUS
 10
4.2918478261
 20
1.0989654909
 11
4.3063339119
 21
1.0993213357
  0
SPLINE
  5
295
100
AcDbEntity
  8
0
100
AcDbSpline
 62
7
  6
CONTINUOUS
 70
0
 71
3
 72
11
 73
7
 74
0
 42
0.0000001
 43
0.0000001
 44
0.0000000001
 40
0.0
 40
0.0
 40
0.0
 40
0.0
 40
0.2904652068
 40
0.5615006581
 40
0.8014158326
 40
1.0
 40
1.0
 40
1.0
 40
1.0
 10
4.3063339119
 20
1.0993213357
 30
0.0
 10
4.3157839561
 20
1.0995497525
 30
0.0
 10
4.3340521502
 20
1.0999814382
 30
0.0
 10
4.3601244119
 20
1.1006590264
 30
0.0
 10
4.3832053867
 20
1.1013352525
 30
0.0
 10
4.3974674606
 20
1.1018280657
 30
0.0
 10
4.4039247753
 20
1.1020908114
 30
0.0
  0
SPLINE
  5
296
100
AcDbEntity
  8
0
100
AcDbSpline
 62
7
  6
CONTINUOUS
 70
0
 71
3
 72
13
 73
9
 74
0
 42
0.0000001
 43
0.0000001
 44
0.0000000001
 40
0.0
 40
0.0
 40
0.0
 40
0.0
 40
0.3755815393
 40
0.6705676523
 40
0.7861612851
 40
0.8797338126
 40
0.9510555888
 40
1.0
 40
1.0
 40
1.0
 40
1.0
 10
4.4039247753
 20
1.1020908114
 30
0.0
 10
4.4071469944
 20
1.1022219222
 30
0.0
 10
4.4128991796
 20
1.1024749223
 30
0.0
 10
4.4196398135
 20
1.1028438414
 30
0.0
 10
4.4239575473
 20
1.1031536325
 30
0.0
 10
4.4263571096
 20
1.1033642198
 30
0.0
 10
4.4281809965
 20
1.1035730556
 30
0.0
 10
4.4292026987
 20
1.1037332334
 30
0.0
 10
4.4296123748
 20
1.1038269351
 30
0.0
  0
LINE
  5
297
100
AcDbEntity
  8
0
100
AcDbLine
 62
7
  6
CONTINUOUS
 10
4.4296123748
 20
1.1038269351
 11
4.4303728261
 21
1.1041737811
  0
SPLINE
  5
298
100
AcDbEntity
  8
0
100
AcDbSpline
 62
9
  6
CONTINUOUS
 70
0
 71
3
 72
37
 73
33
 74
0
 42
0.0000001
 43
0.0000001
 44
0.0000000001
 40
0.0
 40
0.0
 40
0.0
 40
0.0
 40
0.0273371822
 40
0.0547595221
 40
0.0824043418
 40
0.110369296
 40
0.1674653604
 40
0.1968052419
 40
0.2267844
 40
0.2575366811
 40
0.289174526
 40
0.3217941435
 40
0.3555156867
 40
0.3903186786
 40
0.4261806932
 40
0.4628541772
 40
0.5000000245
 40
0.5371458733
 40
0.5738193471
 40
0.6096813644
 40
0.6444843473
 40
0.6782058797
 40
0.7108254937
 40
0.7424633339
 40
0.7732156144
 40
0.8031947665
 40
0.8325346394
 40
0.8896306962
 40
0.9175956517
 40
0.9452404757
 40
0.9726628189
 40
1.0
 40
1.0
 40
1.0
 40
1.0
 10
4.5410195255
 20
0.7396805008
 30
0.0
 10
4.5404900742
 20
0.7467000409
 30
0.0
 10
4.5389165081
 20
0.7607280122
 30
0.0
 10
4.5349967496
 20
0.7816007733
 30
0.0
 10
4.5295048428
 20
0.8022865331
 30
0.0
 10
4.5199860294
 20
0.8297246901
 30
0.0
 10
4.5070897463
 20
0.8563752586
 30
0.0
 10
4.4908445388
 20
0.8816017697
 30
0.0
 10
4.4766425122
 20
0.8999785994
 30
0.0
 10
4.4604614925
 20
0.9174557987
 30
0.0
 10
4.4422205276
 20
0.9338163571
 30
0.0
 10
4.4218318278
 20
0.9487509965
 30
0.0
 10
4.3993007035
 20
0.9619127306
 30
0.0
 10
4.3747024545
 20
0.9728921916
 30
0.0
 10
4.3482681265
 20
0.981180604
 30
0.0
 10
4.3204417671
 20
0.9864115158
 30
0.0
 10
4.2918477838
 20
0.9881614065
 30
0.0
 10
4.2632538013
 20
0.9864115266
 30
0.0
 10
4.2354274468
 20
0.9811805911
 30
0.0
 10
4.2089931316
 20
0.9728921553
 30
0.0
 10
4.1843948854
 20
0.9619127001
 30
0.0
 10
4.1618637676
 20
0.9487509658
 30
0.0
 10
4.1414750767
 20
0.9338163223
 30
0.0
 10
4.1232341216
 20
0.9174557563
 30
0.0
 10
4.1070531115
 20
0.8999785525
 30
0.0
 10
4.0928510861
 20
0.8816017271
 30
0.0
 10
4.0766058796
 20
0.856375222
 30
0.0
 10
4.0637096036
 20
0.8297246539
 30
0.0
 10
4.0541907968
 20
0.8022864952
 30
0.0
 10
4.0486988947
 20
0.7816007318
 30
0.0
 10
4.0447791393
 20
0.7607279685
 30
0.0
 10
4.0432055746
 20
0.7466999964
 30
0.0
 10
4.0426761241
 20
0.7396804565
 30
0.0
  0
SPLINE
  5
299
100
AcDbEntity
  8
0
100
AcDbSpline
 62
7
  6
CONTINUOUS
 70
0
 71
3
 72
13
 73
9
 74
0
 42
0.0000001
 43
0.0000001
 44
0.0000000001
 40
0.0
 40
0.0
 40
0.0
 40
0.0
 40
0.0435337326
 40
0.109934138
 40
0.1997119129
 40
0.3129789095
 40
0.6098589435
 40
1.0
 40
1.0
 40
1.0
 40
1.0
 10
4.4302633446
 20
1.1162822121
 30
0.0
 10
4.4301793414
 20
1.1162317362
 30
0.0
 10
4.4299439975
 20
1.116146782
 30
0.0
 10
4.4295085791
 20
1.1160379588
 30
0.0
 10
4.4289113306
 20
1.115927947
 30
0.0
 10
4.4277980311
 20
1.1157640525
 30
0.0
 10
4.4260062688
 20
1.1155698965
 30
0.0
 10
4.42446521
 20
1.1154395194
 30
0.0
 10
4.4235895571
 20
1.115371722
 30
0.0
  0
LINE
  5
29A
100
AcDbEntity
  8
0
100
AcDbLine
 62
7
  6
CONTINUOUS
 10
4.4235895571
 20
1.115371722
 11
4.4118066504
 21
1.1146774696
  0
SPLINE
  5
29B
100
AcDbEntity
  8
0
100
AcDbSpline
 62
7
  6
CONTINUOUS
 70
0
 71
3
 72
11
 73
7
 74
0
 42
0.0000001
 43
0.0000001
 44
0.0000000001
 40
0.0
 40
0.0
 40
0.0
 40
0.0
 40
0.1836013327
 40
0.4226865404
 40
0.7012662242
 40
1.0
 40
1.0
 40
1.0
 40
1.0
 10
4.4118066504
 20
1.1146774696
 30
0.0
 10
4.4044703395
 20
1.1143261653
 30
0.0
 10
4.3875721542
 20
1.1137027116
 30
0.0
 10
4.3595311131
 20
1.1128803272
 30
0.0
 10
4.3268828411
 20
1.1120439012
 30
0.0
 10
4.303795168
 20
1.1114770368
 30
0.0
 10
4.2918478261
 20
1.1112053166
 30
0.0
  0
LINE
  5
29C
100
AcDbEntity
  8
0
100
AcDbLine
 62
7
  6
CONTINUOUS
 10
4.4195221713
 20
1.1101501288
 11
4.4191286719
 21
1.1099981262
  0
SPLINE
  5
29D
100
AcDbEntity
  8
0
100
AcDbSpline
 62
7
  6
CONTINUOUS
 70
0
 71
3
 72
12
 73
8
 74
0
 42
0.0000001
 43
0.0000001
 44
0.0000000001
 40
0.0
 40
0.0
 40
0.0
 40
0.0
 40
0.0559902342
 40
0.1316814998
 40
0.3423823174
 40
0.6319931771
 40
1.0
 40
1.0
 40
1.0
 40
1.0
 10
4.4191286719
 20
1.1099981262
 30
0.0
 10
4.4189353773
 20
1.1099420579
 30
0.0
 10
4.4184725885
 20
1.1098393805
 30
0.0
 10
4.4172585991
 20
1.1096367001
 30
0.0
 10
4.415200367
 20
1.1094015886
 30
0.0
 10
4.4120908915
 20
1.1091320309
 30
0.0
 10
4.4097323467
 20
1.1089705509
 30
0.0
 10
4.4084121645
 20
1.1088868156
 30
0.0
  0
SPLINE
  5
29E
100
AcDbEntity
  8
0
100
AcDbSpline
 62
7
  6
CONTINUOUS
 70
0
 71
3
 72
16
 73
12
 74
0
 42
0.0000001
 43
0.0000001
 44
0.0000000001
 40
0.0
 40
0.0
 40
0.0
 40
0.0
 40
0.0345770531
 40
0.0769414342
 40
0.1818021535
 40
0.3080349687
 40
0.4490266643
 40
0.5971943582
 40
0.7439845989
 40
0.880809325
 40
1.0
 40
1.0
 40
1.0
 40
1.0
 10
4.4084121645
 20
1.1088868156
 30
0.0
 10
4.406064149
 20
1.108737888
 30
0.0
 10
4.4008363082
 20
1.1084542376
 30
0.0
 10
4.3884781993
 20
1.107901375
 30
0.0
 10
4.3698825935
 20
1.1072427828
 30
0.0
 10
4.344576178
 20
1.1064812207
 30
0.0
 10
4.3163218475
 20
1.1057171067
 30
0.0
 10
4.2866683123
 20
1.104951975
 30
0.0
 10
4.2572983667
 20
1.1041876346
 30
0.0
 10
4.2299007613
 20
1.1034256159
 30
0.0
 10
4.2124892646
 20
1.1028741549
 30
0.0
 10
4.2043842901
 20
1.1025854037
 30
0.0
  0
SPLINE
  5
29F
100
AcDbEntity
  8
0
100
AcDbSpline
 62
7
  6
CONTINUOUS
 70
0
 71
3
 72
13
 73
9
 74
0
 42
0.0000001
 43
0.0000001
 44
0.0000000001
 40
0.0
 40
0.0
 40
0.0
 40
0.0
 40
0.0428844384
 40
0.1087931949
 40
0.1982685496
 40
0.3114295295
 40
0.6086908956
 40
1.0
 40
1.0
 40
1.0
 40
1.0
 10
4.15342514
 20
1.1267032508
 30
0.0
 10
4.1535072347
 20
1.1266522236
 30
0.0
 10
4.1537402678
 20
1.1265668445
 30
0.0
 10
4.154172682
 20
1.1264575905
 30
0.0
 10
4.1547686265
 20
1.1263471397
 30
0.0
 10
4.1558831265
 20
1.1261823631
 30
0.0
 10
4.1576803664
 20
1.1259873298
 30
0.0
 10
4.1592268185
 20
1.1258564572
 30
0.0
 10
4.1601061914
 20
1.1257883812
 30
0.0
  0
SPLINE
  5
2A0
100
AcDbEntity
  8
0
100
AcDbSpline
 62
7
  6
CONTINUOUS
 70
0
 71
3
 72
13
 73
9
 74
0
 42
0.0000001
 43
0.0000001
 44
0.0000000001
 40
0.0
 40
0.0
 40
0.0
 40
0.0
 40
0.0424493113
 40
0.1080276568
 40
0.1972995605
 40
0.3103890454
 40
0.6079062324
 40
1.0
 40
1.0
 40
1.0
 40
1.0
 10
4.4302751699
 20
1.1371228422
 30
0.0
 10
4.4301943787
 20
1.137071442
 30
0.0
 10
4.4299629003
 20
1.1369857805
 30
0.0
 10
4.4295325369
 20
1.1368762416
 30
0.0
 10
4.4289374957
 20
1.1367654999
 30
0.0
 10
4.4278222444
 20
1.1366001341
 30
0.0
 10
4.4260214005
 20
1.1364045174
 30
0.0
 10
4.4244713912
 20
1.1362733159
 30
0.0
 10
4.423589555
 20
1.1362050552
 30
0.0
  0
LINE
  5
2A1
100
AcDbEntity
  8
0
100
AcDbLine
 62
7
  6
CONTINUOUS
 10
4.423589555
 20
1.1362050552
 11
4.4183900514
 21
1.1358580515
  0
SPLINE
  5
2A2
100
AcDbEntity
  8
0
100
AcDbSpline
 62
7
  6
CONTINUOUS
 70
0
 71
3
 72
11
 73
7
 74
0
 42
0.0000001
 43
0.0000001
 44
0.0000000001
 40
0.0
 40
0.0
 40
0.0
 40
0.0
 40
0.1847520791
 40
0.4219780696
 40
0.6987268425
 40
1.0
 40
1.0
 40
1.0
 40
1.0
 10
4.4118066412
 20
1.1355109455
 30
0.0
 10
4.4053150331
 20
1.1352000671
 30
0.0
 10
4.3904812191
 20
1.1346369995
 30
0.0
 10
4.3659133521
 20
1.1338909649
 30
0.0
 10
4.3372448852
 20
1.1331458808
 30
0.0
 10
4.3169184656
 20
1.1326226607
 30
0.0
 10
4.3063235599
 20
1.1323697173
 30
0.0
  0
SPLINE
  5
2A3
100
AcDbEntity
  8
0
100
AcDbSpline
 62
7
  6
CONTINUOUS
 70
0
 71
3
 72
13
 73
9
 74
0
 42
0.0000001
 43
0.0000001
 44
0.0000000001
 40
0.0
 40
0.0
 40
0.0
 40
0.0
 40
0.0430776156
 40
0.1093553789
 40
0.1992243449
 40
0.3126987713
 40
0.6099945816
 40
1.0
 40
1.0
 40
1.0
 40
1.0
 10
4.4195752085
 20
1.1309905739
 30
0.0
 10
4.419472051
 20
1.1309309248
 30
0.0
 10
4.4191827581
 20
1.1308319005
 30
0.0
 10
4.4186475898
 20
1.1307046802
 30
0.0
 10
4.4179120128
 20
1.1305761975
 30
0.0
 10
4.416540638
 20
1.1303845486
 30
0.0
 10
4.4143364127
 20
1.1301576217
 30
0.0
 10
4.4124413911
 20
1.1300049107
 30
0.0
 10
4.4113654827
 20
1.1299254934
 30
0.0
  0
SPLINE
  5
2A4
100
AcDbEntity
  8
0
100
AcDbSpline
 62
7
  6
CONTINUOUS
 70
0
 71
3
 72
17
 73
13
 74
0
 42
0.0000001
 43
0.0000001
 44
0.0000000001
 40
0.0
 40
0.0
 40
0.0
 40
0.0
 40
0.0334569789
 40
0.077359106
 40
0.1924504876
 40
0.3341682886
 40
0.4906081041
 40
0.6486660876
 40
0.7943352866
 40
0.9145279652
 40
0.9621197902
 40
1.0
 40
1.0
 40
1.0
 40
1.0
 10
4.4113654827
 20
1.1299254934
 30
0.0
 10
4.4087344504
 20
1.1297312858
 30
0.0
 10
4.402644472
 20
1.1293727416
 30
0.0
 10
4.3874849641
 20
1.1286782057
 30
0.0
 10
4.3637858741
 20
1.1278752613
 30
0.0
 10
4.3312133655
 20
1.126941285
 30
0.0
 10
4.2952514353
 20
1.1260047403
 30
0.0
 10
4.2589778513
 20
1.1250687312
 30
0.0
 10
4.2255633742
 20
1.1241394538
 30
0.0
 10
4.2008594669
 20
1.1233263952
 30
0.0
 10
4.1846567655
 20
1.1226363978
 30
0.0
 10
4.1779259974
 20
1.1222826702
 30
0.0
 10
4.174945014
 20
1.1220935556
 30
0.0
  0
SPLINE
  5
2A5
100
AcDbEntity
  8
0
100
AcDbSpline
 62
7
  6
CONTINUOUS
 70
0
 71
3
 72
14
 73
10
 74
0
 42
0.0000001
 43
0.0000001
 44
0.0000000001
 40
0.0
 40
0.0
 40
0.0
 40
0.0
 40
0.3965799996
 40
0.5591774159
 40
0.6971060826
 40
0.8098857786
 40
0.8976498099
 40
0.9607736003
 40
1.0
 40
1.0
 40
1.0
 40
1.0
 10
4.174945014
 20
1.1220935556
 30
0.0
 10
4.1735084665
 20
1.1220024205
 30
0.0
 10
4.1714834508
 20
1.1218634742
 30
0.0
 10
4.168962437
 20
1.1216479217
 30
0.0
 10
4.1674695458
 20
1.12149808
 30
0.0
 10
4.1662504856
 20
1.121348554
 30
0.0
 10
4.1653033011
 20
1.1212021284
 30
0.0
 10
4.1646308229
 20
1.1210563422
 30
0.0
 10
4.1642717437
 20
1.1209436277
 30
0.0
 10
4.1641484955
 20
1.120872346
 30
0.0
  0
ENDSEC
  0
SECTION
  2
OBJECTS
  0
DICTIONARY
  5
C
100
AcDbDictionary
280
0
281
1
  3
ACAD_GROUP
350
D
  3
ACAD_MLINESTYLE
350
17
  3
ACAD_LAYOUT
350
1A
  3
ACAD_PLOTSETTINGS
350
19
  3
ACAD_PLOTSTYLENAME
350
E
  0
DICTIONARY
  5
D
102
{ACAD_REACTORS
330
C
102
}
100
AcDbDictionary
280
0
281
1
  0
ACDBDICTIONARYWDFLT
  5
E
102
{ACAD_REACTORS
330
C
102
}
100
AcDbDictionary
281
1
  3
Normal
350
F
100
AcDbDictionaryWithDefault
340
F
  0
DICTIONARY
  5
17
102
{ACAD_REACTORS
330
C
102
}
100
AcDbDictionary
280
0
281
1
  3
Standard
350
18
  0
DICTIONARY
  5
19
102
{ACAD_REACTORS
330
C
102
}
100
AcDbDictionary
281
1
  0
DICTIONARY
  5
1A
102
{ACAD_REACTORS
330
C
102
}
100
AcDbDictionary
281
1
  3
Model
350
2A6
  3
Layout1
350
2A7
  0
ACDBPLACEHOLDER
  5
F
102
{ACAD_REACTORS
330
E
102
}
  0
MLINESTYLE
  5
18
102
{ACAD_REACTORS
330
17
102
}
100
AcDbMlineStyle
  2
STANDARD
 70
0
  3

 62
256
 51
90.0
 52
90.0
 71
2
 49
0.5
 62
256
  6
BYLAYER
 49
-0.5
 62
256
  6
BYLAYER
  0
LAYOUT
  5
2A6
102
{ACAD_REACTORS
330
1A
102
}
100
AcDbPlotSettings
  1

  2
none_device
  4

  6

 40
0.0
 41
0.0
 42
0.0
 43
0.0
 44
215.9
 45
279.4
 46
0.0
 47
0.0
 48
0.0
 49
0.0
140
0.0
141
0.0
142
1.0
143
1.0
 70
1024
 72
0
 73
0
 74
0
  7

 75
0
147
1.0
148
0.0
149
0.0
100
AcDbLayout
  1
Model
 70
0
 71
0
 10
0.0
 20
0.0
 11
8.5
 21
11.0
 12
0.0
 22
0.0
 32
0.0
 14
0.0
 24
0.0
 34
0.0
 15
0.0
 25
0.0
 35
0.0
146
0.0
 13
0.0
 23
0.0
 33
0.0
 16
1.0
 26
0.0
 36
0.0
 17
0.0
 27
1.0
 37
0.0
 76
0
330
22E
345
0
346
0
  0
LAYOUT
  5
2A7
102
{ACAD_REACTORS
330
1A
102
}
100
AcDbPlotSettings
  1

  2
none_device
  4

  6

 40
0.0
 41
0.0
 42
0.0
 43
0.0
 44
215.9
 45
279.4
 46
0.0
 47
0.0
 48
0.0
 49
0.0
140
0.0
141
0.0
142
1.0
143
1.0
 70
0
 72
0
 73
0
 74
0
  7

 75
0
147
1.0
148
0.0
149
0.0
100
AcDbLayout
  1
Layout1
 70
0
 71
1
 10
0.0
 20
0.0
 11
8.5
 21
11.0
 12
0.0
 22
0.0
 32
0.0
 14
0.0
 24
0.0
 34
0.0
 15
0.0
 25
0.0
 35
0.0
146
0.0
 13
0.0
 23
0.0
 33
0.0
 16
1.0
 26
0.0
 36
0.0
 17
0.0
 27
1.0
 37
0.0
 76
0
330
22F
345
0
346
0
  0
ENDSEC
  0
EOF
