999
DXF file: C:\Prowork\plots\482-1_right.dxf
999
Pro/ENGINEER 2018500 by Parametric Technology Corporation
  0
SECTION
  2
HEADER
  9
$ACADVER
  1
AC1032
  9
$DWGCODEPAGE
  3
ANSI_1252
  9
$EXTMAX
 10
8.5
 20
11.0
 30
0.0
  9
$EXTMIN
 10
0.0
 20
0.0
 30
0.0
  9
$LIMMIN
 10
0.0
 20
0.0
  9
$LIMMAX
 10
8.5
 20
11.0
  9
$VIEWCTR
 10
4.25
 20
5.5
  9
$VIEWSIZE
 40
11.0
  9
$CLAYER
  8
0
  9
$LTSCALE
 40
0.717037037
  9
$CELTYPE
  6
BYLAYER
  9
$DIMSCALE
 40
1.0
  9
$DIMASZ
 40
0.1
  9
$DIMEXO
 40
0.0625
  9
$DIMDLI
 40
0.4954074074
  9
$DIMEXE
 40
0.125
  9
$DIMCEN
 40
0.1173333333
  9
$DIMLFAC
 40
1.0
  9
$DIMBLK
  1
_FILLED
  9
$DIMALT
 70
1
  9
$DIMALTD
 70
2
  9
$DIMALTTD
 70
2
  9
$DIMALTF
 40
25.4
  9
$DIMTXT
 40
0.08
  9
$DIMTOL
 70
1
  9
$DIMLIM
 70
0
  9
$DIMTFAC
 40
1.0
  9
$DIMTP
 40
0.001
  9
$DIMTM
 40
0.001
  9
$DIMGAP
 40
0.09
  9
$DIMDSEP
 70
46
  9
$AUNITS
 70
0
  9
$PDMODE
 70
3
  9
$PDSIZE
 40
0.06
  9
$HANDSEED
  5
2FB
  9
$TILEMODE
 70
1
  9
$MEASUREMENT
 70
0
  9
$INSUNITS
 70
1
  0
ENDSEC
  0
SECTION
  2
CLASSES
  0
CLASS
  1
ACDBDICTIONARYWDFLT
  2
AcDbDictionaryWithDefault
  3
AutoCAD 2000
 90
0
 91
1
280
0
281
0
  0
CLASS
  1
ACDBPLACEHOLDER
  2
AcDbPlaceHolder
  3
AutoCAD 2000
 90
0
 91
1
280
0
281
0
  0
CLASS
  1
LAYOUT
  2
AcDbLayout
  3
AutoCAD 2000
 90
0
 91
0
280
0
281
0
  0
ENDSEC
  0
SECTION
  2
TABLES
  0
TABLE
  2
VPORT
  5
8
100
AcDbSymbolTable
 70
2
  0
VPORT
  5
1F4
100
AcDbSymbolTableRecord
100
AcDbViewportTableRecord
  2
*ACTIVE
 70
0
 10
0.0
 20
0.0
 11
1.0
 21
1.0
 12
4.25
 22
5.5
 13
0.0
 23
0.0
 14
1.0
 24
1.0
 15
0.0
 25
0.0
 16
0.0
 26
0.0
 36
1.0
 17
0.0
 27
0.0
 37
0.0
 40
11.0
 41
0.7727272727
 42
50.0
 43
0.0
 44
0.0
 50
0.0
 51
0.0
 71
0
 72
100
 73
1
 74
1
 75
0
 76
0
 77
0
 78
0
  0
ENDTAB
  0
TABLE
  2
LTYPE
  5
5
100
AcDbSymbolTable
 70
6
  0
LTYPE
  5
14
100
AcDbSymbolTableRecord
100
AcDbLinetypeTableRecord
  2
BYBLOCK
 70
0
  3

 72
65
 73
0
 40
0.0
  0
LTYPE
  5
15
100
AcDbSymbolTableRecord
100
AcDbLinetypeTableRecord
  2
BYLAYER
 70
0
  3

 72
65
 73
0
 40
0.0
  0
LTYPE
  5
16
100
AcDbSymbolTableRecord
100
AcDbLinetypeTableRecord
  2
CONTINUOUS
 70
64
  3
Solid line
 72
65
 73
0
 40
0.0
  0
LTYPE
  5
1F5
100
AcDbSymbolTableRecord
100
AcDbLinetypeTableRecord
  2
CENTER
 70
64
  3
____ _ ____ _ ____ _ ____ _ ____ _ ____ _ ____
 72
65
 73
4
 40
0.6
 49
0.375
 74
0
 49
-0.075
 74
0
 49
0.075
 74
0
 49
-0.075
 74
0
  0
LTYPE
  5
1F6
100
AcDbSymbolTableRecord
100
AcDbLinetypeTableRecord
  2
HIDDEN
 70
64
  3
- - - - - - - - - - - - - - - - - - - -
 72
65
 73
2
 40
0.2
 49
0.1
 74
0
 49
-0.1
 74
0
  0
LTYPE
  5
1F7
100
AcDbSymbolTableRecord
100
AcDbLinetypeTableRecord
  2
PHANTOM
 70
64
  3
_____ _ _ _____ _ _ _____ _ _ _____
 72
65
 73
6
 40
0.8
 49
0.45
 74
0
 49
-0.05
 74
0
 49
0.1
 74
0
 49
-0.05
 74
0
 49
0.1
 74
0
 49
-0.05
 74
0
  0
LTYPE
  5
1F8
100
AcDbSymbolTableRecord
100
AcDbLinetypeTableRecord
  2
DOT
 70
64
  3
. . . . . . . . . . . . . . . . . . . .
 72
65
 73
2
 40
0.2
 49
0.1
 74
0
 49
-0.1
 74
0
  0
LTYPE
  5
1F9
100
AcDbSymbolTableRecord
100
AcDbLinetypeTableRecord
  2
DASHED
 70
64
  3
- - - - - - - - - - - - - - - - - - - -
 72
65
 73
2
 40
0.2
 49
0.1
 74
0
 49
-0.1
 74
0
  0
ENDTAB
  0
TABLE
  2
LAYER
  5
2
100
AcDbSymbolTable
 70
36
  0
LAYER
  5
10
100
AcDbSymbolTableRecord
100
AcDbLayerTableRecord
  2
0
 70
0
 62
7
  6
CONTINUOUS
370
-3
390
F
  0
LAYER
  5
1FA
100
AcDbSymbolTableRecord
100
AcDbLayerTableRecord
  2
DEFAULT_1
 70
0
 62
7
  6
CENTER
370
-3
390
F
  0
LAYER
  5
1FB
100
AcDbSymbolTableRecord
100
AcDbLayerTableRecord
  2
DEFAULT_2
 70
0
 62
8
  6
HIDDEN
370
-3
390
F
  0
LAYER
  5
1FC
100
AcDbSymbolTableRecord
100
AcDbLayerTableRecord
  2
DEFAULT_3
 70
0
 62
7
  6
PHANTOM
370
-3
390
F
  0
LAYER
  5
1FD
100
AcDbSymbolTableRecord
100
AcDbLayerTableRecord
  2
1-134
 70
0
 62
7
  6
CONTINUOUS
370
-3
390
F
  0
LAYER
  5
1FE
100
AcDbSymbolTableRecord
100
AcDbLayerTableRecord
  2
403-1
 70
0
 62
7
  6
CONTINUOUS
370
-3
390
F
  0
LAYER
  5
1FF
100
AcDbSymbolTableRecord
100
AcDbLayerTableRecord
  2
436
 70
0
 62
7
  6
CONTINUOUS
370
-3
390
F
  0
LAYER
  5
200
100
AcDbSymbolTableRecord
100
AcDbLayerTableRecord
  2
441
 70
0
 62
7
  6
CONTINUOUS
370
-3
390
F
  0
LAYER
  5
201
100
AcDbSymbolTableRecord
100
AcDbLayerTableRecord
  2
50359
 70
0
 62
7
  6
CONTINUOUS
370
-3
390
F
  0
LAYER
  5
202
100
AcDbSymbolTableRecord
100
AcDbLayerTableRecord
  2
50362
 70
0
 62
7
  6
CONTINUOUS
370
-3
390
F
  0
LAYER
  5
203
100
AcDbSymbolTableRecord
100
AcDbLayerTableRecord
  2
50392
 70
0
 62
7
  6
CONTINUOUS
370
-3
390
F
  0
LAYER
  5
204
100
AcDbSymbolTableRecord
100
AcDbLayerTableRecord
  2
50729
 70
0
 62
7
  6
CONTINUOUS
370
-3
390
F
  0
LAYER
  5
205
100
AcDbSymbolTableRecord
100
AcDbLayerTableRecord
  2
50733
 70
0
 62
7
  6
CONTINUOUS
370
-3
390
F
  0
LAYER
  5
206
100
AcDbSymbolTableRecord
100
AcDbLayerTableRecord
  2
50738
 70
0
 62
7
  6
CONTINUOUS
370
-3
390
F
  0
LAYER
  5
207
100
AcDbSymbolTableRecord
100
AcDbLayerTableRecord
  2
50741
 70
0
 62
7
  6
CONTINUOUS
370
-3
390
F
  0
LAYER
  5
208
100
AcDbSymbolTableRecord
100
AcDbLayerTableRecord
  2
50742
 70
0
 62
7
  6
CONTINUOUS
370
-3
390
F
  0
LAYER
  5
209
100
AcDbSymbolTableRecord
100
AcDbLayerTableRecord
  2
50743
 70
0
 62
7
  6
CONTINUOUS
370
-3
390
F
  0
LAYER
  5
20A
100
AcDbSymbolTableRecord
100
AcDbLayerTableRecord
  2
6-034
 70
0
 62
7
  6
CONTINUOUS
370
-3
390
F
  0
LAYER
  5
20B
100
AcDbSymbolTableRecord
100
AcDbLayerTableRecord
  2
91022
 70
0
 62
7
  6
CONTINUOUS
370
-3
390
F
  0
LAYER
  5
20C
100
AcDbSymbolTableRecord
100
AcDbLayerTableRecord
  2
91203
 70
0
 62
7
  6
CONTINUOUS
370
-3
390
F
  0
LAYER
  5
20D
100
AcDbSymbolTableRecord
100
AcDbLayerTableRecord
  2
92087
 70
0
 62
7
  6
CONTINUOUS
370
-3
390
F
  0
LAYER
  5
20E
100
AcDbSymbolTableRecord
100
AcDbLayerTableRecord
  2
ALL_ASSEMBLY_MEMBERS
 70
0
 62
7
  6
CONTINUOUS
370
-3
390
F
  0
LAYER
  5
20F
100
AcDbSymbolTableRecord
100
AcDbLayerTableRecord
  2
COLOR147
 70
0
 62
7
  6
CONTINUOUS
370
-3
390
F
  0
LAYER
  5
210
100
AcDbSymbolTableRecord
100
AcDbLayerTableRecord
  2
COLOR32
 70
0
 62
7
  6
CONTINUOUS
370
-3
390
F
  0
LAYER
  5
211
100
AcDbSymbolTableRecord
100
AcDbLayerTableRecord
  2
COLOR54
 70
0
 62
7
  6
CONTINUOUS
370
-3
390
F
  0
LAYER
  5
212
100
AcDbSymbolTableRecord
100
AcDbLayerTableRecord
  2
COLOR66
 70
0
 62
7
  6
CONTINUOUS
370
-3
390
F
  0
LAYER
  5
213
100
AcDbSymbolTableRecord
100
AcDbLayerTableRecord
  2
DEFAULT_COORDINATE_SYSTEM
 70
0
 62
7
  6
CONTINUOUS
370
-3
390
F
  0
LAYER
  5
214
100
AcDbSymbolTableRecord
100
AcDbLayerTableRecord
  2
DEFAULT_DATUM_AXES
 70
0
 62
7
  6
CONTINUOUS
370
-3
390
F
  0
LAYER
  5
215
100
AcDbSymbolTableRecord
100
AcDbLayerTableRecord
  2
DEFAULT_DATUM_PLANES
 70
0
 62
7
  6
CONTINUOUS
370
-3
390
F
  0
LAYER
  5
216
100
AcDbSymbolTableRecord
100
AcDbLayerTableRecord
  2
DEFAULT_SURFACES
 70
0
 62
7
  6
CONTINUOUS
370
-3
390
F
  0
LAYER
  5
217
100
AcDbSymbolTableRecord
100
AcDbLayerTableRecord
  2
INTF_441
 70
0
 62
7
  6
CONTINUOUS
370
-3
390
F
  0
LAYER
  5
218
100
AcDbSymbolTableRecord
100
AcDbLayerTableRecord
  2
INTF_50359
 70
0
 62
7
  6
CONTINUOUS
370
-3
390
F
  0
LAYER
  5
219
100
AcDbSymbolTableRecord
100
AcDbLayerTableRecord
  2
INTF_50362
 70
0
 62
7
  6
CONTINUOUS
370
-3
390
F
  0
LAYER
  5
21A
100
AcDbSymbolTableRecord
100
AcDbLayerTableRecord
  2
INTF_50392
 70
0
 62
7
  6
CONTINUOUS
370
-3
390
F
  0
LAYER
  5
21B
100
AcDbSymbolTableRecord
100
AcDbLayerTableRecord
  2
INTF_50729
 70
0
 62
7
  6
CONTINUOUS
370
-3
390
F
  0
LAYER
  5
21C
100
AcDbSymbolTableRecord
100
AcDbLayerTableRecord
  2
INTF_50733
 70
0
 62
7
  6
CONTINUOUS
370
-3
390
F
  0
LAYER
  5
21D
100
AcDbSymbolTableRecord
100
AcDbLayerTableRecord
  2
INTF_50738
 70
0
 62
7
  6
CONTINUOUS
370
-3
390
F
  0
LAYER
  5
21E
100
AcDbSymbolTableRecord
100
AcDbLayerTableRecord
  2
INTF_50741
 70
0
 62
7
  6
CONTINUOUS
370
-3
390
F
  0
LAYER
  5
21F
100
AcDbSymbolTableRecord
100
AcDbLayerTableRecord
  2
INTF_50742
 70
0
 62
7
  6
CONTINUOUS
370
-3
390
F
  0
LAYER
  5
220
100
AcDbSymbolTableRecord
100
AcDbLayerTableRecord
  2
INTF_50743
 70
0
 62
7
  6
CONTINUOUS
370
-3
390
F
  0
LAYER
  5
221
100
AcDbSymbolTableRecord
100
AcDbLayerTableRecord
  2
INTF_91022
 70
0
 62
7
  6
CONTINUOUS
370
-3
390
F
  0
LAYER
  5
222
100
AcDbSymbolTableRecord
100
AcDbLayerTableRecord
  2
INTF_91203
 70
0
 62
7
  6
CONTINUOUS
370
-3
390
F
  0
LAYER
  5
223
100
AcDbSymbolTableRecord
100
AcDbLayerTableRecord
  2
INTF_92087
 70
0
 62
7
  6
CONTINUOUS
370
-3
390
F
  0
LAYER
  5
224
100
AcDbSymbolTableRecord
100
AcDbLayerTableRecord
  2
INTF_BLANK
 70
0
 62
7
  6
CONTINUOUS
370
-3
390
F
  0
LAYER
  5
225
100
AcDbSymbolTableRecord
100
AcDbLayerTableRecord
  2
QUILT
 70
0
 62
7
  6
CONTINUOUS
370
-3
390
F
  0
LAYER
  5
226
100
AcDbSymbolTableRecord
100
AcDbLayerTableRecord
  2
QUILT_1
 70
0
 62
7
  6
CONTINUOUS
370
-3
390
F
  0
LAYER
  5
227
100
AcDbSymbolTableRecord
100
AcDbLayerTableRecord
  2
QUILT_2
 70
0
 62
7
  6
CONTINUOUS
370
-3
390
F
  0
LAYER
  5
228
100
AcDbSymbolTableRecord
100
AcDbLayerTableRecord
  2
SURFACES
 70
0
 62
7
  6
CONTINUOUS
370
-3
390
F
  0
LAYER
  5
229
100
AcDbSymbolTableRecord
100
AcDbLayerTableRecord
  2
WETTED_SURFACE
 70
0
 62
7
  6
CONTINUOUS
370
-3
390
F
  0
LAYER
  5
22A
100
AcDbSymbolTableRecord
100
AcDbLayerTableRecord
  2
WETTED_SURFACES
 70
0
 62
7
  6
CONTINUOUS
370
-3
390
F
  0
LAYER
  5
22B
100
AcDbSymbolTableRecord
100
AcDbLayerTableRecord
  2
_BLACK_HOLE
 70
0
 62
7
  6
CONTINUOUS
370
-3
390
F
  0
ENDTAB
  0
TABLE
  2
STYLE
  5
3
100
AcDbSymbolTable
 70
1
  0
STYLE
  5
11
100
AcDbSymbolTableRecord
100
AcDbTextStyleTableRecord
  2
STANDARD
 70
0
 40
0.0
 41
0.8
 50
0.0
 71
0
 42
0.2
  3
txt
  4

  0
STYLE
  5
22C
100
AcDbSymbolTableRecord
100
AcDbTextStyleTableRecord
  2
TEXTSTYLE_1
 70
0
 40
0.0
 41
0.8
 50
0.0
 71
0
 42
0.2
  3
gdt
  4

  0
ENDTAB
  0
TABLE
  2
VIEW
  5
6
100
AcDbSymbolTable
 70
0
  0
ENDTAB
  0
TABLE
  2
UCS
  5
7
100
AcDbSymbolTable
 70
0
  0
ENDTAB
  0
TABLE
  2
APPID
  5
9
100
AcDbSymbolTable
 70
1
  0
APPID
  5
22D
100
AcDbSymbolTableRecord
100
AcDbRegAppTableRecord
  2
ACAD
 70
0
  0
ENDTAB
  0
TABLE
  2
BLOCK_RECORD
  5
1
100
AcDbSymbolTable
 70
0
  0
BLOCK_RECORD
  5
22E
100
AcDbSymbolTableRecord
100
AcDbBlockTableRecord
  2
*Model_Space
  0
BLOCK_RECORD
  5
22F
100
AcDbSymbolTableRecord
100
AcDbBlockTableRecord
  2
*Paper_Space
  0
BLOCK_RECORD
  5
230
100
AcDbSymbolTableRecord
100
AcDbBlockTableRecord
  2
_FILLED
  0
ENDTAB
  0
TABLE
  2
DIMSTYLE
  5
A
100
AcDbSymbolTable
 70
1
100
AcDbDimStyleTable
 71
0
  0
DIMSTYLE
105
231
100
AcDbSymbolTableRecord
100
AcDbDimStyleTableRecord
  2
STANDARD
 70
0
  3

  4

 40
1.0
 41
0.1
 42
0.0625
 43
0.38
 44
0.125
 45
0.0
 46
0.0
 47
0.001
 48
0.001
140
0.08
141
0.09
142
0.0
143
25.4
144
1.0
145
0.0
146
1.0
147
0.09
 71
1.0
 72
0.0
 73
1
 74
1
 75
0
 76
0
 77
0
 78
4
 79
1
170
1
171
2
172
0
173
0
174
0
175
0
176
0
177
0
178
0
270
2
179
3
271
3
272
3
273
2
274
2
275
0
280
0
281
0
282
0
283
1
284
4
285
0
286
0
287
3
288
0
340
11
278
46
341
230
342
230
343
230
344
230
  0
ENDTAB
  0
ENDSEC
  0
SECTION
  2
BLOCKS
  0
BLOCK
  5
20
100
AcDbEntity
  8
0
100
AcDbBlockBegin
  2
*Model_Space
 70
0
 10
0.0
 20
0.0
 30
0.0
  3
*Model_Space
  1

  0
ENDBLK
  5
21
100
AcDbEntity
  8
0
100
AcDbBlockEnd
  0
BLOCK
  5
1C
100
AcDbEntity
  8
0
100
AcDbBlockBegin
  2
*Paper_Space
 70
0
 10
0.0
 20
0.0
 30
0.0
  3
*Paper_Space
  1

  0
ENDBLK
  5
1D
100
AcDbEntity
  8
0
100
AcDbBlockEnd
  0
BLOCK
  5
232
100
AcDbEntity
  8
0
100
AcDbBlockBegin
  2
_FILLED
 70
64
 10
0.0
 20
0.0
  3
_FILLED
  1

  0
SOLID
  5
233
100
AcDbEntity
  8
0
  6
BYBLOCK
 62
0
100
AcDbTrace
 10
0.0
 20
0.0
 11
-1.0
 21
0.2
 12
-1.0
 22
-0.2
 13
-1.0
 23
-0.2
  0
ENDBLK
  5
234
100
AcDbEntity
  8
0
  6
BYBLOCK
 62
0
100
AcDbBlockEnd
  0
ENDSEC
  0
SECTION
  2
ENTITIES
  0
MTEXT
  5
235
100
AcDbEntity
  8
0
100
AcDbMText
 62
7
  6
CONTINUOUS
  7
STANDARD
 71
1
 72
1
 10
7.2459627329
 20
0.2825465839
 30
0.0
 11
1.0
 21
0.0
 31
0.0
 73
2
 44
0.9
  1
SCALE: .50
 40
0.08
 41
0.64
  0
LINE
  5
236
100
AcDbEntity
  8
0
100
AcDbLine
 62
7
  6
CONTINUOUS
 10
0.0
 20
0.0
 11
8.5
 21
0.0
  0
LINE
  5
237
100
AcDbEntity
  8
0
100
AcDbLine
 62
7
  6
CONTINUOUS
 10
0.0
 20
0.0
 11
0.0
 21
11.0
  0
LINE
  5
238
100
AcDbEntity
  8
0
100
AcDbLine
 62
7
  6
CONTINUOUS
 10
8.5
 20
0.0
 11
8.5
 21
11.0
  0
LINE
  5
239
100
AcDbEntity
  8
0
100
AcDbLine
 62
7
  6
CONTINUOUS
 10
0.0
 20
11.0
 11
8.5
 21
11.0
  0
LINE
  5
23A
100
AcDbEntity
  8
0
100
AcDbLine
 62
7
  6
CONTINUOUS
 10
5.9725993789
 20
0.0755046584
 11
5.9171079112
 21
0.0755046584
  0
LINE
  5
23B
100
AcDbEntity
  8
0
100
AcDbLine
 62
7
  6
CONTINUOUS
 10
2.3593828051
 20
0.1028296584
 11
2.5518159527
 21
0.1028296584
  0
LINE
  5
23C
100
AcDbEntity
  8
0
100
AcDbLine
 62
7
  6
CONTINUOUS
 10
4.6875993789
 20
0.4505046584
 11
4.2805993789
 21
0.4505046584
  0
LINE
  5
23D
100
AcDbEntity
  8
0
100
AcDbLine
 62
7
  6
CONTINUOUS
 10
4.2305993789
 20
0.4505046584
 11
2.8305993789
 21
0.4505046584
  0
LINE
  5
23E
100
AcDbEntity
  8
0
100
AcDbLine
 62
7
  6
CONTINUOUS
 10
2.6605993789
 20
0.4505046584
 11
2.8155993789
 21
0.4505046584
  0
LINE
  5
23F
100
AcDbEntity
  8
0
100
AcDbLine
 62
7
  6
CONTINUOUS
 10
2.8253466471
 20
0.5065811343
 11
2.8303565189
 21
0.5065811343
  0
LINE
  5
240
100
AcDbEntity
  8
0
100
AcDbLine
 62
7
  6
CONTINUOUS
 10
4.2705993789
 20
0.5170046584
 11
4.2305993789
 21
0.5170046584
  0
LINE
  5
241
100
AcDbEntity
  8
0
100
AcDbLine
 62
7
  6
CONTINUOUS
 10
2.3155993789
 20
0.5230046584
 11
2.3540993789
 21
0.5230046584
  0
LINE
  5
242
100
AcDbEntity
  8
0
100
AcDbLine
 62
7
  6
CONTINUOUS
 10
2.5570993789
 20
0.5230046584
 11
2.5955993789
 21
0.5230046584
  0
LINE
  5
243
100
AcDbEntity
  8
0
100
AcDbLine
 62
7
  6
CONTINUOUS
 10
4.5950993789
 20
0.5545902999
 11
4.6875993789
 21
0.5545902999
  0
LINE
  5
244
100
AcDbEntity
  8
0
100
AcDbLine
 62
7
  6
CONTINUOUS
 10
2.8252996851
 20
0.5065811343
 11
2.8252982094
 21
0.5065811519
  0
LINE
  5
245
100
AcDbEntity
  8
0
100
AcDbLine
 62
7
  6
CONTINUOUS
 10
2.5550849502
 20
0.5241678913
 11
2.555086953
 21
0.5241667864
  0
LINE
  5
246
100
AcDbEntity
  8
0
100
AcDbLine
 62
7
  6
CONTINUOUS
 10
2.5550470926
 20
0.5241722803
 11
2.5570993788
 21
0.5230046584
  0
LINE
  5
247
100
AcDbEntity
  8
0
100
AcDbLine
 62
7
  6
CONTINUOUS
 10
2.5566072422
 20
0.5232951308
 11
2.5570993789
 21
0.5230046584
  0
LINE
  5
248
100
AcDbEntity
  8
0
100
AcDbLine
 62
7
  6
CONTINUOUS
 10
2.5955993789
 20
0.5880046584
 11
2.6555993789
 21
0.5880046584
  0
LINE
  5
249
100
AcDbEntity
  8
0
100
AcDbLine
 62
7
  6
CONTINUOUS
 10
2.5955993789
 20
0.8130046584
 11
2.6555993789
 21
0.8130046584
  0
LINE
  5
24A
100
AcDbEntity
  8
0
100
AcDbLine
 62
7
  6
CONTINUOUS
 10
4.6875993789
 20
0.8464190168
 11
4.5950993789
 21
0.8464190168
  0
LINE
  5
24B
100
AcDbEntity
  8
0
100
AcDbLine
 62
7
  6
CONTINUOUS
 10
2.3155993789
 20
0.8780046584
 11
2.5955993789
 21
0.8780046584
  0
LINE
  5
24C
100
AcDbEntity
  8
0
100
AcDbLine
 62
7
  6
CONTINUOUS
 10
4.2305993789
 20
0.8840046584
 11
4.2705993789
 21
0.8840046584
  0
LINE
  5
24D
100
AcDbEntity
  8
0
100
AcDbLine
 62
7
  6
CONTINUOUS
 10
4.2305993789
 20
0.9505046584
 11
3.4756506945
 21
0.9505046584
  0
LINE
  5
24E
100
AcDbEntity
  8
0
100
AcDbLine
 62
7
  6
CONTINUOUS
 10
2.9355480631
 20
0.9505046584
 11
2.8305993789
 21
0.9505046584
  0
LINE
  5
24F
100
AcDbEntity
  8
0
100
AcDbLine
 62
7
  6
CONTINUOUS
 10
2.6605993789
 20
0.9505046584
 11
2.8155993789
 21
0.9505046584
  0
LINE
  5
250
100
AcDbEntity
  8
0
100
AcDbLine
 62
7
  6
CONTINUOUS
 10
4.2805993789
 20
0.9505046584
 11
4.6875993789
 21
0.9505046584
  0
LWPOLYLINE
  5
251
100
AcDbEntity
  8
0
100
AcDbPolyline
 62
7
  6
CONTINUOUS
 90
12
 70
0
 10
3.4755993782
 20
0.9505046577
 10
3.4729108106
 20
0.9506861915
 10
3.4698346565
 20
0.9513534703
 10
3.4668851901
 20
0.95250291
 10
3.4641968946
 20
0.9540734873
 10
3.4617568604
 20
0.9560691219
 10
3.4596599085
 20
0.9584243723
 10
3.4579775456
 20
0.9610457461
 10
3.4567061524
 20
0.9639437117
 10
3.4559107464
 20
0.9669892958
 10
3.4556038376
 20
0.9700823413
 10
3.4555993784
 20
0.9705029336
  0
LINE
  5
252
100
AcDbEntity
  8
0
100
AcDbLine
 62
7
  6
CONTINUOUS
 10
3.220067131
 20
1.12051317
 11
3.1911081106
 21
1.1198187398
  0
LINE
  5
253
100
AcDbEntity
  8
0
100
AcDbLine
 62
7
  6
CONTINUOUS
 10
2.9555993789
 20
1.0755046584
 11
3.4555993789
 21
1.0755046584
  0
LINE
  5
254
100
AcDbEntity
  8
0
100
AcDbLine
 62
7
  6
CONTINUOUS
 10
3.3830993789
 20
1.1255046584
 11
3.0280993789
 21
1.1255046584
  0
LINE
  5
255
100
AcDbEntity
  8
0
100
AcDbLine
 62
7
  6
CONTINUOUS
 10
5.9171079112
 20
1.3255046584
 11
5.9725993789
 21
1.3255046584
  0
LINE
  5
256
100
AcDbEntity
  8
0
100
AcDbLine
 62
7
  6
CONTINUOUS
 10
3.0971281845
 20
1.3405046584
 11
3.3140705732
 21
1.3405046584
  0
LINE
  5
257
100
AcDbEntity
  8
0
100
AcDbLine
 62
7
  6
CONTINUOUS
 10
3.0685393391
 20
1.1141057894
 11
3.0778870988
 21
1.1087002447
  0
LINE
  5
258
100
AcDbEntity
  8
0
100
AcDbLine
 62
7
  6
CONTINUOUS
 10
3.3425967322
 20
1.1140660534
 11
3.3333439692
 21
1.1194153255
  0
LINE
  5
259
100
AcDbEntity
  8
0
100
AcDbLine
 62
7
  6
CONTINUOUS
 10
3.0685916591
 20
1.0932675717
 11
3.0779406633
 21
1.0878590432
  0
LINE
  5
25A
100
AcDbEntity
  8
0
100
AcDbLine
 62
7
  6
CONTINUOUS
 10
3.3439819176
 20
1.0923960561
 11
3.3332857915
 21
1.098582521
  0
LINE
  5
25B
100
AcDbEntity
  8
0
100
AcDbLine
 62
9
  6
CONTINUOUS
 10
2.9355480631
 20
0.9505046584
 11
3.2055993789
 21
0.7005046584
  0
LINE
  5
25C
100
AcDbEntity
  8
0
100
AcDbLine
 62
7
  6
CONTINUOUS
 10
2.8205993789
 20
0.5112546584
 11
2.8253220402
 21
0.5065319971
  0
LINE
  5
25D
100
AcDbEntity
  8
0
100
AcDbLine
 62
7
  6
CONTINUOUS
 10
3.0280993789
 20
1.4105046584
 11
3.3830993789
 21
1.4105046584
  0
LINE
  5
25E
100
AcDbEntity
  8
0
100
AcDbLine
 62
9
  6
CONTINUOUS
 10
3.0482088289
 20
0.8704968046
 11
2.9556082074
 21
0.970494883
  0
LWPOLYLINE
  5
25F
100
AcDbEntity
  8
0
100
AcDbPolyline
 62
9
  6
CONTINUOUS
 90
3
 70
0
 10
2.9569344778
 20
0.9690624266
 10
2.9557458535
 20
0.9703900822
 10
2.9555993789
 20
0.9705559732
  0
LINE
  5
260
100
AcDbEntity
  8
0
100
AcDbLine
 62
7
  6
CONTINUOUS
 10
4.2705993789
 20
0.5127046584
 11
4.2750739757
 21
0.5082300616
  0
LINE
  5
261
100
AcDbEntity
  8
0
100
AcDbLine
 62
7
  6
CONTINUOUS
 10
3.3060481087
 20
10.588650484
 11
3.3264006491
 21
10.623902118
  0
LINE
  5
262
100
AcDbEntity
  8
0
100
AcDbLine
 62
7
  6
CONTINUOUS
 10
2.3155993789
 20
0.8779770918
 11
2.3155993789
 21
0.523032225
  0
LINE
  5
263
100
AcDbEntity
  8
0
100
AcDbLine
 62
7
  6
CONTINUOUS
 10
2.3593493789
 20
0.1028296584
 11
2.3593493789
 21
0.5259466463
  0
LINE
  5
264
100
AcDbEntity
  8
0
100
AcDbLine
 62
7
  6
CONTINUOUS
 10
2.5518493789
 20
0.1028296584
 11
2.5518493789
 21
0.5259466465
  0
LINE
  5
265
100
AcDbEntity
  8
0
100
AcDbLine
 62
7
  6
CONTINUOUS
 10
2.5955993789
 20
0.8779770918
 11
2.5955993789
 21
0.523032225
  0
LINE
  5
266
100
AcDbEntity
  8
0
100
AcDbLine
 62
9
  6
CONTINUOUS
 10
2.6555993789
 20
0.9454664206
 11
2.6555993789
 21
0.4555428961
  0
LINE
  5
267
100
AcDbEntity
  8
0
100
AcDbLine
 62
9
  6
CONTINUOUS
 10
2.6605993789
 20
0.9505046584
 11
2.6605993789
 21
0.4505046584
  0
LINE
  5
268
100
AcDbEntity
  8
0
100
AcDbLine
 62
7
  6
CONTINUOUS
 10
2.8253483152
 20
0.700582665
 11
2.8252743788
 21
0.7050838138
  0
LINE
  5
269
100
AcDbEntity
  8
0
100
AcDbLine
 62
9
  6
CONTINUOUS
 10
2.8155993789
 20
0.4505046584
 11
2.8155993789
 21
0.9505046584
  0
LINE
  5
26A
100
AcDbEntity
  8
0
100
AcDbLine
 62
9
  6
CONTINUOUS
 10
2.8205993789
 20
0.9454664206
 11
2.8205993789
 21
0.4555428961
  0
LINE
  5
26B
100
AcDbEntity
  8
0
100
AcDbLine
 62
7
  6
CONTINUOUS
 10
2.8252743786
 20
0.5065796586
 11
2.8252743788
 21
0.7050843498
  0
LINE
  5
26C
100
AcDbEntity
  8
0
100
AcDbLine
 62
7
  6
CONTINUOUS
 10
2.8305993789
 20
0.4505051484
 11
2.8305993789
 21
0.9505041683
  0
LINE
  5
26D
100
AcDbEntity
  8
0
100
AcDbLine
 62
7
  6
CONTINUOUS
 10
2.9555993789
 20
1.0755046584
 11
2.9555993789
 21
0.9705559732
  0
LINE
  5
26E
100
AcDbEntity
  8
0
100
AcDbLine
 62
7
  6
CONTINUOUS
 10
2.9943493789
 20
10.8630046584
 11
2.9943493789
 21
10.8005046584
  0
LINE
  5
26F
100
AcDbEntity
  8
0
100
AcDbLine
 62
7
  6
CONTINUOUS
 10
3.0055993789
 20
10.7705046584
 11
3.0055993789
 21
10.8005046584
  0
LINE
  5
270
100
AcDbEntity
  8
0
100
AcDbLine
 62
7
  6
CONTINUOUS
 10
3.0280993789
 20
1.1255046584
 11
3.0280993789
 21
1.4105046584
  0
LWPOLYLINE
  5
271
100
AcDbEntity
  8
0
100
AcDbPolyline
 62
7
  6
CONTINUOUS
 90
12
 70
0
 10
2.9555993788
 20
0.9705029327
 10
2.9555949202
 20
0.9700823709
 10
2.9552880156
 20
0.966989323
 10
2.954492613
 20
0.9639437358
 10
2.9532212225
 20
0.9610457668
 10
2.9515388614
 20
0.9584243895
 10
2.9494419105
 20
0.9560691356
 10
2.9470018765
 20
0.9540734975
 10
2.9443135806
 20
0.9525029171
 10
2.941364113
 20
0.9513534746
 10
2.9382879573
 20
0.9506861936
 10
2.9355993789
 20
0.9505046584
  0
LINE
  5
272
100
AcDbEntity
  8
0
100
AcDbLine
 62
7
  6
CONTINUOUS
 10
3.0670743789
 20
1.0755046584
 11
3.0670743789
 21
1.0818847455
  0
LINE
  5
273
100
AcDbEntity
  8
0
100
AcDbLine
 62
7
  6
CONTINUOUS
 10
3.0670743789
 20
1.0941245712
 11
3.0670743789
 21
1.1027180789
  0
LINE
  5
274
100
AcDbEntity
  8
0
100
AcDbLine
 62
7
  6
CONTINUOUS
 10
3.0670743789
 20
1.1149579046
 11
3.0670743789
 21
1.1235514122
  0
LINE
  5
275
100
AcDbEntity
  8
0
100
AcDbLine
 62
7
  6
CONTINUOUS
 10
3.0780993789
 20
10.648902118
 11
3.0780993789
 21
10.7705046584
  0
LINE
  5
276
100
AcDbEntity
  8
0
100
AcDbLine
 62
7
  6
CONTINUOUS
 10
3.0971281845
 20
1.4105046584
 11
3.0971281845
 21
1.3405046584
  0
LINE
  5
277
100
AcDbEntity
  8
0
100
AcDbLine
 62
7
  6
CONTINUOUS
 10
3.1118493789
 20
1.4105046584
 11
3.1118493789
 21
10.563650484
  0
LINE
  5
278
100
AcDbEntity
  8
0
100
AcDbLine
 62
7
  6
CONTINUOUS
 10
3.2993493789
 20
10.563650484
 11
3.2993493789
 21
1.4105046584
  0
LINE
  5
279
100
AcDbEntity
  8
0
100
AcDbLine
 62
7
  6
CONTINUOUS
 10
3.3140705732
 20
1.3405046584
 11
3.3140705732
 21
1.4105046584
  0
LINE
  5
27A
100
AcDbEntity
  8
0
100
AcDbLine
 62
7
  6
CONTINUOUS
 10
3.3330993789
 20
10.7705046584
 11
3.3330993789
 21
10.648902118
  0
LINE
  5
27B
100
AcDbEntity
  8
0
100
AcDbLine
 62
7
  6
CONTINUOUS
 10
3.3441243789
 20
1.1131347455
 11
3.3441243789
 21
1.1045412379
  0
LINE
  5
27C
100
AcDbEntity
  8
0
100
AcDbLine
 62
7
  6
CONTINUOUS
 10
3.3441243789
 20
1.0923014122
 11
3.3441243789
 21
1.0755046584
  0
LINE
  5
27D
100
AcDbEntity
  8
0
100
AcDbLine
 62
7
  6
CONTINUOUS
 10
3.3830993789
 20
1.4105046584
 11
3.3830993789
 21
1.1255046584
  0
LINE
  5
27E
100
AcDbEntity
  8
0
100
AcDbLine
 62
7
  6
CONTINUOUS
 10
3.4055993789
 20
10.8005046584
 11
3.4055993789
 21
10.7705046584
  0
LINE
  5
27F
100
AcDbEntity
  8
0
100
AcDbLine
 62
7
  6
CONTINUOUS
 10
3.4168493789
 20
10.8005046584
 11
3.4168493789
 21
10.8630046584
  0
LINE
  5
280
100
AcDbEntity
  8
0
100
AcDbLine
 62
7
  6
CONTINUOUS
 10
3.3333439692
 20
1.1194153255
 11
3.3333421696
 21
1.1191189437
  0
LINE
  5
281
100
AcDbEntity
  8
0
100
AcDbLine
 62
7
  6
CONTINUOUS
 10
3.4555993789
 20
0.9705559729
 11
3.4555993789
 21
1.0755046584
  0
LINE
  5
282
100
AcDbEntity
  8
0
100
AcDbLine
 62
7
  6
CONTINUOUS
 10
4.2725128479
 20
0.7136277464
 11
4.2733956444
 21
0.6761720313
  0
LINE
  5
283
100
AcDbEntity
  8
0
100
AcDbLine
 62
7
  6
CONTINUOUS
 10
4.2305993789
 20
0.9505041683
 11
4.2305993789
 21
0.4505051484
  0
LINE
  5
284
100
AcDbEntity
  8
0
100
AcDbLine
 62
7
  6
CONTINUOUS
 10
4.2705993789
 20
0.8883046584
 11
4.2705993789
 21
0.5127046584
  0
LINE
  5
285
100
AcDbEntity
  8
0
100
AcDbLine
 62
7
  6
CONTINUOUS
 10
4.2805993789
 20
0.4505046584
 11
4.2805993789
 21
0.9505046584
  0
LINE
  5
286
100
AcDbEntity
  8
0
100
AcDbLine
 62
7
  6
CONTINUOUS
 10
4.5925993789
 20
0.8428765306
 11
4.5925993789
 21
0.5581327862
  0
LINE
  5
287
100
AcDbEntity
  8
0
100
AcDbLine
 62
9
  6
CONTINUOUS
 10
4.5950993789
 20
0.5545902999
 11
4.5950993789
 21
0.8464190168
  0
LINE
  5
288
100
AcDbEntity
  8
0
100
AcDbLine
 62
7
  6
CONTINUOUS
 10
4.6875993789
 20
0.4505046584
 11
4.6875993789
 21
0.9505046584
  0
LINE
  5
289
100
AcDbEntity
  8
0
100
AcDbLine
 62
7
  6
CONTINUOUS
 10
5.6875993789
 20
0.9314497798
 11
5.6875993789
 21
0.469559537
  0
LINE
  5
28A
100
AcDbEntity
  8
0
100
AcDbLine
 62
9
  6
CONTINUOUS
 10
5.6980162778
 20
0.9659983048
 11
5.6980162778
 21
0.435011012
  0
LINE
  5
28B
100
AcDbEntity
  8
0
100
AcDbLine
 62
9
  6
CONTINUOUS
 10
5.8583444688
 20
0.1167183285
 11
5.8583444688
 21
1.2842909883
  0
LINE
  5
28C
100
AcDbEntity
  8
0
100
AcDbLine
 62
9
  6
CONTINUOUS
 10
5.9171079112
 20
1.3255046584
 11
5.9171079112
 21
0.0755046584
  0
LINE
  5
28D
100
AcDbEntity
  8
0
100
AcDbLine
 62
7
  6
CONTINUOUS
 10
5.9725993789
 20
1.3255046584
 11
5.9725993789
 21
0.0755046584
  0
LINE
  5
28E
100
AcDbEntity
  8
0
100
AcDbLine
 62
7
  6
CONTINUOUS
 10
3.0847981087
 20
10.623902118
 11
3.1051506491
 21
10.588650484
  0
LINE
  5
28F
100
AcDbEntity
  8
0
100
AcDbLine
 62
7
  6
CONTINUOUS
 10
3.3441243789
 20
1.1045412379
 11
3.3440194071
 21
1.1044121476
  0
LINE
  5
290
100
AcDbEntity
  8
0
100
AcDbLine
 62
7
  6
CONTINUOUS
 10
3.0670743789
 20
1.1235514122
 11
3.0672081289
 21
1.1236971297
  0
LINE
  5
291
100
AcDbEntity
  8
0
100
AcDbLine
 62
7
  6
CONTINUOUS
 10
3.0670743789
 20
1.0818847455
 11
3.0672118551
 21
1.0820324792
  0
LINE
  5
292
100
AcDbEntity
  8
0
100
AcDbLine
 62
7
  6
CONTINUOUS
 10
3.0670743789
 20
1.1027180789
 11
3.0672189094
 21
1.1028695561
  0
LINE
  5
293
100
AcDbEntity
  8
0
100
AcDbLine
 62
7
  6
CONTINUOUS
 10
2.8303084401
 20
0.8994637196
 11
2.8205993789
 21
0.8897546584
  0
LINE
  5
294
100
AcDbEntity
  8
0
100
AcDbLine
 62
7
  6
CONTINUOUS
 10
4.2765557308
 20
0.5068869354
 11
4.2799389306
 21
0.5127418962
  0
LINE
  5
295
100
AcDbEntity
  8
0
100
AcDbLine
 62
9
  6
CONTINUOUS
 10
3.2055993789
 20
0.7005046584
 11
3.4756506945
 21
0.9505046584
  0
LINE
  5
296
100
AcDbEntity
  8
0
100
AcDbLine
 62
7
  6
CONTINUOUS
 10
4.2805993789
 20
0.8983046584
 11
4.2705993789
 21
0.8883046584
  0
LINE
  5
297
100
AcDbEntity
  8
0
100
AcDbLine
 62
7
  6
CONTINUOUS
 10
2.3540993788
 20
0.5230046584
 11
2.3545936272
 21
0.5232963225
  0
LINE
  5
298
100
AcDbEntity
  8
0
100
AcDbLine
 62
7
  6
CONTINUOUS
 10
3.0779400306
 20
1.088163579
 11
3.0686988692
 21
1.0828174588
  0
LINE
  5
299
100
AcDbEntity
  8
0
100
AcDbLine
 62
7
  6
CONTINUOUS
 10
3.0778856612
 20
1.1090001312
 11
3.0686367004
 21
1.1036517697
  0
LINE
  5
29A
100
AcDbEntity
  8
0
100
AcDbLine
 62
7
  6
CONTINUOUS
 10
3.3332847574
 20
1.0982799394
 11
3.3426331929
 21
1.1036870114
  0
LINE
  5
29B
100
AcDbEntity
  8
0
100
AcDbLine
 62
7
  6
CONTINUOUS
 10
3.3333421696
 20
1.1191189437
 11
3.3426896245
 21
1.1245230248
  0
LINE
  5
29C
100
AcDbEntity
  8
0
100
AcDbLine
 62
7
  6
CONTINUOUS
 10
2.3540993789
 20
0.5230046584
 11
2.3561512273
 21
0.5241720377
  0
LINE
  5
29D
100
AcDbEntity
  8
0
100
AcDbLine
 62
9
  6
CONTINUOUS
 10
3.1118493789
 20
10.563650484
 11
3.2993493789
 21
10.563650484
  0
LINE
  5
29E
100
AcDbEntity
  8
0
100
AcDbLine
 62
9
  6
CONTINUOUS
 10
3.3264006491
 20
10.623902118
 11
3.0847981087
 21
10.623902118
  0
LINE
  5
29F
100
AcDbEntity
  8
0
100
AcDbLine
 62
9
  6
CONTINUOUS
 10
3.3330993789
 20
10.648902118
 11
3.0780993789
 21
10.648902118
  0
LINE
  5
2A0
100
AcDbEntity
  8
0
100
AcDbLine
 62
7
  6
CONTINUOUS
 10
3.0055993789
 20
10.7705046584
 11
3.4055993789
 21
10.7705046584
  0
LINE
  5
2A1
100
AcDbEntity
  8
0
100
AcDbLine
 62
7
  6
CONTINUOUS
 10
3.4168493789
 20
10.8005046584
 11
2.9943493789
 21
10.8005046584
  0
LINE
  5
2A2
100
AcDbEntity
  8
0
100
AcDbLine
 62
7
  6
CONTINUOUS
 10
3.4168493789
 20
10.8630046584
 11
2.9943493789
 21
10.8630046584
  0
LINE
  5
2A3
100
AcDbEntity
  8
0
100
AcDbLine
 62
9
  6
CONTINUOUS
 10
3.3060481087
 20
10.588650484
 11
3.1051506491
 21
10.588650484
  0
ARC
  5
2A4
100
AcDbEntity
  8
0
100
AcDbCircle
 62
7
  6
CONTINUOUS
 10
-18.2919481169
 20
0.1947227348
 40
22.5704267303
100
AcDbArc
 50
1.317377361
 51
1.5019298379
  0
ARC
  5
2A5
100
AcDbEntity
  8
0
100
AcDbCircle
 62
7
  6
CONTINUOUS
 10
-15.3628648814
 20
0.4289445872
 40
19.6367789803
100
AcDbArc
 50
0.8388551263
 51
1.0427938477
  0
ARC
  5
2A6
100
AcDbEntity
  8
0
100
AcDbCircle
 62
7
  6
CONTINUOUS
 10
3.1362192105
 20
0.0277462396
 40
1.0570841604
100
AcDbArc
 50
92.3139859666
 51
92.7424716288
  0
ARC
  5
2A7
100
AcDbEntity
  8
0
100
AcDbCircle
 62
7
  6
CONTINUOUS
 10
2.4397125763
 20
0.3441888831
 40
0.2128123175
100
AcDbArc
 50
69.6040243398
 51
72.2627500364
  0
ARC
  5
2A8
100
AcDbEntity
  8
0
100
AcDbCircle
 62
7
  6
CONTINUOUS
 10
2.446955792
 20
0.3664611006
 40
0.189392212
100
AcDbArc
 50
72.2971216243
 51
74.8856622421
  0
ARC
  5
2A9
100
AcDbEntity
  8
0
100
AcDbCircle
 62
7
  6
CONTINUOUS
 10
2.4610991008
 20
0.3777285772
 40
0.177694812
100
AcDbArc
 50
104.5222910209
 51
105.1362795134
  0
ARC
  5
2AA
100
AcDbEntity
  8
0
100
AcDbCircle
 62
7
  6
CONTINUOUS
 10
2.4501404074
 20
0.3778854197
 40
0.1775327394
100
AcDbArc
 50
74.9165170715
 51
75.4853597811
  0
ARC
  5
2AB
100
AcDbEntity
  8
0
100
AcDbCircle
 62
7
  6
CONTINUOUS
 10
2.4592093271
 20
0.3851764015
 40
0.1700110755
100
AcDbArc
 50
102.5999938969
 51
104.535163423
  0
ARC
  5
2AC
100
AcDbEntity
  8
0
100
AcDbCircle
 62
7
  6
CONTINUOUS
 10
2.452370582
 20
0.3866590678
 40
0.1684801762
100
AcDbArc
 50
75.471783699
 51
78.9419375894
  0
ARC
  5
2AD
100
AcDbEntity
  8
0
100
AcDbCircle
 62
7
  6
CONTINUOUS
 10
2.4574589403
 20
0.3930544454
 40
0.1619409257
100
AcDbArc
 50
101.0247278844
 51
102.6036414389
  0
ARC
  5
2AE
100
AcDbEntity
  8
0
100
AcDbCircle
 62
7
  6
CONTINUOUS
 10
2.4542046627
 20
0.39539775
 40
0.159552007
100
AcDbArc
 50
78.9864366105
 51
82.5277104295
  0
ARC
  5
2AF
100
AcDbEntity
  8
0
100
AcDbCircle
 62
7
  6
CONTINUOUS
 10
2.4569705061
 20
0.3955405101
 40
0.1594073374
100
AcDbArc
 50
97.4771626993
 51
101.0232889588
  0
ARC
  5
2B0
100
AcDbEntity
  8
0
100
AcDbCircle
 62
7
  6
CONTINUOUS
 10
2.454745962
 20
0.3995748231
 40
0.1553400122
100
AcDbArc
 50
82.5253085302
 51
86.1155694792
  0
ARC
  5
2B1
100
AcDbEntity
  8
0
100
AcDbCircle
 62
7
  6
CONTINUOUS
 10
2.4563190776
 20
0.4009235735
 40
0.1539852859
100
AcDbArc
 50
93.8727509383
 51
97.497483873
  0
ARC
  5
2B2
100
AcDbEntity
  8
0
100
AcDbCircle
 62
7
  6
CONTINUOUS
 10
2.4556746926
 20
0.4111707869
 40
0.143717958
100
AcDbArc
 50
86.1120085947
 51
93.8923619835
  0
ARC
  5
2B3
100
AcDbEntity
  8
0
100
AcDbCircle
 62
7
  6
CONTINUOUS
 10
2.8155993789
 20
0.4555046584
 40
0.005
100
AcDbArc
 50
270.0
 51
360.0
  0
ARC
  5
2B4
100
AcDbEntity
  8
0
100
AcDbCircle
 62
7
  6
CONTINUOUS
 10
2.6605993789
 20
0.4555046584
 40
0.005
100
AcDbArc
 50
179.9999122263
 51
270.0
  0
ARC
  5
2B5
100
AcDbEntity
  8
0
100
AcDbCircle
 62
7
  6
CONTINUOUS
 10
3.3001857925
 20
1.6696807468
 40
0.5466348317
100
AcDbArc
 50
272.6603376824
 51
273.3514163753
  0
ARC
  5
2B6
100
AcDbEntity
  8
0
100
AcDbCircle
 62
7
  6
CONTINUOUS
 10
2.8155993789
 20
0.9455046584
 40
0.005
100
AcDbArc
 50
0.0
 51
90.0
  0
ARC
  5
2B7
100
AcDbEntity
  8
0
100
AcDbCircle
 62
7
  6
CONTINUOUS
 10
2.6605993789
 20
0.9455046584
 40
0.005
100
AcDbArc
 50
90.0
 51
180.0000877737
  0
ARC
  5
2B8
100
AcDbEntity
  8
0
100
AcDbCircle
 62
7
  6
CONTINUOUS
 10
4.4480218516
 20
-0.3941535884
 40
1.5
100
AcDbArc
 50
19.9122926115
 51
33.5576949178
  0
ARC
  5
2B9
100
AcDbEntity
  8
0
100
AcDbCircle
 62
7
  6
CONTINUOUS
 10
5.9171079112
 20
0.1380046584
 40
0.0625
100
AcDbArc
 50
199.9122926115
 51
270.0
  0
ARC
  5
2BA
100
AcDbEntity
  8
0
100
AcDbCircle
 62
7
  6
CONTINUOUS
 10
5.7500993789
 20
0.469559537
 40
0.0625
100
AcDbArc
 50
180.0
 51
213.5576949178
  0
ARC
  5
2BB
100
AcDbEntity
  8
0
100
AcDbCircle
 62
7
  6
CONTINUOUS
 10
4.4480218516
 20
1.7951629052
 40
1.5
100
AcDbArc
 50
326.4423050822
 51
340.0877073885
  0
ARC
  5
2BC
100
AcDbEntity
  8
0
100
AcDbCircle
 62
7
  6
CONTINUOUS
 10
5.9171079112
 20
1.2630046584
 40
0.0625
100
AcDbArc
 50
90.0
 51
160.0877073885
  0
ARC
  5
2BD
100
AcDbEntity
  8
0
100
AcDbCircle
 62
7
  6
CONTINUOUS
 10
5.7500993789
 20
0.9314497798
 40
0.0625
100
AcDbArc
 50
146.4423050822
 51
180.0
  0
ARC
  5
2BE
100
AcDbEntity
  8
0
100
AcDbCircle
 62
7
  6
CONTINUOUS
 10
3.2830993789
 20
10.648902118
 40
0.05
100
AcDbArc
 50
329.9999997384
 51
360.0
  0
ARC
  5
2BF
100
AcDbEntity
  8
0
100
AcDbCircle
 62
7
  6
CONTINUOUS
 10
3.1280993789
 20
10.648902118
 40
0.05
100
AcDbArc
 50
180.0
 51
210.000000283
  0
ARC
  5
2C0
100
AcDbEntity
  8
0
100
AcDbCircle
 62
7
  6
CONTINUOUS
 10
3.0618493789
 20
10.563650484
 40
0.05
100
AcDbArc
 50
0.0
 51
30.000000539
  0
ARC
  5
2C1
100
AcDbEntity
  8
0
100
AcDbCircle
 62
7
  6
CONTINUOUS
 10
3.3493493789
 20
10.563650484
 40
0.05
100
AcDbArc
 50
149.9999994537
 51
180.0
  0
LINE
  5
2C2
100
AcDbEntity
  8
0
100
AcDbLine
 62
7
  6
CONTINUOUS
 10
2.8294157914
 20
0.5148761233
 11
2.8290969465
 21
0.5214127838
  0
SPLINE
  5
2C3
100
AcDbEntity
  8
0
100
AcDbSpline
 62
7
  6
CONTINUOUS
 70
0
 71
3
 72
12
 73
8
 74
0
 42
0.0000001
 43
0.0000001
 44
0.0000000001
 40
0.0
 40
0.0
 40
0.0
 40
0.0
 40
0.0724318776
 40
0.1640386511
 40
0.3977060271
 40
0.6833862647
 40
1.0
 40
1.0
 40
1.0
 40
1.0
 10
2.8290969465
 20
0.5214127838
 30
0.0
 10
2.8289272704
 20
0.5253769353
 30
0.0
 10
2.8286098159
 20
0.5343574758
 30
0.0
 10
2.8279901226
 20
0.5561348363
 30
0.0
 10
2.8272631355
 20
0.5895950011
 30
0.0
 10
2.8264266932
 20
0.6353808616
 30
0.0
 10
2.8258769268
 20
0.6683696589
 30
0.0
 10
2.8255915926
 20
0.6857112498
 30
0.0
  0
LINE
  5
2C4
100
AcDbEntity
  8
0
100
AcDbLine
 62
7
  6
CONTINUOUS
 10
2.8255915926
 20
0.6857112498
 11
2.8253478583
 21
0.7005826116
  0
SPLINE
  5
2C5
100
AcDbEntity
  8
0
100
AcDbSpline
 62
7
  6
CONTINUOUS
 70
0
 71
3
 72
9
 73
5
 74
0
 42
0.0000001
 43
0.0000001
 44
0.0000000001
 40
0.0
 40
0.0
 40
0.0
 40
0.0
 40
0.4724863535
 40
1.0
 40
1.0
 40
1.0
 40
1.0
 10
2.8306000556
 20
0.5746856142
 30
0.0
 10
2.8297686259
 20
0.5922668841
 30
0.0
 10
2.8281930868
 20
0.6294856161
 30
0.0
 10
2.8267664737
 20
0.6667099357
 30
0.0
 10
2.8260058502
 20
0.6863459878
 30
0.0
  0
LINE
  5
2C6
100
AcDbEntity
  8
0
100
AcDbLine
 62
7
  6
CONTINUOUS
 10
2.8260058502
 20
0.6863459878
 11
2.8254468459
 21
0.7006990623
  0
LINE
  5
2C7
100
AcDbEntity
  8
0
100
AcDbLine
 62
7
  6
CONTINUOUS
 10
2.8254468459
 20
0.7006990623
 11
2.8252743788
 21
0.7050843498
  0
SPLINE
  5
2C8
100
AcDbEntity
  8
0
100
AcDbSpline
 62
7
  6
CONTINUOUS
 70
0
 71
3
 72
11
 73
7
 74
0
 42
0.0000001
 43
0.0000001
 44
0.0000000001
 40
0.0
 40
0.0
 40
0.0
 40
0.0
 40
0.2350844713
 40
0.4736366463
 40
0.7237758875
 40
1.0
 40
1.0
 40
1.0
 40
1.0
 10
4.5925993789
 20
0.5581327862
 30
0.0
 10
4.5925993789
 20
0.5577606458
 30
0.0
 10
4.5926776167
 20
0.5570073455
 30
0.0
 10
4.5930732359
 20
0.5559195348
 30
0.0
 10
4.5938176975
 20
0.5549297527
 30
0.0
 10
4.5946621142
 20
0.5545902999
 30
0.0
 10
4.5950993789
 20
0.5545902999
 30
0.0
  0
SPLINE
  5
2C9
100
AcDbEntity
  8
0
100
AcDbSpline
 62
7
  6
CONTINUOUS
 70
0
 71
3
 72
11
 73
7
 74
0
 42
0.0000001
 43
0.0000001
 44
0.0000000001
 40
0.0
 40
0.0
 40
0.0
 40
0.0
 40
0.2762242572
 40
0.5263634825
 40
0.7649154471
 40
1.0
 40
1.0
 40
1.0
 40
1.0
 10
4.5950993789
 20
0.8464190168
 30
0.0
 10
4.5946621128
 20
0.8464190168
 30
0.0
 10
4.593817676
 20
0.8460795984
 30
0.0
 10
4.5930732449
 20
0.8450897801
 30
0.0
 10
4.5926776148
 20
0.8440019761
 30
0.0
 10
4.5925993789
 20
0.8432486721
 30
0.0
 10
4.5925993789
 20
0.8428765306
 30
0.0
  0
LINE
  5
2CA
100
AcDbEntity
  8
0
100
AcDbLine
 62
7
  6
CONTINUOUS
 10
2.5570993788
 20
0.5230046584
 11
2.5519259665
 21
0.5259112155
  0
SPLINE
  5
2CB
100
AcDbEntity
  8
0
100
AcDbSpline
 62
7
  6
CONTINUOUS
 70
0
 71
3
 72
9
 73
5
 74
0
 42
0.0000001
 43
0.0000001
 44
0.0000000001
 40
0.0
 40
0.0
 40
0.0
 40
0.0
 40
0.4045186432
 40
1.0
 40
1.0
 40
1.0
 40
1.0
 10
2.5519259665
 20
0.5259112155
 30
0.0
 10
2.5469665208
 20
0.5286482026
 30
0.0
 10
2.5345523122
 20
0.5351350446
 30
0.0
 10
2.5216956139
 20
0.5407552084
 30
0.0
 10
2.5138789914
 20
0.5436592452
 30
0.0
  0
SPLINE
  5
2CC
100
AcDbEntity
  8
0
100
AcDbSpline
 62
7
  6
CONTINUOUS
 70
0
 71
3
 72
9
 73
5
 74
0
 42
0.0000001
 43
0.0000001
 44
0.0000000001
 40
0.0
 40
0.0
 40
0.0
 40
0.0
 40
0.2587537132
 40
1.0
 40
1.0
 40
1.0
 40
1.0
 10
2.4147001795
 20
0.5492587096
 30
0.0
 10
2.4131778963
 20
0.5488469611
 30
0.0
 10
2.4073157835
 20
0.547178229
 30
0.0
 10
2.4015359169
 20
0.5452260697
 30
0.0
 10
2.3973013161
 20
0.543652388
 30
0.0
  0
SPLINE
  5
2CD
100
AcDbEntity
  8
0
100
AcDbSpline
 62
7
  6
CONTINUOUS
 70
0
 71
3
 72
9
 73
5
 74
0
 42
0.0000001
 43
0.0000001
 44
0.0000000001
 40
0.0
 40
0.0
 40
0.0
 40
0.0
 40
0.5954767609
 40
1.0
 40
1.0
 40
1.0
 40
1.0
 10
2.3973013161
 20
0.543652388
 30
0.0
 10
2.389488536
 20
0.5407489671
 30
0.0
 10
2.3766379361
 20
0.5351307111
 30
0.0
 10
2.3642293812
 20
0.5286466599
 30
0.0
 10
2.359272124
 20
0.5259108491
 30
0.0
  0
LINE
  5
2CE
100
AcDbEntity
  8
0
100
AcDbLine
 62
7
  6
CONTINUOUS
 10
2.359272124
 20
0.5259108491
 11
2.3540993789
 21
0.5230046584
  0
SPLINE
  5
2CF
100
AcDbEntity
  8
0
100
AcDbSpline
 62
9
  6
CONTINUOUS
 70
0
 71
3
 72
11
 73
7
 74
0
 42
0.0000001
 43
0.0000001
 44
0.0000000001
 40
0.0
 40
0.0
 40
0.0
 40
0.0
 40
0.2556066652
 40
0.5093220455
 40
0.7584520063
 40
1.0
 40
1.0
 40
1.0
 40
1.0
 10
3.2055993789
 20
0.7005046584
 30
0.0
 10
3.1946509304
 20
0.712555605
 30
0.0
 10
3.1726508931
 20
0.736400833
 30
0.0
 10
3.1396649814
 20
0.7716992205
 30
0.0
 10
3.1074199826
 20
0.806464206
 30
0.0
 10
3.0862149086
 20
0.8294259176
 30
0.0
 10
3.0757684524
 20
0.8407222169
 30
0.0
  0
LINE
  5
2D0
100
AcDbEntity
  8
0
100
AcDbLine
 62
9
  6
CONTINUOUS
 10
3.0757684524
 20
0.8407222169
 11
3.0584125704
 21
0.8594782195
  0
LINE
  5
2D1
100
AcDbEntity
  8
0
100
AcDbLine
 62
9
  6
CONTINUOUS
 10
3.0584125704
 20
0.8594782195
 11
3.0517196479
 21
0.8667061057
  0
LINE
  5
2D2
100
AcDbEntity
  8
0
100
AcDbLine
 62
9
  6
CONTINUOUS
 10
3.0517196479
 20
0.8667061057
 11
3.0482088289
 21
0.8704968046
  0
SPLINE
  5
2D3
100
AcDbEntity
  8
0
100
AcDbSpline
 62
7
  6
CONTINUOUS
 70
0
 71
3
 72
11
 73
7
 74
0
 42
0.0000001
 43
0.0000001
 44
0.0000000001
 40
0.0
 40
0.0
 40
0.0
 40
0.0
 40
0.2996503034
 40
0.5750288996
 40
0.812441304
 40
1.0
 40
1.0
 40
1.0
 40
1.0
 10
4.2733956444
 20
0.6761720313
 30
0.0
 10
4.2737200496
 20
0.6624975738
 30
0.0
 10
4.2743515301
 20
0.6362565124
 30
0.0
 10
4.2753165601
 20
0.5991830087
 30
0.0
 10
4.2762745784
 20
0.5672281296
 30
0.0
 10
4.2769894593
 20
0.5478418562
 30
0.0
 10
4.2773812235
 20
0.5392892275
 30
0.0
  0
SPLINE
  5
2D4
100
AcDbEntity
  8
0
100
AcDbSpline
 62
7
  6
CONTINUOUS
 70
0
 71
3
 72
12
 73
8
 74
0
 42
0.0000001
 43
0.0000001
 44
0.0000000001
 40
0.0
 40
0.0
 40
0.0
 40
0.0
 40
0.3551233627
 40
0.6417316456
 40
0.8573768321
 40
0.9378871608
 40
1.0
 40
1.0
 40
1.0
 40
1.0
 10
4.2773812235
 20
0.5392892275
 30
0.0
 10
4.2775163376
 20
0.5363395445
 30
0.0
 10
4.2777780622
 20
0.5310099518
 30
0.0
 10
4.2782088344
 20
0.5238940878
 30
0.0
 10
4.2785848656
 20
0.5190622762
 30
0.0
 10
4.2789053387
 20
0.5161005104
 30
0.0
 10
4.2790679893
 20
0.51492537
 30
0.0
 10
4.2791547956
 20
0.5144162623
 30
0.0
  0
LINE
  5
2D5
100
AcDbEntity
  8
0
100
AcDbLine
 62
7
  6
CONTINUOUS
 10
4.2791547956
 20
0.5144162623
 11
4.2795838874
 21
0.5127746554
  0
SPLINE
  5
2D6
100
AcDbEntity
  8
0
100
AcDbSpline
 62
7
  6
CONTINUOUS
 70
0
 71
3
 72
18
 73
14
 74
0
 42
0.0000001
 43
0.0000001
 44
0.0000000001
 40
0.0
 40
0.0
 40
0.0
 40
0.0
 40
0.0090380047
 40
0.0250414555
 40
0.0482574785
 40
0.0787281106
 40
0.1164468542
 40
0.1613900905
 40
0.2728199823
 40
0.412734317
 40
0.5808231119
 40
0.7767366466
 40
1.0
 40
1.0
 40
1.0
 40
1.0
 10
4.2764565659
 20
0.5068474714
 30
0.0
 10
4.2764236396
 20
0.5068803977
 30
0.0
 10
4.27637468
 20
0.5070055572
 30
0.0
 10
4.2763102833
 20
0.5072425774
 30
0.0
 10
4.2762444463
 20
0.5075973526
 30
0.0
 10
4.2761755919
 20
0.5080626207
 30
0.0
 10
4.2761056844
 20
0.5086415797
 30
0.0
 10
4.2760036837
 20
0.5096362716
 30
0.0
 10
4.2758799838
 20
0.5111579701
 30
0.0
 10
4.2757395118
 20
0.5133143804
 30
0.0
 10
4.2756015453
 20
0.5159070122
 30
0.0
 10
4.2754680993
 20
0.5189297491
 30
0.0
 10
4.2753864104
 20
0.5210878629
 30
0.0
 10
4.2753453236
 20
0.5222374068
 30
0.0
  0
LINE
  5
2D7
100
AcDbEntity
  8
0
100
AcDbLine
 62
7
  6
CONTINUOUS
 10
4.2753453236
 20
0.5222374068
 11
4.2748175375
 21
0.5402252903
  0
SPLINE
  5
2D8
100
AcDbEntity
  8
0
100
AcDbSpline
 62
7
  6
CONTINUOUS
 70
0
 71
3
 72
11
 73
7
 74
0
 42
0.0000001
 43
0.0000001
 44
0.0000000001
 40
0.0
 40
0.0
 40
0.0
 40
0.0
 40
0.1947049855
 40
0.4340282974
 40
0.7067258537
 40
1.0
 40
1.0
 40
1.0
 40
1.0
 10
4.2748175375
 20
0.5402252903
 30
0.0
 10
4.274584352
 20
0.5492491147
 30
0.0
 10
4.2741136625
 20
0.5693659868
 30
0.0
 10
4.2735470339
 20
0.6021261465
 30
0.0
 10
4.2729647387
 20
0.6394563506
 30
0.0
 10
4.2725391982
 20
0.6656922777
 30
0.0
 10
4.2723385453
 20
0.6792874588
 30
0.0
  0
LINE
  5
2D9
100
AcDbEntity
  8
0
100
AcDbLine
 62
7
  6
CONTINUOUS
 10
4.2723385453
 20
0.6792874588
 11
4.2718095397
 21
0.7164321539
  0
SPLINE
  5
2DA
100
AcDbEntity
  8
0
100
AcDbSpline
 62
7
  6
CONTINUOUS
 70
0
 71
3
 72
14
 73
10
 74
0
 42
0.0000001
 43
0.0000001
 44
0.0000000001
 40
0.0
 40
0.0
 40
0.0
 40
0.0
 40
0.23787852
 40
0.3644439015
 40
0.4935807934
 40
0.6234868974
 40
0.7523694095
 40
0.8784547786
 40
1.0
 40
1.0
 40
1.0
 40
1.0
 10
4.2706618789
 20
0.7863178878
 30
0.0
 10
4.2715378118
 20
0.7724070009
 30
0.0
 10
4.2728764036
 20
0.7510943618
 30
0.0
 10
4.2745091789
 20
0.7222191417
 30
0.0
 10
4.2757134806
 20
0.6996566195
 30
0.0
 10
4.2769200642
 20
0.6769582582
 30
0.0
 10
4.2781529022
 20
0.6544403692
 30
0.0
 10
4.279381115
 20
0.6324128857
 30
0.0
 10
4.2801958676
 20
0.6179259174
 30
0.0
 10
4.2806020272
 20
0.610815594
 30
0.0
  0
LINE
  5
2DB
100
AcDbEntity
  8
0
100
AcDbLine
 62
9
  6
CONTINUOUS
 10
3.4555905504
 20
0.9704948868
 11
3.2836899777
 21
0.7848143043
  0
SPLINE
  5
2DC
100
AcDbEntity
  8
0
100
AcDbSpline
 62
9
  6
CONTINUOUS
 70
0
 71
3
 72
9
 73
5
 74
0
 42
0.0000001
 43
0.0000001
 44
0.0000000001
 40
0.0
 40
0.0
 40
0.0
 40
0.0
 40
0.4972336236
 40
1.0
 40
1.0
 40
1.0
 40
1.0
 10
3.2836899777
 20
0.7848143043
 30
0.0
 10
3.270728925
 20
0.7708570074
 30
0.0
 10
3.2445689479
 20
0.7428746642
 30
0.0
 10
3.2185499527
 20
0.7147593513
 30
0.0
 10
3.2055993789
 20
0.7005046584
 30
0.0
  0
SPLINE
  5
2DD
100
AcDbEntity
  8
0
100
AcDbSpline
 62
7
  6
CONTINUOUS
 70
0
 71
3
 72
13
 73
9
 74
0
 42
0.0000001
 43
0.0000001
 44
0.0000000001
 40
0.0
 40
0.0
 40
0.0
 40
0.0
 40
0.0465442588
 40
0.115120383
 40
0.2061938116
 40
0.3198790036
 40
0.6150033882
 40
1.0
 40
1.0
 40
1.0
 40
1.0
 10
3.3439802118
 20
1.0924602395
 30
0.0
 10
3.3438886689
 20
1.0925099938
 30
0.0
 10
3.3436431788
 20
1.0925951159
 30
0.0
 10
3.3431948091
 20
1.0927028683
 30
0.0
 10
3.342591903
 20
1.0928103544
 30
0.0
 10
3.3414840834
 20
1.0929678894
 30
0.0
 10
3.3397162527
 20
1.0931531199
 30
0.0
 10
3.3381989565
 20
1.0932781483
 30
0.0
 10
3.3373396118
 20
1.0933434561
 30
0.0
  0
SPLINE
  5
2DE
100
AcDbEntity
  8
0
100
AcDbSpline
 62
7
  6
CONTINUOUS
 70
0
 71
3
 72
13
 73
9
 74
0
 42
0.0000001
 43
0.0000001
 44
0.0000000001
 40
0.0
 40
0.0
 40
0.0
 40
0.0
 40
0.046559482
 40
0.1151172146
 40
0.2061663009
 40
0.3198321099
 40
0.6149509539
 40
1.0
 40
1.0
 40
1.0
 40
1.0
 10
3.3439807839
 20
1.1132960107
 30
0.0
 10
3.3438895073
 20
1.113346345
 30
0.0
 10
3.3436441649
 20
1.1134322147
 30
0.0
 10
3.3431959031
 20
1.1135402909
 30
0.0
 10
3.3425930261
 20
1.1136476157
 30
0.0
 10
3.34148509
 20
1.1138043493
 30
0.0
 10
3.3397168302
 20
1.1139879052
 30
0.0
 10
3.338199191
 20
1.1141118895
 30
0.0
 10
3.3373396076
 20
1.1141767898
 30
0.0
  0
SPLINE
  5
2DF
100
AcDbEntity
  8
0
100
AcDbSpline
 62
7
  6
CONTINUOUS
 70
0
 71
3
 72
13
 73
9
 74
0
 42
0.0000001
 43
0.0000001
 44
0.0000000001
 40
0.0
 40
0.0
 40
0.0
 40
0.0
 40
0.0461031961
 40
0.1143789867
 40
0.2052816673
 40
0.3189186722
 40
0.6142977734
 40
1.0
 40
1.0
 40
1.0
 40
1.0
 10
3.0672135696
 20
1.0820379797
 30
0.0
 10
3.0673042261
 20
1.0820874767
 30
0.0
 10
3.067548364
 20
1.0821721389
 30
0.0
 10
3.0679950022
 20
1.0822798664
 30
0.0
 10
3.0685971659
 20
1.0823878406
 30
0.0
 10
3.0697057935
 20
1.0825468115
 30
0.0
 10
3.071476926
 20
1.0827343946
 30
0.0
 10
3.0729975352
 20
1.0828608599
 30
0.0
 10
3.0738591362
 20
1.0829267887
 30
0.0
  0
LINE
  5
2E0
100
AcDbEntity
  8
0
100
AcDbLine
 62
7
  6
CONTINUOUS
 10
3.0738591362
 20
1.0829267887
 11
3.0856410267
 21
1.0836197025
  0
SPLINE
  5
2E1
100
AcDbEntity
  8
0
100
AcDbSpline
 62
7
  6
CONTINUOUS
 70
0
 71
3
 72
23
 73
19
 74
0
 42
0.0000001
 43
0.0000001
 44
0.0000000001
 40
0.0
 40
0.0
 40
0.0
 40
0.0
 40
0.1168187967
 40
0.2634409778
 40
0.4266921448
 40
0.5099876613
 40
0.5918985617
 40
0.6705599115
 40
0.7442107437
 40
0.8111705897
 40
0.8699417339
 40
0.9191892831
 40
0.93988216
 40
0.9578079296
 40
0.9728601314
 40
0.9849389958
 40
0.9939925244
 40
1.0
 40
1.0
 40
1.0
 40
1.0
 10
3.0935387019
 20
1.083968421
 30
0.0
 10
3.1032647222
 20
1.0843657089
 30
0.0
 10
3.1252056668
 20
1.0850697455
 30
0.0
 10
3.1607478271
 20
1.0860165561
 30
0.0
 10
3.1934999024
 20
1.0868041277
 30
0.0
 10
3.2208613921
 20
1.0874577648
 30
0.0
 10
3.2411761196
 20
1.0879508977
 30
0.0
 10
3.2606869435
 20
1.0884440275
 30
0.0
 10
3.2789515512
 20
1.0889361354
 30
0.0
 10
3.2955582055
 20
1.0894259014
 30
0.0
 10
3.3101304833
 20
1.0899132229
 30
0.0
 10
3.3208473171
 20
1.0903390785
 30
0.0
 10
3.328160459
 20
1.0906913321
 30
0.0
 10
3.3326260096
 20
1.0909375228
 30
0.0
 10
3.3363724631
 20
1.091180599
 30
0.0
 10
3.3393790404
 20
1.0914159106
 30
0.0
 10
3.34162769
 20
1.0916493055
 30
0.0
 10
3.3428721254
 20
1.0918294359
 30
0.0
 10
3.343360019
 20
1.0919414342
 30
0.0
  0
LINE
  5
2E2
100
AcDbEntity
  8
0
100
AcDbLine
 62
7
  6
CONTINUOUS
 10
3.343360019
 20
1.0919414342
 11
3.3441243789
 21
1.0923014122
  0
SPLINE
  5
2E3
100
AcDbEntity
  8
0
100
AcDbSpline
 62
7
  6
CONTINUOUS
 70
0
 71
3
 72
13
 73
9
 74
0
 42
0.0000001
 43
0.0000001
 44
0.0000000001
 40
0.0
 40
0.0
 40
0.0
 40
0.0
 40
0.0467513407
 40
0.1154599206
 40
0.2066045278
 40
0.3203060973
 40
0.6153118827
 40
1.0
 40
1.0
 40
1.0
 40
1.0
 10
3.0672206978
 20
1.1028802671
 30
0.0
 10
3.0673125679
 20
1.1029303113
 30
0.0
 10
3.0675586334
 20
1.1030158624
 30
0.0
 10
3.0680077619
 20
1.1031237164
 30
0.0
 10
3.0686109954
 20
1.1032309215
 30
0.0
 10
3.0697184695
 20
1.1033875449
 30
0.0
 10
3.0714848972
 20
1.1035711783
 30
0.0
 10
3.0730007615
 20
1.1036952251
 30
0.0
 10
3.0738591339
 20
1.1037601218
 30
0.0
  0
LINE
  5
2E4
100
AcDbEntity
  8
0
100
AcDbLine
 62
7
  6
CONTINUOUS
 10
3.0738591339
 20
1.1037601218
 11
3.0856410194
 21
1.1044516352
  0
SPLINE
  5
2E5
100
AcDbEntity
  8
0
100
AcDbSpline
 62
7
  6
CONTINUOUS
 70
0
 71
3
 72
24
 73
20
 74
0
 42
0.0000001
 43
0.0000001
 44
0.0000000001
 40
0.0
 40
0.0
 40
0.0
 40
0.0
 40
0.047777694
 40
0.1058368072
 40
0.2468266106
 40
0.409190024
 40
0.4934625862
 40
0.5770477567
 40
0.6578833737
 40
0.7339820639
 40
0.8034750598
 40
0.864646335
 40
0.9160053328
 40
0.9375896113
 40
0.9562776483
 40
0.9719519219
 40
0.984499722
 40
0.9938569248
 40
1.0
 40
1.0
 40
1.0
 40
1.0
 10
3.0856410194
 20
1.1044516352
 30
0.0
 10
3.0897432991
 20
1.1046496068
 30
0.0
 10
3.098833607
 20
1.1050261673
 30
0.0
 10
3.1200389971
 20
1.1057491372
 30
0.0
 10
3.1510950633
 20
1.1066054591
 30
0.0
 10
3.1844060478
 20
1.1074205548
 30
0.0
 10
3.2127843604
 20
1.1080977228
 30
0.0
 10
3.2341562886
 20
1.1086119276
 30
0.0
 10
3.254825376
 20
1.1091259926
 30
0.0
 10
3.2742826945
 20
1.1096395184
 30
0.0
 10
3.2920490928
 20
1.1101502847
 30
0.0
 10
3.3076879157
 20
1.1106580045
 30
0.0
 10
3.3192082819
 20
1.111101633
 30
0.0
 10
3.3270764515
 20
1.1114702329
 30
0.0
 10
3.3318789524
 20
1.1117276566
 30
0.0
 10
3.3359032908
 20
1.1119813333
 30
0.0
 10
3.3391251888
 20
1.1122250278
 30
0.0
 10
3.3415231988
 20
1.11246613
 30
0.0
 10
3.3428453925
 20
1.1126522077
 30
0.0
 10
3.3433600215
 20
1.1127705901
 30
0.0
  0
LINE
  5
2E6
100
AcDbEntity
  8
0
100
AcDbLine
 62
7
  6
CONTINUOUS
 10
3.3433600215
 20
1.1127705901
 11
3.3441243789
 21
1.1131347455
  0
SPLINE
  5
2E7
100
AcDbEntity
  8
0
100
AcDbSpline
 62
7
  6
CONTINUOUS
 70
0
 71
3
 72
13
 73
9
 74
0
 42
0.0000001
 43
0.0000001
 44
0.0000000001
 40
0.0
 40
0.0
 40
0.0
 40
0.0
 40
0.0459017203
 40
0.1139795261
 40
0.2047403818
 40
0.3183109532
 40
0.6138132564
 40
1.0
 40
1.0
 40
1.0
 40
1.0
 10
3.0672098039
 20
1.1237066331
 30
0.0
 10
3.0672994172
 20
1.1237572171
 30
0.0
 10
3.0675425276
 20
1.1238432106
 30
0.0
 10
3.0679880063
 20
1.1239516166
 30
0.0
 10
3.0685897061
 20
1.1240595306
 30
0.0
 10
3.0696989917
 20
1.1242176152
 30
0.0
 10
3.0714727623
 20
1.1244029772
 30
0.0
 10
3.072995837
 20
1.1245280409
 30
0.0
 10
3.0738591304
 20
1.1245934549
 30
0.0
  0
SPLINE
  5
2E8
100
AcDbEntity
  8
0
100
AcDbSpline
 62
7
  6
CONTINUOUS
 70
0
 71
3
 72
13
 73
9
 74
0
 42
0.0000001
 43
0.0000001
 44
0.0000000001
 40
0.0
 40
0.0
 40
0.0
 40
0.0
 40
0.0430197818
 40
0.1091436553
 40
0.1987984869
 40
0.3120615633
 40
0.6092286395
 40
1.0
 40
1.0
 40
1.0
 40
1.0
 10
3.3440180466
 20
1.1044197636
 30
0.0
 10
3.3439342502
 20
1.1043710828
 30
0.0
 10
3.3436999577
 20
1.1042886658
 30
0.0
 10
3.3432660633
 20
1.1041808753
 30
0.0
 10
3.3426694824
 20
1.1040702166
 30
0.0
 10
3.341555508
 20
1.1039031829
 30
0.0
 10
3.3397611366
 20
1.1037028218
 30
0.0
 10
3.3382172577
 20
1.1035685752
 30
0.0
 10
3.3373397056
 20
1.1034992013
 30
0.0
  0
LINE
  5
2E9
100
AcDbEntity
  8
0
100
AcDbLine
 62
7
  6
CONTINUOUS
 10
3.3373397056
 20
1.1034992013
 11
3.3255578335
 21
1.1028024054
  0
SPLINE
  5
2EA
100
AcDbEntity
  8
0
100
AcDbSpline
 62
7
  6
CONTINUOUS
 70
0
 71
3
 72
24
 73
20
 74
0
 42
0.0000001
 43
0.0000001
 44
0.0000000001
 40
0.0
 40
0.0
 40
0.0
 40
0.0
 40
0.0477759891
 40
0.1058344332
 40
0.246822861
 40
0.4091844762
 40
0.4934561749
 40
0.5770404959
 40
0.6578752628
 40
0.7339731551
 40
0.8034655853
 40
0.8646364213
 40
0.9159943025
 40
0.9375777391
 40
0.9562653492
 40
0.9719404554
 40
0.9844916186
 40
0.9938541548
 40
1.0
 40
1.0
 40
1.0
 40
1.0
 10
3.3255578335
 20
1.1028024054
 30
0.0
 10
3.3214555164
 20
1.1026073476
 30
0.0
 10
3.3123650848
 20
1.1022367949
 30
0.0
 10
3.2911599301
 20
1.1015101431
 30
0.0
 10
3.2601038542
 20
1.100653111
 30
0.0
 10
3.2267928351
 20
1.0998391461
 30
0.0
 10
3.1984145278
 20
1.0991614843
 30
0.0
 10
3.1770425915
 20
1.098647155
 30
0.0
 10
3.156373487
 20
1.0981334153
 30
0.0
 10
3.1369161294
 20
1.0976205864
 30
0.0
 10
3.1191497182
 20
1.0971088742
 30
0.0
 10
3.1035109974
 20
1.0965983679
 30
0.0
 10
3.0919906251
 20
1.0961577318
 30
0.0
 10
3.0841222972
 20
1.0957949859
 30
0.0
 10
3.0793196975
 20
1.0955392818
 30
0.0
 10
3.0752950763
 20
1.0952832108
 30
0.0
 10
3.0720732204
 20
1.0950284036
 30
0.0
 10
3.0696753455
 20
1.0947733533
 30
0.0
 10
3.0683539381
 20
1.0945800064
 30
0.0
 10
3.0678387414
 20
1.0944630136
 30
0.0
  0
LINE
  5
2EB
100
AcDbEntity
  8
0
100
AcDbLine
 62
7
  6
CONTINUOUS
 10
3.0678387414
 20
1.0944630136
 11
3.0670743789
 21
1.0941245712
  0
SPLINE
  5
2EC
100
AcDbEntity
  8
0
100
AcDbSpline
 62
7
  6
CONTINUOUS
 70
0
 71
3
 72
13
 73
9
 74
0
 42
0.0000001
 43
0.0000001
 44
0.0000000001
 40
0.0
 40
0.0
 40
0.0
 40
0.0
 40
0.0442474246
 40
0.111168122
 40
0.2012480606
 40
0.3146011901
 40
0.6110414793
 40
1.0
 40
1.0
 40
1.0
 40
1.0
 10
3.3332847574
 20
1.0982799394
 30
0.0
 10
3.3331889827
 20
1.0982245412
 30
0.0
 10
3.3329244021
 20
1.098130676
 30
0.0
 10
3.3324365334
 20
1.0980102967
 30
0.0
 10
3.3317708011
 20
1.0978886051
 30
0.0
 10
3.3305341258
 20
1.0977075701
 30
0.0
 10
3.3285476799
 20
1.0974928975
 30
0.0
 10
3.3268399237
 20
1.097348657
 30
0.0
 10
3.3258702124
 20
1.0972736723
 30
0.0
  0
SPLINE
  5
2ED
100
AcDbEntity
  8
0
100
AcDbSpline
 62
7
  6
CONTINUOUS
 70
0
 71
3
 72
31
 73
27
 74
0
 42
0.0000001
 43
0.0000001
 44
0.0000000001
 40
0.0
 40
0.0
 40
0.0
 40
0.0
 40
0.0368116057
 40
0.0871909749
 40
0.1493167848
 40
0.2211027127
 40
0.3004604564
 40
0.3852855566
 40
0.4731844339
 40
0.5615059548
 40
0.6475899478
 40
0.7287764119
 40
0.8025852569
 40
0.8361336572
 40
0.867157226
 40
0.8954405045
 40
0.9207682354
 40
0.942925506
 40
0.9616980411
 40
0.9768729451
 40
0.9830545744
 40
0.9882951751
 40
0.9925999641
 40
0.9959758732
 40
0.9984341046
 40
1.0
 40
1.0
 40
1.0
 40
1.0
 10
3.3258702124
 20
1.0972736723
 30
0.0
 10
3.3228341585
 20
1.097038904
 30
0.0
 10
3.3156327464
 20
1.0966216212
 30
0.0
 10
3.3032930875
 20
1.096077422
 30
0.0
 10
3.2880580187
 20
1.0955256576
 30
0.0
 10
3.2704248223
 20
1.0949681569
 30
0.0
 10
3.2509131022
 20
1.0944080626
 30
0.0
 10
3.2300680197
 20
1.093847368
 30
0.0
 10
3.2084811806
 20
1.0932866779
 30
0.0
 10
3.1867901757
 20
1.0927258012
 30
0.0
 10
3.1656546001
 20
1.0921656134
 30
0.0
 10
3.1457199455
 20
1.0916065719
 30
0.0
 10
3.1301306395
 20
1.091126793
 30
0.0
 10
3.1186901804
 20
1.0907368623
 30
0.0
 10
3.1110142331
 20
1.090454144
 30
0.0
 10
3.104018789
 20
1.0901719531
 30
0.0
 10
3.0977574128
 20
1.0898904479
 30
0.0
 10
3.0922835816
 20
1.0896102062
 30
0.0
 10
3.0876508486
 20
1.0893314689
 30
0.0
 10
3.0843399409
 20
1.0890885948
 30
0.0
 10
3.0821490346
 20
1.0888868846
 30
0.0
 10
3.0808554408
 20
1.0887467263
 30
0.0
 10
3.0797959264
 20
1.0886072019
 30
0.0
 10
3.0789673744
 20
1.0884701658
 30
0.0
 10
3.0783719155
 20
1.0883341861
 30
0.0
 10
3.0780521521
 20
1.0882284458
 30
0.0
 10
3.0779400306
 20
1.088163579
 30
0.0
  0
LINE
  5
2EE
100
AcDbEntity
  8
0
100
AcDbLine
 62
7
  6
CONTINUOUS
 10
3.0701109299
 20
1.1142740467
 11
3.0738591482
 21
1.1139158605
  0
LINE
  5
2EF
100
AcDbEntity
  8
0
100
AcDbLine
 62
7
  6
CONTINUOUS
 10
3.3373396969
 20
1.1243325339
 11
3.3321420105
 21
1.1239807931
  0
SPLINE
  5
2F0
100
AcDbEntity
  8
0
100
AcDbSpline
 62
7
  6
CONTINUOUS
 70
0
 71
3
 72
11
 73
7
 74
0
 42
0.0000001
 43
0.0000001
 44
0.0000000001
 40
0.0
 40
0.0
 40
0.0
 40
0.0
 40
0.1847767359
 40
0.4221162556
 40
0.6989571372
 40
1.0
 40
1.0
 40
1.0
 40
1.0
 10
3.3255578318
 20
1.1236350537
 30
0.0
 10
3.3190647696
 20
1.1233269188
 30
0.0
 10
3.3042248862
 20
1.1227689358
 30
0.0
 10
3.2796474249
 20
1.1220160878
 30
0.0
 10
3.2509779945
 20
1.1212631455
 30
0.0
 10
3.2306543217
 20
1.1207681266
 30
0.0
 10
3.2200668249
 20
1.1205132608
 30
0.0
  0
SPLINE
  5
2F1
100
AcDbEntity
  8
0
100
AcDbSpline
 62
7
  6
CONTINUOUS
 70
0
 71
3
 72
12
 73
8
 74
0
 42
0.0000001
 43
0.0000001
 44
0.0000000001
 40
0.0
 40
0.0
 40
0.0
 40
0.0
 40
0.3137211569
 40
0.597276201
 40
0.8313409067
 40
0.9246714163
 40
1.0
 40
1.0
 40
1.0
 40
1.0
 10
3.1911084171
 20
1.1198186504
 30
0.0
 10
3.1793871024
 20
1.1195364875
 30
0.0
 10
3.1570716721
 20
1.1189930827
 30
0.0
 10
3.126013079
 20
1.1181616534
 30
0.0
 10
3.1031912657
 20
1.1174342404
 30
0.0
 10
3.0881524659
 20
1.1168270199
 30
0.0
 10
3.0818565776
 20
1.1165166286
 30
0.0
 10
3.079046203
 20
1.1163508893
 30
0.0
  0
SPLINE
  5
2F2
100
AcDbEntity
  8
0
100
AcDbSpline
 62
7
  6
CONTINUOUS
 70
0
 71
3
 72
11
 73
7
 74
0
 42
0.0000001
 43
0.0000001
 44
0.0000000001
 40
0.0
 40
0.0
 40
0.0
 40
0.0
 40
0.358354794
 40
0.6453238075
 40
0.8594293408
 40
1.0
 40
1.0
 40
1.0
 40
1.0
 10
3.079046203
 20
1.1163508893
 30
0.0
 10
3.0777030196
 20
1.1162716762
 30
0.0
 10
3.0752849985
 20
1.1161173212
 30
0.0
 10
3.072067726
 20
1.1158595254
 30
0.0
 10
3.0696730755
 20
1.1156007052
 30
0.0
 10
3.0683535329
 20
1.1154054372
 30
0.0
 10
3.0678387413
 20
1.1152889719
 30
0.0
  0
LINE
  5
2F3
100
AcDbEntity
  8
0
100
AcDbLine
 62
7
  6
CONTINUOUS
 10
3.0678387413
 20
1.1152889719
 11
3.0670743789
 21
1.1149579046
  0
SPLINE
  5
2F4
100
AcDbEntity
  8
0
100
AcDbSpline
 62
7
  6
CONTINUOUS
 70
0
 71
3
 72
14
 73
10
 74
0
 42
0.0000001
 43
0.0000001
 44
0.0000000001
 40
0.0
 40
0.0
 40
0.0
 40
0.0
 40
0.0422139755
 40
0.1079631011
 40
0.1975938094
 40
0.3110742167
 40
0.4482579222
 40
0.6089524707
 40
1.0
 40
1.0
 40
1.0
 40
1.0
 10
3.3333421696
 20
1.1191189437
 30
0.0
 10
3.3332332887
 20
1.1190559928
 30
0.0
 10
3.3329246493
 20
1.1189530654
 30
0.0
 10
3.3323523523
 20
1.118820547
 30
0.0
 10
3.3315615208
 20
1.1186869155
 30
0.0
 10
3.3305570278
 20
1.1185509015
 30
0.0
 10
3.3293389133
 20
1.1184142603
 30
0.0
 10
3.3272957642
 20
1.118218132
 30
0.0
 10
3.3256566632
 20
1.1180915262
 30
0.0
 10
3.3244945504
 20
1.1180087455
 30
0.0
  0
SPLINE
  5
2F5
100
AcDbEntity
  8
0
100
AcDbSpline
 62
7
  6
CONTINUOUS
 70
0
 71
3
 72
12
 73
8
 74
0
 42
0.0000001
 43
0.0000001
 44
0.0000000001
 40
0.0
 40
0.0
 40
0.0
 40
0.0
 40
0.0715117605
 40
0.1617477365
 40
0.3935167252
 40
0.6790474733
 40
1.0
 40
1.0
 40
1.0
 40
1.0
 10
3.3244945504
 20
1.1180087455
 30
0.0
 10
3.3222560126
 20
1.1178492878
 30
0.0
 10
3.317188652
 20
1.1175478599
 30
0.0
 10
3.3048531124
 20
1.1169589032
 30
0.0
 10
3.2857991065
 20
1.1162715105
 30
0.0
 10
3.2595048545
 20
1.1154751802
 30
0.0
 10
3.2404788789
 20
1.1149602453
 30
0.0
 10
3.2304101513
 20
1.1146936173
 30
0.0
  0
LINE
  5
2F6
100
AcDbEntity
  8
0
100
AcDbLine
 62
7
  6
CONTINUOUS
 10
3.2304101513
 20
1.1146936173
 11
3.2058964012
 21
1.1140532305
  0
SPLINE
  5
2F7
100
AcDbEntity
  8
0
100
AcDbSpline
 62
7
  6
CONTINUOUS
 70
0
 71
3
 72
12
 73
8
 74
0
 42
0.0000001
 43
0.0000001
 44
0.0000000001
 40
0.0
 40
0.0
 40
0.0
 40
0.0
 40
0.3102976302
 40
0.5954816955
 40
0.8310734502
 40
0.9247933408
 40
1.0
 40
1.0
 40
1.0
 40
1.0
 10
3.2058964012
 20
1.1140532305
 30
0.0
 10
3.1938116098
 20
1.1137397959
 30
0.0
 10
3.1706200359
 20
1.1131396216
 30
0.0
 10
3.1382550284
 20
1.1122342034
 30
0.0
 10
3.1143276342
 20
1.111442109
 30
0.0
 10
3.0985822687
 20
1.1107710697
 30
0.0
 10
3.0920097793
 20
1.1104274419
 30
0.0
 10
3.0890855091
 20
1.1102447884
 30
0.0
  0
SPLINE
  5
2F8
100
AcDbEntity
  8
0
100
AcDbSpline
 62
7
  6
CONTINUOUS
 70
0
 71
3
 72
14
 73
10
 74
0
 42
0.0000001
 43
0.0000001
 44
0.0000000001
 40
0.0
 40
0.0
 40
0.0
 40
0.0
 40
0.396138335
 40
0.5588287111
 40
0.6970741392
 40
0.8102614272
 40
0.8981641088
 40
0.9611520142
 40
1.0
 40
1.0
 40
1.0
 40
1.0
 10
3.0890855091
 20
1.1102447884
 30
0.0
 10
3.0875972699
 20
1.1101518312
 30
0.0
 10
3.085498339
 20
1.1100100771
 30
0.0
 10
3.0828836533
 20
1.1097904696
 30
0.0
 10
3.0813320521
 20
1.1096377492
 30
0.0
 10
3.0800642013
 20
1.1094856072
 30
0.0
 10
3.0790798468
 20
1.1093365625
 30
0.0
 10
3.0783834646
 20
1.1091879571
 30
0.0
 10
3.0780122493
 20
1.1090733364
 30
0.0
 10
3.0778856612
 20
1.1090001312
 30
0.0
  0
ENDSEC
  0
SECTION
  2
OBJECTS
  0
DICTIONARY
  5
C
100
AcDbDictionary
280
0
281
1
  3
ACAD_GROUP
350
D
  3
ACAD_MLINESTYLE
350
17
  3
ACAD_LAYOUT
350
1A
  3
ACAD_PLOTSETTINGS
350
19
  3
ACAD_PLOTSTYLENAME
350
E
  0
DICTIONARY
  5
D
102
{ACAD_REACTORS
330
C
102
}
100
AcDbDictionary
280
0
281
1
  0
ACDBDICTIONARYWDFLT
  5
E
102
{ACAD_REACTORS
330
C
102
}
100
AcDbDictionary
281
1
  3
Normal
350
F
100
AcDbDictionaryWithDefault
340
F
  0
DICTIONARY
  5
17
102
{ACAD_REACTORS
330
C
102
}
100
AcDbDictionary
280
0
281
1
  3
Standard
350
18
  0
DICTIONARY
  5
19
102
{ACAD_REACTORS
330
C
102
}
100
AcDbDictionary
281
1
  0
DICTIONARY
  5
1A
102
{ACAD_REACTORS
330
C
102
}
100
AcDbDictionary
281
1
  3
Model
350
2F9
  3
Layout1
350
2FA
  0
ACDBPLACEHOLDER
  5
F
102
{ACAD_REACTORS
330
E
102
}
  0
MLINESTYLE
  5
18
102
{ACAD_REACTORS
330
17
102
}
100
AcDbMlineStyle
  2
STANDARD
 70
0
  3

 62
256
 51
90.0
 52
90.0
 71
2
 49
0.5
 62
256
  6
BYLAYER
 49
-0.5
 62
256
  6
BYLAYER
  0
LAYOUT
  5
2F9
102
{ACAD_REACTORS
330
1A
102
}
100
AcDbPlotSettings
  1

  2
none_device
  4

  6

 40
0.0
 41
0.0
 42
0.0
 43
0.0
 44
215.9
 45
279.4
 46
0.0
 47
0.0
 48
0.0
 49
0.0
140
0.0
141
0.0
142
1.0
143
1.0
 70
1024
 72
0
 73
0
 74
0
  7

 75
0
147
1.0
148
0.0
149
0.0
100
AcDbLayout
  1
Model
 70
0
 71
0
 10
0.0
 20
0.0
 11
8.5
 21
11.0
 12
0.0
 22
0.0
 32
0.0
 14
0.0
 24
0.0
 34
0.0
 15
0.0
 25
0.0
 35
0.0
146
0.0
 13
0.0
 23
0.0
 33
0.0
 16
1.0
 26
0.0
 36
0.0
 17
0.0
 27
1.0
 37
0.0
 76
0
330
22E
345
0
346
0
  0
LAYOUT
  5
2FA
102
{ACAD_REACTORS
330
1A
102
}
100
AcDbPlotSettings
  1

  2
none_device
  4

  6

 40
0.0
 41
0.0
 42
0.0
 43
0.0
 44
215.9
 45
279.4
 46
0.0
 47
0.0
 48
0.0
 49
0.0
140
0.0
141
0.0
142
1.0
143
1.0
 70
0
 72
0
 73
0
 74
0
  7

 75
0
147
1.0
148
0.0
149
0.0
100
AcDbLayout
  1
Layout1
 70
0
 71
1
 10
0.0
 20
0.0
 11
8.5
 21
11.0
 12
0.0
 22
0.0
 32
0.0
 14
0.0
 24
0.0
 34
0.0
 15
0.0
 25
0.0
 35
0.0
146
0.0
 13
0.0
 23
0.0
 33
0.0
 16
1.0
 26
0.0
 36
0.0
 17
0.0
 27
1.0
 37
0.0
 76
0
330
22F
345
0
346
0
  0
ENDSEC
  0
EOF
