  0
SECTION
  2
HEADER
  9
$ACADVER
  1
AC1015
  9
$DWGCODEPAGE
  3
ANSI_1252
  9
$EXTMAX
 10
11.6929133858
 20
8.2677165354
 30
0.0
  9
$EXTMIN
 10
0.0
 20
0.0
 30
0.0
  9
$LIMMIN
 10
0.0
 20
0.0
  9
$LIMMAX
 10
11.6929133858
 20
8.2677165354
  9
$VIEWCTR
 10
5.8464566929
 20
4.1338582677
  9
$VIEWSIZE
 40
8.2677165354
  9
$CLAYER
  8
0
  9
$LTSCALE
 40
0.6431102362
  9
$CELTYPE
  6
BYLAYER
  9
$DIMSCALE
 40
1.0
  9
$DIMASZ
 40
0.1875
  9
$DIMEXO
 40
0.0730807087
  9
$DIMDLI
 40
0.4443307087
  9
$DIMEXE
 40
0.2104724409
  9
$DIMCEN
 40
0.1052362205
  9
$DIMLFAC
 40
1.0
  9
$DIMBLK
  1
_CLOSED
  9
$DIMTXT
 40
0.15625
  9
$DIMTOL
 70
0
  9
$DIMLIM
 70
0
  9
$DIMTFAC
 40
1.0
  9
$PDMODE
 70
3
  9
$PDSIZE
 40
0.3125
  9
$HANDSEED
  5
245
  9
$TILEMODE
 70
1
  9
$MEASUREMENT
 70
0
  9
$INSUNITS
 70
1
  0
ENDSEC
  0
SECTION
  2
CLASSES
  0
CLASS
  1
ACDBDICTIONARYWDFLT
  2
AcDbDictionaryWithDefault
  3
AutoCAD 2000
 90
0
280
0
281
0
  0
CLASS
  1
ACDBPLACEHOLDER
  2
AcDbPlaceHolder
  3
AutoCAD 2000
 90
0
280
0
281
0
  0
CLASS
  1
LAYOUT
  2
AcDbLayout
  3
AutoCAD 2000
 90
0
280
0
281
0
  0
ENDSEC
  0
SECTION
  2
TABLES
  0
TABLE
  2
VPORT
  5
8
100
AcDbSymbolTable
 70
2
  0
VPORT
  5
1F4
100
AcDbSymbolTableRecord
100
AcDbViewportTableRecord
  2
*ACTIVE
 70
0
 10
0.0
 20
0.0
 11
1.0
 21
1.0
 12
5.8464566929
 22
4.1338582677
 13
0.0
 23
0.0
 14
1.0
 24
1.0
 15
0.0
 25
0.0
 16
0.0
 26
0.0
 36
1.0
 17
0.0
 27
0.0
 37
0.0
 40
8.2677165354
 41
1.4142857143
 42
50.0
 43
0.0
 44
0.0
 50
0.0
 51
0.0
 71
0
 72
100
 73
1
 74
1
 75
0
 76
0
 77
0
 78
0
  0
ENDTAB
  0
TABLE
  2
LTYPE
  5
5
100
AcDbSymbolTable
 70
6
  0
LTYPE
  5
14
100
AcDbSymbolTableRecord
100
AcDbLinetypeTableRecord
  2
BYBLOCK
 70
0
  3

 72
65
 73
0
 40
0.0
  0
LTYPE
  5
15
100
AcDbSymbolTableRecord
100
AcDbLinetypeTableRecord
  2
BYLAYER
 70
0
  3

 72
65
 73
0
 40
0.0
  0
LTYPE
  5
16
100
AcDbSymbolTableRecord
100
AcDbLinetypeTableRecord
  2
CONTINUOUS
 70
64
  3
Solid line
 72
65
 73
0
 40
0.0
  0
LTYPE
  5
1F5
100
AcDbSymbolTableRecord
100
AcDbLinetypeTableRecord
  2
CENTER
 70
64
  3
____ _ ____ _ ____ _ ____ _ ____ _ ____ _ ____
 72
65
 73
4
 40
0.6
 49
0.375
 74
0
 49
-0.075
 74
0
 49
0.075
 74
0
 49
-0.075
 74
0
  0
LTYPE
  5
1F6
100
AcDbSymbolTableRecord
100
AcDbLinetypeTableRecord
  2
HIDDEN
 70
64
  3
- - - - - - - - - - - - - - - - - - - -
 72
65
 73
2
 40
0.2
 49
0.1
 74
0
 49
-0.1
 74
0
  0
LTYPE
  5
1F7
100
AcDbSymbolTableRecord
100
AcDbLinetypeTableRecord
  2
PHANTOM
 70
64
  3
_____ _ _ _____ _ _ _____ _ _ _____
 72
65
 73
6
 40
0.8
 49
0.45
 74
0
 49
-0.05
 74
0
 49
0.1
 74
0
 49
-0.05
 74
0
 49
0.1
 74
0
 49
-0.05
 74
0
  0
LTYPE
  5
1F8
100
AcDbSymbolTableRecord
100
AcDbLinetypeTableRecord
  2
DOT
 70
64
  3
. . . . . . . . . . . . . . . . . . . .
 72
65
 73
2
 40
0.2
 49
0.1
 74
0
 49
-0.1
 74
0
  0
LTYPE
  5
1F9
100
AcDbSymbolTableRecord
100
AcDbLinetypeTableRecord
  2
DASHED
 70
64
  3
- - - - - - - - - - - - - - - - - - - -
 72
65
 73
2
 40
0.2
 49
0.1
 74
0
 49
-0.1
 74
0
  0
ENDTAB
  0
TABLE
  2
LAYER
  5
2
100
AcDbSymbolTable
 70
36
  0
LAYER
  5
10
100
AcDbSymbolTableRecord
100
AcDbLayerTableRecord
  2
0
 70
0
 62
7
  6
CONTINUOUS
370
-3
390
F
  0
LAYER
  5
1FA
100
AcDbSymbolTableRecord
100
AcDbLayerTableRecord
  2
DEFAULT_1
 70
0
 62
7
  6
CENTER
370
-3
390
F
  0
LAYER
  5
1FB
100
AcDbSymbolTableRecord
100
AcDbLayerTableRecord
  2
DEFAULT_2
 70
0
 62
8
  6
HIDDEN
370
-3
390
F
  0
LAYER
  5
1FC
100
AcDbSymbolTableRecord
100
AcDbLayerTableRecord
  2
DEFAULT_3
 70
0
 62
7
  6
PHANTOM
370
-3
390
F
  0
LAYER
  5
1FD
100
AcDbSymbolTableRecord
100
AcDbLayerTableRecord
  2
3_ALL_SYMBOLS
 70
0
 62
7
  6
CONTINUOUS
370
-3
390
F
  0
LAYER
  5
1FE
100
AcDbSymbolTableRecord
100
AcDbLayerTableRecord
  2
DEFAULT_COORDINATE_SYSTEM
 70
0
 62
7
  6
CONTINUOUS
370
-3
390
F
  0
LAYER
  5
1FF
100
AcDbSymbolTableRecord
100
AcDbLayerTableRecord
  2
DEFAULT_DATUM_AXES
 70
0
 62
7
  6
CONTINUOUS
370
-3
390
F
  0
LAYER
  5
200
100
AcDbSymbolTableRecord
100
AcDbLayerTableRecord
  2
DEFAULT_DATUM_CURVES
 70
0
 62
7
  6
CONTINUOUS
370
-3
390
F
  0
LAYER
  5
201
100
AcDbSymbolTableRecord
100
AcDbLayerTableRecord
  2
DEFAULT_DATUM_PLANES
 70
0
 62
7
  6
CONTINUOUS
370
-3
390
F
  0
ENDTAB
  0
TABLE
  2
STYLE
  5
3
100
AcDbSymbolTable
 70
1
  0
STYLE
  5
11
100
AcDbSymbolTableRecord
100
AcDbTextStyleTableRecord
  2
STANDARD
 70
0
 40
0.0
 41
0.8
 50
0.0
 71
0
 42
0.2
  3
txt
  4

  0
STYLE
  5
202
100
AcDbSymbolTableRecord
100
AcDbTextStyleTableRecord
  2
TEXTSTYLE_1
 70
0
 40
0.0
 41
0.8
 50
0.0
 71
0
 42
0.2
  3
gdt
  4

  0
ENDTAB
  0
TABLE
  2
VIEW
  5
6
100
AcDbSymbolTable
 70
0
  0
ENDTAB
  0
TABLE
  2
UCS
  5
7
100
AcDbSymbolTable
 70
0
  0
ENDTAB
  0
TABLE
  2
APPID
  5
9
100
AcDbSymbolTable
 70
1
  0
APPID
  5
203
100
AcDbSymbolTableRecord
100
AcDbRegAppTableRecord
  2
ACAD
 70
0
  0
ENDTAB
  0
TABLE
  2
BLOCK_RECORD
  5
1
100
AcDbSymbolTable
 70
0
  0
BLOCK_RECORD
  5
204
100
AcDbSymbolTableRecord
100
AcDbBlockTableRecord
  2
*Model_Space
  0
BLOCK_RECORD
  5
205
100
AcDbSymbolTableRecord
100
AcDbBlockTableRecord
  2
*Paper_Space
  0
ENDTAB
  0
TABLE
  2
DIMSTYLE
  5
A
100
AcDbSymbolTable
 70
1
100
AcDbDimStyleTable
 71
0
  0
DIMSTYLE
105
206
100
AcDbSymbolTableRecord
100
AcDbDimStyleTableRecord
  2
STANDARD
 70
0
  3

  4

 40
1.0
 41
0.1875
 42
0.0625
 43
0.38
 44
0.18
 45
0.0
 46
0.0
 47
0.01
 48
0.01
140
0.15625
141
0.09
142
0.0
143
25.4
144
1.0
145
0.0
146
1.0
147
0.09
 71
0.0
 72
0.0
 73
1
 74
1
 75
0
 76
0
 77
0
 78
4
170
0
171
2
172
0
173
0
174
0
175
0
176
0
177
0
178
0
270
2
271
2
272
2
273
2
274
2
275
0
280
0
281
0
282
0
283
1
284
4
285
0
286
0
287
3
288
0
340
11
  0
ENDTAB
  0
ENDSEC
  0
SECTION
  2
BLOCKS
  0
BLOCK
  5
20
100
AcDbEntity
  8
0
100
AcDbBlockBegin
  2
*Model_Space
 70
0
 10
0.0
 20
0.0
 30
0.0
  3
*Model_Space
  1

  0
ENDBLK
  5
21
100
AcDbEntity
  8
0
100
AcDbBlockEnd
  0
BLOCK
  5
1C
100
AcDbEntity
  8
0
100
AcDbBlockBegin
  2
*Paper_Space
 70
0
 10
0.0
 20
0.0
 30
0.0
  3
*Paper_Space
  1

  0
ENDBLK
  5
1D
100
AcDbEntity
  8
0
100
AcDbBlockEnd
  0
ENDSEC
  0
SECTION
  2
ENTITIES
  0
LINE
  5
207
100
AcDbEntity
  8
0
100
AcDbLine
 62
6
  6
CONTINUOUS
 10
5.1624507682
 20
1.9124899822
 11
5.8724507682
 21
1.9124899822
  0
LINE
  5
208
100
AcDbEntity
  8
0
100
AcDbLine
 62
6
  6
CONTINUOUS
 10
5.1624507682
 20
2.4724899822
 11
5.8724507682
 21
2.4724899822
  0
LINE
  5
209
100
AcDbEntity
  8
0
100
AcDbLine
 62
9
  6
CONTINUOUS
 10
6.0074507682
 20
2.5924899822
 11
5.0274507682
 21
2.5924899822
  0
LINE
  5
20A
100
AcDbEntity
  8
0
100
AcDbLine
 62
9
  6
CONTINUOUS
 10
6.0174507682
 20
2.6024899822
 11
5.0174507682
 21
2.6024899822
  0
LINE
  5
20B
100
AcDbEntity
  8
0
100
AcDbLine
 62
9
  6
CONTINUOUS
 10
5.0174507682
 20
2.9124899822
 11
6.0174507682
 21
2.9124899822
  0
LINE
  5
20C
100
AcDbEntity
  8
0
100
AcDbLine
 62
7
  6
CONTINUOUS
 10
5.0274507682
 20
2.9224899822
 11
6.0074507682
 21
2.9224899822
  0
LINE
  5
20D
100
AcDbEntity
  8
0
100
AcDbLine
 62
6
  6
CONTINUOUS
 10
5.0174507682
 20
2.9424899822
 11
6.0174507682
 21
2.9424899822
  0
LINE
  5
20E
100
AcDbEntity
  8
0
100
AcDbLine
 62
6
  6
CONTINUOUS
 10
5.8929891437
 20
5.8265743449
 11
5.9020887879
 21
5.8318322835
  0
LINE
  5
20F
100
AcDbEntity
  8
0
100
AcDbLine
 62
6
  6
CONTINUOUS
 10
5.9020887879
 20
5.8318322835
 11
5.9032249645
 21
5.8326641785
  0
LINE
  5
210
100
AcDbEntity
  8
0
100
AcDbLine
 62
6
  6
CONTINUOUS
 10
5.8930507682
 20
5.8224899822
 11
5.8959599394
 21
5.8253991534
  0
LINE
  5
211
100
AcDbEntity
  8
0
100
AcDbLine
 62
6
  6
CONTINUOUS
 10
5.9032249303
 20
5.8326641443
 11
5.9130507682
 21
5.8424899822
  0
LINE
  5
212
100
AcDbEntity
  8
0
100
AcDbLine
 62
6
  6
CONTINUOUS
 10
5.6618977387
 20
3.6104899822
 11
5.3730037976
 21
3.6104899822
  0
LINE
  5
213
100
AcDbEntity
  8
0
100
AcDbLine
 62
6
  6
CONTINUOUS
 10
5.0174507682
 20
6.4664899822
 11
5.0174507682
 21
5.8424899822
  0
LINE
  5
214
100
AcDbEntity
  8
0
100
AcDbLine
 62
6
  6
CONTINUOUS
 10
5.0174507682
 20
5.7424899822
 11
5.0174507682
 21
2.9424899822
  0
LINE
  5
215
100
AcDbEntity
  8
0
100
AcDbLine
 62
6
  6
CONTINUOUS
 10
5.0174507682
 20
2.6024899822
 11
5.0174507682
 21
2.9124899822
  0
LINE
  5
216
100
AcDbEntity
  8
0
100
AcDbLine
 62
6
  6
CONTINUOUS
 10
5.1114507682
 20
6.6564899822
 11
5.1114507682
 21
6.4714899822
  0
LINE
  5
217
100
AcDbEntity
  8
0
100
AcDbLine
 62
6
  6
CONTINUOUS
 10
5.1504507682
 20
5.7424899822
 11
5.1504507682
 21
5.8224899822
  0
LINE
  5
218
100
AcDbEntity
  8
0
100
AcDbLine
 62
6
  6
CONTINUOUS
 10
5.1624507682
 20
2.4724899822
 11
5.1624507682
 21
1.9124899822
  0
LINE
  5
219
100
AcDbEntity
  8
0
100
AcDbLine
 62
6
  6
CONTINUOUS
 10
5.2364507682
 20
3.4755475936
 11
5.2364507682
 21
3.9094323709
  0
LINE
  5
21A
100
AcDbEntity
  8
0
100
AcDbLine
 62
6
  6
CONTINUOUS
 10
5.2924507682
 20
2.5924899822
 11
5.2924507682
 21
2.4724899822
  0
LINE
  5
21B
100
AcDbEntity
  8
0
100
AcDbLine
 62
6
  6
CONTINUOUS
 10
5.3882116487
 20
3.6104899822
 11
5.3882116487
 21
3.5745077408
  0
LINE
  5
21C
100
AcDbEntity
  8
0
100
AcDbLine
 62
6
  6
CONTINUOUS
 10
5.6466898876
 20
3.6104899822
 11
5.6466898876
 21
3.5745077408
  0
LINE
  5
21D
100
AcDbEntity
  8
0
100
AcDbLine
 62
6
  6
CONTINUOUS
 10
5.7424507682
 20
2.5924899822
 11
5.7424507682
 21
2.4724899822
  0
LINE
  5
21E
100
AcDbEntity
  8
0
100
AcDbLine
 62
6
  6
CONTINUOUS
 10
5.7984507682
 20
3.9094323709
 11
5.7984507682
 21
3.4755475936
  0
LINE
  5
21F
100
AcDbEntity
  8
0
100
AcDbLine
 62
6
  6
CONTINUOUS
 10
5.8724507682
 20
2.4724899822
 11
5.8724507682
 21
1.9124899822
  0
LINE
  5
220
100
AcDbEntity
  8
0
100
AcDbLine
 62
6
  6
CONTINUOUS
 10
5.8844507682
 20
5.7424899822
 11
5.8844507682
 21
5.8224899822
  0
LINE
  5
221
100
AcDbEntity
  8
0
100
AcDbLine
 62
6
  6
CONTINUOUS
 10
5.9234507682
 20
6.6564899822
 11
5.9234507682
 21
6.4714899822
  0
LINE
  5
222
100
AcDbEntity
  8
0
100
AcDbLine
 62
6
  6
CONTINUOUS
 10
6.0174507682
 20
6.4664899822
 11
6.0174507682
 21
5.8424899822
  0
LINE
  5
223
100
AcDbEntity
  8
0
100
AcDbLine
 62
6
  6
CONTINUOUS
 10
6.0174507682
 20
5.7424899822
 11
6.0174507682
 21
2.9424899822
  0
LINE
  5
224
100
AcDbEntity
  8
0
100
AcDbLine
 62
6
  6
CONTINUOUS
 10
6.0174507682
 20
2.6024899822
 11
6.0174507682
 21
2.9124899822
  0
LINE
  5
225
100
AcDbEntity
  8
0
100
AcDbLine
 62
6
  6
CONTINUOUS
 10
5.1418507682
 20
5.8224899822
 11
5.1218507682
 21
5.8424899822
  0
LINE
  5
226
100
AcDbEntity
  8
0
100
AcDbLine
 62
6
  6
CONTINUOUS
 10
5.8958772287
 20
5.8256256986
 11
5.895959829
 21
5.8253990432
  0
LINE
  5
227
100
AcDbEntity
  8
0
100
AcDbLine
 62
6
  6
CONTINUOUS
 10
6.0174507682
 20
5.7424899822
 11
5.0174507682
 21
5.7424899822
  0
LINE
  5
228
100
AcDbEntity
  8
0
100
AcDbLine
 62
6
  6
CONTINUOUS
 10
5.1418507682
 20
5.8224899822
 11
5.8930507682
 21
5.8224899822
  0
LINE
  5
229
100
AcDbEntity
  8
0
100
AcDbLine
 62
6
  6
CONTINUOUS
 10
6.0174507682
 20
5.8424899822
 11
5.0174507682
 21
5.8424899822
  0
LINE
  5
22A
100
AcDbEntity
  8
0
100
AcDbLine
 62
6
  6
CONTINUOUS
 10
5.8958772287
 20
5.8256256986
 11
5.8936123146
 21
5.8269344243
  0
LINE
  5
22B
100
AcDbEntity
  8
0
100
AcDbLine
 62
6
  6
CONTINUOUS
 10
6.0174507682
 20
6.4664899822
 11
5.9284507682
 21
6.4664899822
  0
LINE
  5
22C
100
AcDbEntity
  8
0
100
AcDbLine
 62
6
  6
CONTINUOUS
 10
5.1064507682
 20
6.4664899822
 11
5.0174507682
 21
6.4664899822
  0
LINE
  5
22D
100
AcDbEntity
  8
0
100
AcDbLine
 62
6
  6
CONTINUOUS
 10
5.1114507682
 20
6.6564899822
 11
5.9234507682
 21
6.6564899822
  0
ARC
  5
22E
100
AcDbEntity
  8
0
100
AcDbCircle
 62
9
  6
CONTINUOUS
 10
5.434781031
 20
3.6924922073
 40
0.5826692715
100
AcDbArc
 50
351.2734544382
 51
359.9997811986
  0
ARC
  5
22F
100
AcDbEntity
  8
0
100
AcDbCircle
 62
9
  6
CONTINUOUS
 10
5.4348248012
 20
3.6924912758
 40
0.5826255085
100
AcDbArc
 50
359.9998727897
 51
8.7284475902
  0
ARC
  5
230
100
AcDbEntity
  8
0
100
AcDbCircle
 62
6
  6
CONTINUOUS
 10
5.0274507682
 20
2.6024899822
 40
0.01
100
AcDbArc
 50
180.0
 51
270.0
  0
ARC
  5
231
100
AcDbEntity
  8
0
100
AcDbCircle
 62
6
  6
CONTINUOUS
 10
5.0274507682
 20
2.9124899822
 40
0.01
100
AcDbArc
 50
90.0
 51
180.0
  0
ARC
  5
232
100
AcDbEntity
  8
0
100
AcDbCircle
 62
6
  6
CONTINUOUS
 10
5.1064507682
 20
6.4714899822
 40
0.005
100
AcDbArc
 50
270.0
 51
360.0
  0
ARC
  5
233
100
AcDbEntity
  8
0
100
AcDbCircle
 62
9
  6
CONTINUOUS
 10
5.6001427535
 20
3.6924849544
 40
0.5826914861
100
AcDbArc
 50
171.1728604366
 51
179.9995056129
  0
ARC
  5
234
100
AcDbEntity
  8
0
100
AcDbCircle
 62
9
  6
CONTINUOUS
 10
5.6000770488
 20
3.6924887603
 40
0.582625821
100
AcDbArc
 50
179.9998798405
 51
188.7323364706
  0
CIRCLE
  5
235
100
AcDbEntity
  8
0
100
AcDbCircle
 62
6
  6
CONTINUOUS
 10
5.5174507682
 20
3.6924899822
 40
0.5
  0
CIRCLE
  5
236
100
AcDbEntity
  8
0
100
AcDbCircle
 62
6
  6
CONTINUOUS
 10
5.5174507682
 20
3.6924899822
 40
0.355
  0
CIRCLE
  5
237
100
AcDbEntity
  8
0
100
AcDbCircle
 62
9
  6
CONTINUOUS
 10
5.5174507682
 20
3.6924899822
 40
0.1959999979
  0
CIRCLE
  5
238
100
AcDbEntity
  8
0
100
AcDbCircle
 62
6
  6
CONTINUOUS
 10
5.5174507682
 20
3.6924899822
 40
0.191
  0
CIRCLE
  5
239
100
AcDbEntity
  8
0
100
AcDbCircle
 62
7
  6
CONTINUOUS
 10
5.5174507682
 20
3.6924899822
 40
0.19
  0
ARC
  5
23A
100
AcDbEntity
  8
0
100
AcDbCircle
 62
6
  6
CONTINUOUS
 10
5.5174507682
 20
3.6489899822
 40
0.15
100
AcDbArc
 50
296.1079272224
 51
243.8920727776
  0
ARC
  5
23B
100
AcDbEntity
  8
0
100
AcDbCircle
 62
6
  6
CONTINUOUS
 10
6.0074507682
 20
2.6024899822
 40
0.01
100
AcDbArc
 50
270.0
 51
360.0
  0
ARC
  5
23C
100
AcDbEntity
  8
0
100
AcDbCircle
 62
6
  6
CONTINUOUS
 10
6.0074507682
 20
2.9124899822
 40
0.01
100
AcDbArc
 50
0.0
 51
90.0
  0
ARC
  5
23D
100
AcDbEntity
  8
0
100
AcDbCircle
 62
6
  6
CONTINUOUS
 10
5.9284507682
 20
6.4714899822
 40
0.005
100
AcDbArc
 50
180.0
 51
270.0
  0
SPLINE
  5
23E
100
AcDbEntity
  8
0
100
AcDbSpline
 62
9
  6
CONTINUOUS
 70
0
 71
3
 72
83
 73
79
 74
77
 42
0.0000001
 43
0.0000001
 44
0.0000000001
 12
0.2213099136
 22
-1.4396847351
 32
0.0
 13
0.2211672605
 23
1.4397066566
 33
0.0
 40
0.0
 40
0.0
 40
0.0
 40
0.0
 40
0.0136085928
 40
0.0272563439
 40
0.0409506267
 40
0.0546994868
 40
0.0685116115
 40
0.0823963313
 40
0.0963631582
 40
0.1104203478
 40
0.1245767641
 40
0.1388425442
 40
0.153229093
 40
0.1677474639
 40
0.1824072119
 40
0.1972195781
 40
0.2121979014
 40
0.2273558992
 40
0.2427037276
 40
0.2582532872
 40
0.274019531
 40
0.2900143759
 40
0.3062447361
 40
0.3227211687
 40
0.3394529928
 40
0.3564384005
 40
0.3650269091
 40
0.3736793825
 40
0.3911685219
 40
0.4000018679
 40
0.4088911354
 40
0.4178346476
 40
0.4268291738
 40
0.4358696131
 40
0.4449509755
 40
0.4540685314
 40
0.4632177589
 40
0.4723930139
 40
0.4815876674
 40
0.5000069633
 40
0.5184261997
 40
0.5276207794
 40
0.53679593
 40
0.5459450181
 40
0.5550623817
 40
0.5641435086
 40
0.5731836841
 40
0.5821779322
 40
0.5911211573
 40
0.6000101035
 40
0.6088431021
 40
0.6263315221
 40
0.6349836454
 40
0.6435717927
 40
0.6605564558
 40
0.677287559
 40
0.6937632982
 40
0.7099929501
 40
0.7259871179
 40
0.7417527428
 40
0.7573016951
 40
0.7726489412
 40
0.7878064047
 40
0.8027842384
 40
0.8175961369
 40
0.8322554444
 40
0.8467734085
 40
0.861159586
 40
0.8754250197
 40
0.8895811179
 40
0.9036380225
 40
0.917604603
 40
0.9314891159
 40
0.9453010642
 40
0.9590497701
 40
0.9727439134
 40
0.9863915334
 40
1.0
 40
1.0
 40
1.0
 40
1.0
 10
5.0242052104
 20
3.6040353377
 30
0.0
 10
5.0252091159
 20
3.5975046433
 30
0.0
 10
5.0274432939
 20
3.5844576912
 30
0.0
 10
5.0314690398
 20
3.564982864
 30
0.0
 10
5.0361823271
 20
3.5455924732
 30
0.0
 10
5.0415913005
 20
3.5263016032
 30
0.0
 10
5.0477042647
 20
3.5071249459
 30
0.0
 10
5.0545294676
 20
3.4880775567
 30
0.0
 10
5.0620744476
 20
3.4691753378
 30
0.0
 10
5.0703537679
 20
3.4504385255
 30
0.0
 10
5.0793817923
 20
3.4318889979
 30
0.0
 10
5.089172822
 20
3.4135489713
 30
0.0
 10
5.0997402201
 20
3.3954410797
 30
0.0
 10
5.1110982638
 20
3.3775909164
 30
0.0
 10
5.1232670103
 20
3.3600307606
 30
0.0
 10
5.1362646147
 20
3.3427940571
 30
0.0
 10
5.1501087638
 20
3.3259151946
 30
0.0
 10
5.1648148738
 20
3.3094312459
 30
0.0
 10
5.1804035324
 20
3.293389595
 30
0.0
 10
5.1968927914
 20
3.2778408678
 30
0.0
 10
5.2142973713
 20
3.2628376425
 30
0.0
 10
5.2326283687
 20
3.2484391811
 30
0.0
 10
5.2518953911
 20
3.234715321
 30
0.0
 10
5.2721015696
 20
3.2217399069
 30
0.0
 10
5.293239924
 20
3.2095917964
 30
0.0
 10
5.311551258
 20
3.2002634351
 30
0.0
 10
5.3266406172
 20
3.1932974567
 30
0.0
 10
5.3421319506
 20
3.1866328753
 30
0.0
 10
5.3579950954
 20
3.1805452477
 30
0.0
 10
5.3741921306
 20
3.1750681968
 30
0.0
 10
5.3865674455
 20
3.1712566521
 30
0.0
 10
5.3991188306
 20
3.1677681394
 30
0.0
 10
5.4118339487
 20
3.164613454
 30
0.0
 10
5.4246977437
 20
3.1618014118
 30
0.0
 10
5.4376943705
 20
3.1593417213
 30
0.0
 10
5.4508078156
 20
3.1572437355
 30
0.0
 10
5.4640213821
 20
3.155517814
 30
0.0
 10
5.4773165521
 20
3.1541696575
 30
0.0
 10
5.4951342433
 20
3.1528792152
 30
0.0
 10
5.5174887574
 20
3.1522291313
 30
0.0
 10
5.539843129
 20
3.1528828844
 30
0.0
 10
5.557660492
 20
3.154176257
 30
0.0
 10
5.5709552878
 20
3.1555265687
 30
0.0
 10
5.5841683689
 20
3.1572545692
 30
0.0
 10
5.5972812042
 20
3.159354624
 30
0.0
 10
5.610277103
 20
3.1618163542
 30
0.0
 10
5.6231400759
 20
3.1646303882
 30
0.0
 10
5.6358543003
 20
3.1677870009
 30
0.0
 10
5.6484047288
 20
3.1712773464
 30
0.0
 10
5.6607790088
 20
3.1750906736
 30
0.0
 10
5.6769745606
 20
3.1805700063
 30
0.0
 10
5.6928361325
 20
3.1866598067
 30
0.0
 10
5.7083258379
 20
3.1933264132
 30
0.0
 10
5.7234135317
 20
3.2002943114
 30
0.0
 10
5.7417227241
 20
3.2096249187
 30
0.0
 10
5.7628584478
 20
3.2217754986
 30
0.0
 10
5.7830619764
 20
3.2347531279
 30
0.0
 10
5.80232634
 20
3.2484789782
 30
0.0
 10
5.8206546833
 20
3.262879241
 30
0.0
 10
5.8380566336
 20
3.2778840984
 30
0.0
 10
5.8545433241
 20
3.293434267
 30
0.0
 10
5.8701294554
 20
3.3094772053
 30
0.0
 10
5.8848330755
 20
3.325962329
 30
0.0
 10
5.8986747873
 20
3.3428422522
 30
0.0
 10
5.911670026
 20
3.360079888
 30
0.0
 10
5.9238364549
 20
3.3776408721
 30
0.0
 10
5.9351922221
 20
3.395491782
 30
0.0
 10
5.9457573761
 20
3.4136003503
 30
0.0
 10
5.9555462224
 20
3.4319409715
 30
0.0
 10
5.9645721107
 20
3.4504910252
 30
0.0
 10
5.9728493422
 20
3.4692283089
 30
0.0
 10
5.9803922751
 20
3.4881309584
 30
0.0
 10
5.9872154745
 20
3.5071787402
 30
0.0
 10
5.9933264714
 20
3.5263557502
 30
0.0
 10
5.9987334975
 20
3.5456469289
 30
0.0
 10
6.0034448435
 20
3.5650375794
 30
0.0
 10
6.0074686385
 20
3.5845126132
 30
0.0
 10
6.0097014991
 20
3.5975596641
 30
0.0
 10
6.0107047482
 20
3.6040903974
 30
0.0
 11
5.0242052104
 21
3.6040353377
 31
0.0
 11
5.0275510944
 21
3.584497548
 31
0.0
 11
5.0315761635
 21
3.5650300503
 31
0.0
 11
5.0362881773
 21
3.5456475605
 31
0.0
 11
5.041695374
 21
3.5263648222
 31
0.0
 11
5.0478059919
 21
3.5071965793
 31
0.0
 11
5.054628269
 21
3.4881575754
 31
0.0
 11
5.0621712928
 21
3.4692636138
 31
0.0
 11
5.0704480605
 21
3.4505353767
 31
0.0
 11
5.0794726939
 21
3.4319949492
 31
0.0
 11
5.0892593148
 21
3.4136644168
 31
0.0
 11
5.0998220556
 21
3.3955658947
 31
0.0
 11
5.111176305
 21
3.3777251203
 31
0.0
 11
5.1233398915
 21
3.3601748634
 31
0.0
 11
5.1363309238
 21
3.3429487013
 31
0.0
 11
5.1501675105
 21
3.3260802117
 31
0.0
 11
5.1648676232
 21
3.3096062315
 31
0.0
 11
5.1804487537
 21
3.2935750065
 31
0.0
 11
5.1969282888
 21
3.2780372775
 31
0.0
 11
5.2143235094
 21
3.2630439691
 31
0.0
 11
5.2326467743
 21
3.2486545425
 31
0.0
 11
5.2519035427
 21
3.2349404264
 31
0.0
 11
5.2720987479
 21
3.2219739502
 31
0.0
 11
5.2932302544
 21
3.2098319007
 31
0.0
 11
5.3152763693
 21
3.1986033959
 31
0.0
 11
5.3266345779
 21
3.1933602331
 31
0.0
 11
5.3382118677
 21
3.1883796882
 31
0.0
 11
5.3619957363
 21
3.1792537441
 31
0.0
 11
5.3741844332
 21
3.1751324149
 31
0.0
 11
5.3865589982
 21
3.1713215667
 31
0.0
 11
5.3991103353
 21
3.1678331976
 31
0.0
 11
5.4118261571
 21
3.1646781723
 31
0.0
 11
5.4246906596
 21
3.1618661068
 31
0.0
 11
5.4376878578
 21
3.1594065526
 31
0.0
 11
5.4508017666
 21
3.1573090613
 31
0.0
 11
5.4640162333
 21
3.1555829641
 31
0.0
 11
5.4773126518
 21
3.1542343687
 31
0.0
 11
5.4906705552
 21
3.1532669385
 31
0.0
 11
5.517488765
 21
3.1524899838
 31
0.0
 11
5.54430676
 21
3.1532713447
 31
0.0
 11
5.5576643969
 21
3.1542409658
 31
0.0
 11
5.5709604442
 21
3.1555917122
 31
0.0
 11
5.5841744325
 21
3.1573199022
 31
0.0
 11
5.5972877271
 21
3.15941946
 31
0.0
 11
5.6102841907
 21
3.1618810501
 31
0.0
 11
5.6231478651
 21
3.1646951035
 31
0.0
 11
5.6358627922
 21
3.1678520512
 31
0.0
 11
5.6484131826
 21
3.1713422647
 31
0.0
 11
5.6607867096
 21
3.1751548929
 31
0.0
 11
5.6729742915
 21
3.1792779392
 31
0.0
 11
5.6967557943
 21
3.1884071234
 31
0.0
 11
5.7083318752
 21
3.1933891877
 31
0.0
 11
5.7196888355
 21
3.1986337984
 31
0.0
 11
5.7417323596
 21
3.2098649998
 31
0.0
 11
5.7628612389
 21
3.2220095132
 31
0.0
 11
5.7830538128
 21
3.234978218
 31
0.0
 11
5.8023079047
 21
3.2486943136
 31
0.0
 11
5.8206285074
 21
3.2630855328
 31
0.0
 11
5.8380211231
 21
3.2780804822
 31
0.0
 11
5.8544980836
 21
3.2936196523
 31
0.0
 11
5.8700766777
 21
3.3096521594
 31
0.0
 11
5.8847743057
 21
3.3261273136
 31
0.0
 11
5.8986084679
 21
3.3429968693
 31
0.0
 11
5.9115971311
 21
3.3602239647
 31
0.0
 11
5.9237583977
 21
3.3777750485
 31
0.0
 11
5.9351103701
 21
3.3956165695
 31
0.0
 11
5.9456708757
 21
3.4137157699
 31
0.0
 11
5.9554553118
 21
3.4320468968
 31
0.0
 11
5.964477809
 21
3.4505878486
 31
0.0
 11
5.972752487
 21
3.4693165552
 31
0.0
 11
5.9802934655
 21
3.4882109468
 31
0.0
 11
5.9871137412
 21
3.5072503475
 31
0.0
 11
5.9932223922
 21
3.5264189476
 31
0.0
 11
5.9986276418
 21
3.5457019985
 31
0.0
 11
6.0033377135
 21
3.5650847514
 31
0.0
 11
6.0073608308
 21
3.5845524576
 31
0.0
 11
6.0107047482
 21
3.6040903974
 31
0.0
  0
SPLINE
  5
23F
100
AcDbEntity
  8
0
100
AcDbSpline
 62
6
  6
CONTINUOUS
 70
0
 71
3
 72
28
 73
24
 74
22
 42
0.0000001
 43
0.0000001
 44
0.0000000001
 12
0.0509618535
 22
0.0056025766
 32
0.0
 13
0.0443906979
 23
0.0256508348
 33
0.0
 40
0.0
 40
0.0
 40
0.0
 40
0.0
 40
0.1955770448
 40
0.2861002682
 40
0.3716866212
 40
0.4522673634
 40
0.5277784695
 40
0.5981820245
 40
0.6634524633
 40
0.7235668536
 40
0.7785058693
 40
0.804030318
 40
0.8282567483
 40
0.8511864212
 40
0.8728214692
 40
0.8931648911
 40
0.9122207866
 40
0.9299946741
 40
0.9464939271
 40
0.9617283881
 40
0.9757112443
 40
0.9884603083
 40
1.0
 40
1.0
 40
1.0
 40
1.0
 10
5.8517978613
 20
5.8227399822
 30
0.0
 10
5.8551201842
 20
5.8231052273
 30
0.0
 10
5.8599778513
 20
5.8236621158
 30
0.0
 10
5.8662814337
 20
5.8244451031
 30
0.0
 10
5.8706308875
 20
5.8250161794
 30
0.0
 10
5.8747215981
 20
5.8255862403
 30
0.0
 10
5.878550325
 20
5.8261552927
 30
0.0
 10
5.8821145063
 20
5.8267232548
 30
0.0
 10
5.8854121997
 20
5.8272900641
 30
0.0
 10
5.8884416294
 20
5.8278557064
 30
0.0
 10
5.8907954975
 20
5.8283370956
 30
0.0
 10
5.8925423746
 20
5.8287236986
 30
0.0
 10
5.8937519243
 20
5.8290062599
 30
0.0
 10
5.8948931768
 20
5.8292885735
 30
0.0
 10
5.8959660171
 20
5.8295706392
 30
0.0
 10
5.8969703367
 20
5.8298524484
 30
0.0
 10
5.8979060306
 20
5.8301339936
 30
0.0
 10
5.8987729986
 20
5.8304152655
 30
0.0
 10
5.8995711491
 20
5.8306962554
 30
0.0
 10
5.9003003967
 20
5.8309769527
 30
0.0
 10
5.9009606855
 20
5.831257357
 30
0.0
 10
5.9015519375
 20
5.8315374535
 30
0.0
 10
5.9019180376
 20
5.8317336168
 30
0.0
 10
5.9020887893
 20
5.8318322843
 30
0.0
 11
5.8517978613
 21
5.8227399822
 31
0.0
 11
5.8617589428
 21
5.8238880055
 31
0.0
 11
5.8663644603
 21
5.8244610024
 31
0.0
 11
5.8707149068
 21
5.8250332224
 31
0.0
 11
5.8748064906
 21
5.8256045906
 31
0.0
 11
5.8786356026
 21
5.8261750409
 31
0.0
 11
5.8821998997
 21
5.8267445713
 31
0.0
 11
5.8854975756
 21
5.8273132068
 31
0.0
 11
5.8885268256
 21
5.8278809722
 31
0.0
 11
5.8912858452
 21
5.8284478927
 31
0.0
 11
5.8925634547
 21
5.8287310439
 31
0.0
 11
5.893772859
 21
5.8290139923
 31
0.0
 11
5.894913929
 21
5.829296738
 31
0.0
 11
5.8959865451
 21
5.8295792807
 31
0.0
 11
5.8969905877
 21
5.8298616201
 31
0.0
 11
5.8979259373
 21
5.8301437561
 31
0.0
 11
5.8987924742
 21
5.8304256883
 31
0.0
 11
5.899590079
 21
5.8307074165
 31
0.0
 11
5.900318632
 21
5.8309889405
 31
0.0
 11
5.9009780138
 21
5.8312702599
 31
0.0
 11
5.9015681046
 21
5.8315513746
 31
0.0
 11
5.9020887893
 21
5.8318322843
 31
0.0
  0
SPLINE
  5
240
100
AcDbEntity
  8
0
100
AcDbSpline
 62
6
  6
CONTINUOUS
 70
0
 71
3
 72
30
 73
26
 74
24
 42
0.0000001
 43
0.0000001
 44
0.0000000001
 12
-0.0313235793
 22
-0.0313308667
 32
0.0
 13
-0.0442811001
 23
-0.0014049949
 33
0.0
 40
0.0
 40
0.0
 40
0.0
 40
0.0
 40
0.0014954321
 40
0.0033776414
 40
0.0056764628
 40
0.0084081862
 40
0.0115825042
 40
0.0152054515
 40
0.0238102122
 40
0.0342405236
 40
0.0465042285
 40
0.0606048453
 40
0.076543558
 40
0.0943201824
 40
0.113933681
 40
0.1586642626
 40
0.2107165088
 40
0.2700517452
 40
0.3366228506
 40
0.4103815667
 40
0.4912789259
 40
0.5792581782
 40
0.6742255356
 40
0.7760754709
 40
1.0
 40
1.0
 40
1.0
 40
1.0
 10
5.8959596484
 20
5.8253990439
 30
0.0
 10
5.8959440343
 20
5.8253834262
 30
0.0
 10
5.8959040813
 20
5.8253529184
 30
0.0
 10
5.8958306892
 20
5.8253121653
 30
0.0
 10
5.8957370076
 20
5.8252712874
 30
0.0
 10
5.8956229156
 20
5.8252303229
 30
0.0
 10
5.8954882737
 20
5.8251892544
 30
0.0
 10
5.895268362
 20
5.8251310176
 30
0.0
 10
5.894941253
 20
5.8250598871
 30
0.0
 10
5.8944862666
 20
5.8249781639
 30
0.0
 10
5.893949063
 20
5.8248961604
 30
0.0
 10
5.8933297498
 20
5.8248139174
 30
0.0
 10
5.8926284158
 20
5.8247315203
 30
0.0
 10
5.8918451872
 20
5.8246489946
 30
0.0
 10
5.8906379207
 20
5.8245337242
 30
0.0
 10
5.8889248194
 20
5.8243916896
 30
0.0
 10
5.8866251405
 20
5.824227248
 30
0.0
 10
5.8840022331
 20
5.824062402
 30
0.0
 10
5.8810582352
 20
5.8238971996
 30
0.0
 10
5.8777953781
 20
5.8237317243
 30
0.0
 10
5.8742160136
 20
5.8235660164
 30
0.0
 10
5.8703231453
 20
5.8234001356
 30
0.0
 10
5.8661206018
 20
5.8232340857
 30
0.0
 10
5.8599113842
 20
5.8230052168
 30
0.0
 10
5.8551030695
 20
5.8228448532
 30
0.0
 10
5.8517978613
 20
5.8227399822
 30
0.0
 11
5.8959596484
 21
5.8253990439
 31
0.0
 11
5.8959079277
 21
5.8253576387
 31
0.0
 11
5.895835548
 21
5.8253162289
 31
0.0
 11
5.895742503
 21
5.8252748145
 31
0.0
 11
5.8956287866
 21
5.8252333954
 31
0.0
 11
5.8954943927
 21
5.8251919717
 31
0.0
 11
5.8953393225
 21
5.8251505433
 31
0.0
 11
5.8949672188
 21
5.8250676728
 31
0.0
 11
5.8945126155
 21
5.8249847841
 31
0.0
 11
5.8939756546
 21
5.8249018775
 31
0.0
 11
5.8933564778
 21
5.8248189532
 31
0.0
 11
5.8926552269
 21
5.8247360115
 31
0.0
 11
5.8918720437
 21
5.8246530526
 31
0.0
 11
5.8910070701
 21
5.8245700768
 31
0.0
 11
5.8890323189
 21
5.8244040754
 31
0.0
 11
5.8867322154
 21
5.8242380085
 31
0.0
 11
5.8841087189
 21
5.8240718707
 31
0.0
 11
5.8811640811
 21
5.8239056544
 31
0.0
 11
5.8779005549
 21
5.8237393518
 31
0.0
 11
5.8743203929
 21
5.823572955
 31
0.0
 11
5.8704261718
 21
5.8234064609
 31
0.0
 11
5.8662220951
 21
5.8232398895
 31
0.0
 11
5.8617128757
 21
5.8230732678
 31
0.0
 11
5.8517978613
 21
5.8227399822
 31
0.0
  0
SPLINE
  5
241
100
AcDbEntity
  8
0
100
AcDbSpline
 62
6
  6
CONTINUOUS
 70
0
 71
3
 72
25
 73
21
 74
19
 42
0.0000001
 43
0.0000001
 44
0.0000000001
 12
-0.0358911405
 22
-0.0207225535
 32
0.0
 13
-0.0413890625
 23
-0.0021315941
 33
0.0
 40
0.0
 40
0.0
 40
0.0
 40
0.0
 40
0.0065165376
 40
0.0145574212
 40
0.0241665299
 40
0.0353682879
 40
0.0481771015
 40
0.0626017558
 40
0.0786476569
 40
0.0963180659
 40
0.1365380695
 40
0.1832623541
 40
0.2364676806
 40
0.2961234228
 40
0.3621960204
 40
0.4346500423
 40
0.5134475323
 40
0.5985266974
 40
0.7871992422
 40
1.0
 40
1.0
 40
1.0
 40
1.0
 10
5.8929889939
 20
5.8265743442
 30
0.0
 10
5.8929110319
 20
5.8265293311
 30
0.0
 10
5.89272921
 20
5.8264421642
 30
0.0
 10
5.8924167017
 20
5.8263241829
 30
0.0
 10
5.8920359128
 20
5.8262057868
 30
0.0
 10
5.8915867964
 20
5.8260870833
 30
0.0
 10
5.8910692426
 20
5.8259681494
 30
0.0
 10
5.8904832863
 20
5.8258490489
 30
0.0
 10
5.8898289744
 20
5.8257298127
 30
0.0
 10
5.8888211748
 20
5.8255634367
 30
0.0
 10
5.8873904234
 20
5.8253584068
 30
0.0
 10
5.8854688314
 20
5.8251210653
 30
0.0
 10
5.8832770147
 20
5.8248832568
 30
0.0
 10
5.8808165719
 20
5.8246450589
 30
0.0
 10
5.8780891277
 20
5.8244065829
 30
0.0
 10
5.8750963539
 20
5.8241678834
 30
0.0
 10
5.8718402619
 20
5.8239290198
 30
0.0
 10
5.8669811055
 20
5.8235988763
 30
0.0
 10
5.8602718961
 20
5.8231904962
 30
0.0
 10
5.8547337359
 20
5.8228911838
 30
0.0
 10
5.8517978613
 20
5.8227399822
 30
0.0
 11
5.8929889939
 21
5.8265743442
 31
0.0
 11
5.8927469612
 21
5.8264545173
 31
0.0
 11
5.8924360043
 21
5.8263346905
 31
0.0
 11
5.8920562202
 21
5.8262148639
 31
0.0
 11
5.8916077061
 21
5.826095038
 31
0.0
 11
5.8910905592
 21
5.8259752128
 31
0.0
 11
5.8905048767
 21
5.8258553889
 31
0.0
 11
5.8898507558
 21
5.8257355663
 31
0.0
 11
5.8891282936
 21
5.8256157455
 31
0.0
 11
5.8874787344
 21
5.8253761102
 31
0.0
 11
5.8855571808
 21
5.8251364829
 31
0.0
 11
5.8833652028
 21
5.824896856
 31
0.0
 11
5.880904476
 21
5.8246572211
 31
0.0
 11
5.8781766759
 21
5.8244175695
 31
0.0
 11
5.8751834781
 21
5.8241778926
 31
0.0
 11
5.8719266111
 21
5.8239381828
 31
0.0
 11
5.8684087562
 21
5.8236984538
 31
0.0
 11
5.8606041361
 21
5.8232190647
 31
0.0
 11
5.8517978613
 21
5.8227399822
 31
0.0
  0
SPLINE
  5
242
100
AcDbEntity
  8
0
100
AcDbSpline
 62
9
  6
CONTINUOUS
 70
0
 71
3
 72
83
 73
79
 74
77
 42
0.0000001
 43
0.0000001
 44
0.0000000001
 12
-0.2210623722
 22
1.4387272767
 32
0.0
 13
-0.2235568801
 23
-1.4383417781
 33
0.0
 40
0.0
 40
0.0
 40
0.0
 40
0.0
 40
0.0136071307
 40
0.0272533649
 40
0.0409460643
 40
0.0546932604
 40
0.068503624
 40
0.0823864672
 40
0.0963512818
 40
0.1104063081
 40
0.1245603951
 40
0.1388236603
 40
0.1532074843
 40
0.1677228955
 40
0.1823794322
 40
0.1971883134
 40
0.2121628484
 40
0.2273167257
 40
0.2426600898
 40
0.2582048222
 40
0.2739658473
 40
0.2899550885
 40
0.3061794737
 40
0.3226495549
 40
0.3393747077
 40
0.3563532161
 40
0.364938205
 40
0.3735871261
 40
0.3910692065
 40
0.3998990811
 40
0.4087849405
 40
0.4177251285
 40
0.4267164679
 40
0.4357538877
 40
0.4448324218
 40
0.4539473639
 40
0.4630942211
 40
0.4722673923
 40
0.4814602673
 40
0.4998769924
 40
0.5182950628
 40
0.5274896021
 40
0.5366650819
 40
0.5458148728
 40
0.5549332857
 40
0.5640157873
 40
0.573057649
 40
0.582053882
 40
0.5909993727
 40
0.5998908137
 40
0.6087265102
 40
0.6262208577
 40
0.634876172
 40
0.6434676194
 40
0.6604591171
 40
0.677197236
 40
0.6936800433
 40
0.7099167388
 40
0.7259178303
 40
0.7416901822
 40
0.7572456531
 40
0.7725991287
 40
0.7877624395
 40
0.8027456687
 40
0.8175625382
 40
0.8322264334
 40
0.8467486365
 40
0.8611387673
 40
0.8754079293
 40
0.8895674572
 40
0.9036274061
 40
0.9175965517
 40
0.9314831352
 40
0.9452967599
 40
0.9590468314
 40
0.9727421061
 40
0.9863906934
 40
1.0
 40
1.0
 40
1.0
 40
1.0
 10
6.0107023341
 20
3.7809055643
 30
0.0
 10
6.0096996593
 20
3.7874312144
 30
0.0
 10
6.0074683004
 20
3.8004681057
 30
0.0
 10
6.0034478363
 20
3.81992804
 30
0.0
 10
5.9987409201
 20
3.8393037207
 30
0.0
 10
5.9933394341
 20
3.8585801027
 30
0.0
 10
5.9872350993
 20
3.8777425321
 30
0.0
 10
5.9804196954
 20
3.8967759928
 30
0.0
 10
5.9728857033
 20
3.9156646232
 30
0.0
 10
5.9646186004
 20
3.9343882447
 30
0.0
 10
5.9556040695
 20
3.952925048
 30
0.0
 10
5.9458278527
 20
3.9712528869
 30
0.0
 10
5.9352766292
 20
3.9893491995
 30
0.0
 10
5.9239361572
 20
4.007188472
 30
0.0
 10
5.9117864383
 20
4.024738537
 30
0.0
 10
5.8988093682
 20
4.0419660686
 30
0.0
 10
5.8849873066
 20
4.058836802
 30
0.0
 10
5.8703048715
 20
4.0753138026
 30
0.0
 10
5.8547415144
 20
4.0913498663
 30
0.0
 10
5.8382792069
 20
4.1068945618
 30
0.0
 10
5.8209032257
 20
4.1218955183
 30
0.0
 10
5.8026024491
 20
4.1362937201
 30
0.0
 10
5.7833672038
 20
4.1500195968
 30
0.0
 10
5.7631942464
 20
4.1629995954
 30
0.0
 10
5.7420903686
 20
4.1751551645
 30
0.0
 10
5.7238084655
 20
4.1844923602
 30
0.0
 10
5.7087430067
 20
4.1914671166
 30
0.0
 10
5.6932758888
 20
4.1981417714
 30
0.0
 10
5.6774369689
 20
4.204241308
 30
0.0
 10
5.661263952
 20
4.2097321649
 30
0.0
 10
5.6489065016
 20
4.2135551238
 30
0.0
 10
5.6363727248
 20
4.2170560983
 30
0.0
 10
5.6236748472
 20
4.2202242535
 30
0.0
 10
5.6108278251
 20
4.2230507701
 30
0.0
 10
5.5978474155
 20
4.22552593
 30
0.0
 10
5.5847495447
 20
4.2276403689
 30
0.0
 10
5.5715508099
 20
4.2293837214
 30
0.0
 10
5.5582696249
 20
4.2307501594
 30
0.0
 10
5.540469033
 20
4.2320660956
 30
0.0
 10
5.5181333428
 20
4.2327499227
 30
0.0
 10
5.4957949185
 20
4.2321319573
 30
0.0
 10
5.4779879653
 20
4.2308680876
 30
0.0
 10
5.4646994999
 20
4.2295402219
 30
0.0
 10
5.4514915249
 20
4.2278349588
 30
0.0
 10
5.4383825956
 20
4.2257577708
 30
0.0
 10
5.4253894375
 20
4.2233189698
 30
0.0
 10
5.4125280672
 20
4.2205278638
 30
0.0
 10
5.3998143367
 20
4.2173941132
 30
0.0
 10
5.3872633394
 20
4.2139265119
 30
0.0
 10
5.3748875027
 20
4.2101357124
 30
0.0
 10
5.3586884762
 20
4.20468593
 30
0.0
 10
5.3428218921
 20
4.198625275
 30
0.0
 10
5.3273257371
 20
4.1919872884
 30
0.0
 10
5.3122304708
 20
4.1850471978
 30
0.0
 10
5.2939103013
 20
4.1757504332
 30
0.0
 10
5.2727593264
 20
4.1636391211
 30
0.0
 10
5.2525387492
 20
4.1506991313
 30
0.0
 10
5.2332558113
 20
4.1370093468
 30
0.0
 10
5.2149075979
 20
4.122643653
 30
0.0
 10
5.1974846966
 20
4.1076719178
 30
0.0
 10
5.1809761685
 20
4.0921534812
 30
0.0
 10
5.1653674298
 20
4.0761410314
 30
0.0
 10
5.1506405754
 20
4.0596853024
 30
0.0
 10
5.1367751158
 20
4.0428337836
 30
0.0
 10
5.1237556341
 20
4.025623634
 30
0.0
 10
5.1115644283
 20
4.0080892619
 30
0.0
 10
5.1001832839
 20
3.9902641194
 30
0.0
 10
5.0895921306
 20
3.972180452
 30
0.0
 10
5.0797768241
 20
3.9538637917
 30
0.0
 10
5.0707239165
 20
3.9353369093
 30
0.0
 10
5.0624191208
 20
3.9166221679
 30
0.0
 10
5.0548480105
 20
3.8977415857
 30
0.0
 10
5.047996113
 20
3.8787153802
 30
0.0
 10
5.0418559097
 20
3.859559375
 30
0.0
 10
5.036419031
 20
3.8402885484
 30
0.0
 10
5.0316770915
 20
3.8209175074
 30
0.0
 10
5.0276218308
 20
3.8014612715
 30
0.0
 10
5.025367364
 20
3.7884261232
 30
0.0
 10
5.0243532126
 20
3.7819011785
 30
0.0
 11
6.0107023341
 21
3.7809055643
 31
0.0
 11
6.0073606635
 21
3.8004283311
 31
0.0
 11
6.0033408743
 21
3.819880953
 31
0.0
 11
5.9986352284
 21
3.8392487519
 31
0.0
 11
5.9932355137
 21
3.8585170223
 31
0.0
 11
5.9871335181
 21
3.8776710586
 31
0.0
 11
5.9803210296
 21
3.8966961555
 31
0.0
 11
5.9727889868
 21
3.9155765488
 31
0.0
 11
5.964524429
 21
3.9342916163
 31
0.0
 11
5.9555132779
 21
3.9528193426
 31
0.0
 11
5.9457414548
 21
3.9711377122
 31
0.0
 11
5.9351948709
 21
3.9892246797
 31
0.0
 11
5.9238581804
 21
4.0070545871
 31
0.0
 11
5.9117136034
 21
4.0245947787
 31
0.0
 11
5.8987430811
 21
4.0418117966
 31
0.0
 11
5.8849285545
 21
4.0586721831
 31
0.0
 11
5.8702520964
 21
4.075139238
 31
0.0
 11
5.8546962402
 21
4.0911649004
 31
0.0
 11
5.8382436203
 21
4.1066986229
 31
0.0
 11
5.8208769748
 21
4.1216896777
 31
0.0
 11
5.8025839079
 21
4.1360788577
 31
0.0
 11
5.7833588818
 21
4.1497950078
 31
0.0
 11
5.7631968838
 21
4.1627660675
 31
0.0
 11
5.7420998581
 21
4.174915566
 31
0.0
 11
5.720089199
 21
4.186154703
 31
0.0
 11
5.7087489966
 21
4.1914044676
 31
0.0
 11
5.6971898423
 21
4.1963925212
 31
0.0
 11
5.673442284
 21
4.2055363291
 31
0.0
 11
5.6612716238
 21
4.2096680616
 31
0.0
 11
5.6489149278
 21
4.2134903256
 31
0.0
 11
5.6363812171
 21
4.216991143
 31
0.0
 11
5.6236826468
 21
4.2201596368
 31
0.0
 11
5.610834925
 21
4.2229861773
 31
0.0
 11
5.5978539515
 21
4.2254612024
 31
0.0
 11
5.5847556263
 21
4.2275751502
 31
0.0
 11
5.5715560069
 21
4.2293186633
 31
0.0
 11
5.5582735805
 21
4.2306855439
 31
0.0
 11
5.5449287417
 21
4.2316720741
 31
0.0
 11
5.5181336102
 21
4.2324894782
 31
0.0
 11
5.4913342285
 21
4.2317509994
 31
0.0
 11
5.4779841342
 21
4.2308034835
 31
0.0
 11
5.4646944163
 21
4.2294751898
 31
0.0
 11
5.4514855213
 21
4.2277697231
 31
0.0
 11
5.4383761225
 21
4.225693032
 31
0.0
 11
5.4253823922
 21
4.2232543716
 31
0.0
 11
5.4125203139
 21
4.2204632464
 31
0.0
 11
5.3998058711
 21
4.217329161
 31
0.0
 11
5.3872548899
 21
4.2138616762
 31
0.0
 11
5.3748797944
 21
4.2100715721
 31
0.0
 11
5.3626897243
 21
4.2059708054
 31
0.0
 11
5.338900683
 21
4.1968853029
 31
0.0
 11
5.3273196533
 21
4.1919245693
 31
0.0
 11
5.3159570512
 21
4.1867009174
 31
0.0
 11
5.293900383
 21
4.175510492
 31
0.0
 11
5.2727562152
 21
4.1634051914
 31
0.0
 11
5.2525465725
 21
4.150474088
 31
0.0
 11
5.2332738808
 21
4.1367940132
 31
0.0
 11
5.2149333957
 21
4.1224373205
 31
0.0
 11
5.1975198441
 21
4.1074754654
 31
0.0
 11
5.181021028
 21
4.091967986
 31
0.0
 11
5.1654198091
 21
4.075965919
 31
0.0
 11
5.1506989426
 21
4.0595201178
 31
0.0
 11
5.1368410544
 21
4.0426789606
 31
0.0
 11
5.1238281701
 21
4.0254793549
 31
0.0
 11
5.1116421416
 21
4.0079548885
 31
0.0
 11
5.1002648208
 21
3.9901391486
 31
0.0
 11
5.0896783699
 21
3.9720648469
 31
0.0
 11
5.0798674484
 21
3.9537576488
 31
0.0
 11
5.0708179199
 21
3.9352398216
 31
0.0
 11
5.062515656
 21
3.9165336109
 31
0.0
 11
5.0549465286
 21
3.8976612615
 31
0.0
 11
5.048097595
 21
3.8786434675
 31
0.0
 11
5.0419597493
 21
3.8594959042
 31
0.0
 11
5.0365246603
 21
3.8402332332
 31
0.0
 11
5.0317839967
 21
3.8208701163
 31
0.0
 11
5.0277294272
 21
3.8014212153
 31
0.0
 11
5.0243532126
 21
3.7819011785
 31
0.0
  0
ENDSEC
  0
SECTION
  2
OBJECTS
  0
DICTIONARY
  5
C
100
AcDbDictionary
280
0
281
1
  3
ACAD_GROUP
350
D
  3
ACAD_MLINESTYLE
350
17
  3
ACAD_LAYOUT
350
1A
  3
ACAD_PLOTSETTINGS
350
19
  3
ACAD_PLOTSTYLENAME
350
E
  0
DICTIONARY
  5
D
102
{ACAD_REACTORS
330
C
102
}
100
AcDbDictionary
280
0
281
1
  0
ACDBDICTIONARYWDFLT
  5
E
102
{ACAD_REACTORS
330
C
102
}
100
AcDbDictionary
281
1
  3
Normal
350
F
100
AcDbDictionaryWithDefault
340
F
  0
DICTIONARY
  5
17
102
{ACAD_REACTORS
330
C
102
}
100
AcDbDictionary
280
0
281
1
  3
Standard
350
18
  0
DICTIONARY
  5
19
102
{ACAD_REACTORS
330
C
102
}
100
AcDbDictionary
281
1
  0
DICTIONARY
  5
1A
102
{ACAD_REACTORS
330
C
102
}
100
AcDbDictionary
281
1
  3
Model
350
243
  3
Layout1
350
244
  0
ACDBPLACEHOLDER
  5
F
102
{ACAD_REACTORS
330
E
102
}
  0
MLINESTYLE
  5
18
102
{ACAD_REACTORS
330
17
102
}
100
AcDbMlineStyle
  2
STANDARD
 70
0
  3

 62
256
 51
90.0
 52
90.0
 71
2
 49
0.5
 62
256
  6
BYLAYER
 49
-0.5
 62
256
  6
BYLAYER
  0
LAYOUT
  5
243
102
{ACAD_REACTORS
330
1A
102
}
100
AcDbPlotSettings
  1

  2
none_device
  4
ISO_A4_(297.00_x_210.00_MM)
  6

 40
0.0
 41
0.0
 42
0.0
 43
0.0
 44
297.0
 45
210.0
 46
0.0
 47
0.0
 48
0.0
 49
0.0
140
0.0
141
0.0
142
1.0
143
1.0
 70
1024
 72
0
 73
0
 74
0
  7

 75
0
147
1.0
148
0.0
149
0.0
100
AcDbLayout
  1
Model
 70
0
 71
0
 10
0.0
 20
0.0
 11
11.6929133858
 21
8.2677165354
 12
0.0
 22
0.0
 32
0.0
 14
0.0
 24
0.0
 34
0.0
 15
0.0
 25
0.0
 35
0.0
146
0.0
 13
0.0
 23
0.0
 33
0.0
 16
1.0
 26
0.0
 36
0.0
 17
0.0
 27
1.0
 37
0.0
 76
0
330
204
345
0
346
0
  0
LAYOUT
  5
244
102
{ACAD_REACTORS
330
1A
102
}
100
AcDbPlotSettings
  1

  2
none_device
  4
ISO_A4_(297.00_x_210.00_MM)
  6

 40
0.0
 41
0.0
 42
0.0
 43
0.0
 44
297.0
 45
210.0
 46
0.0
 47
0.0
 48
0.0
 49
0.0
140
0.0
141
0.0
142
1.0
143
1.0
 70
0
 72
0
 73
0
 74
0
  7

 75
0
147
1.0
148
0.0
149
0.0
100
AcDbLayout
  1
Layout1
 70
0
 71
1
 10
0.0
 20
0.0
 11
11.6929133858
 21
8.2677165354
 12
0.0
 22
0.0
 32
0.0
 14
0.0
 24
0.0
 34
0.0
 15
0.0
 25
0.0
 35
0.0
146
0.0
 13
0.0
 23
0.0
 33
0.0
 16
1.0
 26
0.0
 36
0.0
 17
0.0
 27
1.0
 37
0.0
 76
0
330
205
345
0
346
0
  0
ENDSEC
  0
EOF
