999
DXF file: C:\Prowork\plots\482-3_right.dxf
999
Pro/ENGINEER 2018500 by Parametric Technology Corporation
  0
SECTION
  2
HEADER
  9
$ACADVER
  1
AC1032
  9
$DWGCODEPAGE
  3
ANSI_1252
  9
$EXTMAX
 10
8.5
 20
11.0
 30
0.0
  9
$EXTMIN
 10
0.0
 20
0.0
 30
0.0
  9
$LIMMIN
 10
0.0
 20
0.0
  9
$LIMMAX
 10
8.5
 20
11.0
  9
$VIEWCTR
 10
4.25
 20
5.5
  9
$VIEWSIZE
 40
11.0
  9
$CLAYER
  8
0
  9
$LTSCALE
 40
0.717037037
  9
$CELTYPE
  6
BYLAYER
  9
$DIMSCALE
 40
1.0
  9
$DIMASZ
 40
0.1
  9
$DIMEXO
 40
0.0625
  9
$DIMDLI
 40
0.4954074074
  9
$DIMEXE
 40
0.125
  9
$DIMCEN
 40
0.1173333333
  9
$DIMLFAC
 40
1.0
  9
$DIMBLK
  1
_FILLED
  9
$DIMALT
 70
1
  9
$DIMALTD
 70
2
  9
$DIMALTTD
 70
2
  9
$DIMALTF
 40
25.4
  9
$DIMTXT
 40
0.08
  9
$DIMTOL
 70
1
  9
$DIMLIM
 70
0
  9
$DIMTFAC
 40
1.0
  9
$DIMTP
 40
0.001
  9
$DIMTM
 40
0.001
  9
$DIMGAP
 40
0.09
  9
$DIMDSEP
 70
46
  9
$AUNITS
 70
0
  9
$PDMODE
 70
3
  9
$PDSIZE
 40
0.06
  9
$HANDSEED
  5
2C6
  9
$TILEMODE
 70
1
  9
$MEASUREMENT
 70
0
  9
$INSUNITS
 70
1
  0
ENDSEC
  0
SECTION
  2
CLASSES
  0
CLASS
  1
ACDBDICTIONARYWDFLT
  2
AcDbDictionaryWithDefault
  3
AutoCAD 2000
 90
0
 91
1
280
0
281
0
  0
CLASS
  1
ACDBPLACEHOLDER
  2
AcDbPlaceHolder
  3
AutoCAD 2000
 90
0
 91
1
280
0
281
0
  0
CLASS
  1
LAYOUT
  2
AcDbLayout
  3
AutoCAD 2000
 90
0
 91
0
280
0
281
0
  0
ENDSEC
  0
SECTION
  2
TABLES
  0
TABLE
  2
VPORT
  5
8
100
AcDbSymbolTable
 70
2
  0
VPORT
  5
1F4
100
AcDbSymbolTableRecord
100
AcDbViewportTableRecord
  2
*ACTIVE
 70
0
 10
0.0
 20
0.0
 11
1.0
 21
1.0
 12
4.25
 22
5.5
 13
0.0
 23
0.0
 14
1.0
 24
1.0
 15
0.0
 25
0.0
 16
0.0
 26
0.0
 36
1.0
 17
0.0
 27
0.0
 37
0.0
 40
11.0
 41
0.7727272727
 42
50.0
 43
0.0
 44
0.0
 50
0.0
 51
0.0
 71
0
 72
100
 73
1
 74
1
 75
0
 76
0
 77
0
 78
0
  0
ENDTAB
  0
TABLE
  2
LTYPE
  5
5
100
AcDbSymbolTable
 70
6
  0
LTYPE
  5
14
100
AcDbSymbolTableRecord
100
AcDbLinetypeTableRecord
  2
BYBLOCK
 70
0
  3

 72
65
 73
0
 40
0.0
  0
LTYPE
  5
15
100
AcDbSymbolTableRecord
100
AcDbLinetypeTableRecord
  2
BYLAYER
 70
0
  3

 72
65
 73
0
 40
0.0
  0
LTYPE
  5
16
100
AcDbSymbolTableRecord
100
AcDbLinetypeTableRecord
  2
CONTINUOUS
 70
64
  3
Solid line
 72
65
 73
0
 40
0.0
  0
LTYPE
  5
1F5
100
AcDbSymbolTableRecord
100
AcDbLinetypeTableRecord
  2
CENTER
 70
64
  3
____ _ ____ _ ____ _ ____ _ ____ _ ____ _ ____
 72
65
 73
4
 40
0.6
 49
0.375
 74
0
 49
-0.075
 74
0
 49
0.075
 74
0
 49
-0.075
 74
0
  0
LTYPE
  5
1F6
100
AcDbSymbolTableRecord
100
AcDbLinetypeTableRecord
  2
HIDDEN
 70
64
  3
- - - - - - - - - - - - - - - - - - - -
 72
65
 73
2
 40
0.2
 49
0.1
 74
0
 49
-0.1
 74
0
  0
LTYPE
  5
1F7
100
AcDbSymbolTableRecord
100
AcDbLinetypeTableRecord
  2
PHANTOM
 70
64
  3
_____ _ _ _____ _ _ _____ _ _ _____
 72
65
 73
6
 40
0.8
 49
0.45
 74
0
 49
-0.05
 74
0
 49
0.1
 74
0
 49
-0.05
 74
0
 49
0.1
 74
0
 49
-0.05
 74
0
  0
LTYPE
  5
1F8
100
AcDbSymbolTableRecord
100
AcDbLinetypeTableRecord
  2
DOT
 70
64
  3
. . . . . . . . . . . . . . . . . . . .
 72
65
 73
2
 40
0.2
 49
0.1
 74
0
 49
-0.1
 74
0
  0
LTYPE
  5
1F9
100
AcDbSymbolTableRecord
100
AcDbLinetypeTableRecord
  2
DASHED
 70
64
  3
- - - - - - - - - - - - - - - - - - - -
 72
65
 73
2
 40
0.2
 49
0.1
 74
0
 49
-0.1
 74
0
  0
ENDTAB
  0
TABLE
  2
LAYER
  5
2
100
AcDbSymbolTable
 70
36
  0
LAYER
  5
10
100
AcDbSymbolTableRecord
100
AcDbLayerTableRecord
  2
0
 70
0
 62
7
  6
CONTINUOUS
370
-3
390
F
  0
LAYER
  5
1FA
100
AcDbSymbolTableRecord
100
AcDbLayerTableRecord
  2
DEFAULT_1
 70
0
 62
7
  6
CENTER
370
-3
390
F
  0
LAYER
  5
1FB
100
AcDbSymbolTableRecord
100
AcDbLayerTableRecord
  2
DEFAULT_2
 70
0
 62
8
  6
HIDDEN
370
-3
390
F
  0
LAYER
  5
1FC
100
AcDbSymbolTableRecord
100
AcDbLayerTableRecord
  2
DEFAULT_3
 70
0
 62
7
  6
PHANTOM
370
-3
390
F
  0
LAYER
  5
1FD
100
AcDbSymbolTableRecord
100
AcDbLayerTableRecord
  2
1-134
 70
0
 62
7
  6
CONTINUOUS
370
-3
390
F
  0
LAYER
  5
1FE
100
AcDbSymbolTableRecord
100
AcDbLayerTableRecord
  2
403-3
 70
0
 62
7
  6
CONTINUOUS
370
-3
390
F
  0
LAYER
  5
1FF
100
AcDbSymbolTableRecord
100
AcDbLayerTableRecord
  2
436
 70
0
 62
7
  6
CONTINUOUS
370
-3
390
F
  0
LAYER
  5
200
100
AcDbSymbolTableRecord
100
AcDbLayerTableRecord
  2
441
 70
0
 62
7
  6
CONTINUOUS
370
-3
390
F
  0
LAYER
  5
201
100
AcDbSymbolTableRecord
100
AcDbLayerTableRecord
  2
50359
 70
0
 62
7
  6
CONTINUOUS
370
-3
390
F
  0
LAYER
  5
202
100
AcDbSymbolTableRecord
100
AcDbLayerTableRecord
  2
50362
 70
0
 62
7
  6
CONTINUOUS
370
-3
390
F
  0
LAYER
  5
203
100
AcDbSymbolTableRecord
100
AcDbLayerTableRecord
  2
50392
 70
0
 62
7
  6
CONTINUOUS
370
-3
390
F
  0
LAYER
  5
204
100
AcDbSymbolTableRecord
100
AcDbLayerTableRecord
  2
50726
 70
0
 62
7
  6
CONTINUOUS
370
-3
390
F
  0
LAYER
  5
205
100
AcDbSymbolTableRecord
100
AcDbLayerTableRecord
  2
50731
 70
0
 62
7
  6
CONTINUOUS
370
-3
390
F
  0
LAYER
  5
206
100
AcDbSymbolTableRecord
100
AcDbLayerTableRecord
  2
50741
 70
0
 62
7
  6
CONTINUOUS
370
-3
390
F
  0
LAYER
  5
207
100
AcDbSymbolTableRecord
100
AcDbLayerTableRecord
  2
50742
 70
0
 62
7
  6
CONTINUOUS
370
-3
390
F
  0
LAYER
  5
208
100
AcDbSymbolTableRecord
100
AcDbLayerTableRecord
  2
50743
 70
0
 62
7
  6
CONTINUOUS
370
-3
390
F
  0
LAYER
  5
209
100
AcDbSymbolTableRecord
100
AcDbLayerTableRecord
  2
6-031
 70
0
 62
7
  6
CONTINUOUS
370
-3
390
F
  0
LAYER
  5
20A
100
AcDbSymbolTableRecord
100
AcDbLayerTableRecord
  2
91022
 70
0
 62
7
  6
CONTINUOUS
370
-3
390
F
  0
LAYER
  5
20B
100
AcDbSymbolTableRecord
100
AcDbLayerTableRecord
  2
91203
 70
0
 62
7
  6
CONTINUOUS
370
-3
390
F
  0
LAYER
  5
20C
100
AcDbSymbolTableRecord
100
AcDbLayerTableRecord
  2
92000
 70
0
 62
7
  6
CONTINUOUS
370
-3
390
F
  0
LAYER
  5
20D
100
AcDbSymbolTableRecord
100
AcDbLayerTableRecord
  2
ALL_ASSEMBLY_MEMBERS
 70
0
 62
7
  6
CONTINUOUS
370
-3
390
F
  0
LAYER
  5
20E
100
AcDbSymbolTableRecord
100
AcDbLayerTableRecord
  2
ALL_FEATURES_4
 70
0
 62
7
  6
CONTINUOUS
370
-3
390
F
  0
LAYER
  5
20F
100
AcDbSymbolTableRecord
100
AcDbLayerTableRecord
  2
COLOR147
 70
0
 62
7
  6
CONTINUOUS
370
-3
390
F
  0
LAYER
  5
210
100
AcDbSymbolTableRecord
100
AcDbLayerTableRecord
  2
COLOR32
 70
0
 62
7
  6
CONTINUOUS
370
-3
390
F
  0
LAYER
  5
211
100
AcDbSymbolTableRecord
100
AcDbLayerTableRecord
  2
COLOR54
 70
0
 62
7
  6
CONTINUOUS
370
-3
390
F
  0
LAYER
  5
212
100
AcDbSymbolTableRecord
100
AcDbLayerTableRecord
  2
COLOR66
 70
0
 62
7
  6
CONTINUOUS
370
-3
390
F
  0
LAYER
  5
213
100
AcDbSymbolTableRecord
100
AcDbLayerTableRecord
  2
DEFAULT_COORDINATE_SYSTEM
 70
0
 62
7
  6
CONTINUOUS
370
-3
390
F
  0
LAYER
  5
214
100
AcDbSymbolTableRecord
100
AcDbLayerTableRecord
  2
DEFAULT_DATUM_AXES
 70
0
 62
7
  6
CONTINUOUS
370
-3
390
F
  0
LAYER
  5
215
100
AcDbSymbolTableRecord
100
AcDbLayerTableRecord
  2
DEFAULT_DATUM_PLANES
 70
0
 62
7
  6
CONTINUOUS
370
-3
390
F
  0
LAYER
  5
216
100
AcDbSymbolTableRecord
100
AcDbLayerTableRecord
  2
DEFAULT_SURFACES
 70
0
 62
7
  6
CONTINUOUS
370
-3
390
F
  0
LAYER
  5
217
100
AcDbSymbolTableRecord
100
AcDbLayerTableRecord
  2
DEFAULT_SURFACES_1
 70
0
 62
7
  6
CONTINUOUS
370
-3
390
F
  0
LAYER
  5
218
100
AcDbSymbolTableRecord
100
AcDbLayerTableRecord
  2
INTF_441
 70
0
 62
7
  6
CONTINUOUS
370
-3
390
F
  0
LAYER
  5
219
100
AcDbSymbolTableRecord
100
AcDbLayerTableRecord
  2
INTF_50359
 70
0
 62
7
  6
CONTINUOUS
370
-3
390
F
  0
LAYER
  5
21A
100
AcDbSymbolTableRecord
100
AcDbLayerTableRecord
  2
INTF_50362
 70
0
 62
7
  6
CONTINUOUS
370
-3
390
F
  0
LAYER
  5
21B
100
AcDbSymbolTableRecord
100
AcDbLayerTableRecord
  2
INTF_50392
 70
0
 62
7
  6
CONTINUOUS
370
-3
390
F
  0
LAYER
  5
21C
100
AcDbSymbolTableRecord
100
AcDbLayerTableRecord
  2
INTF_50726
 70
0
 62
7
  6
CONTINUOUS
370
-3
390
F
  0
LAYER
  5
21D
100
AcDbSymbolTableRecord
100
AcDbLayerTableRecord
  2
INTF_50731
 70
0
 62
7
  6
CONTINUOUS
370
-3
390
F
  0
LAYER
  5
21E
100
AcDbSymbolTableRecord
100
AcDbLayerTableRecord
  2
INTF_50741
 70
0
 62
7
  6
CONTINUOUS
370
-3
390
F
  0
LAYER
  5
21F
100
AcDbSymbolTableRecord
100
AcDbLayerTableRecord
  2
INTF_50742
 70
0
 62
7
  6
CONTINUOUS
370
-3
390
F
  0
LAYER
  5
220
100
AcDbSymbolTableRecord
100
AcDbLayerTableRecord
  2
INTF_50743
 70
0
 62
7
  6
CONTINUOUS
370
-3
390
F
  0
LAYER
  5
221
100
AcDbSymbolTableRecord
100
AcDbLayerTableRecord
  2
INTF_91022
 70
0
 62
7
  6
CONTINUOUS
370
-3
390
F
  0
LAYER
  5
222
100
AcDbSymbolTableRecord
100
AcDbLayerTableRecord
  2
INTF_91203
 70
0
 62
7
  6
CONTINUOUS
370
-3
390
F
  0
LAYER
  5
223
100
AcDbSymbolTableRecord
100
AcDbLayerTableRecord
  2
INTF_92000
 70
0
 62
7
  6
CONTINUOUS
370
-3
390
F
  0
LAYER
  5
224
100
AcDbSymbolTableRecord
100
AcDbLayerTableRecord
  2
INTF_BLANK
 70
0
 62
7
  6
CONTINUOUS
370
-3
390
F
  0
LAYER
  5
225
100
AcDbSymbolTableRecord
100
AcDbLayerTableRecord
  2
QUILT
 70
0
 62
7
  6
CONTINUOUS
370
-3
390
F
  0
LAYER
  5
226
100
AcDbSymbolTableRecord
100
AcDbLayerTableRecord
  2
SURFACES
 70
0
 62
7
  6
CONTINUOUS
370
-3
390
F
  0
LAYER
  5
227
100
AcDbSymbolTableRecord
100
AcDbLayerTableRecord
  2
WETTED_SURFACE
 70
0
 62
7
  6
CONTINUOUS
370
-3
390
F
  0
LAYER
  5
228
100
AcDbSymbolTableRecord
100
AcDbLayerTableRecord
  2
WETTED_SURFACES
 70
0
 62
7
  6
CONTINUOUS
370
-3
390
F
  0
LAYER
  5
229
100
AcDbSymbolTableRecord
100
AcDbLayerTableRecord
  2
WETTED_SURFACE_1
 70
0
 62
7
  6
CONTINUOUS
370
-3
390
F
  0
LAYER
  5
22A
100
AcDbSymbolTableRecord
100
AcDbLayerTableRecord
  2
_BLACK_HOLE
 70
0
 62
7
  6
CONTINUOUS
370
-3
390
F
  0
ENDTAB
  0
TABLE
  2
STYLE
  5
3
100
AcDbSymbolTable
 70
1
  0
STYLE
  5
11
100
AcDbSymbolTableRecord
100
AcDbTextStyleTableRecord
  2
STANDARD
 70
0
 40
0.0
 41
0.8
 50
0.0
 71
0
 42
0.2
  3
txt
  4

  0
STYLE
  5
22B
100
AcDbSymbolTableRecord
100
AcDbTextStyleTableRecord
  2
TEXTSTYLE_1
 70
0
 40
0.0
 41
0.8
 50
0.0
 71
0
 42
0.2
  3
gdt
  4

  0
ENDTAB
  0
TABLE
  2
VIEW
  5
6
100
AcDbSymbolTable
 70
0
  0
ENDTAB
  0
TABLE
  2
UCS
  5
7
100
AcDbSymbolTable
 70
0
  0
ENDTAB
  0
TABLE
  2
APPID
  5
9
100
AcDbSymbolTable
 70
1
  0
APPID
  5
22C
100
AcDbSymbolTableRecord
100
AcDbRegAppTableRecord
  2
ACAD
 70
0
  0
ENDTAB
  0
TABLE
  2
BLOCK_RECORD
  5
1
100
AcDbSymbolTable
 70
0
  0
BLOCK_RECORD
  5
22D
100
AcDbSymbolTableRecord
100
AcDbBlockTableRecord
  2
*Model_Space
  0
BLOCK_RECORD
  5
22E
100
AcDbSymbolTableRecord
100
AcDbBlockTableRecord
  2
*Paper_Space
  0
BLOCK_RECORD
  5
22F
100
AcDbSymbolTableRecord
100
AcDbBlockTableRecord
  2
_FILLED
  0
ENDTAB
  0
TABLE
  2
DIMSTYLE
  5
A
100
AcDbSymbolTable
 70
1
100
AcDbDimStyleTable
 71
0
  0
DIMSTYLE
105
230
100
AcDbSymbolTableRecord
100
AcDbDimStyleTableRecord
  2
STANDARD
 70
0
  3

  4

 40
1.0
 41
0.1
 42
0.0625
 43
0.38
 44
0.125
 45
0.0
 46
0.0
 47
0.001
 48
0.001
140
0.08
141
0.09
142
0.0
143
25.4
144
1.0
145
0.0
146
1.0
147
0.09
 71
1.0
 72
0.0
 73
1
 74
1
 75
0
 76
0
 77
0
 78
4
 79
1
170
1
171
2
172
0
173
0
174
0
175
0
176
0
177
0
178
0
270
2
179
3
271
3
272
3
273
2
274
2
275
0
280
0
281
0
282
0
283
1
284
4
285
0
286
0
287
3
288
0
340
11
278
46
341
22F
342
22F
343
22F
344
22F
  0
ENDTAB
  0
ENDSEC
  0
SECTION
  2
BLOCKS
  0
BLOCK
  5
20
100
AcDbEntity
  8
0
100
AcDbBlockBegin
  2
*Model_Space
 70
0
 10
0.0
 20
0.0
 30
0.0
  3
*Model_Space
  1

  0
ENDBLK
  5
21
100
AcDbEntity
  8
0
100
AcDbBlockEnd
  0
BLOCK
  5
1C
100
AcDbEntity
  8
0
100
AcDbBlockBegin
  2
*Paper_Space
 70
0
 10
0.0
 20
0.0
 30
0.0
  3
*Paper_Space
  1

  0
ENDBLK
  5
1D
100
AcDbEntity
  8
0
100
AcDbBlockEnd
  0
BLOCK
  5
231
100
AcDbEntity
  8
0
100
AcDbBlockBegin
  2
_FILLED
 70
64
 10
0.0
 20
0.0
  3
_FILLED
  1

  0
SOLID
  5
232
100
AcDbEntity
  8
0
  6
BYBLOCK
 62
0
100
AcDbTrace
 10
0.0
 20
0.0
 11
-1.0
 21
0.2
 12
-1.0
 22
-0.2
 13
-1.0
 23
-0.2
  0
ENDBLK
  5
233
100
AcDbEntity
  8
0
  6
BYBLOCK
 62
0
100
AcDbBlockEnd
  0
ENDSEC
  0
SECTION
  2
ENTITIES
  0
MTEXT
  5
234
100
AcDbEntity
  8
0
100
AcDbMText
 62
7
  6
CONTINUOUS
  7
STANDARD
 71
1
 72
1
 10
7.1400621118
 20
0.2586335404
 30
0.0
 11
1.0
 21
0.0
 31
0.0
 73
2
 44
0.9
  1
SCALE: .50
 40
0.08
 41
0.64
  0
LINE
  5
235
100
AcDbEntity
  8
0
100
AcDbLine
 62
7
  6
CONTINUOUS
 10
0.0
 20
0.0
 11
8.5
 21
0.0
  0
LINE
  5
236
100
AcDbEntity
  8
0
100
AcDbLine
 62
7
  6
CONTINUOUS
 10
0.0
 20
0.0
 11
0.0
 21
11.0
  0
LINE
  5
237
100
AcDbEntity
  8
0
100
AcDbLine
 62
7
  6
CONTINUOUS
 10
8.5
 20
0.0
 11
8.5
 21
11.0
  0
LINE
  5
238
100
AcDbEntity
  8
0
100
AcDbLine
 62
7
  6
CONTINUOUS
 10
0.0
 20
11.0
 11
8.5
 21
11.0
  0
LINE
  5
239
100
AcDbEntity
  8
0
100
AcDbLine
 62
7
  6
CONTINUOUS
 10
5.8904487578
 20
0.0994177019
 11
5.83495729
 21
0.0994177019
  0
LINE
  5
23A
100
AcDbEntity
  8
0
100
AcDbLine
 62
7
  6
CONTINUOUS
 10
4.6054487578
 20
0.4744177019
 11
4.1984487578
 21
0.4744177019
  0
LINE
  5
23B
100
AcDbEntity
  8
0
100
AcDbLine
 62
7
  6
CONTINUOUS
 10
4.1584487578
 20
0.4744177019
 11
2.7584487578
 21
0.4744177019
  0
LINE
  5
23C
100
AcDbEntity
  8
0
100
AcDbLine
 62
7
  6
CONTINUOUS
 10
2.7459487578
 20
0.4744177019
 11
2.1884487578
 21
0.4744177019
  0
LINE
  5
23D
100
AcDbEntity
  8
0
100
AcDbLine
 62
7
  6
CONTINUOUS
 10
2.1884487578
 20
0.4769177019
 11
2.1859487578
 21
0.4769177019
  0
LINE
  5
23E
100
AcDbEntity
  8
0
100
AcDbLine
 62
7
  6
CONTINUOUS
 10
2.7459487578
 20
0.4769177019
 11
2.7484487578
 21
0.4769177019
  0
LINE
  5
23F
100
AcDbEntity
  8
0
100
AcDbLine
 62
9
  6
CONTINUOUS
 10
2.1884487578
 20
0.4769177019
 11
2.7459487578
 21
0.4769177019
  0
LINE
  5
240
100
AcDbEntity
  8
0
100
AcDbLine
 62
7
  6
CONTINUOUS
 10
2.753196026
 20
0.5304941777
 11
2.7582058978
 21
0.5304941777
  0
LINE
  5
241
100
AcDbEntity
  8
0
100
AcDbLine
 62
7
  6
CONTINUOUS
 10
4.1984487578
 20
0.5409177019
 11
4.1584487578
 21
0.5409177019
  0
LINE
  5
242
100
AcDbEntity
  8
0
100
AcDbLine
 62
7
  6
CONTINUOUS
 10
4.5129487578
 20
0.5785033434
 11
4.6054487578
 21
0.5785033434
  0
LINE
  5
243
100
AcDbEntity
  8
0
100
AcDbLine
 62
7
  6
CONTINUOUS
 10
2.7531491102
 20
0.5304941777
 11
2.7531475883
 21
0.5304941954
  0
LINE
  5
244
100
AcDbEntity
  8
0
100
AcDbLine
 62
7
  6
CONTINUOUS
 10
4.6054487578
 20
0.8703320603
 11
4.5129487578
 21
0.8703320603
  0
LINE
  5
245
100
AcDbEntity
  8
0
100
AcDbLine
 62
7
  6
CONTINUOUS
 10
4.1584487578
 20
0.9079177019
 11
4.1984487578
 21
0.9079177019
  0
LINE
  5
246
100
AcDbEntity
  8
0
100
AcDbLine
 62
9
  6
CONTINUOUS
 10
2.7459487578
 20
0.9719177019
 11
2.1884487578
 21
0.9719177019
  0
LINE
  5
247
100
AcDbEntity
  8
0
100
AcDbLine
 62
7
  6
CONTINUOUS
 10
2.1859487578
 20
0.9719177019
 11
2.1884487578
 21
0.9719177019
  0
LINE
  5
248
100
AcDbEntity
  8
0
100
AcDbLine
 62
7
  6
CONTINUOUS
 10
2.7459487578
 20
0.9719177019
 11
2.7484487578
 21
0.9719177019
  0
LINE
  5
249
100
AcDbEntity
  8
0
100
AcDbLine
 62
7
  6
CONTINUOUS
 10
4.1584487578
 20
0.9744177019
 11
3.3834487578
 21
0.9744177019
  0
LINE
  5
24A
100
AcDbEntity
  8
0
100
AcDbLine
 62
7
  6
CONTINUOUS
 10
2.8834487578
 20
0.9744177019
 11
2.7584487578
 21
0.9744177019
  0
LINE
  5
24B
100
AcDbEntity
  8
0
100
AcDbLine
 62
7
  6
CONTINUOUS
 10
2.1884487578
 20
0.9744177019
 11
2.7459487578
 21
0.9744177019
  0
LINE
  5
24C
100
AcDbEntity
  8
0
100
AcDbLine
 62
7
  6
CONTINUOUS
 10
4.1984487578
 20
0.9744177019
 11
4.6054487578
 21
0.9744177019
  0
LINE
  5
24D
100
AcDbEntity
  8
0
100
AcDbLine
 62
7
  6
CONTINUOUS
 10
2.8834487578
 20
1.0994177019
 11
3.3834487578
 21
1.0994177019
  0
LINE
  5
24E
100
AcDbEntity
  8
0
100
AcDbLine
 62
7
  6
CONTINUOUS
 10
3.3109487578
 20
1.1294177019
 11
2.9559487578
 21
1.1294177019
  0
LINE
  5
24F
100
AcDbEntity
  8
0
100
AcDbLine
 62
7
  6
CONTINUOUS
 10
3.0249775634
 20
1.3444177019
 11
3.2419199521
 21
1.3444177019
  0
LINE
  5
250
100
AcDbEntity
  8
0
100
AcDbLine
 62
7
  6
CONTINUOUS
 10
5.83495729
 20
1.3494177019
 11
5.8904487578
 21
1.3494177019
  0
LINE
  5
251
100
AcDbEntity
  8
0
100
AcDbLine
 62
7
  6
CONTINUOUS
 10
2.9963027654
 20
1.1172606025
 11
3.0057900428
 21
1.1117720863
  0
LINE
  5
252
100
AcDbEntity
  8
0
100
AcDbLine
 62
7
  6
CONTINUOUS
 10
3.2720564911
 20
1.1161788603
 11
3.2611351701
 21
1.1224955647
  0
LINE
  5
253
100
AcDbEntity
  8
0
100
AcDbLine
 62
7
  6
CONTINUOUS
 10
2.7484487578
 20
0.5351677019
 11
2.753171419
 21
0.5304450406
  0
LINE
  5
254
100
AcDbEntity
  8
0
100
AcDbLine
 62
7
  6
CONTINUOUS
 10
3.0679156833
 20
1.3855424334
 11
3.1989818322
 21
1.3855424334
  0
LINE
  5
255
100
AcDbEntity
  8
0
100
AcDbLine
 62
7
  6
CONTINUOUS
 10
2.9559487578
 20
1.4144177019
 11
3.3109487578
 21
1.4144177019
  0
LINE
  5
256
100
AcDbEntity
  8
0
100
AcDbLine
 62
7
  6
CONTINUOUS
 10
3.2338974876
 20
10.6125635275
 11
3.254250028
 21
10.6478151615
  0
LINE
  5
257
100
AcDbEntity
  8
0
100
AcDbLine
 62
7
  6
CONTINUOUS
 10
2.1859487578
 20
0.4769177019
 11
2.1859487578
 21
0.9719177019
  0
LINE
  5
258
100
AcDbEntity
  8
0
100
AcDbLine
 62
7
  6
CONTINUOUS
 10
2.1884487578
 20
0.9744177019
 11
2.1884487578
 21
0.9719177019
  0
LINE
  5
259
100
AcDbEntity
  8
0
100
AcDbLine
 62
9
  6
CONTINUOUS
 10
2.1884487578
 20
0.9719177019
 11
2.1884487578
 21
0.4769177019
  0
LINE
  5
25A
100
AcDbEntity
  8
0
100
AcDbLine
 62
7
  6
CONTINUOUS
 10
2.1884487578
 20
0.4744177019
 11
2.1884487578
 21
0.4769177019
  0
LINE
  5
25B
100
AcDbEntity
  8
0
100
AcDbLine
 62
7
  6
CONTINUOUS
 10
2.7459487578
 20
0.9744177019
 11
2.7459487578
 21
0.9719177019
  0
LINE
  5
25C
100
AcDbEntity
  8
0
100
AcDbLine
 62
7
  6
CONTINUOUS
 10
2.7459487578
 20
0.4769177019
 11
2.7459487578
 21
0.4744177019
  0
LINE
  5
25D
100
AcDbEntity
  8
0
100
AcDbLine
 62
9
  6
CONTINUOUS
 10
2.7459487578
 20
0.4769177019
 11
2.7459487578
 21
0.9719177019
  0
LINE
  5
25E
100
AcDbEntity
  8
0
100
AcDbLine
 62
7
  6
CONTINUOUS
 10
2.7484487578
 20
0.9719177019
 11
2.7484487578
 21
0.4769177019
  0
LINE
  5
25F
100
AcDbEntity
  8
0
100
AcDbLine
 62
7
  6
CONTINUOUS
 10
2.7531237575
 20
0.5304927021
 11
2.7531237576
 21
0.7289973933
  0
LINE
  5
260
100
AcDbEntity
  8
0
100
AcDbLine
 62
7
  6
CONTINUOUS
 10
2.7584487578
 20
0.4744177019
 11
2.7584487578
 21
0.9744177019
  0
LINE
  5
261
100
AcDbEntity
  8
0
100
AcDbLine
 62
7
  6
CONTINUOUS
 10
2.8834487578
 20
1.0994177019
 11
2.8834487578
 21
0.9744177019
  0
LINE
  5
262
100
AcDbEntity
  8
0
100
AcDbLine
 62
7
  6
CONTINUOUS
 10
2.9221987578
 20
10.8869177019
 11
2.9221987578
 21
10.8244177019
  0
LINE
  5
263
100
AcDbEntity
  8
0
100
AcDbLine
 62
7
  6
CONTINUOUS
 10
2.9334487578
 20
10.7944177019
 11
2.9334487578
 21
10.8244177019
  0
LINE
  5
264
100
AcDbEntity
  8
0
100
AcDbLine
 62
7
  6
CONTINUOUS
 10
2.9559487578
 20
1.1294177019
 11
2.9559487578
 21
1.4144177019
  0
LINE
  5
265
100
AcDbEntity
  8
0
100
AcDbLine
 62
7
  6
CONTINUOUS
 10
2.9946987578
 20
1.1265012185
 11
2.9946987578
 21
1.1181675185
  0
LINE
  5
266
100
AcDbEntity
  8
0
100
AcDbLine
 62
7
  6
CONTINUOUS
 10
2.9946987578
 20
1.1056678852
 11
2.9946987578
 21
1.0994177019
  0
LINE
  5
267
100
AcDbEntity
  8
0
100
AcDbLine
 62
7
  6
CONTINUOUS
 10
3.0059487578
 20
10.6728151615
 11
3.0059487578
 21
10.7944177019
  0
LINE
  5
268
100
AcDbEntity
  8
0
100
AcDbLine
 62
7
  6
CONTINUOUS
 10
3.0249775634
 20
1.4144177019
 11
3.0249775634
 21
1.3444177019
  0
LINE
  5
269
100
AcDbEntity
  8
0
100
AcDbLine
 62
7
  6
CONTINUOUS
 10
3.0396987578
 20
1.4144177019
 11
3.0396987578
 21
10.5875635275
  0
LINE
  5
26A
100
AcDbEntity
  8
0
100
AcDbLine
 62
7
  6
CONTINUOUS
 10
3.0679156833
 20
1.3855424334
 11
3.0679156833
 21
1.3444177019
  0
LINE
  5
26B
100
AcDbEntity
  8
0
100
AcDbLine
 62
7
  6
CONTINUOUS
 10
3.1989818322
 20
1.3855424334
 11
3.1989818322
 21
1.3444177019
  0
LINE
  5
26C
100
AcDbEntity
  8
0
100
AcDbLine
 62
7
  6
CONTINUOUS
 10
3.2271987578
 20
10.5875635275
 11
3.2271987578
 21
1.4144177019
  0
LINE
  5
26D
100
AcDbEntity
  8
0
100
AcDbLine
 62
7
  6
CONTINUOUS
 10
3.2419199521
 20
1.3444177019
 11
3.2419199521
 21
1.4144177019
  0
LINE
  5
26E
100
AcDbEntity
  8
0
100
AcDbLine
 62
7
  6
CONTINUOUS
 10
3.2609487578
 20
10.7944177019
 11
3.2609487578
 21
10.6728151615
  0
LINE
  5
26F
100
AcDbEntity
  8
0
100
AcDbLine
 62
7
  6
CONTINUOUS
 10
3.2721987578
 20
1.0994177019
 11
3.2721987578
 21
1.1160845519
  0
LINE
  5
270
100
AcDbEntity
  8
0
100
AcDbLine
 62
7
  6
CONTINUOUS
 10
3.3109487578
 20
1.4144177019
 11
3.3109487578
 21
1.1294177019
  0
LINE
  5
271
100
AcDbEntity
  8
0
100
AcDbLine
 62
7
  6
CONTINUOUS
 10
3.3334487578
 20
10.8244177019
 11
3.3334487578
 21
10.7944177019
  0
LINE
  5
272
100
AcDbEntity
  8
0
100
AcDbLine
 62
7
  6
CONTINUOUS
 10
3.3446987578
 20
10.8244177019
 11
3.3446987578
 21
10.8869177019
  0
LINE
  5
273
100
AcDbEntity
  8
0
100
AcDbLine
 62
7
  6
CONTINUOUS
 10
3.3834487578
 20
0.9744177019
 11
3.3834487578
 21
1.0994177019
  0
LINE
  5
274
100
AcDbEntity
  8
0
100
AcDbLine
 62
7
  6
CONTINUOUS
 10
4.1584487578
 20
0.4744177019
 11
4.1584487578
 21
0.9744177019
  0
LINE
  5
275
100
AcDbEntity
  8
0
100
AcDbLine
 62
7
  6
CONTINUOUS
 10
4.1984487578
 20
0.4744177019
 11
4.1984487578
 21
0.9744177019
  0
LINE
  5
276
100
AcDbEntity
  8
0
100
AcDbLine
 62
7
  6
CONTINUOUS
 10
4.5104487578
 20
0.8667895741
 11
4.5104487578
 21
0.5820458296
  0
LINE
  5
277
100
AcDbEntity
  8
0
100
AcDbLine
 62
9
  6
CONTINUOUS
 10
4.5129487578
 20
0.5785033434
 11
4.5129487578
 21
0.8703320603
  0
LINE
  5
278
100
AcDbEntity
  8
0
100
AcDbLine
 62
7
  6
CONTINUOUS
 10
4.6054487578
 20
0.4744177019
 11
4.6054487578
 21
0.9744177019
  0
LINE
  5
279
100
AcDbEntity
  8
0
100
AcDbLine
 62
7
  6
CONTINUOUS
 10
5.6054487578
 20
0.9553628233
 11
5.6054487578
 21
0.4934725805
  0
LINE
  5
27A
100
AcDbEntity
  8
0
100
AcDbLine
 62
9
  6
CONTINUOUS
 10
5.6158656567
 20
0.9899113483
 11
5.6158656567
 21
0.4589240554
  0
LINE
  5
27B
100
AcDbEntity
  8
0
100
AcDbLine
 62
9
  6
CONTINUOUS
 10
5.7761938477
 20
0.140631372
 11
5.7761938477
 21
1.3082040317
  0
LINE
  5
27C
100
AcDbEntity
  8
0
100
AcDbLine
 62
9
  6
CONTINUOUS
 10
5.83495729
 20
1.3494177019
 11
5.83495729
 21
0.0994177019
  0
LINE
  5
27D
100
AcDbEntity
  8
0
100
AcDbLine
 62
7
  6
CONTINUOUS
 10
5.8904487578
 20
1.3494177019
 11
5.8904487578
 21
0.0994177019
  0
LINE
  5
27E
100
AcDbEntity
  8
0
100
AcDbLine
 62
7
  6
CONTINUOUS
 10
3.0126474876
 20
10.6478151615
 11
3.033000028
 21
10.6125635275
  0
LINE
  5
27F
100
AcDbEntity
  8
0
100
AcDbLine
 62
7
  6
CONTINUOUS
 10
2.9946987578
 20
1.1056678852
 11
2.994836035
 21
1.1058153922
  0
LINE
  5
280
100
AcDbEntity
  8
0
100
AcDbLine
 62
7
  6
CONTINUOUS
 10
2.9946987578
 20
1.1265012185
 11
2.994843099
 21
1.1266524737
  0
LINE
  5
281
100
AcDbEntity
  8
0
100
AcDbLine
 62
7
  6
CONTINUOUS
 10
2.7573237578
 20
0.9225427019
 11
2.7484487578
 21
0.9136677019
  0
LINE
  5
282
100
AcDbEntity
  8
0
100
AcDbLine
 62
7
  6
CONTINUOUS
 10
3.0057894098
 20
1.1120766226
 11
2.9963178671
 21
1.106597233
  0
LINE
  5
283
100
AcDbEntity
  8
0
100
AcDbLine
 62
7
  6
CONTINUOUS
 10
3.2611341356
 20
1.1221929826
 11
3.2706207367
 21
1.1276799632
  0
LINE
  5
284
100
AcDbEntity
  8
0
100
AcDbLine
 62
9
  6
CONTINUOUS
 10
3.0396987578
 20
10.5875635275
 11
3.2271987578
 21
10.5875635275
  0
LINE
  5
285
100
AcDbEntity
  8
0
100
AcDbLine
 62
9
  6
CONTINUOUS
 10
3.254250028
 20
10.6478151615
 11
3.0126474876
 21
10.6478151615
  0
LINE
  5
286
100
AcDbEntity
  8
0
100
AcDbLine
 62
9
  6
CONTINUOUS
 10
3.2609487578
 20
10.6728151615
 11
3.0059487578
 21
10.6728151615
  0
LINE
  5
287
100
AcDbEntity
  8
0
100
AcDbLine
 62
7
  6
CONTINUOUS
 10
2.9334487578
 20
10.7944177019
 11
3.3334487578
 21
10.7944177019
  0
LINE
  5
288
100
AcDbEntity
  8
0
100
AcDbLine
 62
7
  6
CONTINUOUS
 10
3.3446987578
 20
10.8244177019
 11
2.9221987578
 21
10.8244177019
  0
LINE
  5
289
100
AcDbEntity
  8
0
100
AcDbLine
 62
7
  6
CONTINUOUS
 10
3.3446987578
 20
10.8869177019
 11
2.9221987578
 21
10.8869177019
  0
LINE
  5
28A
100
AcDbEntity
  8
0
100
AcDbLine
 62
9
  6
CONTINUOUS
 10
3.2338974876
 20
10.6125635275
 11
3.033000028
 21
10.6125635275
  0
ARC
  5
28B
100
AcDbEntity
  8
0
100
AcDbCircle
 62
7
  6
CONTINUOUS
 10
2.1884487578
 20
0.4769177019
 40
0.0025
100
AcDbArc
 50
135.0
 51
315.0
  0
ARC
  5
28C
100
AcDbEntity
  8
0
100
AcDbCircle
 62
7
  6
CONTINUOUS
 10
2.1884487578
 20
0.9719177019
 40
0.0025
100
AcDbArc
 50
90.0
 51
180.0
  0
ARC
  5
28D
100
AcDbEntity
  8
0
100
AcDbCircle
 62
7
  6
CONTINUOUS
 10
3.0639554433
 20
0.048114009
 40
1.0604995286
100
AcDbArc
 50
92.3102535029
 51
92.7380515982
  0
ARC
  5
28E
100
AcDbEntity
  8
0
100
AcDbCircle
 62
7
  6
CONTINUOUS
 10
3.180967021
 20
0.5624060974
 40
0.424370343
100
AcDbArc
 50
182.3646049142
 51
183.1785263717
  0
ARC
  5
28F
100
AcDbEntity
  8
0
100
AcDbCircle
 62
7
  6
CONTINUOUS
 10
2.7459487578
 20
0.4769177019
 40
0.0025
100
AcDbArc
 50
270.0
 51
360.0
  0
ARC
  5
290
100
AcDbEntity
  8
0
100
AcDbCircle
 62
7
  6
CONTINUOUS
 10
2.7459487578
 20
0.9719177019
 40
0.0025
100
AcDbArc
 50
315.0
 51
135.0
  0
ARC
  5
291
100
AcDbEntity
  8
0
100
AcDbCircle
 62
7
  6
CONTINUOUS
 10
3.202711508
 20
2.2033668964
 40
1.0777237541
100
AcDbArc
 50
272.2855829674
 51
272.7065361344
  0
ARC
  5
292
100
AcDbEntity
  8
0
100
AcDbCircle
 62
7
  6
CONTINUOUS
 10
3.2109487578
 20
10.6728151615
 40
0.05
100
AcDbArc
 50
329.9999997384
 51
360.0
  0
ARC
  5
293
100
AcDbEntity
  8
0
100
AcDbCircle
 62
7
  6
CONTINUOUS
 10
3.0559487578
 20
10.6728151615
 40
0.05
100
AcDbArc
 50
180.0
 51
210.000000283
  0
ARC
  5
294
100
AcDbEntity
  8
0
100
AcDbCircle
 62
7
  6
CONTINUOUS
 10
2.9896987578
 20
10.5875635275
 40
0.05
100
AcDbArc
 50
0.0
 51
30.000000539
  0
ARC
  5
295
100
AcDbEntity
  8
0
100
AcDbCircle
 62
7
  6
CONTINUOUS
 10
3.2771987578
 20
10.5875635275
 40
0.05
100
AcDbArc
 50
149.9999994537
 51
180.0
  0
ARC
  5
296
100
AcDbEntity
  8
0
100
AcDbCircle
 62
7
  6
CONTINUOUS
 10
4.3658712305
 20
1.8190759487
 40
1.5
100
AcDbArc
 50
326.4423050822
 51
340.0877073885
  0
ARC
  5
297
100
AcDbEntity
  8
0
100
AcDbCircle
 62
7
  6
CONTINUOUS
 10
4.3658712305
 20
-0.3702405449
 40
1.5
100
AcDbArc
 50
19.9122926115
 51
33.5576949178
  0
ARC
  5
298
100
AcDbEntity
  8
0
100
AcDbCircle
 62
7
  6
CONTINUOUS
 10
5.83495729
 20
1.2869177019
 40
0.0625
100
AcDbArc
 50
90.0
 51
160.0877073885
  0
ARC
  5
299
100
AcDbEntity
  8
0
100
AcDbCircle
 62
7
  6
CONTINUOUS
 10
5.83495729
 20
0.1619177019
 40
0.0625
100
AcDbArc
 50
199.9122926115
 51
270.0
  0
ARC
  5
29A
100
AcDbEntity
  8
0
100
AcDbCircle
 62
7
  6
CONTINUOUS
 10
5.6679487578
 20
0.4934725805
 40
0.0625
100
AcDbArc
 50
180.0
 51
213.5576949178
  0
ARC
  5
29B
100
AcDbEntity
  8
0
100
AcDbCircle
 62
7
  6
CONTINUOUS
 10
5.6679487578
 20
0.9553628233
 40
0.0625
100
AcDbArc
 50
146.4423050822
 51
180.0
  0
SPLINE
  5
29C
100
AcDbEntity
  8
0
100
AcDbSpline
 62
7
  6
CONTINUOUS
 70
0
 71
3
 72
11
 73
7
 74
0
 42
0.0000001
 43
0.0000001
 44
0.0000000001
 40
0.0
 40
0.0
 40
0.0
 40
0.0
 40
0.276224855
 40
0.526363837
 40
0.7649156347
 40
1.0
 40
1.0
 40
1.0
 40
1.0
 10
4.5129487578
 20
0.8703320603
 30
0.0
 10
4.5125114908
 20
0.8703320603
 30
0.0
 10
4.511667054
 20
0.8699926399
 30
0.0
 10
4.5109226228
 20
0.8690028218
 30
0.0
 10
4.5105269936
 20
0.8679150185
 30
0.0
 10
4.5104487578
 20
0.8671617152
 30
0.0
 10
4.5104487578
 20
0.8667895741
 30
0.0
  0
SPLINE
  5
29D
100
AcDbEntity
  8
0
100
AcDbSpline
 62
7
  6
CONTINUOUS
 70
0
 71
3
 72
11
 73
7
 74
0
 42
0.0000001
 43
0.0000001
 44
0.0000000001
 40
0.0
 40
0.0
 40
0.0
 40
0.0
 40
0.2259191626
 40
0.473063688
 40
0.73387855
 40
1.0
 40
1.0
 40
1.0
 40
1.0
 10
2.7584487578
 20
0.5986614888
 30
0.0
 10
2.7579781842
 20
0.6084735474
 30
0.0
 10
2.7570928094
 20
0.629024216
 30
0.0
 10
2.7557816632
 20
0.6609074718
 30
0.0
 10
2.7544512642
 20
0.6945395038
 30
0.0
 10
2.7535798195
 20
0.7174349864
 30
0.0
 10
2.7531237576
 20
0.7289973933
 30
0.0
  0
SPLINE
  5
29E
100
AcDbEntity
  8
0
100
AcDbSpline
 62
7
  6
CONTINUOUS
 70
0
 71
3
 72
12
 73
8
 74
0
 42
0.0000001
 43
0.0000001
 44
0.0000000001
 40
0.0
 40
0.0
 40
0.0
 40
0.0
 40
0.0708860633
 40
0.1623568382
 40
0.3981908545
 40
0.6860004789
 40
1.0
 40
1.0
 40
1.0
 40
1.0
 10
2.7569580258
 20
0.5448972447
 30
0.0
 10
2.7567726004
 20
0.5492443334
 30
0.0
 10
2.7564300159
 20
0.5592042792
 30
0.0
 10
2.7557524668
 20
0.5836361598
 30
0.0
 10
2.7549434829
 20
0.6213840351
 30
0.0
 10
2.7540473966
 20
0.6727913861
 30
0.0
 10
2.7534381361
 20
0.7097258869
 30
0.0
 10
2.7531237576
 20
0.7289968573
 30
0.0
  0
SPLINE
  5
29F
100
AcDbEntity
  8
0
100
AcDbSpline
 62
7
  6
CONTINUOUS
 70
0
 71
3
 72
11
 73
7
 74
0
 42
0.0000001
 43
0.0000001
 44
0.0000000001
 40
0.0
 40
0.0
 40
0.0
 40
0.0
 40
0.2350842839
 40
0.4736362918
 40
0.7237752901
 40
1.0
 40
1.0
 40
1.0
 40
1.0
 10
4.5104487578
 20
0.5820458296
 30
0.0
 10
4.5104487578
 20
0.5816736896
 30
0.0
 10
4.5105269955
 20
0.58092039
 30
0.0
 10
4.5109226139
 20
0.57983258
 30
0.0
 10
4.5116670755
 20
0.5788427982
 30
0.0
 10
4.5125114922
 20
0.5785033434
 30
0.0
 10
4.5129487578
 20
0.5785033434
 30
0.0
  0
SPLINE
  5
2A0
100
AcDbEntity
  8
0
100
AcDbSpline
 62
7
  6
CONTINUOUS
 70
0
 71
3
 72
9
 73
5
 74
0
 42
0.0000001
 43
0.0000001
 44
0.0000000001
 40
0.0
 40
0.0
 40
0.0
 40
0.0
 40
0.4264543409
 40
1.0
 40
1.0
 40
1.0
 40
1.0
 10
2.7482677222
 20
0.4761726682
 30
0.0
 10
2.7482645439
 20
0.4759694278
 30
0.0
 10
2.7480615782
 20
0.4755081278
 30
0.0
 10
2.7477337811
 20
0.475158302
 30
0.0
 10
2.7475235032
 20
0.4749836108
 30
0.0
  0
SPLINE
  5
2A1
100
AcDbEntity
  8
0
100
AcDbSpline
 62
7
  6
CONTINUOUS
 70
0
 71
3
 72
9
 73
5
 74
0
 42
0.0000001
 43
0.0000001
 44
0.0000000001
 40
0.0
 40
0.0
 40
0.0
 40
0.0
 40
0.5063642676
 40
1.0
 40
1.0
 40
1.0
 40
1.0
 10
2.7475247026
 20
0.4749846078
 30
0.0
 10
2.7473039069
 20
0.4748009692
 30
0.0
 10
2.7468016236
 20
0.4745082603
 30
0.0
 10
2.7462287215
 20
0.4744177019
 30
0.0
 10
2.7459487578
 20
0.4744177019
 30
0.0
  0
SPLINE
  5
2A2
100
AcDbEntity
  8
0
100
AcDbSpline
 62
7
  6
CONTINUOUS
 70
0
 71
3
 72
10
 73
6
 74
0
 42
0.0000001
 43
0.0000001
 44
0.0000000001
 40
0.0
 40
0.0
 40
0.0
 40
0.0
 40
0.2776435132
 40
0.5066481206
 40
1.0
 40
1.0
 40
1.0
 40
1.0
 10
2.1872246413
 20
0.9740946891
 30
0.0
 10
2.1873435966
 20
0.9741590402
 30
0.0
 10
2.1875771426
 20
0.9742560183
 30
0.0
 10
2.188088111
 20
0.9742148518
 30
0.0
 10
2.1883289859
 20
0.9738938176
 30
0.0
 10
2.1884487578
 20
0.9736854688
 30
0.0
  0
LINE
  5
2A3
100
AcDbEntity
  8
0
100
AcDbLine
 62
7
  6
CONTINUOUS
 10
2.1884487578
 20
0.9701499349
 11
2.1872024899
 21
0.9719396535
  0
SPLINE
  5
2A4
100
AcDbEntity
  8
0
100
AcDbSpline
 62
7
  6
CONTINUOUS
 70
0
 71
3
 72
14
 73
10
 74
0
 42
0.0000001
 43
0.0000001
 44
0.0000000001
 40
0.0
 40
0.0
 40
0.0
 40
0.0
 40
0.200919187
 40
0.3844109409
 40
0.5632355039
 40
0.723329476
 40
0.8448029006
 40
0.9273093683
 40
1.0
 40
1.0
 40
1.0
 40
1.0
 10
2.1872024899
 20
0.9719396535
 30
0.0
 10
2.1871308198
 20
0.9719908615
 30
0.0
 10
2.1869742398
 20
0.9720697621
 30
0.0
 10
2.1867211764
 20
0.9720643043
 30
0.0
 10
2.1864996166
 20
0.9720007949
 30
0.0
 10
2.1863150658
 20
0.9719247421
 30
0.0
 10
2.1861547701
 20
0.9718808127
 30
0.0
 10
2.1860486206
 20
0.971865893
 30
0.0
 10
2.1859487578
 20
0.9718858338
 30
0.0
 10
2.1859487578
 20
0.9719177019
 30
0.0
  0
SPLINE
  5
2A5
100
AcDbEntity
  8
0
100
AcDbSpline
 62
7
  6
CONTINUOUS
 70
0
 71
3
 72
11
 73
7
 74
0
 42
0.0000001
 43
0.0000001
 44
0.0000000001
 40
0.0
 40
0.0
 40
0.0
 40
0.0
 40
0.2522740554
 40
0.5095256734
 40
0.7696699518
 40
1.0
 40
1.0
 40
1.0
 40
1.0
 10
2.1859487578
 20
0.9719177019
 30
0.0
 10
2.1859487578
 20
0.9721394438
 30
0.0
 10
2.1860053847
 20
0.9725897908
 30
0.0
 10
2.1862771979
 20
0.9732202426
 30
0.0
 10
2.1867030156
 20
0.973729016
 30
0.0
 10
2.1870465733
 20
0.97399836
 30
0.0
 10
2.1872246413
 20
0.9740946891
 30
0.0
  0
SPLINE
  5
2A6
100
AcDbEntity
  8
0
100
AcDbSpline
 62
7
  6
CONTINUOUS
 70
0
 71
3
 72
14
 73
10
 74
0
 42
0.0000001
 43
0.0000001
 44
0.0000000001
 40
0.0
 40
0.0
 40
0.0
 40
0.0
 40
0.0726347642
 40
0.155194911
 40
0.2771337127
 40
0.4374079076
 40
0.6160912788
 40
0.799532156
 40
1.0
 40
1.0
 40
1.0
 40
1.0
 10
2.7459487578
 20
0.4744177019
 30
0.0
 10
2.7459167572
 20
0.4744177019
 30
0.0
 10
2.7458958188
 20
0.4745177462
 30
0.0
 10
2.7459129329
 20
0.4746246668
 30
0.0
 10
2.7459577729
 20
0.4747856254
 30
0.0
 10
2.7460334933
 20
0.4749716827
 30
0.0
 10
2.7460954876
 20
0.4751948731
 30
0.0
 10
2.7460995216
 20
0.4754486965
 30
0.0
 10
2.7460207191
 20
0.475605926
 30
0.0
 10
2.7459692928
 20
0.4756777294
 30
0.0
  0
LINE
  5
2A7
100
AcDbEntity
  8
0
100
AcDbLine
 62
7
  6
CONTINUOUS
 10
2.7459692928
 20
0.4756777294
 11
2.7441809908
 21
0.4769177019
  0
SPLINE
  5
2A8
100
AcDbEntity
  8
0
100
AcDbSpline
 62
7
  6
CONTINUOUS
 70
0
 71
3
 72
10
 73
6
 74
0
 42
0.0000001
 43
0.0000001
 44
0.0000000001
 40
0.0
 40
0.0
 40
0.0
 40
0.0
 40
0.5350023326
 40
0.7674432526
 40
1.0
 40
1.0
 40
1.0
 40
1.0
 10
2.7477165247
 20
0.4769177019
 30
0.0
 10
2.7478663941
 20
0.4768312659
 30
0.0
 10
2.7480766256
 20
0.4766833251
 30
0.0
 10
2.7482451977
 20
0.4764006601
 30
0.0
 10
2.7482688981
 20
0.4762478631
 30
0.0
 10
2.7482677222
 20
0.4761726682
 30
0.0
  0
SPLINE
  5
2A9
100
AcDbEntity
  8
0
100
AcDbSpline
 62
7
  6
CONTINUOUS
 70
0
 71
3
 72
10
 73
6
 74
0
 42
0.0000001
 43
0.0000001
 44
0.0000000001
 40
0.0
 40
0.0
 40
0.0
 40
0.0
 40
0.5189809091
 40
0.7780800017
 40
1.0
 40
1.0
 40
1.0
 40
1.0
 10
2.1866809908
 20
0.4786854688
 30
0.0
 10
2.1864418995
 20
0.4784463775
 30
0.0
 10
2.186147498
 20
0.4779862824
 30
0.0
 10
2.1861122046
 20
0.4773308316
 30
0.0
 10
2.1861953227
 20
0.4770096774
 30
0.0
 10
2.1862843478
 20
0.4768957502
 30
0.0
  0
SPLINE
  5
2AA
100
AcDbEntity
  8
0
100
AcDbSpline
 62
7
  6
CONTINUOUS
 70
0
 71
3
 72
14
 73
10
 74
0
 42
0.0000001
 43
0.0000001
 44
0.0000000001
 40
0.0
 40
0.0
 40
0.0
 40
0.0
 40
0.0871401592
 40
0.1808763829
 40
0.2959925003
 40
0.425952176
 40
0.5628316244
 40
0.7051804558
 40
1.0
 40
1.0
 40
1.0
 40
1.0
 10
2.1862843478
 20
0.4768957502
 30
0.0
 10
2.1863240541
 20
0.4768449374
 30
0.0
 10
2.1864421246
 20
0.4767589493
 30
0.0
 10
2.1866698666
 20
0.4767772357
 30
0.0
 10
2.1869094567
 20
0.476843481
 30
0.0
 10
2.1871823302
 20
0.47692115
 30
0.0
 10
2.1874834857
 20
0.4769606871
 30
0.0
 10
2.1879088314
 20
0.4769674451
 30
0.0
 10
2.1882315781
 20
0.4769385322
 30
0.0
 10
2.1884487578
 20
0.4769177019
 30
0.0
  0
SPLINE
  5
2AB
100
AcDbEntity
  8
0
100
AcDbSpline
 62
7
  6
CONTINUOUS
 70
0
 71
3
 72
14
 73
10
 74
0
 42
0.0000001
 43
0.0000001
 44
0.0000000001
 40
0.0
 40
0.0
 40
0.0
 40
0.0
 40
0.2948260046
 40
0.4372310912
 40
0.5742825525
 40
0.7043198113
 40
0.8193412684
 40
0.9130270081
 40
1.0
 40
1.0
 40
1.0
 40
1.0
 10
2.1884487578
 20
0.4769177019
 30
0.0
 10
2.1884708022
 20
0.4767002428
 30
0.0
 10
2.1884996053
 20
0.4763767808
 30
0.0
 10
2.1884912915
 20
0.4759504865
 30
0.0
 10
2.1884501592
 20
0.475648806
 30
0.0
 10
2.1883727708
 20
0.4753752866
 30
0.0
 10
2.1883079652
 20
0.4751347843
 30
0.0
 10
2.1882912327
 20
0.4749069734
 30
0.0
 10
2.188377258
 20
0.4747889022
 30
0.0
 10
2.1884282227
 20
0.4747494041
 30
0.0
  0
SPLINE
  5
2AC
100
AcDbEntity
  8
0
100
AcDbSpline
 62
7
  6
CONTINUOUS
 70
0
 71
3
 72
10
 73
6
 74
0
 42
0.0000001
 43
0.0000001
 44
0.0000000001
 40
0.0
 40
0.0
 40
0.0
 40
0.0
 40
0.2216454436
 40
0.4807651688
 40
1.0
 40
1.0
 40
1.0
 40
1.0
 10
2.1884282227
 20
0.4747494041
 30
0.0
 10
2.188542258
 20
0.4746610257
 30
0.0
 10
2.1888633755
 20
0.4745795888
 30
0.0
 10
2.1895178569
 20
0.4746170558
 30
0.0
 10
2.1899775368
 20
0.474910947
 30
0.0
 10
2.1902165247
 20
0.4751499349
 30
0.0
  0
SPLINE
  5
2AD
100
AcDbEntity
  8
0
100
AcDbSpline
 62
7
  6
CONTINUOUS
 70
0
 71
3
 72
10
 73
6
 74
0
 42
0.0000001
 43
0.0000001
 44
0.0000000001
 40
0.0
 40
0.0
 40
0.0
 40
0.0
 40
0.5189809091
 40
0.7780800017
 40
1.0
 40
1.0
 40
1.0
 40
1.0
 10
2.7477165247
 20
0.9701499349
 30
0.0
 10
2.747955616
 20
0.9703890262
 30
0.0
 10
2.7482500176
 20
0.9708491213
 30
0.0
 10
2.7482853109
 20
0.9715045721
 30
0.0
 10
2.7482021929
 20
0.9718257263
 30
0.0
 10
2.7481131677
 20
0.9719396535
 30
0.0
  0
SPLINE
  5
2AE
100
AcDbEntity
  8
0
100
AcDbSpline
 62
7
  6
CONTINUOUS
 70
0
 71
3
 72
14
 73
10
 74
0
 42
0.0000001
 43
0.0000001
 44
0.0000000001
 40
0.0
 40
0.0
 40
0.0
 40
0.0
 40
0.0871401592
 40
0.1808763829
 40
0.2959925003
 40
0.425952176
 40
0.5628316244
 40
0.7051804558
 40
1.0
 40
1.0
 40
1.0
 40
1.0
 10
2.7481131677
 20
0.9719396535
 30
0.0
 10
2.7480734614
 20
0.9719904663
 30
0.0
 10
2.7479553909
 20
0.9720764544
 30
0.0
 10
2.7477276489
 20
0.9720581681
 30
0.0
 10
2.7474880588
 20
0.9719919228
 30
0.0
 10
2.7472151853
 20
0.9719142537
 30
0.0
 10
2.7469140298
 20
0.9718747166
 30
0.0
 10
2.7464886841
 20
0.9718679586
 30
0.0
 10
2.7461659374
 20
0.9718968716
 30
0.0
 10
2.7459487578
 20
0.9719177019
 30
0.0
  0
SPLINE
  5
2AF
100
AcDbEntity
  8
0
100
AcDbSpline
 62
7
  6
CONTINUOUS
 70
0
 71
3
 72
14
 73
10
 74
0
 42
0.0000001
 43
0.0000001
 44
0.0000000001
 40
0.0
 40
0.0
 40
0.0
 40
0.0
 40
0.2948260046
 40
0.4372310912
 40
0.5742825525
 40
0.7043198113
 40
0.8193412684
 40
0.9130270081
 40
1.0
 40
1.0
 40
1.0
 40
1.0
 10
2.7459487578
 20
0.9719177019
 30
0.0
 10
2.7459267133
 20
0.9721351609
 30
0.0
 10
2.7458979103
 20
0.9724586229
 30
0.0
 10
2.745906224
 20
0.9728849172
 30
0.0
 10
2.7459473563
 20
0.9731865977
 30
0.0
 10
2.7460247447
 20
0.9734601172
 30
0.0
 10
2.7460895503
 20
0.9737006194
 30
0.0
 10
2.7461062828
 20
0.9739284303
 30
0.0
 10
2.7460202575
 20
0.9740465015
 30
0.0
 10
2.7459692928
 20
0.9740859996
 30
0.0
  0
SPLINE
  5
2B0
100
AcDbEntity
  8
0
100
AcDbSpline
 62
7
  6
CONTINUOUS
 70
0
 71
3
 72
10
 73
6
 74
0
 42
0.0000001
 43
0.0000001
 44
0.0000000001
 40
0.0
 40
0.0
 40
0.0
 40
0.0
 40
0.2216454436
 40
0.4807651688
 40
1.0
 40
1.0
 40
1.0
 40
1.0
 10
2.7459692928
 20
0.9740859996
 30
0.0
 10
2.7458552576
 20
0.974174378
 30
0.0
 10
2.7455341401
 20
0.9742558149
 30
0.0
 10
2.7448796586
 20
0.9742183479
 30
0.0
 10
2.7444199787
 20
0.9739244567
 30
0.0
 10
2.7441809908
 20
0.9736854688
 30
0.0
  0
SPLINE
  5
2B1
100
AcDbEntity
  8
0
100
AcDbSpline
 62
7
  6
CONTINUOUS
 70
0
 71
3
 72
13
 73
9
 74
0
 42
0.0000001
 43
0.0000001
 44
0.0000000001
 40
0.0
 40
0.0
 40
0.0
 40
0.0
 40
0.0467112606
 40
0.1153916856
 40
0.2065198801
 40
0.3202164516
 40
0.6152455096
 40
1.0
 40
1.0
 40
1.0
 40
1.0
 10
2.9948448858
 20
1.1266631909
 30
0.0
 10
2.9949368303
 20
1.1267132739
 30
0.0
 10
2.9951831866
 20
1.1267988519
 30
0.0
 10
2.9956328992
 20
1.1269067325
 30
0.0
 10
2.9962370509
 20
1.1270139592
 30
0.0
 10
2.9973463987
 20
1.127170623
 30
0.0
 10
2.9991159794
 20
1.1273542885
 30
0.0
 10
3.0006345782
 20
1.1274783533
 30
0.0
 10
3.001494533
 20
1.1275432615
 30
0.0
  0
LINE
  5
2B2
100
AcDbEntity
  8
0
100
AcDbLine
 62
7
  6
CONTINUOUS
 10
3.001494533
 20
1.1275432615
 11
3.0132955553
 21
1.1282347702
  0
SPLINE
  5
2B3
100
AcDbEntity
  8
0
100
AcDbSpline
 62
7
  6
CONTINUOUS
 70
0
 71
3
 72
13
 73
9
 74
0
 42
0.0000001
 43
0.0000001
 44
0.0000000001
 40
0.0
 40
0.0
 40
0.0
 40
0.0
 40
0.0465036796
 40
0.1150512974
 40
0.2061081032
 40
0.3197882276
 40
0.6149361685
 40
1.0
 40
1.0
 40
1.0
 40
1.0
 10
3.2720547869
 20
1.1162431593
 30
0.0
 10
3.2719631712
 20
1.1162929516
 30
0.0
 10
3.2717173931
 20
1.1163780989
 30
0.0
 10
3.2712684428
 20
1.1164858772
 30
0.0
 10
3.2706646204
 20
1.1165933851
 30
0.0
 10
3.2695549262
 20
1.116750962
 30
0.0
 10
3.2677839373
 20
1.1169362275
 30
0.0
 10
3.2662639012
 20
1.1170612757
 30
0.0
 10
3.2654029705
 20
1.1171265958
 30
0.0
  0
LINE
  5
2B4
100
AcDbEntity
  8
0
100
AcDbLine
 62
7
  6
CONTINUOUS
 10
3.2611491453
 20
1.1224955143
 11
3.2607169458
 21
1.1226539267
  0
LINE
  5
2B5
100
AcDbEntity
  8
0
100
AcDbLine
 62
7
  6
CONTINUOUS
 10
3.2607169458
 20
1.1226539267
 11
3.2548134488
 21
1.1233970368
  0
SPLINE
  5
2B6
100
AcDbEntity
  8
0
100
AcDbSpline
 62
7
  6
CONTINUOUS
 70
0
 71
3
 72
13
 73
9
 74
0
 42
0.0000001
 43
0.0000001
 44
0.0000000001
 40
0.0
 40
0.0
 40
0.0
 40
0.0
 40
0.0422615762
 40
0.1072732594
 40
0.195819506
 40
0.3083096919
 40
0.6061477103
 40
1.0
 40
1.0
 40
1.0
 40
1.0
 10
3.005781079
 20
1.1120764513
 30
0.0
 10
3.0058797184
 20
1.1121343548
 30
0.0
 10
3.0061567255
 20
1.1122313258
 30
0.0
 10
3.0066709924
 20
1.1123555178
 30
0.0
 10
3.0073808928
 20
1.1124810086
 30
0.0
 10
3.0087177947
 20
1.1126688379
 30
0.0
 10
3.0108837858
 20
1.1128901038
 30
0.0
 10
3.0127498577
 20
1.1130385089
 30
0.0
 10
3.0138129758
 20
1.1131160489
 30
0.0
  0
LINE
  5
2B7
100
AcDbEntity
  8
0
100
AcDbLine
 62
7
  6
CONTINUOUS
 10
3.0138129758
 20
1.1131160489
 11
3.0196609303
 21
1.1134881304
  0
SPLINE
  5
2B8
100
AcDbEntity
  8
0
100
AcDbSpline
 62
7
  6
CONTINUOUS
 70
0
 71
3
 72
23
 73
19
 74
0
 42
0.0000001
 43
0.0000001
 44
0.0000000001
 40
0.0
 40
0.0
 40
0.0
 40
0.0
 40
0.0444793559
 40
0.0995228058
 40
0.2361793757
 40
0.3966634052
 40
0.5648068029
 40
0.646438394
 40
0.7235219552
 40
0.7943391433
 40
0.857329684
 40
0.9107354159
 40
0.9332707406
 40
0.9528111489
 40
0.9693021085
 40
0.9826939568
 40
0.9929396375
 40
1.0
 40
1.0
 40
1.0
 40
1.0
 10
3.0196609303
 20
1.1134881304
 30
0.0
 10
3.0232248107
 20
1.1136897369
 30
0.0
 10
3.03120302
 20
1.1140688991
 30
0.0
 10
3.0501427139
 20
1.114806251
 30
0.0
 10
3.0783933973
 20
1.1156737283
 30
0.0
 10
3.1157201571
 20
1.1166729758
 30
0.0
 10
3.1486337315
 20
1.1175141294
 30
0.0
 10
3.1748555897
 20
1.118214502
 30
0.0
 10
3.1932688026
 20
1.118734221
 30
0.0
 10
3.2101854548
 20
1.119252141
 30
0.0
 10
3.2252010043
 20
1.1197667764
 30
0.0
 10
3.236341883
 20
1.12021167
 30
0.0
 10
3.2439956787
 20
1.1205800645
 30
0.0
 10
3.2486886829
 20
1.12084028
 30
0.0
 10
3.2526465302
 20
1.1210994143
 30
0.0
 10
3.2558572066
 20
1.1213551077
 30
0.0
 10
3.2583074122
 20
1.1216085069
 30
0.0
 10
3.2596842923
 20
1.1218024344
 30
0.0
 10
3.2602394623
 20
1.1219157257
 30
0.0
  0
LINE
  5
2B9
100
AcDbEntity
  8
0
100
AcDbLine
 62
7
  6
CONTINUOUS
 10
3.2602394623
 20
1.1219157257
 11
3.2611588342
 21
1.122192877
  0
SPLINE
  5
2BA
100
AcDbEntity
  8
0
100
AcDbSpline
 62
7
  6
CONTINUOUS
 70
0
 71
3
 72
13
 73
9
 74
0
 42
0.0000001
 43
0.0000001
 44
0.0000000001
 40
0.0
 40
0.0
 40
0.0
 40
0.0
 40
0.0460620649
 40
0.11430897
 40
0.2051948065
 40
0.3188266748
 40
0.6142296452
 40
1.0
 40
1.0
 40
1.0
 40
1.0
 10
2.9948377478
 20
1.1058208956
 30
0.0
 10
2.9949284743
 20
1.1058704297
 30
0.0
 10
2.9951728962
 20
1.1059551146
 30
0.0
 10
2.9956201091
 20
1.1060628669
 30
0.0
 10
2.996223186
 20
1.1061708627
 30
0.0
 10
2.9973336891
 20
1.1063298772
 30
0.0
 10
2.9991079867
 20
1.106517499
 30
0.0
 10
3.000631343
 20
1.1066439863
 30
0.0
 10
3.0014945353
 20
1.1067099283
 30
0.0
  0
LINE
  5
2BB
100
AcDbEntity
  8
0
100
AcDbLine
 62
7
  6
CONTINUOUS
 10
3.0014945353
 20
1.1067099283
 11
3.0132955625
 21
1.1074028396
  0
SPLINE
  5
2BC
100
AcDbEntity
  8
0
100
AcDbSpline
 62
7
  6
CONTINUOUS
 70
0
 71
3
 72
23
 73
19
 74
0
 42
0.0000001
 43
0.0000001
 44
0.0000000001
 40
0.0
 40
0.0
 40
0.0
 40
0.0
 40
0.1168188169
 40
0.2634411249
 40
0.4266924709
 40
0.5099880821
 40
0.5918990729
 40
0.6705605031
 40
0.7442113999
 40
0.811171288
 40
0.8699424438
 40
0.9191899631
 40
0.9398828044
 40
0.9578085209
 40
0.9728606475
 40
0.9849394059
 40
0.9939927788
 40
1.0
 40
1.0
 40
1.0
 40
1.0
 10
3.0212060656
 20
1.1077515607
 30
0.0
 10
3.0309478911
 20
1.1081488511
 30
0.0
 10
3.0529244753
 20
1.1088528842
 30
0.0
 10
3.08852436
 20
1.1097996962
 30
0.0
 10
3.1213296292
 20
1.1105872674
 30
0.0
 10
3.14873556
 20
1.1112409043
 30
0.0
 10
3.1690832833
 20
1.1117340372
 30
0.0
 10
3.1886257972
 20
1.1122271674
 30
0.0
 10
3.2069200706
 20
1.1127192757
 30
0.0
 10
3.2235536972
 20
1.1132090404
 30
0.0
 10
3.2381496423
 20
1.1136963599
 30
0.0
 10
3.248883883
 20
1.114122219
 30
0.0
 10
3.2562089055
 20
1.1144744769
 30
0.0
 10
3.2606817079
 20
1.1147206683
 30
0.0
 10
3.2644342453
 20
1.114963742
 30
0.0
 10
3.2674457004
 20
1.1151990429
 30
0.0
 10
3.2696979967
 20
1.1154324275
 30
0.0
 10
3.2709444526
 20
1.1156125494
 30
0.0
 10
3.2714331563
 20
1.1157245529
 30
0.0
  0
LINE
  5
2BD
100
AcDbEntity
  8
0
100
AcDbLine
 62
7
  6
CONTINUOUS
 10
3.2714331563
 20
1.1157245529
 11
3.2721987578
 21
1.1160845519
  0
SPLINE
  5
2BE
100
AcDbEntity
  8
0
100
AcDbSpline
 62
7
  6
CONTINUOUS
 70
0
 71
3
 72
13
 73
9
 74
0
 42
0.0000001
 43
0.0000001
 44
0.0000000001
 40
0.0
 40
0.0
 40
0.0
 40
0.0
 40
0.0429768214
 40
0.1090706486
 40
0.1987080028
 40
0.3119657811
 40
0.6091577477
 40
1.0
 40
1.0
 40
1.0
 40
1.0
 10
3.2720926262
 20
1.12846294
 30
0.0
 10
3.2720087754
 20
1.1284142275
 30
0.0
 10
3.2717742203
 20
1.1283318039
 30
0.0
 10
3.2713397855
 20
1.1282239955
 30
0.0
 10
3.2707423093
 20
1.1281133183
 30
0.0
 10
3.2696264598
 20
1.1279462345
 30
0.0
 10
3.2678288917
 20
1.1277458187
 30
0.0
 10
3.2662822326
 20
1.1276115397
 30
0.0
 10
3.2654030645
 20
1.1275421486
 30
0.0
  0
LINE
  5
2BF
100
AcDbEntity
  8
0
100
AcDbLine
 62
7
  6
CONTINUOUS
 10
3.2654030645
 20
1.1275421486
 11
3.2536020556
 21
1.1268453489
  0
SPLINE
  5
2C0
100
AcDbEntity
  8
0
100
AcDbSpline
 62
7
  6
CONTINUOUS
 70
0
 71
3
 72
16
 73
12
 74
0
 42
0.0000001
 43
0.0000001
 44
0.0000000001
 40
0.0
 40
0.0
 40
0.0
 40
0.0
 40
0.1043544115
 40
0.2335788114
 40
0.3788728271
 40
0.5303459245
 40
0.6776865767
 40
0.8108590892
 40
0.9207881606
 40
0.9646213833
 40
1.0
 40
1.0
 40
1.0
 40
1.0
 10
3.2456915293
 20
1.126500513
 30
0.0
 10
3.2373810295
 20
1.1261645631
 30
0.0
 10
3.2187742014
 20
1.1255454769
 30
0.0
 10
3.188588594
 20
1.1247149926
 30
0.0
 10
3.1546463321
 20
1.1238791871
 30
0.0
 10
3.1192598939
 20
1.1230396299
 30
0.0
 10
3.084839732
 20
1.1222026881
 30
0.0
 10
3.0537317239
 20
1.1213706711
 30
0.0
 10
3.0308735249
 20
1.1206451436
 30
0.0
 10
3.0158108183
 20
1.1200358864
 30
0.0
 10
3.0095049305
 20
1.1197241012
 30
0.0
 10
3.0066900382
 20
1.1195585318
 30
0.0
  0
SPLINE
  5
2C1
100
AcDbEntity
  8
0
100
AcDbSpline
 62
7
  6
CONTINUOUS
 70
0
 71
3
 72
11
 73
7
 74
0
 42
0.0000001
 43
0.0000001
 44
0.0000000001
 40
0.0
 40
0.0
 40
0.0
 40
0.0
 40
0.3583821152
 40
0.6453536116
 40
0.8594400087
 40
1.0
 40
1.0
 40
1.0
 40
1.0
 10
3.0066900382
 20
1.1195585318
 30
0.0
 10
3.0053446931
 20
1.1194793998
 30
0.0
 10
3.0029228492
 20
1.1193254391
 30
0.0
 10
2.9997003418
 20
1.1190708379
 30
0.0
 10
2.9973017533
 20
1.1188160009
 30
0.0
 10
2.9959798459
 20
1.1186228143
 30
0.0
 10
2.9954643618
 20
1.118505947
 30
0.0
  0
LINE
  5
2C2
100
AcDbEntity
  8
0
100
AcDbLine
 62
7
  6
CONTINUOUS
 10
2.9954643618
 20
1.118505947
 11
2.9946987578
 21
1.1181675185
  0
SPLINE
  5
2C3
100
AcDbEntity
  8
0
100
AcDbSpline
 62
7
  6
CONTINUOUS
 70
0
 71
3
 72
13
 73
9
 74
0
 42
0.0000001
 43
0.0000001
 44
0.0000000001
 40
0.0
 40
0.0
 40
0.0
 40
0.0
 40
0.3918677842
 40
0.6884138311
 40
0.8011808366
 40
0.8904660695
 40
0.9565416941
 40
1.0
 40
1.0
 40
1.0
 40
1.0
 10
3.0137435795
 20
1.110724859
 30
0.0
 10
3.0126958411
 20
1.1108027648
 30
0.0
 10
3.0108562631
 20
1.1109524475
 30
0.0
 10
3.0087191479
 20
1.1111760912
 30
0.0
 10
3.0073958725
 20
1.111364817
 30
0.0
 10
3.0066874108
 20
1.1114913256
 30
0.0
 10
3.0061701271
 20
1.1116165804
 30
0.0
 10
3.0058899982
 20
1.1117140889
 30
0.0
 10
3.0057889041
 20
1.1117720184
 30
0.0
  0
ENDSEC
  0
SECTION
  2
OBJECTS
  0
DICTIONARY
  5
C
100
AcDbDictionary
280
0
281
1
  3
ACAD_GROUP
350
D
  3
ACAD_MLINESTYLE
350
17
  3
ACAD_LAYOUT
350
1A
  3
ACAD_PLOTSETTINGS
350
19
  3
ACAD_PLOTSTYLENAME
350
E
  0
DICTIONARY
  5
D
102
{ACAD_REACTORS
330
C
102
}
100
AcDbDictionary
280
0
281
1
  0
ACDBDICTIONARYWDFLT
  5
E
102
{ACAD_REACTORS
330
C
102
}
100
AcDbDictionary
281
1
  3
Normal
350
F
100
AcDbDictionaryWithDefault
340
F
  0
DICTIONARY
  5
17
102
{ACAD_REACTORS
330
C
102
}
100
AcDbDictionary
280
0
281
1
  3
Standard
350
18
  0
DICTIONARY
  5
19
102
{ACAD_REACTORS
330
C
102
}
100
AcDbDictionary
281
1
  0
DICTIONARY
  5
1A
102
{ACAD_REACTORS
330
C
102
}
100
AcDbDictionary
281
1
  3
Model
350
2C4
  3
Layout1
350
2C5
  0
ACDBPLACEHOLDER
  5
F
102
{ACAD_REACTORS
330
E
102
}
  0
MLINESTYLE
  5
18
102
{ACAD_REACTORS
330
17
102
}
100
AcDbMlineStyle
  2
STANDARD
 70
0
  3

 62
256
 51
90.0
 52
90.0
 71
2
 49
0.5
 62
256
  6
BYLAYER
 49
-0.5
 62
256
  6
BYLAYER
  0
LAYOUT
  5
2C4
102
{ACAD_REACTORS
330
1A
102
}
100
AcDbPlotSettings
  1

  2
none_device
  4

  6

 40
0.0
 41
0.0
 42
0.0
 43
0.0
 44
215.9
 45
279.4
 46
0.0
 47
0.0
 48
0.0
 49
0.0
140
0.0
141
0.0
142
1.0
143
1.0
 70
1024
 72
0
 73
0
 74
0
  7

 75
0
147
1.0
148
0.0
149
0.0
100
AcDbLayout
  1
Model
 70
0
 71
0
 10
0.0
 20
0.0
 11
8.5
 21
11.0
 12
0.0
 22
0.0
 32
0.0
 14
0.0
 24
0.0
 34
0.0
 15
0.0
 25
0.0
 35
0.0
146
0.0
 13
0.0
 23
0.0
 33
0.0
 16
1.0
 26
0.0
 36
0.0
 17
0.0
 27
1.0
 37
0.0
 76
0
330
22D
345
0
346
0
  0
LAYOUT
  5
2C5
102
{ACAD_REACTORS
330
1A
102
}
100
AcDbPlotSettings
  1

  2
none_device
  4

  6

 40
0.0
 41
0.0
 42
0.0
 43
0.0
 44
215.9
 45
279.4
 46
0.0
 47
0.0
 48
0.0
 49
0.0
140
0.0
141
0.0
142
1.0
143
1.0
 70
0
 72
0
 73
0
 74
0
  7

 75
0
147
1.0
148
0.0
149
0.0
100
AcDbLayout
  1
Layout1
 70
0
 71
1
 10
0.0
 20
0.0
 11
8.5
 21
11.0
 12
0.0
 22
0.0
 32
0.0
 14
0.0
 24
0.0
 34
0.0
 15
0.0
 25
0.0
 35
0.0
146
0.0
 13
0.0
 23
0.0
 33
0.0
 16
1.0
 26
0.0
 36
0.0
 17
0.0
 27
1.0
 37
0.0
 76
0
330
22E
345
0
346
0
  0
ENDSEC
  0
EOF
