999
DXF file: C:\Prowork\plots\482x-1_right.dxf
999
Pro/ENGINEER 2018500 by Parametric Technology Corporation
  0
SECTION
  2
HEADER
  9
$ACADVER
  1
AC1032
  9
$DWGCODEPAGE
  3
ANSI_1252
  9
$EXTMAX
 10
8.5
 20
11.0
 30
0.0
  9
$EXTMIN
 10
0.0
 20
0.0
 30
0.0
  9
$LIMMIN
 10
0.0
 20
0.0
  9
$LIMMAX
 10
8.5
 20
11.0
  9
$VIEWCTR
 10
4.25
 20
5.5
  9
$VIEWSIZE
 40
11.0
  9
$CLAYER
  8
0
  9
$LTSCALE
 40
0.717037037
  9
$CELTYPE
  6
BYLAYER
  9
$DIMSCALE
 40
1.0
  9
$DIMASZ
 40
0.1
  9
$DIMEXO
 40
0.0625
  9
$DIMDLI
 40
0.4954074074
  9
$DIMEXE
 40
0.125
  9
$DIMCEN
 40
0.1173333333
  9
$DIMLFAC
 40
1.0
  9
$DIMBLK
  1
_FILLED
  9
$DIMALT
 70
1
  9
$DIMALTD
 70
2
  9
$DIMALTTD
 70
2
  9
$DIMALTF
 40
25.4
  9
$DIMTXT
 40
0.08
  9
$DIMTOL
 70
1
  9
$DIMLIM
 70
0
  9
$DIMTFAC
 40
1.0
  9
$DIMTP
 40
0.001
  9
$DIMTM
 40
0.001
  9
$DIMGAP
 40
0.09
  9
$DIMDSEP
 70
46
  9
$AUNITS
 70
0
  9
$PDMODE
 70
3
  9
$PDSIZE
 40
0.06
  9
$HANDSEED
  5
323
  9
$TILEMODE
 70
1
  9
$MEASUREMENT
 70
0
  9
$INSUNITS
 70
1
  0
ENDSEC
  0
SECTION
  2
CLASSES
  0
CLASS
  1
ACDBDICTIONARYWDFLT
  2
AcDbDictionaryWithDefault
  3
AutoCAD 2000
 90
0
 91
1
280
0
281
0
  0
CLASS
  1
ACDBPLACEHOLDER
  2
AcDbPlaceHolder
  3
AutoCAD 2000
 90
0
 91
1
280
0
281
0
  0
CLASS
  1
LAYOUT
  2
AcDbLayout
  3
AutoCAD 2000
 90
0
 91
0
280
0
281
0
  0
ENDSEC
  0
SECTION
  2
TABLES
  0
TABLE
  2
VPORT
  5
8
100
AcDbSymbolTable
 70
2
  0
VPORT
  5
1F4
100
AcDbSymbolTableRecord
100
AcDbViewportTableRecord
  2
*ACTIVE
 70
0
 10
0.0
 20
0.0
 11
1.0
 21
1.0
 12
4.25
 22
5.5
 13
0.0
 23
0.0
 14
1.0
 24
1.0
 15
0.0
 25
0.0
 16
0.0
 26
0.0
 36
1.0
 17
0.0
 27
0.0
 37
0.0
 40
11.0
 41
0.7727272727
 42
50.0
 43
0.0
 44
0.0
 50
0.0
 51
0.0
 71
0
 72
100
 73
1
 74
1
 75
0
 76
0
 77
0
 78
0
  0
ENDTAB
  0
TABLE
  2
LTYPE
  5
5
100
AcDbSymbolTable
 70
6
  0
LTYPE
  5
14
100
AcDbSymbolTableRecord
100
AcDbLinetypeTableRecord
  2
BYBLOCK
 70
0
  3

 72
65
 73
0
 40
0.0
  0
LTYPE
  5
15
100
AcDbSymbolTableRecord
100
AcDbLinetypeTableRecord
  2
BYLAYER
 70
0
  3

 72
65
 73
0
 40
0.0
  0
LTYPE
  5
16
100
AcDbSymbolTableRecord
100
AcDbLinetypeTableRecord
  2
CONTINUOUS
 70
64
  3
Solid line
 72
65
 73
0
 40
0.0
  0
LTYPE
  5
1F5
100
AcDbSymbolTableRecord
100
AcDbLinetypeTableRecord
  2
CENTER
 70
64
  3
____ _ ____ _ ____ _ ____ _ ____ _ ____ _ ____
 72
65
 73
4
 40
0.6
 49
0.375
 74
0
 49
-0.075
 74
0
 49
0.075
 74
0
 49
-0.075
 74
0
  0
LTYPE
  5
1F6
100
AcDbSymbolTableRecord
100
AcDbLinetypeTableRecord
  2
HIDDEN
 70
64
  3
- - - - - - - - - - - - - - - - - - - -
 72
65
 73
2
 40
0.2
 49
0.1
 74
0
 49
-0.1
 74
0
  0
LTYPE
  5
1F7
100
AcDbSymbolTableRecord
100
AcDbLinetypeTableRecord
  2
PHANTOM
 70
64
  3
_____ _ _ _____ _ _ _____ _ _ _____
 72
65
 73
6
 40
0.8
 49
0.45
 74
0
 49
-0.05
 74
0
 49
0.1
 74
0
 49
-0.05
 74
0
 49
0.1
 74
0
 49
-0.05
 74
0
  0
LTYPE
  5
1F8
100
AcDbSymbolTableRecord
100
AcDbLinetypeTableRecord
  2
DOT
 70
64
  3
. . . . . . . . . . . . . . . . . . . .
 72
65
 73
2
 40
0.2
 49
0.1
 74
0
 49
-0.1
 74
0
  0
LTYPE
  5
1F9
100
AcDbSymbolTableRecord
100
AcDbLinetypeTableRecord
  2
DASHED
 70
64
  3
- - - - - - - - - - - - - - - - - - - -
 72
65
 73
2
 40
0.2
 49
0.1
 74
0
 49
-0.1
 74
0
  0
ENDTAB
  0
TABLE
  2
LAYER
  5
2
100
AcDbSymbolTable
 70
36
  0
LAYER
  5
10
100
AcDbSymbolTableRecord
100
AcDbLayerTableRecord
  2
0
 70
0
 62
7
  6
CONTINUOUS
370
-3
390
F
  0
LAYER
  5
1FA
100
AcDbSymbolTableRecord
100
AcDbLayerTableRecord
  2
DEFAULT_1
 70
0
 62
7
  6
CENTER
370
-3
390
F
  0
LAYER
  5
1FB
100
AcDbSymbolTableRecord
100
AcDbLayerTableRecord
  2
DEFAULT_2
 70
0
 62
8
  6
HIDDEN
370
-3
390
F
  0
LAYER
  5
1FC
100
AcDbSymbolTableRecord
100
AcDbLayerTableRecord
  2
DEFAULT_3
 70
0
 62
7
  6
PHANTOM
370
-3
390
F
  0
LAYER
  5
1FD
100
AcDbSymbolTableRecord
100
AcDbLayerTableRecord
  2
1-134
 70
0
 62
7
  6
CONTINUOUS
370
-3
390
F
  0
LAYER
  5
1FE
100
AcDbSymbolTableRecord
100
AcDbLayerTableRecord
  2
403X-1
 70
0
 62
7
  6
CONTINUOUS
370
-3
390
F
  0
LAYER
  5
1FF
100
AcDbSymbolTableRecord
100
AcDbLayerTableRecord
  2
436
 70
0
 62
7
  6
CONTINUOUS
370
-3
390
F
  0
LAYER
  5
200
100
AcDbSymbolTableRecord
100
AcDbLayerTableRecord
  2
441
 70
0
 62
7
  6
CONTINUOUS
370
-3
390
F
  0
LAYER
  5
201
100
AcDbSymbolTableRecord
100
AcDbLayerTableRecord
  2
50359
 70
0
 62
7
  6
CONTINUOUS
370
-3
390
F
  0
LAYER
  5
202
100
AcDbSymbolTableRecord
100
AcDbLayerTableRecord
  2
50362
 70
0
 62
7
  6
CONTINUOUS
370
-3
390
F
  0
LAYER
  5
203
100
AcDbSymbolTableRecord
100
AcDbLayerTableRecord
  2
50392
 70
0
 62
7
  6
CONTINUOUS
370
-3
390
F
  0
LAYER
  5
204
100
AcDbSymbolTableRecord
100
AcDbLayerTableRecord
  2
50729
 70
0
 62
7
  6
CONTINUOUS
370
-3
390
F
  0
LAYER
  5
205
100
AcDbSymbolTableRecord
100
AcDbLayerTableRecord
  2
50733
 70
0
 62
7
  6
CONTINUOUS
370
-3
390
F
  0
LAYER
  5
206
100
AcDbSymbolTableRecord
100
AcDbLayerTableRecord
  2
50733_1
 70
0
 62
7
  6
CONTINUOUS
370
-3
390
F
  0
LAYER
  5
207
100
AcDbSymbolTableRecord
100
AcDbLayerTableRecord
  2
50733_2
 70
0
 62
7
  6
CONTINUOUS
370
-3
390
F
  0
LAYER
  5
208
100
AcDbSymbolTableRecord
100
AcDbLayerTableRecord
  2
50733_3
 70
0
 62
7
  6
CONTINUOUS
370
-3
390
F
  0
LAYER
  5
209
100
AcDbSymbolTableRecord
100
AcDbLayerTableRecord
  2
50737
 70
0
 62
7
  6
CONTINUOUS
370
-3
390
F
  0
LAYER
  5
20A
100
AcDbSymbolTableRecord
100
AcDbLayerTableRecord
  2
50741
 70
0
 62
7
  6
CONTINUOUS
370
-3
390
F
  0
LAYER
  5
20B
100
AcDbSymbolTableRecord
100
AcDbLayerTableRecord
  2
50742
 70
0
 62
7
  6
CONTINUOUS
370
-3
390
F
  0
LAYER
  5
20C
100
AcDbSymbolTableRecord
100
AcDbLayerTableRecord
  2
50743
 70
0
 62
7
  6
CONTINUOUS
370
-3
390
F
  0
LAYER
  5
20D
100
AcDbSymbolTableRecord
100
AcDbLayerTableRecord
  2
6-034
 70
0
 62
7
  6
CONTINUOUS
370
-3
390
F
  0
LAYER
  5
20E
100
AcDbSymbolTableRecord
100
AcDbLayerTableRecord
  2
91022
 70
0
 62
7
  6
CONTINUOUS
370
-3
390
F
  0
LAYER
  5
20F
100
AcDbSymbolTableRecord
100
AcDbLayerTableRecord
  2
91203
 70
0
 62
7
  6
CONTINUOUS
370
-3
390
F
  0
LAYER
  5
210
100
AcDbSymbolTableRecord
100
AcDbLayerTableRecord
  2
92087
 70
0
 62
7
  6
CONTINUOUS
370
-3
390
F
  0
LAYER
  5
211
100
AcDbSymbolTableRecord
100
AcDbLayerTableRecord
  2
92087_1
 70
0
 62
7
  6
CONTINUOUS
370
-3
390
F
  0
LAYER
  5
212
100
AcDbSymbolTableRecord
100
AcDbLayerTableRecord
  2
92087_2
 70
0
 62
7
  6
CONTINUOUS
370
-3
390
F
  0
LAYER
  5
213
100
AcDbSymbolTableRecord
100
AcDbLayerTableRecord
  2
92087_3
 70
0
 62
7
  6
CONTINUOUS
370
-3
390
F
  0
LAYER
  5
214
100
AcDbSymbolTableRecord
100
AcDbLayerTableRecord
  2
ALL_ASSEMBLY_MEMBERS
 70
0
 62
7
  6
CONTINUOUS
370
-3
390
F
  0
LAYER
  5
215
100
AcDbSymbolTableRecord
100
AcDbLayerTableRecord
  2
COLOR147
 70
0
 62
7
  6
CONTINUOUS
370
-3
390
F
  0
LAYER
  5
216
100
AcDbSymbolTableRecord
100
AcDbLayerTableRecord
  2
COLOR32
 70
0
 62
7
  6
CONTINUOUS
370
-3
390
F
  0
LAYER
  5
217
100
AcDbSymbolTableRecord
100
AcDbLayerTableRecord
  2
COLOR54
 70
0
 62
7
  6
CONTINUOUS
370
-3
390
F
  0
LAYER
  5
218
100
AcDbSymbolTableRecord
100
AcDbLayerTableRecord
  2
COLOR66
 70
0
 62
7
  6
CONTINUOUS
370
-3
390
F
  0
LAYER
  5
219
100
AcDbSymbolTableRecord
100
AcDbLayerTableRecord
  2
DEFAULT_COORDINATE_SYSTEM
 70
0
 62
7
  6
CONTINUOUS
370
-3
390
F
  0
LAYER
  5
21A
100
AcDbSymbolTableRecord
100
AcDbLayerTableRecord
  2
DEFAULT_DATUM_AXES
 70
0
 62
7
  6
CONTINUOUS
370
-3
390
F
  0
LAYER
  5
21B
100
AcDbSymbolTableRecord
100
AcDbLayerTableRecord
  2
DEFAULT_DATUM_PLANES
 70
0
 62
7
  6
CONTINUOUS
370
-3
390
F
  0
LAYER
  5
21C
100
AcDbSymbolTableRecord
100
AcDbLayerTableRecord
  2
DEFAULT_SURFACES_1
 70
0
 62
7
  6
CONTINUOUS
370
-3
390
F
  0
LAYER
  5
21D
100
AcDbSymbolTableRecord
100
AcDbLayerTableRecord
  2
INTF_441
 70
0
 62
7
  6
CONTINUOUS
370
-3
390
F
  0
LAYER
  5
21E
100
AcDbSymbolTableRecord
100
AcDbLayerTableRecord
  2
INTF_50359
 70
0
 62
7
  6
CONTINUOUS
370
-3
390
F
  0
LAYER
  5
21F
100
AcDbSymbolTableRecord
100
AcDbLayerTableRecord
  2
INTF_50362
 70
0
 62
7
  6
CONTINUOUS
370
-3
390
F
  0
LAYER
  5
220
100
AcDbSymbolTableRecord
100
AcDbLayerTableRecord
  2
INTF_50392
 70
0
 62
7
  6
CONTINUOUS
370
-3
390
F
  0
LAYER
  5
221
100
AcDbSymbolTableRecord
100
AcDbLayerTableRecord
  2
INTF_50729
 70
0
 62
7
  6
CONTINUOUS
370
-3
390
F
  0
LAYER
  5
222
100
AcDbSymbolTableRecord
100
AcDbLayerTableRecord
  2
INTF_50733
 70
0
 62
7
  6
CONTINUOUS
370
-3
390
F
  0
LAYER
  5
223
100
AcDbSymbolTableRecord
100
AcDbLayerTableRecord
  2
INTF_50737
 70
0
 62
7
  6
CONTINUOUS
370
-3
390
F
  0
LAYER
  5
224
100
AcDbSymbolTableRecord
100
AcDbLayerTableRecord
  2
INTF_50741
 70
0
 62
7
  6
CONTINUOUS
370
-3
390
F
  0
LAYER
  5
225
100
AcDbSymbolTableRecord
100
AcDbLayerTableRecord
  2
INTF_50742
 70
0
 62
7
  6
CONTINUOUS
370
-3
390
F
  0
LAYER
  5
226
100
AcDbSymbolTableRecord
100
AcDbLayerTableRecord
  2
INTF_50743
 70
0
 62
7
  6
CONTINUOUS
370
-3
390
F
  0
LAYER
  5
227
100
AcDbSymbolTableRecord
100
AcDbLayerTableRecord
  2
INTF_91022
 70
0
 62
7
  6
CONTINUOUS
370
-3
390
F
  0
LAYER
  5
228
100
AcDbSymbolTableRecord
100
AcDbLayerTableRecord
  2
INTF_91203
 70
0
 62
7
  6
CONTINUOUS
370
-3
390
F
  0
LAYER
  5
229
100
AcDbSymbolTableRecord
100
AcDbLayerTableRecord
  2
INTF_92087
 70
0
 62
7
  6
CONTINUOUS
370
-3
390
F
  0
LAYER
  5
22A
100
AcDbSymbolTableRecord
100
AcDbLayerTableRecord
  2
INTF_BLANK
 70
0
 62
7
  6
CONTINUOUS
370
-3
390
F
  0
LAYER
  5
22B
100
AcDbSymbolTableRecord
100
AcDbLayerTableRecord
  2
QUILT
 70
0
 62
7
  6
CONTINUOUS
370
-3
390
F
  0
LAYER
  5
22C
100
AcDbSymbolTableRecord
100
AcDbLayerTableRecord
  2
QUILT_1
 70
0
 62
7
  6
CONTINUOUS
370
-3
390
F
  0
LAYER
  5
22D
100
AcDbSymbolTableRecord
100
AcDbLayerTableRecord
  2
SURFACES
 70
0
 62
7
  6
CONTINUOUS
370
-3
390
F
  0
LAYER
  5
22E
100
AcDbSymbolTableRecord
100
AcDbLayerTableRecord
  2
WETTED_SURFACE
 70
0
 62
7
  6
CONTINUOUS
370
-3
390
F
  0
LAYER
  5
22F
100
AcDbSymbolTableRecord
100
AcDbLayerTableRecord
  2
WETTED_SURFACES
 70
0
 62
7
  6
CONTINUOUS
370
-3
390
F
  0
LAYER
  5
230
100
AcDbSymbolTableRecord
100
AcDbLayerTableRecord
  2
_BLACK_HOLE
 70
0
 62
7
  6
CONTINUOUS
370
-3
390
F
  0
ENDTAB
  0
TABLE
  2
STYLE
  5
3
100
AcDbSymbolTable
 70
1
  0
STYLE
  5
11
100
AcDbSymbolTableRecord
100
AcDbTextStyleTableRecord
  2
STANDARD
 70
0
 40
0.0
 41
0.8
 50
0.0
 71
0
 42
0.2
  3
txt
  4

  0
STYLE
  5
231
100
AcDbSymbolTableRecord
100
AcDbTextStyleTableRecord
  2
TEXTSTYLE_1
 70
0
 40
0.0
 41
0.8
 50
0.0
 71
0
 42
0.2
  3
gdt
  4

  0
ENDTAB
  0
TABLE
  2
VIEW
  5
6
100
AcDbSymbolTable
 70
0
  0
ENDTAB
  0
TABLE
  2
UCS
  5
7
100
AcDbSymbolTable
 70
0
  0
ENDTAB
  0
TABLE
  2
APPID
  5
9
100
AcDbSymbolTable
 70
1
  0
APPID
  5
232
100
AcDbSymbolTableRecord
100
AcDbRegAppTableRecord
  2
ACAD
 70
0
  0
ENDTAB
  0
TABLE
  2
BLOCK_RECORD
  5
1
100
AcDbSymbolTable
 70
0
  0
BLOCK_RECORD
  5
233
100
AcDbSymbolTableRecord
100
AcDbBlockTableRecord
  2
*Model_Space
  0
BLOCK_RECORD
  5
234
100
AcDbSymbolTableRecord
100
AcDbBlockTableRecord
  2
*Paper_Space
  0
BLOCK_RECORD
  5
235
100
AcDbSymbolTableRecord
100
AcDbBlockTableRecord
  2
_FILLED
  0
ENDTAB
  0
TABLE
  2
DIMSTYLE
  5
A
100
AcDbSymbolTable
 70
1
100
AcDbDimStyleTable
 71
0
  0
DIMSTYLE
105
236
100
AcDbSymbolTableRecord
100
AcDbDimStyleTableRecord
  2
STANDARD
 70
0
  3

  4

 40
1.0
 41
0.1
 42
0.0625
 43
0.38
 44
0.125
 45
0.0
 46
0.0
 47
0.001
 48
0.001
140
0.08
141
0.09
142
0.0
143
25.4
144
1.0
145
0.0
146
1.0
147
0.09
 71
1.0
 72
0.0
 73
1
 74
1
 75
0
 76
0
 77
0
 78
4
 79
1
170
1
171
2
172
0
173
0
174
0
175
0
176
0
177
0
178
0
270
2
179
3
271
3
272
3
273
2
274
2
275
0
280
0
281
0
282
0
283
1
284
4
285
0
286
0
287
3
288
0
340
11
278
46
341
235
342
235
343
235
344
235
  0
ENDTAB
  0
ENDSEC
  0
SECTION
  2
BLOCKS
  0
BLOCK
  5
20
100
AcDbEntity
  8
0
100
AcDbBlockBegin
  2
*Model_Space
 70
0
 10
0.0
 20
0.0
 30
0.0
  3
*Model_Space
  1

  0
ENDBLK
  5
21
100
AcDbEntity
  8
0
100
AcDbBlockEnd
  0
BLOCK
  5
1C
100
AcDbEntity
  8
0
100
AcDbBlockBegin
  2
*Paper_Space
 70
0
 10
0.0
 20
0.0
 30
0.0
  3
*Paper_Space
  1

  0
ENDBLK
  5
1D
100
AcDbEntity
  8
0
100
AcDbBlockEnd
  0
BLOCK
  5
237
100
AcDbEntity
  8
0
100
AcDbBlockBegin
  2
_FILLED
 70
64
 10
0.0
 20
0.0
  3
_FILLED
  1

  0
SOLID
  5
238
100
AcDbEntity
  8
0
  6
BYBLOCK
 62
0
100
AcDbTrace
 10
0.0
 20
0.0
 11
-1.0
 21
0.2
 12
-1.0
 22
-0.2
 13
-1.0
 23
-0.2
  0
ENDBLK
  5
239
100
AcDbEntity
  8
0
  6
BYBLOCK
 62
0
100
AcDbBlockEnd
  0
ENDSEC
  0
SECTION
  2
ENTITIES
  0
MTEXT
  5
23A
100
AcDbEntity
  8
0
100
AcDbMText
 62
7
  6
CONTINUOUS
  7
STANDARD
 71
1
 72
1
 10
7.0999223602
 20
0.2688819876
 30
0.0
 11
1.0
 21
0.0
 31
0.0
 73
2
 44
0.9
  1
SCALE: .50
 40
0.08
 41
0.64
  0
LINE
  5
23B
100
AcDbEntity
  8
0
100
AcDbLine
 62
7
  6
CONTINUOUS
 10
0.0
 20
0.0
 11
8.5
 21
0.0
  0
LINE
  5
23C
100
AcDbEntity
  8
0
100
AcDbLine
 62
7
  6
CONTINUOUS
 10
0.0
 20
0.0
 11
0.0
 21
11.0
  0
LINE
  5
23D
100
AcDbEntity
  8
0
100
AcDbLine
 62
7
  6
CONTINUOUS
 10
8.5
 20
0.0
 11
8.5
 21
11.0
  0
LINE
  5
23E
100
AcDbEntity
  8
0
100
AcDbLine
 62
7
  6
CONTINUOUS
 10
0.0
 20
11.0
 11
8.5
 21
11.0
  0
LINE
  5
23F
100
AcDbEntity
  8
0
100
AcDbLine
 62
7
  6
CONTINUOUS
 10
5.696015528
 20
0.1130822981
 11
5.6405240602
 21
0.1130822981
  0
LINE
  5
240
100
AcDbEntity
  8
0
100
AcDbLine
 62
7
  6
CONTINUOUS
 10
4.411015528
 20
0.4880822981
 11
4.004015528
 21
0.4880822981
  0
LINE
  5
241
100
AcDbEntity
  8
0
100
AcDbLine
 62
7
  6
CONTINUOUS
 10
3.964015528
 20
0.4880822981
 11
2.564015528
 21
0.4880822981
  0
LINE
  5
242
100
AcDbEntity
  8
0
100
AcDbLine
 62
7
  6
CONTINUOUS
 10
2.394015528
 20
0.4880822981
 11
2.549015528
 21
0.4880822981
  0
LINE
  5
243
100
AcDbEntity
  8
0
100
AcDbLine
 62
7
  6
CONTINUOUS
 10
2.5587627962
 20
0.544158774
 11
2.563772668
 21
0.544158774
  0
LINE
  5
244
100
AcDbEntity
  8
0
100
AcDbLine
 62
7
  6
CONTINUOUS
 10
4.004015528
 20
0.5545822981
 11
3.964015528
 21
0.5545822981
  0
LINE
  5
245
100
AcDbEntity
  8
0
100
AcDbLine
 62
7
  6
CONTINUOUS
 10
2.049015528
 20
0.5605822981
 11
2.092765528
 21
0.5605822981
  0
LINE
  5
246
100
AcDbEntity
  8
0
100
AcDbLine
 62
7
  6
CONTINUOUS
 10
2.285265528
 20
0.5605822981
 11
2.329015528
 21
0.5605822981
  0
LINE
  5
247
100
AcDbEntity
  8
0
100
AcDbLine
 62
7
  6
CONTINUOUS
 10
4.318515528
 20
0.5921679397
 11
4.411015528
 21
0.5921679397
  0
LINE
  5
248
100
AcDbEntity
  8
0
100
AcDbLine
 62
7
  6
CONTINUOUS
 10
2.5587158342
 20
0.544158774
 11
2.5587143585
 21
0.5441587917
  0
LINE
  5
249
100
AcDbEntity
  8
0
100
AcDbLine
 62
7
  6
CONTINUOUS
 10
2.329015528
 20
0.6255822981
 11
2.389015528
 21
0.6255822981
  0
LINE
  5
24A
100
AcDbEntity
  8
0
100
AcDbLine
 62
7
  6
CONTINUOUS
 10
2.329015528
 20
0.8505822981
 11
2.389015528
 21
0.8505822981
  0
LINE
  5
24B
100
AcDbEntity
  8
0
100
AcDbLine
 62
7
  6
CONTINUOUS
 10
4.411015528
 20
0.8839966566
 11
4.318515528
 21
0.8839966566
  0
LINE
  5
24C
100
AcDbEntity
  8
0
100
AcDbLine
 62
7
  6
CONTINUOUS
 10
2.049015528
 20
0.9155822981
 11
2.092765528
 21
0.9155822981
  0
LINE
  5
24D
100
AcDbEntity
  8
0
100
AcDbLine
 62
7
  6
CONTINUOUS
 10
2.285265528
 20
0.9155822981
 11
2.329015528
 21
0.9155822981
  0
LINE
  5
24E
100
AcDbEntity
  8
0
100
AcDbLine
 62
7
  6
CONTINUOUS
 10
3.964015528
 20
0.9215822981
 11
4.004015528
 21
0.9215822981
  0
LINE
  5
24F
100
AcDbEntity
  8
0
100
AcDbLine
 62
7
  6
CONTINUOUS
 10
3.964015528
 20
0.9880822981
 11
3.2090668403
 21
0.9880822981
  0
LINE
  5
250
100
AcDbEntity
  8
0
100
AcDbLine
 62
7
  6
CONTINUOUS
 10
2.6689642154
 20
0.9880822981
 11
2.564015528
 21
0.9880822981
  0
LINE
  5
251
100
AcDbEntity
  8
0
100
AcDbLine
 62
7
  6
CONTINUOUS
 10
2.394015528
 20
0.9880822981
 11
2.549015528
 21
0.9880822981
  0
LINE
  5
252
100
AcDbEntity
  8
0
100
AcDbLine
 62
7
  6
CONTINUOUS
 10
4.004015528
 20
0.9880822981
 11
4.411015528
 21
0.9880822981
  0
LWPOLYLINE
  5
253
100
AcDbEntity
  8
0
100
AcDbPolyline
 62
7
  6
CONTINUOUS
 90
12
 70
0
 10
3.2090155272
 20
0.9880822975
 10
3.2063256503
 20
0.9882640089
 10
3.2032498396
 20
0.9889314008
 10
3.2003007208
 20
0.9900808491
 10
3.1976127276
 20
0.9916513464
 10
3.1951729584
 20
0.9936468107
 10
3.1930762049
 20
0.9960018176
 10
3.1913939535
 20
0.9986229037
 10
3.1901225864
 20
1.0015205311
 10
3.189327103
 20
1.004565773
 10
3.189020018
 20
1.007658499
 10
3.1890155275
 20
1.0080805734
  0
LINE
  5
254
100
AcDbEntity
  8
0
100
AcDbLine
 62
7
  6
CONTINUOUS
 10
2.689015528
 20
1.1130822981
 11
3.189015528
 21
1.1130822981
  0
LINE
  5
255
100
AcDbEntity
  8
0
100
AcDbLine
 62
7
  6
CONTINUOUS
 10
3.116515528
 20
1.1430822981
 11
2.761515528
 21
1.1430822981
  0
LINE
  5
256
100
AcDbEntity
  8
0
100
AcDbLine
 62
7
  6
CONTINUOUS
 10
2.8305443336
 20
1.3580822981
 11
3.0474867223
 21
1.3580822981
  0
LINE
  5
257
100
AcDbEntity
  8
0
100
AcDbLine
 62
7
  6
CONTINUOUS
 10
5.6405240602
 20
1.3630822981
 11
5.696015528
 21
1.3630822981
  0
LINE
  5
258
100
AcDbEntity
  8
0
100
AcDbLine
 62
7
  6
CONTINUOUS
 10
2.802008423
 20
1.1308448558
 11
2.8113568124
 21
1.1254366829
  0
LINE
  5
259
100
AcDbEntity
  8
0
100
AcDbLine
 62
7
  6
CONTINUOUS
 10
3.0773980666
 20
1.1299736959
 11
3.0667019405
 21
1.1361601608
  0
LINE
  5
25A
100
AcDbEntity
  8
0
100
AcDbLine
 62
9
  6
CONTINUOUS
 10
2.6689642154
 20
0.9880822981
 11
2.939015528
 21
0.7380822981
  0
LINE
  5
25B
100
AcDbEntity
  8
0
100
AcDbLine
 62
7
  6
CONTINUOUS
 10
2.554015528
 20
0.5488322981
 11
2.5587381892
 21
0.5441096369
  0
LINE
  5
25C
100
AcDbEntity
  8
0
100
AcDbLine
 62
7
  6
CONTINUOUS
 10
2.8864482167
 20
1.3880862794
 11
2.9915828392
 21
1.3880862794
  0
LINE
  5
25D
100
AcDbEntity
  8
0
100
AcDbLine
 62
7
  6
CONTINUOUS
 10
2.761515528
 20
1.4280822981
 11
3.116515528
 21
1.4280822981
  0
LINE
  5
25E
100
AcDbEntity
  8
0
100
AcDbLine
 62
9
  6
CONTINUOUS
 10
2.7816249669
 20
0.908074457
 11
2.6890243558
 21
1.0080725234
  0
LWPOLYLINE
  5
25F
100
AcDbEntity
  8
0
100
AcDbPolyline
 62
9
  6
CONTINUOUS
 90
3
 70
0
 10
2.6903505844
 20
1.0066401123
 10
2.689161998
 20
1.0079677241
 10
2.689015528
 20
1.0081336097
  0
LINE
  5
260
100
AcDbEntity
  8
0
100
AcDbLine
 62
7
  6
CONTINUOUS
 10
3.0394642578
 20
10.6262281238
 11
3.0598167981
 21
10.6614797578
  0
LINE
  5
261
100
AcDbEntity
  8
0
100
AcDbLine
 62
7
  6
CONTINUOUS
 10
2.049015528
 20
0.9155665879
 11
2.049015528
 21
0.5605980084
  0
LINE
  5
262
100
AcDbEntity
  8
0
100
AcDbLine
 62
7
  6
CONTINUOUS
 10
2.092765528
 20
0.6372486677
 11
2.092765528
 21
0.3154622527
  0
LINE
  5
263
100
AcDbEntity
  8
0
100
AcDbLine
 62
7
  6
CONTINUOUS
 10
2.092765528
 20
0.8389294228
 11
2.092765528
 21
1.1607023436
  0
LINE
  5
264
100
AcDbEntity
  8
0
100
AcDbLine
 62
7
  6
CONTINUOUS
 10
2.285265528
 20
1.1607023436
 11
2.285265528
 21
0.838931253
  0
LINE
  5
265
100
AcDbEntity
  8
0
100
AcDbLine
 62
7
  6
CONTINUOUS
 10
2.285265528
 20
0.3154622527
 11
2.285265528
 21
0.6372503144
  0
LINE
  5
266
100
AcDbEntity
  8
0
100
AcDbLine
 62
7
  6
CONTINUOUS
 10
2.329015528
 20
0.9155822981
 11
2.329015528
 21
0.5605822981
  0
LINE
  5
267
100
AcDbEntity
  8
0
100
AcDbLine
 62
9
  6
CONTINUOUS
 10
2.389015528
 20
0.9830608129
 11
2.389015528
 21
0.4931037833
  0
LINE
  5
268
100
AcDbEntity
  8
0
100
AcDbLine
 62
9
  6
CONTINUOUS
 10
2.394015528
 20
0.9880822981
 11
2.394015528
 21
0.4880822981
  0
LINE
  5
269
100
AcDbEntity
  8
0
100
AcDbLine
 62
7
  6
CONTINUOUS
 10
2.5587671617
 20
0.7379960878
 11
2.5586905278
 21
0.7426614535
  0
LINE
  5
26A
100
AcDbEntity
  8
0
100
AcDbLine
 62
9
  6
CONTINUOUS
 10
2.549015528
 20
0.4880822981
 11
2.549015528
 21
0.9880822981
  0
LINE
  5
26B
100
AcDbEntity
  8
0
100
AcDbLine
 62
9
  6
CONTINUOUS
 10
2.554015528
 20
0.9830608129
 11
2.554015528
 21
0.4931036535
  0
LINE
  5
26C
100
AcDbEntity
  8
0
100
AcDbLine
 62
7
  6
CONTINUOUS
 10
2.5586905277
 20
0.5441572984
 11
2.5586905278
 21
0.7426619896
  0
LINE
  5
26D
100
AcDbEntity
  8
0
100
AcDbLine
 62
7
  6
CONTINUOUS
 10
2.564015528
 20
0.4880827882
 11
2.564015528
 21
0.9880818081
  0
LINE
  5
26E
100
AcDbEntity
  8
0
100
AcDbLine
 62
7
  6
CONTINUOUS
 10
2.689015528
 20
1.1130822981
 11
2.689015528
 21
1.0081336097
  0
LINE
  5
26F
100
AcDbEntity
  8
0
100
AcDbLine
 62
7
  6
CONTINUOUS
 10
2.727765528
 20
10.9005822981
 11
2.727765528
 21
10.8380822981
  0
LINE
  5
270
100
AcDbEntity
  8
0
100
AcDbLine
 62
7
  6
CONTINUOUS
 10
2.739015528
 20
10.8080822981
 11
2.739015528
 21
10.8380822981
  0
LINE
  5
271
100
AcDbEntity
  8
0
100
AcDbLine
 62
7
  6
CONTINUOUS
 10
2.761515528
 20
1.1430822981
 11
2.761515528
 21
1.4280822981
  0
LWPOLYLINE
  5
272
100
AcDbEntity
  8
0
100
AcDbPolyline
 62
7
  6
CONTINUOUS
 90
12
 70
0
 10
2.6890155279
 20
1.0080805725
 10
2.6890110379
 20
1.0076585286
 10
2.6887039571
 20
1.0045658001
 10
2.6879084772
 20
1.0015205552
 10
2.6866371127
 20
0.9986229244
 10
2.6849548631
 20
0.9960018348
 10
2.6828581107
 20
0.9936468244
 10
2.6804183416
 20
0.9916513566
 10
2.677730348
 20
0.9900808562
 10
2.674781228
 20
0.9889314051
 10
2.6717054157
 20
0.988264011
 10
2.669015528
 20
0.9880822981
  0
LINE
  5
273
100
AcDbEntity
  8
0
100
AcDbLine
 62
7
  6
CONTINUOUS
 10
2.800490528
 20
1.1130822981
 11
2.800490528
 21
1.1194623853
  0
LINE
  5
274
100
AcDbEntity
  8
0
100
AcDbLine
 62
7
  6
CONTINUOUS
 10
2.800490528
 20
1.131702211
 11
2.800490528
 21
1.1402957186
  0
LINE
  5
275
100
AcDbEntity
  8
0
100
AcDbLine
 62
7
  6
CONTINUOUS
 10
2.811515528
 20
10.6864797578
 11
2.811515528
 21
10.8080822981
  0
LINE
  5
276
100
AcDbEntity
  8
0
100
AcDbLine
 62
7
  6
CONTINUOUS
 10
2.8305443336
 20
1.4280822981
 11
2.8305443336
 21
1.3580822981
  0
LINE
  5
277
100
AcDbEntity
  8
0
100
AcDbLine
 62
7
  6
CONTINUOUS
 10
2.845265528
 20
1.4280822981
 11
2.845265528
 21
10.6012281238
  0
LINE
  5
278
100
AcDbEntity
  8
0
100
AcDbLine
 62
7
  6
CONTINUOUS
 10
2.8864482167
 20
1.3880862794
 11
2.8864482167
 21
1.3580822981
  0
LINE
  5
279
100
AcDbEntity
  8
0
100
AcDbLine
 62
7
  6
CONTINUOUS
 10
2.9915828392
 20
1.3880862794
 11
2.9915828392
 21
1.3580822981
  0
LINE
  5
27A
100
AcDbEntity
  8
0
100
AcDbLine
 62
7
  6
CONTINUOUS
 10
3.032765528
 20
10.6012281238
 11
3.032765528
 21
1.4280822981
  0
LINE
  5
27B
100
AcDbEntity
  8
0
100
AcDbLine
 62
7
  6
CONTINUOUS
 10
3.0474867223
 20
1.3580822981
 11
3.0474867223
 21
1.4280822981
  0
LINE
  5
27C
100
AcDbEntity
  8
0
100
AcDbLine
 62
7
  6
CONTINUOUS
 10
3.066515528
 20
10.8080822981
 11
3.066515528
 21
10.6864797578
  0
LINE
  5
27D
100
AcDbEntity
  8
0
100
AcDbLine
 62
7
  6
CONTINUOUS
 10
3.077540528
 20
1.1298790519
 11
3.077540528
 21
1.1130822981
  0
LINE
  5
27E
100
AcDbEntity
  8
0
100
AcDbLine
 62
7
  6
CONTINUOUS
 10
3.116515528
 20
1.4280822981
 11
3.116515528
 21
1.1430822981
  0
LINE
  5
27F
100
AcDbEntity
  8
0
100
AcDbLine
 62
7
  6
CONTINUOUS
 10
3.139015528
 20
10.8380822981
 11
3.139015528
 21
10.8080822981
  0
LINE
  5
280
100
AcDbEntity
  8
0
100
AcDbLine
 62
7
  6
CONTINUOUS
 10
3.150265528
 20
10.8380822981
 11
3.150265528
 21
10.9005822981
  0
LINE
  5
281
100
AcDbEntity
  8
0
100
AcDbLine
 62
7
  6
CONTINUOUS
 10
3.189015528
 20
1.0081336093
 11
3.189015528
 21
1.1130822981
  0
LINE
  5
282
100
AcDbEntity
  8
0
100
AcDbLine
 62
7
  6
CONTINUOUS
 10
3.964015528
 20
0.9880818081
 11
3.964015528
 21
0.4880827882
  0
LINE
  5
283
100
AcDbEntity
  8
0
100
AcDbLine
 62
7
  6
CONTINUOUS
 10
4.004015528
 20
0.4880822981
 11
4.004015528
 21
0.9880822981
  0
LINE
  5
284
100
AcDbEntity
  8
0
100
AcDbLine
 62
7
  6
CONTINUOUS
 10
4.316015528
 20
0.8804541704
 11
4.316015528
 21
0.5957104259
  0
LINE
  5
285
100
AcDbEntity
  8
0
100
AcDbLine
 62
9
  6
CONTINUOUS
 10
4.318515528
 20
0.5921679397
 11
4.318515528
 21
0.8839966566
  0
LINE
  5
286
100
AcDbEntity
  8
0
100
AcDbLine
 62
7
  6
CONTINUOUS
 10
4.411015528
 20
0.4880822981
 11
4.411015528
 21
0.9880822981
  0
LINE
  5
287
100
AcDbEntity
  8
0
100
AcDbLine
 62
7
  6
CONTINUOUS
 10
5.411015528
 20
0.9690274195
 11
5.411015528
 21
0.5071371767
  0
LINE
  5
288
100
AcDbEntity
  8
0
100
AcDbLine
 62
9
  6
CONTINUOUS
 10
5.4214324269
 20
1.0035759446
 11
5.4214324269
 21
0.4725886517
  0
LINE
  5
289
100
AcDbEntity
  8
0
100
AcDbLine
 62
9
  6
CONTINUOUS
 10
5.5817606178
 20
0.1542959683
 11
5.5817606178
 21
1.321868628
  0
LINE
  5
28A
100
AcDbEntity
  8
0
100
AcDbLine
 62
9
  6
CONTINUOUS
 10
5.6405240602
 20
1.3630822981
 11
5.6405240602
 21
0.1130822981
  0
LINE
  5
28B
100
AcDbEntity
  8
0
100
AcDbLine
 62
7
  6
CONTINUOUS
 10
5.696015528
 20
1.3630822981
 11
5.696015528
 21
0.1130822981
  0
LINE
  5
28C
100
AcDbEntity
  8
0
100
AcDbLine
 62
7
  6
CONTINUOUS
 10
2.8182142578
 20
10.6614797578
 11
2.8385667981
 21
10.6262281238
  0
LINE
  5
28D
100
AcDbEntity
  8
0
100
AcDbLine
 62
7
  6
CONTINUOUS
 10
2.800490528
 20
1.1194623853
 11
2.8006280041
 21
1.119610119
  0
LINE
  5
28E
100
AcDbEntity
  8
0
100
AcDbLine
 62
7
  6
CONTINUOUS
 10
2.800490528
 20
1.1402957186
 11
2.8006350585
 21
1.1404471959
  0
LINE
  5
28F
100
AcDbEntity
  8
0
100
AcDbLine
 62
7
  6
CONTINUOUS
 10
2.5637245892
 20
0.9370413594
 11
2.554015528
 21
0.9273322981
  0
LINE
  5
290
100
AcDbEntity
  8
0
100
AcDbLine
 62
9
  6
CONTINUOUS
 10
2.939015528
 20
0.7380822981
 11
3.2090668403
 21
0.9880822981
  0
LINE
  5
291
100
AcDbEntity
  8
0
100
AcDbLine
 62
7
  6
CONTINUOUS
 10
2.8113561797
 20
1.1257412187
 11
2.8021155167
 21
1.1203953869
  0
LINE
  5
292
100
AcDbEntity
  8
0
100
AcDbLine
 62
7
  6
CONTINUOUS
 10
3.0667009065
 20
1.1358575792
 11
3.0760487281
 21
1.141264296
  0
LINE
  5
293
100
AcDbEntity
  8
0
100
AcDbLine
 62
9
  6
CONTINUOUS
 10
2.845265528
 20
10.6012281238
 11
3.032765528
 21
10.6012281238
  0
LINE
  5
294
100
AcDbEntity
  8
0
100
AcDbLine
 62
9
  6
CONTINUOUS
 10
3.0598167981
 20
10.6614797578
 11
2.8182142578
 21
10.6614797578
  0
LINE
  5
295
100
AcDbEntity
  8
0
100
AcDbLine
 62
9
  6
CONTINUOUS
 10
3.066515528
 20
10.6864797578
 11
2.811515528
 21
10.6864797578
  0
LINE
  5
296
100
AcDbEntity
  8
0
100
AcDbLine
 62
7
  6
CONTINUOUS
 10
2.739015528
 20
10.8080822981
 11
3.139015528
 21
10.8080822981
  0
LINE
  5
297
100
AcDbEntity
  8
0
100
AcDbLine
 62
7
  6
CONTINUOUS
 10
3.150265528
 20
10.8380822981
 11
2.727765528
 21
10.8380822981
  0
LINE
  5
298
100
AcDbEntity
  8
0
100
AcDbLine
 62
7
  6
CONTINUOUS
 10
3.150265528
 20
10.9005822981
 11
2.727765528
 21
10.9005822981
  0
LINE
  5
299
100
AcDbEntity
  8
0
100
AcDbLine
 62
9
  6
CONTINUOUS
 10
3.0394642578
 20
10.6262281238
 11
2.8385667981
 21
10.6262281238
  0
ARC
  5
29A
100
AcDbEntity
  8
0
100
AcDbCircle
 62
7
  6
CONTINUOUS
 10
2.394015528
 20
0.4930822981
 40
0.005
100
AcDbArc
 50
180.0
 51
270.0
  0
ARC
  5
29B
100
AcDbEntity
  8
0
100
AcDbCircle
 62
7
  6
CONTINUOUS
 10
2.549015528
 20
0.4930822981
 40
0.005
100
AcDbArc
 50
290.0000428576
 51
0.0000877736
  0
ARC
  5
29C
100
AcDbEntity
  8
0
100
AcDbCircle
 62
7
  6
CONTINUOUS
 10
2.17175331
 20
0.5867179216
 40
0.1247116967
100
AcDbArc
 50
42.0442228694
 51
47.4228554686
  0
ARC
  5
29D
100
AcDbEntity
  8
0
100
AcDbCircle
 62
7
  6
CONTINUOUS
 10
2.1720539466
 20
0.5870499872
 40
0.1242695555
100
AcDbArc
 50
42.0233737141
 51
47.4213276029
  0
ARC
  5
29E
100
AcDbEntity
  8
0
100
AcDbCircle
 62
7
  6
CONTINUOUS
 10
2.2057667373
 20
0.5872565957
 40
0.1239749022
100
AcDbArc
 50
132.1817231663
 51
137.992837951
  0
ARC
  5
29F
100
AcDbEntity
  8
0
100
AcDbCircle
 62
7
  6
CONTINUOUS
 10
2.1727871456
 20
0.5876712655
 40
0.1233089815
100
AcDbArc
 50
36.86674595
 51
42.0369871086
  0
ARC
  5
2A0
100
AcDbEntity
  8
0
100
AcDbCircle
 62
7
  6
CONTINUOUS
 10
2.1730441883
 20
0.5881270664
 40
0.1228006636
100
AcDbArc
 50
47.4215293652
 51
52.7966144513
  0
ARC
  5
2A1
100
AcDbEntity
  8
0
100
AcDbCircle
 62
7
  6
CONTINUOUS
 10
2.2042715338
 20
0.5889120101
 40
0.1217442034
100
AcDbArc
 50
129.2496331489
 51
132.1834224484
  0
ARC
  5
2A2
100
AcDbEntity
  8
0
100
AcDbCircle
 62
7
  6
CONTINUOUS
 10
2.1738905063
 20
0.5890443435
 40
0.1215583934
100
AcDbArc
 50
47.4227244803
 51
52.8529208428
  0
ARC
  5
2A3
100
AcDbEntity
  8
0
100
AcDbCircle
 62
7
  6
CONTINUOUS
 10
2.2034462341
 20
0.589915605
 40
0.1204448555
100
AcDbArc
 50
128.4830517878
 51
129.2476663497
  0
ARC
  5
2A4
100
AcDbEntity
  8
0
100
AcDbCircle
 62
7
  6
CONTINUOUS
 10
2.2028491877
 20
0.5906693736
 40
0.1194832794
100
AcDbArc
 50
127.135152334
 51
128.4838642086
  0
ARC
  5
2A5
100
AcDbEntity
  8
0
100
AcDbCircle
 62
7
  6
CONTINUOUS
 10
2.1763213262
 20
0.5921787568
 40
0.1175921162
100
AcDbArc
 50
52.8747593824
 51
55.083514251
  0
ARC
  5
2A6
100
AcDbEntity
  8
0
100
AcDbCircle
 62
7
  6
CONTINUOUS
 10
2.1780553274
 20
0.5915135186
 40
0.1167891116
100
AcDbArc
 50
31.7867432086
 51
36.9093037823
  0
ARC
  5
2A7
100
AcDbEntity
  8
0
100
AcDbCircle
 62
7
  6
CONTINUOUS
 10
2.2010707405
 20
0.5930661766
 40
0.1164988752
100
AcDbArc
 50
123.5565563718
 51
127.1494842186
  0
ARC
  5
2A8
100
AcDbEntity
  8
0
100
AcDbCircle
 62
7
  6
CONTINUOUS
 10
2.1774925234
 20
0.5938479872
 40
0.1155529967
100
AcDbArc
 50
55.0859584892
 51
56.42174715
  0
ARC
  5
2A9
100
AcDbEntity
  8
0
100
AcDbCircle
 62
7
  6
CONTINUOUS
 10
2.1786222825
 20
0.5955577281
 40
0.1135037163
100
AcDbArc
 50
56.4195372173
 51
58.484644357
  0
ARC
  5
2AA
100
AcDbEntity
  8
0
100
AcDbCircle
 62
7
  6
CONTINUOUS
 10
2.1994038103
 20
0.5955725546
 40
0.1134887967
100
AcDbArc
 50
121.5293481179
 51
123.5546906672
  0
ARC
  5
2AB
100
AcDbEntity
  8
0
100
AcDbCircle
 62
7
  6
CONTINUOUS
 10
2.1981299918
 20
0.5976468362
 40
0.1110546117
100
AcDbArc
 50
119.651657109
 51
121.5288049358
  0
ARC
  5
2AC
100
AcDbEntity
  8
0
100
AcDbCircle
 62
7
  6
CONTINUOUS
 10
2.1839373659
 20
0.5951772934
 40
0.1098593673
100
AcDbArc
 50
29.7460318898
 51
31.7784796962
  0
ARC
  5
2AD
100
AcDbEntity
  8
0
100
AcDbCircle
 62
7
  6
CONTINUOUS
 10
2.1808739669
 20
0.5992751299
 40
0.1091576171
100
AcDbArc
 50
58.4722435988
 51
64.3995001169
  0
ARC
  5
2AE
100
AcDbEntity
  8
0
100
AcDbCircle
 62
7
  6
CONTINUOUS
 10
2.1970604993
 20
0.5995213518
 40
0.10889646
100
AcDbArc
 50
118.0913850092
 51
119.6505675635
  0
ARC
  5
2AF
100
AcDbEntity
  8
0
100
AcDbCircle
 62
7
  6
CONTINUOUS
 10
2.1963068087
 20
0.600927761
 40
0.1073008318
100
AcDbArc
 50
117.0926095543
 51
118.0899671584
  0
ARC
  5
2B0
100
AcDbEntity
  8
0
100
AcDbCircle
 62
7
  6
CONTINUOUS
 10
2.1956043059
 20
0.6023060354
 40
0.1057538526
100
AcDbArc
 50
115.5650612546
 51
117.0938499207
  0
ARC
  5
2B1
100
AcDbEntity
  8
0
100
AcDbCircle
 62
7
  6
CONTINUOUS
 10
2.1840341811
 20
0.6057285901
 40
0.1019722112
100
AcDbArc
 50
64.4340403977
 51
70.4829273912
  0
ARC
  5
2B2
100
AcDbEntity
  8
0
100
AcDbCircle
 62
7
  6
CONTINUOUS
 10
2.1935383296
 20
0.6068222534
 40
0.1007882845
100
AcDbArc
 50
109.4926480396
 51
115.6134958865
  0
ARC
  5
2B3
100
AcDbEntity
  8
0
100
AcDbCircle
 62
7
  6
CONTINUOUS
 10
2.1868201771
 20
0.6135834054
 40
0.093637951
100
AcDbArc
 50
70.4839803421
 51
76.6863702218
  0
ARC
  5
2B4
100
AcDbEntity
  8
0
100
AcDbCircle
 62
7
  6
CONTINUOUS
 10
2.1912009276
 20
0.613581323
 40
0.0936366719
100
AcDbArc
 50
103.3188695161
 51
109.5244507016
  0
ARC
  5
2B5
100
AcDbEntity
  8
0
100
AcDbCircle
 62
7
  6
CONTINUOUS
 10
2.1896784756
 20
0.6176910132
 40
0.0892311231
100
AcDbArc
 50
96.6566056647
 51
102.9756331187
  0
ARC
  5
2B6
100
AcDbEntity
  8
0
100
AcDbCircle
 62
7
  6
CONTINUOUS
 10
2.1890449937
 20
0.6234635461
 40
0.0834240817
100
AcDbArc
 50
90.0202371302
 51
96.6840309617
  0
ARC
  5
2B7
100
AcDbEntity
  8
0
100
AcDbCircle
 62
7
  6
CONTINUOUS
 10
2.208687953
 20
0.6067375252
 40
0.0825019456
100
AcDbArc
 50
18.3352809686
 51
20.6572333078
  0
ARC
  5
2B8
100
AcDbEntity
  8
0
100
AcDbCircle
 62
7
  6
CONTINUOUS
 10
2.1899113483
 20
0.6296977808
 40
0.0772093937
100
AcDbArc
 50
83.4672106999
 51
85.8739673791
  0
ARC
  5
2B9
100
AcDbEntity
  8
0
100
AcDbCircle
 62
7
  6
CONTINUOUS
 10
2.1901507653
 20
0.6330695544
 40
0.0738291329
100
AcDbArc
 50
85.8710147067
 51
88.7854150603
  0
ARC
  5
2BA
100
AcDbEntity
  8
0
100
AcDbCircle
 62
7
  6
CONTINUOUS
 10
2.1902206817
 20
0.6360264731
 40
0.070871397
100
AcDbArc
 50
88.7912545386
 51
90.9743500822
  0
ARC
  5
2BB
100
AcDbEntity
  8
0
100
AcDbCircle
 62
7
  6
CONTINUOUS
 10
2.2328543178
 20
0.6480825905
 40
0.0579926081
100
AcDbArc
 50
334.9885390238
 51
337.039161452
  0
ARC
  5
2BC
100
AcDbEntity
  8
0
100
AcDbCircle
 62
7
  6
CONTINUOUS
 10
2.1451727331
 20
0.6480807109
 40
0.0579881818
100
AcDbArc
 50
202.9467835616
 51
205.0102462706
  0
ARC
  5
2BD
100
AcDbEntity
  8
0
100
AcDbCircle
 62
7
  6
CONTINUOUS
 10
2.1434216993
 20
0.64734633
 40
0.0560893947
100
AcDbArc
 50
198.0349389906
 51
202.9533402292
  0
ARC
  5
2BE
100
AcDbEntity
  8
0
100
AcDbCircle
 62
7
  6
CONTINUOUS
 10
2.2350529477
 20
0.6471804516
 40
0.0556162525
100
AcDbArc
 50
337.0113196975
 51
341.9866003547
  0
ARC
  5
2BF
100
AcDbEntity
  8
0
100
AcDbCircle
 62
7
  6
CONTINUOUS
 10
2.1971888814
 20
0.876943357
 40
0.1092197088
100
AcDbArc
 50
238.4389674114
 51
244.3712494906
  0
ARC
  5
2C0
100
AcDbEntity
  8
0
100
AcDbCircle
 62
7
  6
CONTINUOUS
 10
2.1964189257
 20
0.875371734
 40
0.1074945418
100
AcDbArc
 50
238.3500095969
 51
244.3787677185
  0
ARC
  5
2C1
100
AcDbEntity
  8
0
100
AcDbCircle
 62
7
  6
CONTINUOUS
 10
2.1883489777
 20
0.8584872249
 40
0.089245001
100
AcDbArc
 50
276.6651901613
 51
282.9905866762
  0
ARC
  5
2C2
100
AcDbEntity
  8
0
100
AcDbCircle
 62
7
  6
CONTINUOUS
 10
2.1896802731
 20
0.8584778412
 40
0.0892354861
100
AcDbArc
 50
257.0217739098
 51
263.342496868
  0
ARC
  5
2C3
100
AcDbEntity
  8
0
100
AcDbCircle
 62
7
  6
CONTINUOUS
 10
2.1891022648
 20
0.8536676966
 40
0.0843907675
100
AcDbArc
 50
263.3536661253
 51
269.9411113516
  0
ARC
  5
2C4
100
AcDbEntity
  8
0
100
AcDbCircle
 62
7
  6
CONTINUOUS
 10
2.1889859229
 20
0.8526910511
 40
0.0834140827
100
AcDbArc
 50
270.0203352611
 51
276.6927383963
  0
ARC
  5
2C5
100
AcDbEntity
  8
0
100
AcDbCircle
 62
7
  6
CONTINUOUS
 10
2.2328543178
 20
0.8280820057
 40
0.0579926081
100
AcDbArc
 50
22.960838548
 51
25.0114609762
  0
ARC
  5
2C6
100
AcDbEntity
  8
0
100
AcDbCircle
 62
7
  6
CONTINUOUS
 10
2.1451727331
 20
0.8280838854
 40
0.0579881818
100
AcDbArc
 50
154.9897537294
 51
157.0532164383
  0
ARC
  5
2C7
100
AcDbEntity
  8
0
100
AcDbCircle
 62
7
  6
CONTINUOUS
 10
2.1434139085
 20
0.8288214075
 40
0.0560809958
100
AcDbArc
 50
157.0465108316
 51
162.0000441255
  0
ARC
  5
2C8
100
AcDbEntity
  8
0
100
AcDbCircle
 62
7
  6
CONTINUOUS
 10
2.2350635999
 20
0.8289882009
 40
0.0556048621
100
AcDbArc
 50
17.9784906237
 51
22.9891193757
  0
ARC
  5
2C9
100
AcDbEntity
  8
0
100
AcDbCircle
 62
7
  6
CONTINUOUS
 10
2.394015528
 20
0.9830822981
 40
0.005
100
AcDbArc
 50
90.0
 51
180.0
  0
ARC
  5
2CA
100
AcDbEntity
  8
0
100
AcDbCircle
 62
7
  6
CONTINUOUS
 10
2.549015528
 20
0.9830822981
 40
0.005
100
AcDbArc
 50
0.0
 51
90.0
  0
ARC
  5
2CB
100
AcDbEntity
  8
0
100
AcDbCircle
 62
7
  6
CONTINUOUS
 10
2.8696353596
 20
0.0653238793
 40
1.0570841605
100
AcDbArc
 50
92.3139859666
 51
92.7424716288
  0
ARC
  5
2CC
100
AcDbEntity
  8
0
100
AcDbCircle
 62
7
  6
CONTINUOUS
 10
3.5355681304
 20
0.6003790917
 40
0.9739348657
100
AcDbArc
 50
181.9448804878
 51
182.4355944495
  0
ARC
  5
2CD
100
AcDbEntity
  8
0
100
AcDbCircle
 62
7
  6
CONTINUOUS
 10
3.016515528
 20
10.6864797578
 40
0.05
100
AcDbArc
 50
329.9999997384
 51
360.0
  0
ARC
  5
2CE
100
AcDbEntity
  8
0
100
AcDbCircle
 62
7
  6
CONTINUOUS
 10
2.861515528
 20
10.6864797578
 40
0.05
100
AcDbArc
 50
180.0
 51
210.000000283
  0
ARC
  5
2CF
100
AcDbEntity
  8
0
100
AcDbCircle
 62
7
  6
CONTINUOUS
 10
2.795265528
 20
10.6012281238
 40
0.05
100
AcDbArc
 50
0.0
 51
30.000000539
  0
ARC
  5
2D0
100
AcDbEntity
  8
0
100
AcDbCircle
 62
7
  6
CONTINUOUS
 10
3.082765528
 20
10.6012281238
 40
0.05
100
AcDbArc
 50
149.9999994537
 51
180.0
  0
ARC
  5
2D1
100
AcDbEntity
  8
0
100
AcDbCircle
 62
7
  6
CONTINUOUS
 10
4.8349271845
 20
0.6449822523
 40
2.2740592039
100
AcDbArc
 50
181.4102850894
 51
181.9569680738
  0
ARC
  5
2D2
100
AcDbEntity
  8
0
100
AcDbCircle
 62
7
  6
CONTINUOUS
 10
4.1714380007
 20
1.8327405449
 40
1.5
100
AcDbArc
 50
326.4423050822
 51
340.0877073885
  0
ARC
  5
2D3
100
AcDbEntity
  8
0
100
AcDbCircle
 62
7
  6
CONTINUOUS
 10
4.1714380007
 20
-0.3565759487
 40
1.5
100
AcDbArc
 50
19.9122926115
 51
33.5576949178
  0
ARC
  5
2D4
100
AcDbEntity
  8
0
100
AcDbCircle
 62
7
  6
CONTINUOUS
 10
5.6405240602
 20
1.3005822981
 40
0.0625
100
AcDbArc
 50
90.0
 51
160.0877073885
  0
ARC
  5
2D5
100
AcDbEntity
  8
0
100
AcDbCircle
 62
7
  6
CONTINUOUS
 10
5.6405240602
 20
0.1755822981
 40
0.0625
100
AcDbArc
 50
199.9122926115
 51
270.0
  0
ARC
  5
2D6
100
AcDbEntity
  8
0
100
AcDbCircle
 62
7
  6
CONTINUOUS
 10
5.473515528
 20
0.5071371767
 40
0.0625
100
AcDbArc
 50
180.0
 51
213.5576949178
  0
ARC
  5
2D7
100
AcDbEntity
  8
0
100
AcDbCircle
 62
7
  6
CONTINUOUS
 10
5.473515528
 20
0.9690274195
 40
0.0625
100
AcDbArc
 50
146.4423050822
 51
180.0
  0
SPLINE
  5
2D8
100
AcDbEntity
  8
0
100
AcDbSpline
 62
7
  6
CONTINUOUS
 70
0
 71
3
 72
21
 73
17
 74
0
 42
0.0000001
 43
0.0000001
 44
0.0000000001
 40
0.0
 40
0.0
 40
0.0
 40
0.0
 40
0.0516261907
 40
0.1052613904
 40
0.1621403015
 40
0.2230486728
 40
0.3562168354
 40
0.4274213571
 40
0.5000002016
 40
0.5725790494
 40
0.6437835525
 40
0.7769516667
 40
0.8378600545
 40
0.8947389185
 40
0.9483739203
 40
1.0
 40
1.0
 40
1.0
 40
1.0
 10
2.092765528
 20
1.1607023436
 30
0.0
 10
2.092765528
 20
1.1651652634
 30
0.0
 10
2.0940757525
 20
1.174308069
 30
0.0
 10
2.0997291203
 20
1.1872943431
 30
0.0
 10
2.108843127
 20
1.1991480668
 30
0.0
 10
2.1254741005
 20
1.2132718834
 30
0.0
 10
2.1468301639
 20
1.222919519
 30
0.0
 10
2.1702896748
 20
1.2279028348
 30
0.0
 10
2.1890155817
 20
1.2291901654
 30
0.0
 10
2.2077414866
 20
1.2279028228
 30
0.0
 10
2.2312009863
 20
1.2229194812
 30
0.0
 10
2.2525570392
 20
1.2132718346
 30
0.0
 10
2.2691879907
 20
1.1991479983
 30
0.0
 10
2.2783019594
 20
1.1872942753
 30
0.0
 10
2.2839553391
 20
1.1743080382
 30
0.0
 10
2.285265528
 20
1.1651652538
 30
0.0
 10
2.285265528
 20
1.1607023436
 30
0.0
  0
SPLINE
  5
2D9
100
AcDbEntity
  8
0
100
AcDbSpline
 62
7
  6
CONTINUOUS
 70
0
 71
3
 72
21
 73
17
 74
0
 42
0.0000001
 43
0.0000001
 44
0.0000000001
 40
0.0
 40
0.0
 40
0.0
 40
0.0
 40
0.0516261907
 40
0.1052613904
 40
0.1621403015
 40
0.2230486728
 40
0.3562168354
 40
0.4274213571
 40
0.5000002016
 40
0.5725790494
 40
0.6437835525
 40
0.7769516667
 40
0.8378600545
 40
0.8947389185
 40
0.9483739203
 40
1.0
 40
1.0
 40
1.0
 40
1.0
 10
2.285265528
 20
0.3154622527
 30
0.0
 10
2.285265528
 20
0.3109993329
 30
0.0
 10
2.2839553034
 20
0.3018565273
 30
0.0
 10
2.2783019356
 20
0.2888702532
 30
0.0
 10
2.2691879289
 20
0.2770165295
 30
0.0
 10
2.2525569554
 20
0.2628927128
 30
0.0
 10
2.231200892
 20
0.2532450772
 30
0.0
 10
2.2077413811
 20
0.2482617615
 30
0.0
 10
2.1890154742
 20
0.2469744309
 30
0.0
 10
2.1702895693
 20
0.2482617735
 30
0.0
 10
2.1468300696
 20
0.2532451151
 30
0.0
 10
2.1254740167
 20
0.2628927617
 30
0.0
 10
2.1088430652
 20
0.277016598
 30
0.0
 10
2.0997290965
 20
0.288870321
 30
0.0
 10
2.0940757168
 20
0.3018565581
 30
0.0
 10
2.092765528
 20
0.3109993425
 30
0.0
 10
2.092765528
 20
0.3154622527
 30
0.0
  0
LINE
  5
2DA
100
AcDbEntity
  8
0
100
AcDbLine
 62
7
  6
CONTINUOUS
 10
2.5628319405
 20
0.5524537631
 11
2.5625130956
 21
0.5589904236
  0
SPLINE
  5
2DB
100
AcDbEntity
  8
0
100
AcDbSpline
 62
7
  6
CONTINUOUS
 70
0
 71
3
 72
10
 73
6
 74
0
 42
0.0000001
 43
0.0000001
 44
0.0000000001
 40
0.0
 40
0.0
 40
0.0
 40
0.0
 40
0.2057511915
 40
0.4474697983
 40
1.0
 40
1.0
 40
1.0
 40
1.0
 10
2.5615568207
 20
0.5890139421
 30
0.0
 10
2.5613204349
 20
0.5982216687
 30
0.0
 10
2.5608701951
 20
0.6182483514
 30
0.0
 10
2.5600059476
 20
0.6630065258
 30
0.0
 10
2.5594146675
 20
0.6985573946
 30
0.0
 10
2.5590077416
 20
0.7232888896
 30
0.0
  0
LINE
  5
2DC
100
AcDbEntity
  8
0
100
AcDbLine
 62
7
  6
CONTINUOUS
 10
2.5590077416
 20
0.7232888896
 11
2.5587666926
 21
0.7379958847
  0
SPLINE
  5
2DD
100
AcDbEntity
  8
0
100
AcDbSpline
 62
7
  6
CONTINUOUS
 70
0
 71
3
 72
21
 73
17
 74
0
 42
0.0000001
 43
0.0000001
 44
0.0000000001
 40
0.0
 40
0.0
 40
0.0
 40
0.0
 40
0.0516261907
 40
0.1052613904
 40
0.1621403015
 40
0.2230486728
 40
0.3562168354
 40
0.4274213571
 40
0.5000002016
 40
0.5725790494
 40
0.6437835525
 40
0.7769516667
 40
0.8378600545
 40
0.8947389185
 40
0.9483739203
 40
1.0
 40
1.0
 40
1.0
 40
1.0
 10
2.092765528
 20
0.3154622527
 30
0.0
 10
2.092765528
 20
0.3199251725
 30
0.0
 10
2.0940757525
 20
0.3290679781
 30
0.0
 10
2.0997291203
 20
0.3420542522
 30
0.0
 10
2.108843127
 20
0.3539079759
 30
0.0
 10
2.1254741005
 20
0.3680317925
 30
0.0
 10
2.1468301639
 20
0.3776794281
 30
0.0
 10
2.1702896748
 20
0.3826627439
 30
0.0
 10
2.1890155817
 20
0.3839500745
 30
0.0
 10
2.2077414866
 20
0.3826627319
 30
0.0
 10
2.2312009863
 20
0.3776793903
 30
0.0
 10
2.2525570392
 20
0.3680317437
 30
0.0
 10
2.2691879907
 20
0.3539079074
 30
0.0
 10
2.2783019594
 20
0.3420541844
 30
0.0
 10
2.2839553391
 20
0.3290679473
 30
0.0
 10
2.285265528
 20
0.3199251629
 30
0.0
 10
2.285265528
 20
0.3154622527
 30
0.0
  0
SPLINE
  5
2DE
100
AcDbEntity
  8
0
100
AcDbSpline
 62
7
  6
CONTINUOUS
 70
0
 71
3
 72
11
 73
7
 74
0
 42
0.0000001
 43
0.0000001
 44
0.0000000001
 40
0.0
 40
0.0
 40
0.0
 40
0.0
 40
0.2350844917
 40
0.4736366848
 40
0.7237759525
 40
1.0
 40
1.0
 40
1.0
 40
1.0
 10
4.316015528
 20
0.5957104259
 30
0.0
 10
4.316015528
 20
0.5953382855
 30
0.0
 10
4.3160937658
 20
0.5945849851
 30
0.0
 10
4.3164893851
 20
0.5934971744
 30
0.0
 10
4.3172338467
 20
0.5925073922
 30
0.0
 10
4.3180782633
 20
0.5921679397
 30
0.0
 10
4.318515528
 20
0.5921679397
 30
0.0
  0
SPLINE
  5
2DF
100
AcDbEntity
  8
0
100
AcDbSpline
 62
7
  6
CONTINUOUS
 70
0
 71
3
 72
11
 73
7
 74
0
 42
0.0000001
 43
0.0000001
 44
0.0000000001
 40
0.0
 40
0.0
 40
0.0
 40
0.0
 40
0.2762241922
 40
0.5263634439
 40
0.7649154267
 40
1.0
 40
1.0
 40
1.0
 40
1.0
 10
4.318515528
 20
0.8839966566
 30
0.0
 10
4.318078262
 20
0.8839966566
 30
0.0
 10
4.3172338252
 20
0.8836572384
 30
0.0
 10
4.316489394
 20
0.88266742
 30
0.0
 10
4.3160937639
 20
0.8815796159
 30
0.0
 10
4.316015528
 20
0.8808263118
 30
0.0
 10
4.316015528
 20
0.8804541704
 30
0.0
  0
SPLINE
  5
2E0
100
AcDbEntity
  8
0
100
AcDbSpline
 62
7
  6
CONTINUOUS
 70
0
 71
3
 72
21
 73
17
 74
0
 42
0.0000001
 43
0.0000001
 44
0.0000000001
 40
0.0
 40
0.0
 40
0.0
 40
0.0
 40
0.0516261907
 40
0.1052613904
 40
0.1621403015
 40
0.2230486728
 40
0.3562168354
 40
0.4274213571
 40
0.5000002016
 40
0.5725790494
 40
0.6437835525
 40
0.7769516667
 40
0.8378600545
 40
0.8947389185
 40
0.9483739203
 40
1.0
 40
1.0
 40
1.0
 40
1.0
 10
2.285265528
 20
1.1607023436
 30
0.0
 10
2.285265528
 20
1.1562394238
 30
0.0
 10
2.2839553034
 20
1.1470966182
 30
0.0
 10
2.2783019356
 20
1.1341103441
 30
0.0
 10
2.2691879289
 20
1.1222566204
 30
0.0
 10
2.2525569554
 20
1.1081328037
 30
0.0
 10
2.231200892
 20
1.0984851681
 30
0.0
 10
2.2077413811
 20
1.0935018523
 30
0.0
 10
2.1890154742
 20
1.0922145217
 30
0.0
 10
2.1702895693
 20
1.0935018644
 30
0.0
 10
2.1468300696
 20
1.098485206
 30
0.0
 10
2.1254740167
 20
1.1081328526
 30
0.0
 10
2.1088430652
 20
1.1222566889
 30
0.0
 10
2.0997290965
 20
1.1341104119
 30
0.0
 10
2.0940757168
 20
1.147096649
 30
0.0
 10
2.092765528
 20
1.1562394334
 30
0.0
 10
2.092765528
 20
1.1607023436
 30
0.0
  0
SPLINE
  5
2E1
100
AcDbEntity
  8
0
100
AcDbSpline
 62
7
  6
CONTINUOUS
 70
0
 71
3
 72
9
 73
5
 74
0
 42
0.0000001
 43
0.0000001
 44
0.0000000001
 40
0.0
 40
0.0
 40
0.0
 40
0.0
 40
0.4724863535
 40
1.0
 40
1.0
 40
1.0
 40
1.0
 10
2.5640162047
 20
0.612263254
 30
0.0
 10
2.563184775
 20
0.6298445238
 30
0.0
 10
2.5616092358
 20
0.6670632559
 30
0.0
 10
2.5601826228
 20
0.7042875755
 30
0.0
 10
2.5594219992
 20
0.7239236276
 30
0.0
  0
LINE
  5
2E2
100
AcDbEntity
  8
0
100
AcDbLine
 62
7
  6
CONTINUOUS
 10
2.5594219992
 20
0.7239236276
 11
2.5588781661
 21
0.7378897887
  0
LINE
  5
2E3
100
AcDbEntity
  8
0
100
AcDbLine
 62
7
  6
CONTINUOUS
 10
2.5588781661
 20
0.7378897887
 11
2.5586905278
 21
0.7426619896
  0
SPLINE
  5
2E4
100
AcDbEntity
  8
0
100
AcDbSpline
 62
7
  6
CONTINUOUS
 70
0
 71
3
 72
9
 73
5
 74
0
 42
0.0000001
 43
0.0000001
 44
0.0000000001
 40
0.0
 40
0.0
 40
0.0
 40
0.0
 40
0.2559679664
 40
1.0
 40
1.0
 40
1.0
 40
1.0
 10
2.2900030187
 20
0.8562326935
 30
0.0
 10
2.2900872973
 20
0.8568568749
 30
0.0
 10
2.2903788598
 20
0.859300211
 30
0.0
 10
2.290515528
 20
0.8617629556
 30
0.0
 10
2.290515528
 20
0.8635937518
 30
0.0
  0
SPLINE
  5
2E5
100
AcDbEntity
  8
0
100
AcDbSpline
 62
7
  6
CONTINUOUS
 70
0
 71
3
 72
9
 73
5
 74
0
 42
0.0000001
 43
0.0000001
 44
0.0000000001
 40
0.0
 40
0.0
 40
0.0
 40
0.0
 40
0.2441641867
 40
1.0
 40
1.0
 40
1.0
 40
1.0
 10
2.087515528
 20
0.8635937518
 30
0.0
 10
2.087515528
 20
0.862992382
 30
0.0
 10
2.0875605614
 20
0.8605295046
 30
0.0
 10
2.0877796596
 20
0.8580707153
 30
0.0
 10
2.0880289685
 20
0.8562258816
 30
0.0
  0
SPLINE
  5
2E6
100
AcDbEntity
  8
0
100
AcDbSpline
 62
7
  6
CONTINUOUS
 70
0
 71
3
 72
9
 73
5
 74
0
 42
0.0000001
 43
0.0000001
 44
0.0000000001
 40
0.0
 40
0.0
 40
0.0
 40
0.0
 40
0.2466601502
 40
1.0
 40
1.0
 40
1.0
 40
1.0
 10
2.1135940116
 20
0.8060049896
 30
0.0
 10
2.1154937989
 20
0.8038948516
 30
0.0
 10
2.1234845367
 20
0.7956067256
 30
0.0
 10
2.132629649
 20
0.7884124419
 30
0.0
 10
2.14001344
 20
0.7838649163
 30
0.0
  0
SPLINE
  5
2E7
100
AcDbEntity
  8
0
100
AcDbSpline
 62
7
  6
CONTINUOUS
 70
0
 71
3
 72
9
 73
5
 74
0
 42
0.0000001
 43
0.0000001
 44
0.0000000001
 40
0.0
 40
0.0
 40
0.0
 40
0.0
 40
0.4990260032
 40
1.0
 40
1.0
 40
1.0
 40
1.0
 10
2.1499361452
 20
0.7784468785
 30
0.0
 10
2.1530751997
 20
0.7769460964
 30
0.0
 10
2.15952475
 20
0.7742585393
 30
0.0
 10
2.1662356382
 20
0.7723048189
 30
0.0
 10
2.1696397006
 20
0.7715218326
 30
0.0
  0
SPLINE
  5
2E8
100
AcDbEntity
  8
0
100
AcDbSpline
 62
7
  6
CONTINUOUS
 70
0
 71
3
 72
9
 73
5
 74
0
 42
0.0000001
 43
0.0000001
 44
0.0000000001
 40
0.0
 40
0.0
 40
0.0
 40
0.0
 40
0.5014039097
 40
1.0
 40
1.0
 40
1.0
 40
1.0
 10
2.169642818
 20
0.7046436771
 30
0.0
 10
2.1644036064
 20
0.7034388186
 30
0.0
 10
2.1541505062
 20
0.7000978153
 30
0.0
 10
2.1446007838
 20
0.6951223669
 30
0.0
 10
2.1400479313
 20
0.6923206215
 30
0.0
  0
SPLINE
  5
2E9
100
AcDbEntity
  8
0
100
AcDbSpline
 62
7
  6
CONTINUOUS
 70
0
 71
3
 72
9
 73
5
 74
0
 42
0.0000001
 43
0.0000001
 44
0.0000000001
 40
0.0
 40
0.0
 40
0.0
 40
0.0
 40
0.2533432357
 40
1.0
 40
1.0
 40
1.0
 40
1.0
 10
2.1400479313
 20
0.6923206215
 30
0.0
 10
2.1375670006
 20
0.6907939003
 30
0.0
 10
2.1280129934
 20
0.6843854843
 30
0.0
 10
2.1193968356
 20
0.6765979899
 30
0.0
 10
2.11364832
 20
0.6702211839
 30
0.0
  0
SPLINE
  5
2EA
100
AcDbEntity
  8
0
100
AcDbSpline
 62
7
  6
CONTINUOUS
 70
0
 71
3
 72
9
 73
5
 74
0
 42
0.0000001
 43
0.0000001
 44
0.0000000001
 40
0.0
 40
0.0
 40
0.0
 40
0.0
 40
0.2139878117
 40
1.0
 40
1.0
 40
1.0
 40
1.0
 10
2.0921390901
 20
0.6358253631
 30
0.0
 10
2.0917264674
 20
0.6347289788
 30
0.0
 10
2.0899032028
 20
0.6295647649
 30
0.0
 10
2.0886043556
 20
0.6242149417
 30
0.0
 10
2.0880289872
 20
0.6199553241
 30
0.0
  0
SPLINE
  5
2EB
100
AcDbEntity
  8
0
100
AcDbSpline
 62
7
  6
CONTINUOUS
 70
0
 71
3
 72
9
 73
5
 74
0
 42
0.0000001
 43
0.0000001
 44
0.0000000001
 40
0.0
 40
0.0
 40
0.0
 40
0.0
 40
0.255616594
 40
1.0
 40
1.0
 40
1.0
 40
1.0
 10
2.0880289872
 20
0.6199553241
 30
0.0
 10
2.0879445248
 20
0.6193300241
 30
0.0
 10
2.0876520381
 20
0.6168789198
 30
0.0
 10
2.0875155336
 20
0.6144083231
 30
0.0
 10
2.087515528
 20
0.6125708445
 30
0.0
  0
SPLINE
  5
2EC
100
AcDbEntity
  8
0
100
AcDbSpline
 62
7
  6
CONTINUOUS
 70
0
 71
3
 72
9
 73
5
 74
0
 42
0.0000001
 43
0.0000001
 44
0.0000000001
 40
0.0
 40
0.0
 40
0.0
 40
0.0
 40
0.5150296832
 40
1.0
 40
1.0
 40
1.0
 40
1.0
 10
2.290515528
 20
0.8635937518
 30
0.0
 10
2.2905723259
 20
0.8672659094
 30
0.0
 10
2.2897840779
 20
0.8744493998
 30
0.0
 10
2.2870738327
 20
0.8811554425
 30
0.0
 10
2.2853432128
 20
0.8841495091
 30
0.0
  0
SPLINE
  5
2ED
100
AcDbEntity
  8
0
100
AcDbSpline
 62
7
  6
CONTINUOUS
 70
0
 71
3
 72
9
 73
5
 74
0
 42
0.0000001
 43
0.0000001
 44
0.0000000001
 40
0.0
 40
0.0
 40
0.0
 40
0.0
 40
0.4849814945
 40
1.0
 40
1.0
 40
1.0
 40
1.0
 10
2.092687265
 20
0.8841482307
 30
0.0
 10
2.090956619
 20
0.8811543022
 30
0.0
 10
2.0882456155
 20
0.8744490399
 30
0.0
 10
2.0874576439
 20
0.8672656149
 30
0.0
 10
2.087515528
 20
0.8635937518
 30
0.0
  0
SPLINE
  5
2EE
100
AcDbEntity
  8
0
100
AcDbSpline
 62
7
  6
CONTINUOUS
 70
0
 71
3
 72
9
 73
5
 74
0
 42
0.0000001
 43
0.0000001
 44
0.0000000001
 40
0.0
 40
0.0
 40
0.0
 40
0.0
 40
0.7495428281
 40
1.0
 40
1.0
 40
1.0
 40
1.0
 10
2.189015528
 20
0.7692769737
 30
0.0
 10
2.1914431626
 20
0.7692361599
 30
0.0
 10
2.1946877745
 20
0.7693508152
 30
0.0
 10
2.1979113603
 20
0.7696703072
 30
0.0
 10
2.1987173779
 20
0.7697627413
 30
0.0
  0
SPLINE
  5
2EF
100
AcDbEntity
  8
0
100
AcDbSpline
 62
7
  6
CONTINUOUS
 70
0
 71
3
 72
9
 73
5
 74
0
 42
0.0000001
 43
0.0000001
 44
0.0000000001
 40
0.0
 40
0.0
 40
0.0
 40
0.0
 40
0.7496588918
 40
1.0
 40
1.0
 40
1.0
 40
1.0
 10
2.1987173779
 20
0.7697627413
 30
0.0
 10
2.2011647934
 20
0.7700434109
 30
0.0
 10
2.2044143735
 20
0.7705709019
 30
0.0
 10
2.207622845
 20
0.7712813572
 30
0.0
 10
2.208423492
 20
0.7714703334
 30
0.0
  0
SPLINE
  5
2F0
100
AcDbEntity
  8
0
100
AcDbSpline
 62
7
  6
CONTINUOUS
 70
0
 71
3
 72
11
 73
7
 74
0
 42
0.0000001
 43
0.0000001
 44
0.0000000001
 40
0.0
 40
0.0
 40
0.0
 40
0.0
 40
0.2536128528
 40
0.5053106529
 40
0.7547091825
 40
1.0
 40
1.0
 40
1.0
 40
1.0
 10
2.208423492
 20
0.7714703334
 30
0.0
 10
2.2139163662
 20
0.7727668124
 30
0.0
 10
2.2246358797
 20
0.7763889274
 30
0.0
 10
2.2395075133
 20
0.7843277734
 30
0.0
 10
2.2528966281
 20
0.7942473201
 30
0.0
 10
2.2608065218
 20
0.8019573568
 30
0.0
 10
2.2644566623
 20
0.8060160368
 30
0.0
  0
SPLINE
  5
2F1
100
AcDbEntity
  8
0
100
AcDbSpline
 62
7
  6
CONTINUOUS
 70
0
 71
3
 72
11
 73
7
 74
0
 42
0.0000001
 43
0.0000001
 44
0.0000000001
 40
0.0
 40
0.0
 40
0.0
 40
0.0
 40
0.2705050568
 40
0.5297842394
 40
0.7741813464
 40
1.0
 40
1.0
 40
1.0
 40
1.0
 10
2.2644566623
 20
0.8060160368
 30
0.0
 10
2.2678995649
 20
0.8098442838
 30
0.0
 10
2.2741852469
 20
0.8177690308
 30
0.0
 10
2.2818203157
 20
0.8304217968
 30
0.0
 10
2.2873104141
 20
0.8432226184
 30
0.0
 10
2.2894906048
 20
0.8519680373
 30
0.0
 10
2.2900599021
 20
0.8562283179
 30
0.0
  0
SPLINE
  5
2F2
100
AcDbEntity
  8
0
100
AcDbSpline
 62
7
  6
CONTINUOUS
 70
0
 71
3
 72
9
 73
5
 74
0
 42
0.0000001
 43
0.0000001
 44
0.0000000001
 40
0.0
 40
0.0
 40
0.0
 40
0.0
 40
0.2560040916
 40
1.0
 40
1.0
 40
1.0
 40
1.0
 10
2.2900599021
 20
0.8562283179
 30
0.0
 10
2.2901433526
 20
0.8568528117
 30
0.0
 10
2.2904286256
 20
0.8592972869
 30
0.0
 10
2.2905443889
 20
0.861762951
 30
0.0
 10
2.290515528
 20
0.8635937518
 30
0.0
  0
SPLINE
  5
2F3
100
AcDbEntity
  8
0
100
AcDbSpline
 62
7
  6
CONTINUOUS
 70
0
 71
3
 72
9
 73
5
 74
0
 42
0.0000001
 43
0.0000001
 44
0.0000000001
 40
0.0
 40
0.0
 40
0.0
 40
0.0
 40
0.2442135942
 40
1.0
 40
1.0
 40
1.0
 40
1.0
 10
2.087515528
 20
0.8635937518
 30
0.0
 10
2.087506224
 20
0.8629922219
 30
0.0
 10
2.0875189488
 20
0.8605283993
 30
0.0
 10
2.0877262541
 20
0.8580669634
 30
0.0
 10
2.0879731188
 20
0.8562215792
 30
0.0
  0
SPLINE
  5
2F4
100
AcDbEntity
  8
0
100
AcDbSpline
 62
7
  6
CONTINUOUS
 70
0
 71
3
 72
11
 73
7
 74
0
 42
0.0000001
 43
0.0000001
 44
0.0000000001
 40
0.0
 40
0.0
 40
0.0
 40
0.0
 40
0.22581814
 40
0.470212821
 40
0.7294940685
 40
1.0
 40
1.0
 40
1.0
 40
1.0
 10
2.0879731188
 20
0.8562215792
 30
0.0
 10
2.0885431623
 20
0.8519603416
 30
0.0
 10
2.0907237798
 20
0.8432128667
 30
0.0
 10
2.0962164973
 20
0.8304093278
 30
0.0
 10
2.1038556376
 20
0.8177547614
 30
0.0
 10
2.1101441281
 20
0.8098290024
 30
0.0
 10
2.1135885044
 20
0.8060003553
 30
0.0
  0
SPLINE
  5
2F5
100
AcDbEntity
  8
0
100
AcDbSpline
 62
7
  6
CONTINUOUS
 70
0
 71
3
 72
9
 73
5
 74
0
 42
0.0000001
 43
0.0000001
 44
0.0000000001
 40
0.0
 40
0.0
 40
0.0
 40
0.0
 40
0.2468048267
 40
1.0
 40
1.0
 40
1.0
 40
1.0
 10
2.1135885044
 20
0.8060003553
 30
0.0
 10
2.1154886221
 20
0.8038882515
 30
0.0
 10
2.1234775893
 20
0.7955980889
 30
0.0
 10
2.1326335368
 20
0.7884150004
 30
0.0
 10
2.140022574
 20
0.7838790884
 30
0.0
  0
SPLINE
  5
2F6
100
AcDbEntity
  8
0
100
AcDbSpline
 62
7
  6
CONTINUOUS
 70
0
 71
3
 72
9
 73
5
 74
0
 42
0.0000001
 43
0.0000001
 44
0.0000000001
 40
0.0
 40
0.0
 40
0.0
 40
0.0
 40
0.2492600376
 40
1.0
 40
1.0
 40
1.0
 40
1.0
 10
2.1499471823
 20
0.7784691641
 30
0.0
 10
2.1515143067
 20
0.777719095
 30
0.0
 10
2.1578745961
 20
0.7748670197
 30
0.0
 10
2.1645334574
 20
0.7726663007
 30
0.0
 10
2.1696264088
 20
0.7714647712
 30
0.0
  0
SPLINE
  5
2F7
100
AcDbEntity
  8
0
100
AcDbSpline
 62
7
  6
CONTINUOUS
 70
0
 71
3
 72
9
 73
5
 74
0
 42
0.0000001
 43
0.0000001
 44
0.0000000001
 40
0.0
 40
0.0
 40
0.0
 40
0.0
 40
0.2503442399
 40
1.0
 40
1.0
 40
1.0
 40
1.0
 10
2.1696264088
 20
0.7714647712
 30
0.0
 10
2.1704264216
 20
0.7712760322
 30
0.0
 10
2.1736323047
 20
0.7705664934
 30
0.0
 10
2.1768792603
 20
0.7700398148
 30
0.0
 10
2.1793246843
 20
0.7697597962
 30
0.0
  0
SPLINE
  5
2F8
100
AcDbEntity
  8
0
100
AcDbSpline
 62
7
  6
CONTINUOUS
 70
0
 71
3
 72
9
 73
5
 74
0
 42
0.0000001
 43
0.0000001
 44
0.0000000001
 40
0.0
 40
0.0
 40
0.0
 40
0.0
 40
0.2504568199
 40
1.0
 40
1.0
 40
1.0
 40
1.0
 10
2.1793246843
 20
0.7697597962
 30
0.0
 10
2.180129793
 20
0.7696676054
 30
0.0
 10
2.1833497434
 20
0.7693490706
 30
0.0
 10
2.1865906878
 20
0.7692353712
 30
0.0
 10
2.189015528
 20
0.7692769737
 30
0.0
  0
SPLINE
  5
2F9
100
AcDbEntity
  8
0
100
AcDbSpline
 62
7
  6
CONTINUOUS
 70
0
 71
3
 72
9
 73
5
 74
0
 42
0.0000001
 43
0.0000001
 44
0.0000000001
 40
0.0
 40
0.0
 40
0.0
 40
0.0
 40
0.4836080086
 40
1.0
 40
1.0
 40
1.0
 40
1.0
 10
2.285342735
 20
0.592005465
 30
0.0
 10
2.2870609417
 20
0.5949955709
 30
0.0
 10
2.2897219961
 20
0.6017238167
 30
0.0
 10
2.2905157883
 20
0.6088921173
 30
0.0
 10
2.2905155278
 20
0.6125745187
 30
0.0
  0
SPLINE
  5
2FA
100
AcDbEntity
  8
0
100
AcDbSpline
 62
7
  6
CONTINUOUS
 70
0
 71
3
 72
9
 73
5
 74
0
 42
0.0000001
 43
0.0000001
 44
0.0000000001
 40
0.0
 40
0.0
 40
0.0
 40
0.0
 40
0.2445440807
 40
1.0
 40
1.0
 40
1.0
 40
1.0
 10
2.2905155278
 20
0.6125745187
 30
0.0
 10
2.290515485
 20
0.6131791574
 30
0.0
 10
2.2904702704
 20
0.6156515695
 30
0.0
 10
2.2902505083
 20
0.6181199175
 30
0.0
 10
2.2900000154
 20
0.6199709204
 30
0.0
  0
SPLINE
  5
2FB
100
AcDbEntity
  8
0
100
AcDbSpline
 62
7
  6
CONTINUOUS
 70
0
 71
3
 72
9
 73
5
 74
0
 42
0.0000001
 43
0.0000001
 44
0.0000000001
 40
0.0
 40
0.0
 40
0.0
 40
0.0
 40
0.2418193877
 40
1.0
 40
1.0
 40
1.0
 40
1.0
 10
2.2900000154
 20
0.6199709204
 30
0.0
 10
2.2898586317
 20
0.6210156672
 30
0.0
 10
2.2891621248
 20
0.6253206207
 30
0.0
 10
2.2880409691
 20
0.6295529858
 30
0.0
 10
2.2870014358
 20
0.6326907416
 30
0.0
  0
SPLINE
  5
2FC
100
AcDbEntity
  8
0
100
AcDbSpline
 62
7
  6
CONTINUOUS
 70
0
 71
3
 72
9
 73
5
 74
0
 42
0.0000001
 43
0.0000001
 44
0.0000000001
 40
0.0
 40
0.0
 40
0.0
 40
0.0
 40
0.2434028124
 40
1.0
 40
1.0
 40
1.0
 40
1.0
 10
2.2858856514
 20
0.6358422738
 30
0.0
 10
2.2854472024
 20
0.6370061714
 30
0.0
 10
2.2835410926
 20
0.6417481832
 30
0.0
 10
2.2812388741
 20
0.6463279473
 30
0.0
 10
2.2793209136
 20
0.6496847187
 30
0.0
  0
SPLINE
  5
2FD
100
AcDbEntity
  8
0
100
AcDbSpline
 62
7
  6
CONTINUOUS
 70
0
 71
3
 72
9
 73
5
 74
0
 42
0.0000001
 43
0.0000001
 44
0.0000000001
 40
0.0
 40
0.0
 40
0.0
 40
0.0
 40
0.2503449282
 40
1.0
 40
1.0
 40
1.0
 40
1.0
 10
2.2083832401
 20
0.7047047541
 30
0.0
 10
2.207584082
 20
0.7048930713
 30
0.0
 10
2.2043816546
 20
0.7056010132
 30
0.0
 10
2.2011382895
 20
0.7061264753
 30
0.0
 10
2.1986955998
 20
0.7064058468
 30
0.0
  0
SPLINE
  5
2FE
100
AcDbEntity
  8
0
100
AcDbSpline
 62
7
  6
CONTINUOUS
 70
0
 71
3
 72
9
 73
5
 74
0
 42
0.0000001
 43
0.0000001
 44
0.0000000001
 40
0.0
 40
0.0
 40
0.0
 40
0.0
 40
0.7495451934
 40
1.0
 40
1.0
 40
1.0
 40
1.0
 10
2.189015528
 20
0.7068876226
 30
0.0
 10
2.1865907286
 20
0.7069283523
 30
0.0
 10
2.183349929
 20
0.7068140069
 30
0.0
 10
2.1801300789
 20
0.7064952942
 30
0.0
 10
2.1793249999
 20
0.7064030841
 30
0.0
  0
SPLINE
  5
2FF
100
AcDbEntity
  8
0
100
AcDbSpline
 62
7
  6
CONTINUOUS
 70
0
 71
3
 72
9
 73
5
 74
0
 42
0.0000001
 43
0.0000001
 44
0.0000000001
 40
0.0
 40
0.0
 40
0.0
 40
0.0
 40
0.7496578877
 40
1.0
 40
1.0
 40
1.0
 40
1.0
 10
2.1793249999
 20
0.7064030841
 30
0.0
 10
2.1768803955
 20
0.7061230899
 30
0.0
 10
2.1736345074
 20
0.7055968393
 30
0.0
 10
2.170429594
 20
0.7048880033
 30
0.0
 10
2.1696298263
 20
0.7046994546
 30
0.0
  0
SPLINE
  5
300
100
AcDbEntity
  8
0
100
AcDbSpline
 62
7
  6
CONTINUOUS
 70
0
 71
3
 72
9
 73
5
 74
0
 42
0.0000001
 43
0.0000001
 44
0.0000000001
 40
0.0
 40
0.0
 40
0.0
 40
0.0
 40
0.5169082341
 40
1.0
 40
1.0
 40
1.0
 40
1.0
 10
2.1136458005
 20
0.6702235131
 30
0.0
 10
2.1089475578
 20
0.6650082708
 30
0.0
 10
2.1006840496
 20
0.6541434151
 30
0.0
 10
2.0944503725
 20
0.6419649271
 30
0.0
 10
2.0921390364
 20
0.6358253833
 30
0.0
  0
SPLINE
  5
301
100
AcDbEntity
  8
0
100
AcDbSpline
 62
7
  6
CONTINUOUS
 70
0
 71
3
 72
9
 73
5
 74
0
 42
0.0000001
 43
0.0000001
 44
0.0000000001
 40
0.0
 40
0.0
 40
0.0
 40
0.0
 40
0.2601401817
 40
1.0
 40
1.0
 40
1.0
 40
1.0
 10
2.0921390364
 20
0.6358253833
 30
0.0
 10
2.091637611
 20
0.6344934596
 30
0.0
 10
2.0898392758
 20
0.6293269663
 30
0.0
 10
2.0885707308
 20
0.6239666061
 30
0.0
 10
2.0880289527
 20
0.6199553822
 30
0.0
  0
SPLINE
  5
302
100
AcDbEntity
  8
0
100
AcDbSpline
 62
7
  6
CONTINUOUS
 70
0
 71
3
 72
11
 73
7
 74
0
 42
0.0000001
 43
0.0000001
 44
0.0000000001
 40
0.0
 40
0.0
 40
0.0
 40
0.0
 40
0.2701889917
 40
0.5244742418
 40
0.7663049977
 40
1.0
 40
1.0
 40
1.0
 40
1.0
 10
2.0880289527
 20
0.6199553822
 30
0.0
 10
2.0876814422
 20
0.61738248
 30
0.0
 10
2.0873226429
 20
0.6123357211
 30
0.0
 10
2.087928531
 20
0.6049660302
 30
0.0
 10
2.0896622795
 20
0.5981364956
 30
0.0
 10
2.091570104
 20
0.5939513049
 30
0.0
 10
2.0926889883
 20
0.5920043129
 30
0.0
  0
SPLINE
  5
303
100
AcDbEntity
  8
0
100
AcDbSpline
 62
7
  6
CONTINUOUS
 70
0
 71
3
 72
9
 73
5
 74
0
 42
0.0000001
 43
0.0000001
 44
0.0000000001
 40
0.0
 40
0.0
 40
0.0
 40
0.0
 40
0.2445415795
 40
1.0
 40
1.0
 40
1.0
 40
1.0
 10
2.2905155279
 20
0.6125708445
 30
0.0
 10
2.2905155298
 20
0.6131757714
 30
0.0
 10
2.2904704461
 20
0.615649391
 30
0.0
 10
2.290250614
 20
0.6181189512
 30
0.0
 10
2.2899999806
 20
0.6199708593
 30
0.0
  0
SPLINE
  5
304
100
AcDbEntity
  8
0
100
AcDbSpline
 62
7
  6
CONTINUOUS
 70
0
 71
3
 72
11
 73
7
 74
0
 42
0.0000001
 43
0.0000001
 44
0.0000000001
 40
0.0
 40
0.0
 40
0.0
 40
0.0
 40
0.2255519572
 40
0.4697312618
 40
0.7293107997
 40
1.0
 40
1.0
 40
1.0
 40
1.0
 10
2.2899999806
 20
0.6199708593
 30
0.0
 10
2.2894234248
 20
0.6242309783
 30
0.0
 10
2.2872949141
 20
0.632989116
 30
0.0
 10
2.2818086849
 20
0.6458144944
 30
0.0
 10
2.2741349422
 20
0.658473455
 30
0.0
 10
2.2678228878
 20
0.6664064172
 30
0.0
 10
2.2643677261
 20
0.6702378427
 30
0.0
  0
SPLINE
  5
305
100
AcDbEntity
  8
0
100
AcDbSpline
 62
7
  6
CONTINUOUS
 70
0
 71
3
 72
10
 73
6
 74
0
 42
0.0000001
 43
0.0000001
 44
0.0000000001
 40
0.0
 40
0.0
 40
0.0
 40
0.0
 40
0.4976210325
 40
0.7483018859
 40
1.0
 40
1.0
 40
1.0
 40
1.0
 10
2.2472951404
 20
0.6859370817
 30
0.0
 10
2.2415506317
 20
0.6902946852
 30
0.0
 10
2.2322851171
 20
0.6960994371
 30
0.0
 10
2.2189291153
 20
0.7017739173
 30
0.0
 10
2.2119243945
 20
0.7038313151
 30
0.0
 10
2.20837002
 20
0.7046479374
 30
0.0
  0
SPLINE
  5
306
100
AcDbEntity
  8
0
100
AcDbSpline
 62
7
  6
CONTINUOUS
 70
0
 71
3
 72
9
 73
5
 74
0
 42
0.0000001
 43
0.0000001
 44
0.0000000001
 40
0.0
 40
0.0
 40
0.0
 40
0.0
 40
0.2506998545
 40
1.0
 40
1.0
 40
1.0
 40
1.0
 10
2.20837002
 20
0.7046479374
 30
0.0
 10
2.2067813222
 20
0.7050129428
 30
0.0
 10
2.2004070118
 20
0.7062991628
 30
0.0
 10
2.1938875923
 20
0.7068876226
 30
0.0
 10
2.189015528
 20
0.7068876226
 30
0.0
  0
SPLINE
  5
307
100
AcDbEntity
  8
0
100
AcDbSpline
 62
7
  6
CONTINUOUS
 70
0
 71
3
 72
13
 73
9
 74
0
 42
0.0000001
 43
0.0000001
 44
0.0000000001
 40
0.0
 40
0.0
 40
0.0
 40
0.0
 40
0.0442475784
 40
0.1111683821
 40
0.2012483812
 40
0.3146015274
 40
0.6110417259
 40
1.0
 40
1.0
 40
1.0
 40
1.0
 10
3.0667009065
 20
1.1358575792
 30
0.0
 10
3.0666051327
 20
1.1358021814
 30
0.0
 10
3.0663405548
 20
1.1357083169
 30
0.0
 10
3.0658526915
 20
1.1355879385
 30
0.0
 10
3.0651869671
 20
1.1354662477
 30
0.0
 10
3.0639503072
 20
1.135285214
 30
0.0
 10
3.0619638868
 20
1.1350705428
 30
0.0
 10
3.0602561527
 20
1.1349263033
 30
0.0
 10
3.059286454
 20
1.1348513192
 30
0.0
  0
SPLINE
  5
308
100
AcDbEntity
  8
0
100
AcDbSpline
 62
7
  6
CONTINUOUS
 70
0
 71
3
 72
10
 73
6
 74
0
 42
0.0000001
 43
0.0000001
 44
0.0000000001
 40
0.0
 40
0.0
 40
0.0
 40
0.0
 40
0.1821178356
 40
0.4114874494
 40
1.0
 40
1.0
 40
1.0
 40
1.0
 10
3.059286454
 20
1.1348513192
 30
0.0
 10
3.0574921845
 20
1.1347125733
 30
0.0
 10
3.0534342757
 20
1.1344492749
 30
0.0
 10
3.0435659034
 20
1.1339353707
 30
0.0
 10
3.0354898132
 20
1.1336176801
 30
0.0
 10
3.0296782357
 20
1.1334046946
 30
0.0
  0
SPLINE
  5
309
100
AcDbEntity
  8
0
100
AcDbSpline
 62
7
  6
CONTINUOUS
 70
0
 71
3
 72
14
 73
10
 74
0
 42
0.0000001
 43
0.0000001
 44
0.0000000001
 40
0.0
 40
0.0
 40
0.0
 40
0.0
 40
0.1119655965
 40
0.2405562089
 40
0.5235849314
 40
0.6640992078
 40
0.7943384616
 40
0.9079205163
 40
1.0
 40
1.0
 40
1.0
 40
1.0
 10
3.0296782357
 20
1.1334046946
 30
0.0
 10
3.0223166298
 20
1.1331349028
 30
0.0
 10
3.0064979885
 20
1.132620088
 30
0.0
 10
2.9720638807
 20
1.1316340373
 30
0.0
 10
2.9357490443
 20
1.1307113701
 30
0.0
 10
2.899326677
 20
1.1297534717
 30
0.0
 10
2.8740501054
 20
1.1290400905
 30
0.0
 10
2.8519616578
 20
1.1283280871
 30
0.0
 10
2.8384404642
 20
1.1278026015
 30
0.0
 10
2.8323888983
 20
1.1275195527
 30
0.0
  0
SPLINE
  5
30A
100
AcDbEntity
  8
0
100
AcDbSpline
 62
7
  6
CONTINUOUS
 70
0
 71
3
 72
16
 73
12
 74
0
 42
0.0000001
 43
0.0000001
 44
0.0000000001
 40
0.0
 40
0.0
 40
0.0
 40
0.0
 40
0.2136906272
 40
0.4038712201
 40
0.5693466837
 40
0.7089291404
 40
0.8216562346
 40
0.907490309
 40
0.9667108294
 40
0.9865144637
 40
1.0
 40
1.0
 40
1.0
 40
1.0
 10
2.8323888983
 20
1.1275195527
 30
0.0
 10
2.830884642
 20
1.1274491944
 30
0.0
 10
2.8280419005
 20
1.1273100818
 30
0.0
 10
2.8240356724
 20
1.1270901893
 30
0.0
 10
2.8205524412
 20
1.1268712655
 30
0.0
 10
2.8176164119
 20
1.1266533391
 30
0.0
 10
2.8152426617
 20
1.1264377856
 30
0.0
 10
2.8134394536
 20
1.1262229149
 30
0.0
 10
2.8122901365
 20
1.1260370417
 30
0.0
 10
2.81165987
 20
1.1258721018
 30
0.0
 10
2.8114384392
 20
1.1257888091
 30
0.0
 10
2.8113561797
 20
1.1257412187
 30
0.0
  0
SPLINE
  5
30B
100
AcDbEntity
  8
0
100
AcDbSpline
 62
7
  6
CONTINUOUS
 70
0
 71
3
 72
13
 73
9
 74
0
 42
0.0000001
 43
0.0000001
 44
0.0000000001
 40
0.0
 40
0.0
 40
0.0
 40
0.0
 40
0.0430197818
 40
0.1091436553
 40
0.198798487
 40
0.3120615633
 40
0.6092286395
 40
1.0
 40
1.0
 40
1.0
 40
1.0
 10
3.0774341957
 20
1.1419974034
 30
0.0
 10
3.0773503992
 20
1.1419487225
 30
0.0
 10
3.0771161068
 20
1.1418663055
 30
0.0
 10
3.0766822123
 20
1.141758515
 30
0.0
 10
3.0760856314
 20
1.1416478563
 30
0.0
 10
3.074971657
 20
1.1414808226
 30
0.0
 10
3.0731772857
 20
1.1412804616
 30
0.0
 10
3.0716334068
 20
1.141146215
 30
0.0
 10
3.0707558547
 20
1.141076841
 30
0.0
  0
LINE
  5
30C
100
AcDbEntity
  8
0
100
AcDbLine
 62
7
  6
CONTINUOUS
 10
3.0707558547
 20
1.141076841
 11
3.0589739826
 21
1.1403800452
  0
LINE
  5
30D
100
AcDbEntity
  8
0
100
AcDbLine
 62
7
  6
CONTINUOUS
 10
3.0589739826
 20
1.1403800452
 11
3.031694124
 21
1.1393414228
  0
SPLINE
  5
30E
100
AcDbEntity
  8
0
100
AcDbSpline
 62
7
  6
CONTINUOUS
 70
0
 71
3
 72
12
 73
8
 74
0
 42
0.0000001
 43
0.0000001
 44
0.0000000001
 40
0.0
 40
0.0
 40
0.0
 40
0.0
 40
0.237452394
 40
0.5108597269
 40
0.7786174495
 40
0.8974515413
 40
1.0
 40
1.0
 40
1.0
 40
1.0
 10
3.031694124
 20
1.1393414228
 30
0.0
 10
3.0162126779
 20
1.1388418118
 30
0.0
 10
2.9828996726
 20
1.1379563346
 30
0.0
 10
2.9321233705
 20
1.136747959
 30
0.0
 10
2.8890826564
 20
1.1357114735
 30
0.0
 10
2.8571871736
 20
1.1348303644
 30
0.0
 10
2.8427531468
 20
1.1343709196
 30
0.0
 10
2.8360679725
 20
1.1341319
 30
0.0
  0
SPLINE
  5
30F
100
AcDbEntity
  8
0
100
AcDbSpline
 62
7
  6
CONTINUOUS
 70
0
 71
3
 72
14
 73
10
 74
0
 42
0.0000001
 43
0.0000001
 44
0.0000000001
 40
0.0
 40
0.0
 40
0.0
 40
0.0
 40
0.3794020423
 40
0.5388475318
 40
0.6769008497
 40
0.7927003772
 40
0.8854232793
 40
0.9545922132
 40
1.0
 40
1.0
 40
1.0
 40
1.0
 10
2.8360679725
 20
1.1341319
 30
0.0
 10
2.8316580879
 20
1.1339742305
 30
0.0
 10
2.8253953896
 20
1.1337349418
 30
0.0
 10
2.8175309201
 20
1.1333722437
 30
0.0
 10
2.8127306609
 20
1.1331166184
 30
0.0
 10
2.8087079713
 20
1.1328606159
 30
0.0
 10
2.8054876112
 20
1.132605876
 30
0.0
 10
2.8030907723
 20
1.1323508983
 30
0.0
 10
2.8017699019
 20
1.132157604
 30
0.0
 10
2.8012548905
 20
1.1320406534
 30
0.0
  0
LINE
  5
310
100
AcDbEntity
  8
0
100
AcDbLine
 62
7
  6
CONTINUOUS
 10
2.8012548905
 20
1.1320406534
 11
2.800490528
 21
1.131702211
  0
SPLINE
  5
311
100
AcDbEntity
  8
0
100
AcDbSpline
 62
7
  6
CONTINUOUS
 70
0
 71
3
 72
13
 73
9
 74
0
 42
0.0000001
 43
0.0000001
 44
0.0000000001
 40
0.0
 40
0.0
 40
0.0
 40
0.0
 40
0.0467513407
 40
0.1154599205
 40
0.2066045277
 40
0.3203060972
 40
0.6153118826
 40
1.0
 40
1.0
 40
1.0
 40
1.0
 10
2.8006368469
 20
1.1404579068
 30
0.0
 10
2.800728717
 20
1.1405079511
 30
0.0
 10
2.8009747824
 20
1.1405935022
 30
0.0
 10
2.8014239109
 20
1.1407013562
 30
0.0
 10
2.8020271445
 20
1.1408085612
 30
0.0
 10
2.8031346185
 20
1.1409651847
 30
0.0
 10
2.8049010462
 20
1.141148818
 30
0.0
 10
2.8064169105
 20
1.1412728649
 30
0.0
 10
2.807275283
 20
1.1413377616
 30
0.0
  0
LINE
  5
312
100
AcDbEntity
  8
0
100
AcDbLine
 62
7
  6
CONTINUOUS
 10
2.807275283
 20
1.1413377616
 11
2.8190571685
 21
1.142029275
  0
SPLINE
  5
313
100
AcDbEntity
  8
0
100
AcDbSpline
 62
7
  6
CONTINUOUS
 70
0
 71
3
 72
13
 73
9
 74
0
 42
0.0000001
 43
0.0000001
 44
0.0000000001
 40
0.0
 40
0.0
 40
0.0
 40
0.0
 40
0.046103196
 40
0.1143789866
 40
0.2052816672
 40
0.3189186721
 40
0.6142977733
 40
1.0
 40
1.0
 40
1.0
 40
1.0
 10
2.8006297186
 20
1.1196156194
 30
0.0
 10
2.8007203751
 20
1.1196651165
 30
0.0
 10
2.800964513
 20
1.1197497787
 30
0.0
 10
2.8014111513
 20
1.1198575062
 30
0.0
 10
2.802013315
 20
1.1199654803
 30
0.0
 10
2.8031219426
 20
1.1201244513
 30
0.0
 10
2.804893075
 20
1.1203120343
 30
0.0
 10
2.8064136843
 20
1.1204384996
 30
0.0
 10
2.8072752853
 20
1.1205044284
 30
0.0
  0
LINE
  5
314
100
AcDbEntity
  8
0
100
AcDbLine
 62
7
  6
CONTINUOUS
 10
2.8072752853
 20
1.1205044284
 11
2.8190571758
 21
1.1211973422
  0
SPLINE
  5
315
100
AcDbEntity
  8
0
100
AcDbSpline
 62
7
  6
CONTINUOUS
 70
0
 71
3
 72
23
 73
19
 74
0
 42
0.0000001
 43
0.0000001
 44
0.0000000001
 40
0.0
 40
0.0
 40
0.0
 40
0.0
 40
0.1168187967
 40
0.2634409778
 40
0.4266921448
 40
0.5099876613
 40
0.5918985617
 40
0.6705599115
 40
0.7442107437
 40
0.8111705897
 40
0.8699417339
 40
0.9191892831
 40
0.93988216
 40
0.9578079296
 40
0.9728601314
 40
0.9849389958
 40
0.9939925244
 40
1.0
 40
1.0
 40
1.0
 40
1.0
 10
2.826954851
 20
1.1215460607
 30
0.0
 10
2.8366808712
 20
1.1219433486
 30
0.0
 10
2.8586218159
 20
1.1226473852
 30
0.0
 10
2.8941639762
 20
1.1235941959
 30
0.0
 10
2.9269160515
 20
1.1243817674
 30
0.0
 10
2.9542775412
 20
1.1250354045
 30
0.0
 10
2.9745922686
 20
1.1255285375
 30
0.0
 10
2.9941030926
 20
1.1260216673
 30
0.0
 10
3.0123677003
 20
1.1265137752
 30
0.0
 10
3.0289743546
 20
1.1270035412
 30
0.0
 10
3.0435466324
 20
1.1274908626
 30
0.0
 10
3.0542634662
 20
1.1279167183
 30
0.0
 10
3.061576608
 20
1.1282689718
 30
0.0
 10
3.0660421586
 20
1.1285151626
 30
0.0
 10
3.0697886122
 20
1.1287582388
 30
0.0
 10
3.0727951894
 20
1.1289935504
 30
0.0
 10
3.0750438391
 20
1.1292269452
 30
0.0
 10
3.0762882744
 20
1.1294070756
 30
0.0
 10
3.076776168
 20
1.1295190739
 30
0.0
  0
LINE
  5
316
100
AcDbEntity
  8
0
100
AcDbLine
 62
7
  6
CONTINUOUS
 10
3.076776168
 20
1.1295190739
 11
3.077540528
 21
1.1298790519
  0
SPLINE
  5
317
100
AcDbEntity
  8
0
100
AcDbSpline
 62
7
  6
CONTINUOUS
 70
0
 71
3
 72
13
 73
9
 74
0
 42
0.0000001
 43
0.0000001
 44
0.0000000001
 40
0.0
 40
0.0
 40
0.0
 40
0.0
 40
0.0465442587
 40
0.1151203829
 40
0.2061938115
 40
0.3198790034
 40
0.6150033881
 40
1.0
 40
1.0
 40
1.0
 40
1.0
 10
3.0773963609
 20
1.1300378792
 30
0.0
 10
3.0773048179
 20
1.1300876336
 30
0.0
 10
3.0770593279
 20
1.1301727556
 30
0.0
 10
3.0766109582
 20
1.130280508
 30
0.0
 10
3.076008052
 20
1.1303879942
 30
0.0
 10
3.0749002325
 20
1.1305455292
 30
0.0
 10
3.0731324018
 20
1.1307307596
 30
0.0
 10
3.0716151055
 20
1.1308557881
 30
0.0
 10
3.0707557609
 20
1.1309210958
 30
0.0
  0
LINE
  5
318
100
AcDbEntity
  8
0
100
AcDbLine
 62
9
  6
CONTINUOUS
 10
3.1890067001
 20
1.0080725272
 11
3.0171061234
 21
0.8223919441
  0
SPLINE
  5
319
100
AcDbEntity
  8
0
100
AcDbSpline
 62
9
  6
CONTINUOUS
 70
0
 71
3
 72
9
 73
5
 74
0
 42
0.0000001
 43
0.0000001
 44
0.0000000001
 40
0.0
 40
0.0
 40
0.0
 40
0.0
 40
0.497233634
 40
1.0
 40
1.0
 40
1.0
 40
1.0
 10
3.0171061234
 20
0.8223919441
 30
0.0
 10
3.0041450684
 20
0.8084346493
 30
0.0
 10
2.9779850899
 20
0.7804523084
 30
0.0
 10
2.9519661003
 20
0.7523369913
 30
0.0
 10
2.939015528
 20
0.7380822981
 30
0.0
  0
SPLINE
  5
31A
100
AcDbEntity
  8
0
100
AcDbSpline
 62
7
  6
CONTINUOUS
 70
0
 71
3
 72
9
 73
5
 74
0
 42
0.0000001
 43
0.0000001
 44
0.0000000001
 40
0.0
 40
0.0
 40
0.0
 40
0.0
 40
0.4836216679
 40
1.0
 40
1.0
 40
1.0
 40
1.0
 10
2.2853427836
 20
0.5920055101
 30
0.0
 10
2.2870606785
 20
0.5949952162
 30
0.0
 10
2.2897213684
 20
0.6017222026
 30
0.0
 10
2.2905155166
 20
0.6088891805
 30
0.0
 10
2.2905155279
 20
0.6125708445
 30
0.0
  0
SPLINE
  5
31B
100
AcDbEntity
  8
0
100
AcDbSpline
 62
9
  6
CONTINUOUS
 70
0
 71
3
 72
11
 73
7
 74
0
 42
0.0000001
 43
0.0000001
 44
0.0000000001
 40
0.0
 40
0.0
 40
0.0
 40
0.0
 40
0.2556068453
 40
0.5093223501
 40
0.7584522903
 40
1.0
 40
1.0
 40
1.0
 40
1.0
 10
2.939015528
 20
0.7380822981
 30
0.0
 10
2.9280669253
 20
0.750133416
 30
0.0
 10
2.90606658
 20
0.7739789798
 30
0.0
 10
2.8730802117
 20
0.8092778544
 30
0.0
 10
2.8408347857
 20
0.8440432976
 30
0.0
 10
2.8196294401
 20
0.867005304
 30
0.0
 10
2.8091828556
 20
0.8783017419
 30
0.0
  0
LINE
  5
31C
100
AcDbEntity
  8
0
100
AcDbLine
 62
9
  6
CONTINUOUS
 10
2.8091828556
 20
0.8783017419
 11
2.7918269622
 21
0.8970577571
  0
LINE
  5
31D
100
AcDbEntity
  8
0
100
AcDbLine
 62
9
  6
CONTINUOUS
 10
2.7918269622
 20
0.8970577571
 11
2.7851358029
 21
0.9042837395
  0
LINE
  5
31E
100
AcDbEntity
  8
0
100
AcDbLine
 62
9
  6
CONTINUOUS
 10
2.7851358029
 20
0.9042837395
 11
2.7816249669
 21
0.908074457
  0
SPLINE
  5
31F
100
AcDbEntity
  8
0
100
AcDbSpline
 62
7
  6
CONTINUOUS
 70
0
 71
3
 72
9
 73
5
 74
0
 42
0.0000001
 43
0.0000001
 44
0.0000000001
 40
0.0
 40
0.0
 40
0.0
 40
0.0
 40
0.2553194185
 40
1.0
 40
1.0
 40
1.0
 40
1.0
 10
2.087515528
 20
0.6125708445
 30
0.0
 10
2.0875155261
 20
0.6119747853
 30
0.0
 10
2.0875573906
 20
0.6096404885
 30
0.0
 10
2.0877698699
 20
0.607308638
 30
0.0
 10
2.0880310747
 20
0.6055898691
 30
0.0
  0
SPLINE
  5
320
100
AcDbEntity
  8
0
100
AcDbSpline
 62
7
  6
CONTINUOUS
 70
0
 71
3
 72
9
 73
5
 74
0
 42
0.0000001
 43
0.0000001
 44
0.0000000001
 40
0.0
 40
0.0
 40
0.0
 40
0.0
 40
0.5092116005
 40
1.0
 40
1.0
 40
1.0
 40
1.0
 10
2.0880310747
 20
0.6055898691
 30
0.0
 10
2.0883989269
 20
0.6031693439
 30
0.0
 10
2.0895259381
 20
0.5984654588
 30
0.0
 10
2.0915132233
 20
0.5940503431
 30
0.0
 10
2.0926889395
 20
0.5920043586
 30
0.0
  0
ENDSEC
  0
SECTION
  2
OBJECTS
  0
DICTIONARY
  5
C
100
AcDbDictionary
280
0
281
1
  3
ACAD_GROUP
350
D
  3
ACAD_MLINESTYLE
350
17
  3
ACAD_LAYOUT
350
1A
  3
ACAD_PLOTSETTINGS
350
19
  3
ACAD_PLOTSTYLENAME
350
E
  0
DICTIONARY
  5
D
102
{ACAD_REACTORS
330
C
102
}
100
AcDbDictionary
280
0
281
1
  0
ACDBDICTIONARYWDFLT
  5
E
102
{ACAD_REACTORS
330
C
102
}
100
AcDbDictionary
281
1
  3
Normal
350
F
100
AcDbDictionaryWithDefault
340
F
  0
DICTIONARY
  5
17
102
{ACAD_REACTORS
330
C
102
}
100
AcDbDictionary
280
0
281
1
  3
Standard
350
18
  0
DICTIONARY
  5
19
102
{ACAD_REACTORS
330
C
102
}
100
AcDbDictionary
281
1
  0
DICTIONARY
  5
1A
102
{ACAD_REACTORS
330
C
102
}
100
AcDbDictionary
281
1
  3
Model
350
321
  3
Layout1
350
322
  0
ACDBPLACEHOLDER
  5
F
102
{ACAD_REACTORS
330
E
102
}
  0
MLINESTYLE
  5
18
102
{ACAD_REACTORS
330
17
102
}
100
AcDbMlineStyle
  2
STANDARD
 70
0
  3

 62
256
 51
90.0
 52
90.0
 71
2
 49
0.5
 62
256
  6
BYLAYER
 49
-0.5
 62
256
  6
BYLAYER
  0
LAYOUT
  5
321
102
{ACAD_REACTORS
330
1A
102
}
100
AcDbPlotSettings
  1

  2
none_device
  4

  6

 40
0.0
 41
0.0
 42
0.0
 43
0.0
 44
215.9
 45
279.4
 46
0.0
 47
0.0
 48
0.0
 49
0.0
140
0.0
141
0.0
142
1.0
143
1.0
 70
1024
 72
0
 73
0
 74
0
  7

 75
0
147
1.0
148
0.0
149
0.0
100
AcDbLayout
  1
Model
 70
0
 71
0
 10
0.0
 20
0.0
 11
8.5
 21
11.0
 12
0.0
 22
0.0
 32
0.0
 14
0.0
 24
0.0
 34
0.0
 15
0.0
 25
0.0
 35
0.0
146
0.0
 13
0.0
 23
0.0
 33
0.0
 16
1.0
 26
0.0
 36
0.0
 17
0.0
 27
1.0
 37
0.0
 76
0
330
233
345
0
346
0
  0
LAYOUT
  5
322
102
{ACAD_REACTORS
330
1A
102
}
100
AcDbPlotSettings
  1

  2
none_device
  4

  6

 40
0.0
 41
0.0
 42
0.0
 43
0.0
 44
215.9
 45
279.4
 46
0.0
 47
0.0
 48
0.0
 49
0.0
140
0.0
141
0.0
142
1.0
143
1.0
 70
0
 72
0
 73
0
 74
0
  7

 75
0
147
1.0
148
0.0
149
0.0
100
AcDbLayout
  1
Layout1
 70
0
 71
1
 10
0.0
 20
0.0
 11
8.5
 21
11.0
 12
0.0
 22
0.0
 32
0.0
 14
0.0
 24
0.0
 34
0.0
 15
0.0
 25
0.0
 35
0.0
146
0.0
 13
0.0
 23
0.0
 33
0.0
 16
1.0
 26
0.0
 36
0.0
 17
0.0
 27
1.0
 37
0.0
 76
0
330
234
345
0
346
0
  0
ENDSEC
  0
EOF
