999
DXF file: C:\Prowork\plots\482x-2_front.dxf
999
Pro/ENGINEER 2018500 by Parametric Technology Corporation
  0
SECTION
  2
HEADER
  9
$ACADVER
  1
AC1032
  9
$DWGCODEPAGE
  3
ANSI_1252
  9
$EXTMAX
 10
8.5
 20
11.0
 30
0.0
  9
$EXTMIN
 10
0.0
 20
0.0
 30
0.0
  9
$LIMMIN
 10
0.0
 20
0.0
  9
$LIMMAX
 10
8.5
 20
11.0
  9
$VIEWCTR
 10
4.25
 20
5.5
  9
$VIEWSIZE
 40
11.0
  9
$CLAYER
  8
0
  9
$LTSCALE
 40
0.717037037
  9
$CELTYPE
  6
BYLAYER
  9
$DIMSCALE
 40
1.0
  9
$DIMASZ
 40
0.1
  9
$DIMEXO
 40
0.0625
  9
$DIMDLI
 40
0.4954074074
  9
$DIMEXE
 40
0.125
  9
$DIMCEN
 40
0.1173333333
  9
$DIMLFAC
 40
1.0
  9
$DIMBLK
  1
_FILLED
  9
$DIMALT
 70
1
  9
$DIMALTD
 70
2
  9
$DIMALTTD
 70
2
  9
$DIMALTF
 40
25.4
  9
$DIMTXT
 40
0.08
  9
$DIMTOL
 70
1
  9
$DIMLIM
 70
0
  9
$DIMTFAC
 40
1.0
  9
$DIMTP
 40
0.001
  9
$DIMTM
 40
0.001
  9
$DIMGAP
 40
0.09
  9
$DIMDSEP
 70
46
  9
$AUNITS
 70
0
  9
$PDMODE
 70
3
  9
$PDSIZE
 40
0.06
  9
$HANDSEED
  5
31A
  9
$TILEMODE
 70
1
  9
$MEASUREMENT
 70
0
  9
$INSUNITS
 70
1
  0
ENDSEC
  0
SECTION
  2
CLASSES
  0
CLASS
  1
ACDBDICTIONARYWDFLT
  2
AcDbDictionaryWithDefault
  3
AutoCAD 2000
 90
0
 91
1
280
0
281
0
  0
CLASS
  1
ACDBPLACEHOLDER
  2
AcDbPlaceHolder
  3
AutoCAD 2000
 90
0
 91
1
280
0
281
0
  0
CLASS
  1
LAYOUT
  2
AcDbLayout
  3
AutoCAD 2000
 90
0
 91
0
280
0
281
0
  0
ENDSEC
  0
SECTION
  2
TABLES
  0
TABLE
  2
VPORT
  5
8
100
AcDbSymbolTable
 70
2
  0
VPORT
  5
1F4
100
AcDbSymbolTableRecord
100
AcDbViewportTableRecord
  2
*ACTIVE
 70
0
 10
0.0
 20
0.0
 11
1.0
 21
1.0
 12
4.25
 22
5.5
 13
0.0
 23
0.0
 14
1.0
 24
1.0
 15
0.0
 25
0.0
 16
0.0
 26
0.0
 36
1.0
 17
0.0
 27
0.0
 37
0.0
 40
11.0
 41
0.7727272727
 42
50.0
 43
0.0
 44
0.0
 50
0.0
 51
0.0
 71
0
 72
100
 73
1
 74
1
 75
0
 76
0
 77
0
 78
0
  0
ENDTAB
  0
TABLE
  2
LTYPE
  5
5
100
AcDbSymbolTable
 70
6
  0
LTYPE
  5
14
100
AcDbSymbolTableRecord
100
AcDbLinetypeTableRecord
  2
BYBLOCK
 70
0
  3

 72
65
 73
0
 40
0.0
  0
LTYPE
  5
15
100
AcDbSymbolTableRecord
100
AcDbLinetypeTableRecord
  2
BYLAYER
 70
0
  3

 72
65
 73
0
 40
0.0
  0
LTYPE
  5
16
100
AcDbSymbolTableRecord
100
AcDbLinetypeTableRecord
  2
CONTINUOUS
 70
64
  3
Solid line
 72
65
 73
0
 40
0.0
  0
LTYPE
  5
1F5
100
AcDbSymbolTableRecord
100
AcDbLinetypeTableRecord
  2
CENTER
 70
64
  3
____ _ ____ _ ____ _ ____ _ ____ _ ____ _ ____
 72
65
 73
4
 40
0.6
 49
0.375
 74
0
 49
-0.075
 74
0
 49
0.075
 74
0
 49
-0.075
 74
0
  0
LTYPE
  5
1F6
100
AcDbSymbolTableRecord
100
AcDbLinetypeTableRecord
  2
HIDDEN
 70
64
  3
- - - - - - - - - - - - - - - - - - - -
 72
65
 73
2
 40
0.2
 49
0.1
 74
0
 49
-0.1
 74
0
  0
LTYPE
  5
1F7
100
AcDbSymbolTableRecord
100
AcDbLinetypeTableRecord
  2
PHANTOM
 70
64
  3
_____ _ _ _____ _ _ _____ _ _ _____
 72
65
 73
6
 40
0.8
 49
0.45
 74
0
 49
-0.05
 74
0
 49
0.1
 74
0
 49
-0.05
 74
0
 49
0.1
 74
0
 49
-0.05
 74
0
  0
LTYPE
  5
1F8
100
AcDbSymbolTableRecord
100
AcDbLinetypeTableRecord
  2
DOT
 70
64
  3
. . . . . . . . . . . . . . . . . . . .
 72
65
 73
2
 40
0.2
 49
0.1
 74
0
 49
-0.1
 74
0
  0
LTYPE
  5
1F9
100
AcDbSymbolTableRecord
100
AcDbLinetypeTableRecord
  2
DASHED
 70
64
  3
- - - - - - - - - - - - - - - - - - - -
 72
65
 73
2
 40
0.2
 49
0.1
 74
0
 49
-0.1
 74
0
  0
ENDTAB
  0
TABLE
  2
LAYER
  5
2
100
AcDbSymbolTable
 70
36
  0
LAYER
  5
10
100
AcDbSymbolTableRecord
100
AcDbLayerTableRecord
  2
0
 70
0
 62
7
  6
CONTINUOUS
370
-3
390
F
  0
LAYER
  5
1FA
100
AcDbSymbolTableRecord
100
AcDbLayerTableRecord
  2
DEFAULT_1
 70
0
 62
7
  6
CENTER
370
-3
390
F
  0
LAYER
  5
1FB
100
AcDbSymbolTableRecord
100
AcDbLayerTableRecord
  2
DEFAULT_2
 70
0
 62
8
  6
HIDDEN
370
-3
390
F
  0
LAYER
  5
1FC
100
AcDbSymbolTableRecord
100
AcDbLayerTableRecord
  2
DEFAULT_3
 70
0
 62
7
  6
PHANTOM
370
-3
390
F
  0
LAYER
  5
1FD
100
AcDbSymbolTableRecord
100
AcDbLayerTableRecord
  2
1-134
 70
0
 62
7
  6
CONTINUOUS
370
-3
390
F
  0
LAYER
  5
1FE
100
AcDbSymbolTableRecord
100
AcDbLayerTableRecord
  2
10851
 70
0
 62
7
  6
CONTINUOUS
370
-3
390
F
  0
LAYER
  5
1FF
100
AcDbSymbolTableRecord
100
AcDbLayerTableRecord
  2
10851_1
 70
0
 62
7
  6
CONTINUOUS
370
-3
390
F
  0
LAYER
  5
200
100
AcDbSymbolTableRecord
100
AcDbLayerTableRecord
  2
10851_2
 70
0
 62
7
  6
CONTINUOUS
370
-3
390
F
  0
LAYER
  5
201
100
AcDbSymbolTableRecord
100
AcDbLayerTableRecord
  2
10851_3
 70
0
 62
7
  6
CONTINUOUS
370
-3
390
F
  0
LAYER
  5
202
100
AcDbSymbolTableRecord
100
AcDbLayerTableRecord
  2
403X-2
 70
0
 62
7
  6
CONTINUOUS
370
-3
390
F
  0
LAYER
  5
203
100
AcDbSymbolTableRecord
100
AcDbLayerTableRecord
  2
436
 70
0
 62
7
  6
CONTINUOUS
370
-3
390
F
  0
LAYER
  5
204
100
AcDbSymbolTableRecord
100
AcDbLayerTableRecord
  2
441
 70
0
 62
7
  6
CONTINUOUS
370
-3
390
F
  0
LAYER
  5
205
100
AcDbSymbolTableRecord
100
AcDbLayerTableRecord
  2
50359
 70
0
 62
7
  6
CONTINUOUS
370
-3
390
F
  0
LAYER
  5
206
100
AcDbSymbolTableRecord
100
AcDbLayerTableRecord
  2
50362
 70
0
 62
7
  6
CONTINUOUS
370
-3
390
F
  0
LAYER
  5
207
100
AcDbSymbolTableRecord
100
AcDbLayerTableRecord
  2
50392
 70
0
 62
7
  6
CONTINUOUS
370
-3
390
F
  0
LAYER
  5
208
100
AcDbSymbolTableRecord
100
AcDbLayerTableRecord
  2
50677
 70
0
 62
7
  6
CONTINUOUS
370
-3
390
F
  0
LAYER
  5
209
100
AcDbSymbolTableRecord
100
AcDbLayerTableRecord
  2
50678
 70
0
 62
7
  6
CONTINUOUS
370
-3
390
F
  0
LAYER
  5
20A
100
AcDbSymbolTableRecord
100
AcDbLayerTableRecord
  2
50728
 70
0
 62
7
  6
CONTINUOUS
370
-3
390
F
  0
LAYER
  5
20B
100
AcDbSymbolTableRecord
100
AcDbLayerTableRecord
  2
50736
 70
0
 62
7
  6
CONTINUOUS
370
-3
390
F
  0
LAYER
  5
20C
100
AcDbSymbolTableRecord
100
AcDbLayerTableRecord
  2
50743
 70
0
 62
7
  6
CONTINUOUS
370
-3
390
F
  0
LAYER
  5
20D
100
AcDbSymbolTableRecord
100
AcDbLayerTableRecord
  2
6-030
 70
0
 62
7
  6
CONTINUOUS
370
-3
390
F
  0
LAYER
  5
20E
100
AcDbSymbolTableRecord
100
AcDbLayerTableRecord
  2
91022
 70
0
 62
7
  6
CONTINUOUS
370
-3
390
F
  0
LAYER
  5
20F
100
AcDbSymbolTableRecord
100
AcDbLayerTableRecord
  2
91203
 70
0
 62
7
  6
CONTINUOUS
370
-3
390
F
  0
LAYER
  5
210
100
AcDbSymbolTableRecord
100
AcDbLayerTableRecord
  2
ALL_ASSEMBLY_MEMBERS
 70
0
 62
7
  6
CONTINUOUS
370
-3
390
F
  0
LAYER
  5
211
100
AcDbSymbolTableRecord
100
AcDbLayerTableRecord
  2
COLOR147
 70
0
 62
7
  6
CONTINUOUS
370
-3
390
F
  0
LAYER
  5
212
100
AcDbSymbolTableRecord
100
AcDbLayerTableRecord
  2
COLOR32
 70
0
 62
7
  6
CONTINUOUS
370
-3
390
F
  0
LAYER
  5
213
100
AcDbSymbolTableRecord
100
AcDbLayerTableRecord
  2
COLOR54
 70
0
 62
7
  6
CONTINUOUS
370
-3
390
F
  0
LAYER
  5
214
100
AcDbSymbolTableRecord
100
AcDbLayerTableRecord
  2
COLOR66
 70
0
 62
7
  6
CONTINUOUS
370
-3
390
F
  0
LAYER
  5
215
100
AcDbSymbolTableRecord
100
AcDbLayerTableRecord
  2
DEFAULT_COORDINATE_SYSTEM
 70
0
 62
7
  6
CONTINUOUS
370
-3
390
F
  0
LAYER
  5
216
100
AcDbSymbolTableRecord
100
AcDbLayerTableRecord
  2
DEFAULT_DATUM_AXES
 70
0
 62
7
  6
CONTINUOUS
370
-3
390
F
  0
LAYER
  5
217
100
AcDbSymbolTableRecord
100
AcDbLayerTableRecord
  2
DEFAULT_DATUM_PLANES
 70
0
 62
7
  6
CONTINUOUS
370
-3
390
F
  0
LAYER
  5
218
100
AcDbSymbolTableRecord
100
AcDbLayerTableRecord
  2
INTF_10851
 70
0
 62
7
  6
CONTINUOUS
370
-3
390
F
  0
LAYER
  5
219
100
AcDbSymbolTableRecord
100
AcDbLayerTableRecord
  2
INTF_441
 70
0
 62
7
  6
CONTINUOUS
370
-3
390
F
  0
LAYER
  5
21A
100
AcDbSymbolTableRecord
100
AcDbLayerTableRecord
  2
INTF_50359
 70
0
 62
7
  6
CONTINUOUS
370
-3
390
F
  0
LAYER
  5
21B
100
AcDbSymbolTableRecord
100
AcDbLayerTableRecord
  2
INTF_50362
 70
0
 62
7
  6
CONTINUOUS
370
-3
390
F
  0
LAYER
  5
21C
100
AcDbSymbolTableRecord
100
AcDbLayerTableRecord
  2
INTF_50392
 70
0
 62
7
  6
CONTINUOUS
370
-3
390
F
  0
LAYER
  5
21D
100
AcDbSymbolTableRecord
100
AcDbLayerTableRecord
  2
INTF_50677
 70
0
 62
7
  6
CONTINUOUS
370
-3
390
F
  0
LAYER
  5
21E
100
AcDbSymbolTableRecord
100
AcDbLayerTableRecord
  2
INTF_50678
 70
0
 62
7
  6
CONTINUOUS
370
-3
390
F
  0
LAYER
  5
21F
100
AcDbSymbolTableRecord
100
AcDbLayerTableRecord
  2
INTF_50728
 70
0
 62
7
  6
CONTINUOUS
370
-3
390
F
  0
LAYER
  5
220
100
AcDbSymbolTableRecord
100
AcDbLayerTableRecord
  2
INTF_50736
 70
0
 62
7
  6
CONTINUOUS
370
-3
390
F
  0
LAYER
  5
221
100
AcDbSymbolTableRecord
100
AcDbLayerTableRecord
  2
INTF_50743
 70
0
 62
7
  6
CONTINUOUS
370
-3
390
F
  0
LAYER
  5
222
100
AcDbSymbolTableRecord
100
AcDbLayerTableRecord
  2
INTF_91022
 70
0
 62
7
  6
CONTINUOUS
370
-3
390
F
  0
LAYER
  5
223
100
AcDbSymbolTableRecord
100
AcDbLayerTableRecord
  2
INTF_91203
 70
0
 62
7
  6
CONTINUOUS
370
-3
390
F
  0
LAYER
  5
224
100
AcDbSymbolTableRecord
100
AcDbLayerTableRecord
  2
INTF_BLANK
 70
0
 62
7
  6
CONTINUOUS
370
-3
390
F
  0
LAYER
  5
225
100
AcDbSymbolTableRecord
100
AcDbLayerTableRecord
  2
PLATED_SURFACE
 70
0
 62
7
  6
CONTINUOUS
370
-3
390
F
  0
LAYER
  5
226
100
AcDbSymbolTableRecord
100
AcDbLayerTableRecord
  2
PLATED_SURFACE_1
 70
0
 62
7
  6
CONTINUOUS
370
-3
390
F
  0
LAYER
  5
227
100
AcDbSymbolTableRecord
100
AcDbLayerTableRecord
  2
QUILT
 70
0
 62
7
  6
CONTINUOUS
370
-3
390
F
  0
LAYER
  5
228
100
AcDbSymbolTableRecord
100
AcDbLayerTableRecord
  2
QUILT_1
 70
0
 62
7
  6
CONTINUOUS
370
-3
390
F
  0
LAYER
  5
229
100
AcDbSymbolTableRecord
100
AcDbLayerTableRecord
  2
WETTED_SURFACE
 70
0
 62
7
  6
CONTINUOUS
370
-3
390
F
  0
LAYER
  5
22A
100
AcDbSymbolTableRecord
100
AcDbLayerTableRecord
  2
WETTED_SURFACES
 70
0
 62
7
  6
CONTINUOUS
370
-3
390
F
  0
LAYER
  5
22B
100
AcDbSymbolTableRecord
100
AcDbLayerTableRecord
  2
_BLACK_HOLE
 70
0
 62
7
  6
CONTINUOUS
370
-3
390
F
  0
ENDTAB
  0
TABLE
  2
STYLE
  5
3
100
AcDbSymbolTable
 70
1
  0
STYLE
  5
11
100
AcDbSymbolTableRecord
100
AcDbTextStyleTableRecord
  2
STANDARD
 70
0
 40
0.0
 41
0.8
 50
0.0
 71
0
 42
0.2
  3
txt
  4

  0
STYLE
  5
22C
100
AcDbSymbolTableRecord
100
AcDbTextStyleTableRecord
  2
TEXTSTYLE_1
 70
0
 40
0.0
 41
0.8
 50
0.0
 71
0
 42
0.2
  3
gdt
  4

  0
ENDTAB
  0
TABLE
  2
VIEW
  5
6
100
AcDbSymbolTable
 70
0
  0
ENDTAB
  0
TABLE
  2
UCS
  5
7
100
AcDbSymbolTable
 70
0
  0
ENDTAB
  0
TABLE
  2
APPID
  5
9
100
AcDbSymbolTable
 70
1
  0
APPID
  5
22D
100
AcDbSymbolTableRecord
100
AcDbRegAppTableRecord
  2
ACAD
 70
0
  0
ENDTAB
  0
TABLE
  2
BLOCK_RECORD
  5
1
100
AcDbSymbolTable
 70
0
  0
BLOCK_RECORD
  5
22E
100
AcDbSymbolTableRecord
100
AcDbBlockTableRecord
  2
*Model_Space
  0
BLOCK_RECORD
  5
22F
100
AcDbSymbolTableRecord
100
AcDbBlockTableRecord
  2
*Paper_Space
  0
BLOCK_RECORD
  5
230
100
AcDbSymbolTableRecord
100
AcDbBlockTableRecord
  2
_FILLED
  0
ENDTAB
  0
TABLE
  2
DIMSTYLE
  5
A
100
AcDbSymbolTable
 70
1
100
AcDbDimStyleTable
 71
0
  0
DIMSTYLE
105
231
100
AcDbSymbolTableRecord
100
AcDbDimStyleTableRecord
  2
STANDARD
 70
0
  3

  4

 40
1.0
 41
0.1
 42
0.0625
 43
0.38
 44
0.125
 45
0.0
 46
0.0
 47
0.001
 48
0.001
140
0.08
141
0.09
142
0.0
143
25.4
144
1.0
145
0.0
146
1.0
147
0.09
 71
1.0
 72
0.0
 73
1
 74
1
 75
0
 76
0
 77
0
 78
4
 79
1
170
1
171
2
172
0
173
0
174
0
175
0
176
0
177
0
178
0
270
2
179
3
271
3
272
3
273
2
274
2
275
0
280
0
281
0
282
0
283
1
284
4
285
0
286
0
287
3
288
0
340
11
278
46
341
230
342
230
343
230
344
230
  0
ENDTAB
  0
ENDSEC
  0
SECTION
  2
BLOCKS
  0
BLOCK
  5
20
100
AcDbEntity
  8
0
100
AcDbBlockBegin
  2
*Model_Space
 70
0
 10
0.0
 20
0.0
 30
0.0
  3
*Model_Space
  1

  0
ENDBLK
  5
21
100
AcDbEntity
  8
0
100
AcDbBlockEnd
  0
BLOCK
  5
1C
100
AcDbEntity
  8
0
100
AcDbBlockBegin
  2
*Paper_Space
 70
0
 10
0.0
 20
0.0
 30
0.0
  3
*Paper_Space
  1

  0
ENDBLK
  5
1D
100
AcDbEntity
  8
0
100
AcDbBlockEnd
  0
BLOCK
  5
232
100
AcDbEntity
  8
0
100
AcDbBlockBegin
  2
_FILLED
 70
64
 10
0.0
 20
0.0
  3
_FILLED
  1

  0
SOLID
  5
233
100
AcDbEntity
  8
0
  6
BYBLOCK
 62
0
100
AcDbTrace
 10
0.0
 20
0.0
 11
-1.0
 21
0.2
 12
-1.0
 22
-0.2
 13
-1.0
 23
-0.2
  0
ENDBLK
  5
234
100
AcDbEntity
  8
0
  6
BYBLOCK
 62
0
100
AcDbBlockEnd
  0
ENDSEC
  0
SECTION
  2
ENTITIES
  0
MTEXT
  5
235
100
AcDbEntity
  8
0
100
AcDbMText
 62
7
  6
CONTINUOUS
  7
STANDARD
 71
1
 72
1
 10
7.2858838509
 20
0.2937378882
 30
0.0
 11
1.0
 21
0.0
 31
0.0
 73
2
 44
0.9
  1
SCALE: .50
 40
0.08
 41
0.64
  0
LINE
  5
236
100
AcDbEntity
  8
0
100
AcDbLine
 62
7
  6
CONTINUOUS
 10
0.0
 20
0.0
 11
8.5
 21
0.0
  0
LINE
  5
237
100
AcDbEntity
  8
0
100
AcDbLine
 62
7
  6
CONTINUOUS
 10
0.0
 20
0.0
 11
0.0
 21
11.0
  0
LINE
  5
238
100
AcDbEntity
  8
0
100
AcDbLine
 62
7
  6
CONTINUOUS
 10
8.5
 20
0.0
 11
8.5
 21
11.0
  0
LINE
  5
239
100
AcDbEntity
  8
0
100
AcDbLine
 62
7
  6
CONTINUOUS
 10
0.0
 20
11.0
 11
8.5
 21
11.0
  0
LINE
  5
23A
100
AcDbEntity
  8
0
100
AcDbLine
 62
7
  6
CONTINUOUS
 10
4.1833846128
 20
0.5567306156
 11
4.1538751258
 21
0.5514744411
  0
LINE
  5
23B
100
AcDbEntity
  8
0
100
AcDbLine
 62
7
  6
CONTINUOUS
 10
4.7897520332
 20
0.5567306156
 11
4.8192615201
 21
0.5514744411
  0
LINE
  5
23C
100
AcDbEntity
  8
0
100
AcDbLine
 62
7
  6
CONTINUOUS
 10
4.7897520332
 20
0.9216389496
 11
4.8192615201
 21
0.9268951242
  0
LINE
  5
23D
100
AcDbEntity
  8
0
100
AcDbLine
 62
9
  6
CONTINUOUS
 10
4.6942813334
 20
1.1205961376
 11
4.2788553125
 21
1.1205961376
  0
LINE
  5
23E
100
AcDbEntity
  8
0
100
AcDbLine
 62
7
  6
CONTINUOUS
 10
4.2679334656
 20
1.1341847826
 11
4.7052031803
 21
1.1341847826
  0
LINE
  5
23F
100
AcDbEntity
  8
0
100
AcDbLine
 62
7
  6
CONTINUOUS
 10
4.642818323
 20
1.1841847826
 11
4.330318323
 21
1.1841847826
  0
LINE
  5
240
100
AcDbEntity
  8
0
100
AcDbLine
 62
7
  6
CONTINUOUS
 10
4.1538751258
 20
0.9268951242
 11
4.1833846128
 21
0.9216389496
  0
LINE
  5
241
100
AcDbEntity
  8
0
100
AcDbLine
 62
7
  6
CONTINUOUS
 10
4.642818323
 20
1.3936847826
 11
4.330318323
 21
1.3936847826
  0
LINE
  5
242
100
AcDbEntity
  8
0
100
AcDbLine
 62
7
  6
CONTINUOUS
 10
4.6235933065
 20
1.1660397893
 11
4.6143689004
 21
1.1713703383
  0
LINE
  5
243
100
AcDbEntity
  8
0
100
AcDbLine
 62
7
  6
CONTINUOUS
 10
4.3566107188
 20
1.1827851729
 11
4.3588596761
 21
1.18148456
  0
LINE
  5
244
100
AcDbEntity
  8
0
100
AcDbLine
 62
7
  6
CONTINUOUS
 10
4.6235433908
 20
1.1451968735
 11
4.6143157717
 21
1.150531482
  0
LINE
  5
245
100
AcDbEntity
  8
0
100
AcDbLine
 62
7
  6
CONTINUOUS
 10
4.349522017
 20
1.1660664771
 11
4.358865395
 21
1.1606630727
  0
LINE
  5
246
100
AcDbEntity
  8
0
100
AcDbLine
 62
9
  6
CONTINUOUS
 10
4.1538751258
 20
0.5514744411
 11
4.2988579814
 21
0.4064915854
  0
LINE
  5
247
100
AcDbEntity
  8
0
100
AcDbLine
 62
9
  6
CONTINUOUS
 10
4.1833846128
 20
0.5567306156
 11
4.304114156
 21
0.4360010724
  0
LINE
  5
248
100
AcDbEntity
  8
0
100
AcDbLine
 62
7
  6
CONTINUOUS
 10
4.3161153744
 20
0.4414526135
 11
4.1888361538
 21
0.5687318341
  0
LINE
  5
249
100
AcDbEntity
  8
0
100
AcDbLine
 62
9
  6
CONTINUOUS
 10
4.1942562609
 20
0.5823851845
 11
4.3297687249
 21
0.4468727206
  0
LINE
  5
24A
100
AcDbEntity
  8
0
100
AcDbLine
 62
7
  6
CONTINUOUS
 10
4.3061463639
 20
1.2083567417
 11
4.330318323
 21
1.1841847826
  0
LINE
  5
24B
100
AcDbEntity
  8
0
100
AcDbLine
 62
9
  6
CONTINUOUS
 10
4.778880385
 20
0.8959843807
 11
4.6433679211
 21
1.0314968447
  0
LINE
  5
24C
100
AcDbEntity
  8
0
100
AcDbLine
 62
7
  6
CONTINUOUS
 10
4.6570212715
 20
1.0369169518
 11
4.7843004921
 21
0.9096377311
  0
LINE
  5
24D
100
AcDbEntity
  8
0
100
AcDbLine
 62
9
  6
CONTINUOUS
 10
4.7897520332
 20
0.9216389496
 11
4.66902249
 21
1.0423684928
  0
LINE
  5
24E
100
AcDbEntity
  8
0
100
AcDbLine
 62
9
  6
CONTINUOUS
 10
4.8192615201
 20
0.9268951242
 11
4.6742786645
 21
1.0718779798
  0
LINE
  5
24F
100
AcDbEntity
  8
0
100
AcDbLine
 62
7
  6
CONTINUOUS
 10
4.348043323
 20
1.1669290942
 11
4.3481566949
 21
1.1667949052
  0
LINE
  5
250
100
AcDbEntity
  8
0
100
AcDbLine
 62
7
  6
CONTINUOUS
 10
4.642818323
 20
1.3936847826
 11
4.6669902821
 21
1.3695128235
  0
LINE
  5
251
100
AcDbEntity
  8
0
100
AcDbLine
 62
7
  6
CONTINUOUS
 10
4.625093323
 20
1.1651059027
 11
4.6249813111
 21
1.1652392522
  0
LINE
  5
252
100
AcDbEntity
  8
0
100
AcDbLine
 62
7
  6
CONTINUOUS
 10
4.625093323
 20
1.1442725523
 11
4.6249918673
 21
1.1443994791
  0
LINE
  5
253
100
AcDbEntity
  8
0
100
AcDbLine
 62
7
  6
CONTINUOUS
 10
4.5870154841
 20
10.6473278911
 11
4.6073695932
 21
10.6825822422
  0
LINE
  5
254
100
AcDbEntity
  8
0
100
AcDbLine
 62
7
  6
CONTINUOUS
 10
4.4454459157
 20
1.1503046955
 11
4.4485926222
 21
1.1441847826
  0
LINE
  5
255
100
AcDbEntity
  8
0
100
AcDbLine
 62
7
  6
CONTINUOUS
 10
4.304114156
 20
1.0423684928
 11
4.2988579814
 21
1.0718779798
  0
LINE
  5
256
100
AcDbEntity
  8
0
100
AcDbLine
 62
7
  6
CONTINUOUS
 10
4.6742786645
 20
0.4064915854
 11
4.66902249
 21
0.4360010724
  0
LINE
  5
257
100
AcDbEntity
  8
0
100
AcDbLine
 62
7
  6
CONTINUOUS
 10
4.275318323
 20
10.9216847826
 11
4.275318323
 21
10.8591847826
  0
LINE
  5
258
100
AcDbEntity
  8
0
100
AcDbLine
 62
7
  6
CONTINUOUS
 10
4.286568323
 20
10.8291847826
 11
4.286568323
 21
10.8591847826
  0
LINE
  5
259
100
AcDbEntity
  8
0
100
AcDbLine
 62
7
  6
CONTINUOUS
 10
4.3061463639
 20
1.2083567417
 11
4.3061463639
 21
1.3695128235
  0
LINE
  5
25A
100
AcDbEntity
  8
0
100
AcDbLine
 62
7
  6
CONTINUOUS
 10
4.348043323
 20
1.1754690084
 11
4.348043323
 21
1.1669856246
  0
LINE
  5
25B
100
AcDbEntity
  8
0
100
AcDbLine
 62
7
  6
CONTINUOUS
 10
4.348043323
 20
1.1546320214
 11
4.348043323
 21
1.1341847826
  0
LINE
  5
25C
100
AcDbEntity
  8
0
100
AcDbLine
 62
7
  6
CONTINUOUS
 10
4.359068323
 20
10.7075822422
 11
4.359068323
 21
10.8291847826
  0
LINE
  5
25D
100
AcDbEntity
  8
0
100
AcDbLine
 62
7
  6
CONTINUOUS
 10
4.392818323
 20
1.3936847826
 11
4.392818323
 21
10.6223306082
  0
LINE
  5
25E
100
AcDbEntity
  8
0
100
AcDbLine
 62
7
  6
CONTINUOUS
 10
4.3963573434
 20
1.2083567417
 11
4.3963573434
 21
1.3695128235
  0
LINE
  5
25F
100
AcDbEntity
  8
0
100
AcDbLine
 62
7
  6
CONTINUOUS
 10
4.4454459157
 20
1.1503046955
 11
4.4454459157
 21
1.1380648698
  0
LINE
  5
260
100
AcDbEntity
  8
0
100
AcDbLine
 62
7
  6
CONTINUOUS
 10
4.3588604588
 20
1.1817871712
 11
4.3588596761
 21
1.18148456
  0
LINE
  5
261
100
AcDbEntity
  8
0
100
AcDbLine
 62
7
  6
CONTINUOUS
 10
4.5767793025
 20
1.3695128235
 11
4.5767793025
 21
1.2083567417
  0
LINE
  5
262
100
AcDbEntity
  8
0
100
AcDbLine
 62
7
  6
CONTINUOUS
 10
4.580318323
 20
1.3936847826
 11
4.580318323
 21
10.6223306082
  0
LINE
  5
263
100
AcDbEntity
  8
0
100
AcDbLine
 62
7
  6
CONTINUOUS
 10
4.614068323
 20
10.7075822422
 11
4.614068323
 21
10.8291847826
  0
LINE
  5
264
100
AcDbEntity
  8
0
100
AcDbLine
 62
7
  6
CONTINUOUS
 10
4.625093323
 20
1.1841847826
 11
4.625093323
 21
1.1773458362
  0
LINE
  5
265
100
AcDbEntity
  8
0
100
AcDbLine
 62
7
  6
CONTINUOUS
 10
4.625093323
 20
1.1651056996
 11
4.625093323
 21
1.1565433874
  0
LINE
  5
266
100
AcDbEntity
  8
0
100
AcDbLine
 62
7
  6
CONTINUOUS
 10
4.625093323
 20
1.1442426536
 11
4.625093323
 21
1.1341847826
  0
LINE
  5
267
100
AcDbEntity
  8
0
100
AcDbLine
 62
7
  6
CONTINUOUS
 10
4.6669902821
 20
1.2083567417
 11
4.6669902821
 21
1.3695128235
  0
LINE
  5
268
100
AcDbEntity
  8
0
100
AcDbLine
 62
7
  6
CONTINUOUS
 10
4.686568323
 20
10.8291847826
 11
4.686568323
 21
10.8591847826
  0
LINE
  5
269
100
AcDbEntity
  8
0
100
AcDbLine
 62
7
  6
CONTINUOUS
 10
4.697818323
 20
10.9216847826
 11
4.697818323
 21
10.8591847826
  0
LINE
  5
26A
100
AcDbEntity
  8
0
100
AcDbLine
 62
7
  6
CONTINUOUS
 10
4.2988579814
 20
0.4064915854
 11
4.304114156
 21
0.4360010724
  0
LINE
  5
26B
100
AcDbEntity
  8
0
100
AcDbLine
 62
7
  6
CONTINUOUS
 10
4.6742786645
 20
1.0718779798
 11
4.66902249
 21
1.0423684928
  0
LINE
  5
26C
100
AcDbEntity
  8
0
100
AcDbLine
 62
7
  6
CONTINUOUS
 10
4.4485926222
 20
1.1441847826
 11
4.4454459157
 21
1.1380648698
  0
LINE
  5
26D
100
AcDbEntity
  8
0
100
AcDbLine
 62
7
  6
CONTINUOUS
 10
4.3861211619
 20
10.6473278911
 11
4.3657670528
 21
10.6825822422
  0
LINE
  5
26E
100
AcDbEntity
  8
0
100
AcDbLine
 62
7
  6
CONTINUOUS
 10
4.625093323
 20
1.1773457286
 11
4.624984589
 21
1.177214345
  0
LINE
  5
26F
100
AcDbEntity
  8
0
100
AcDbLine
 62
7
  6
CONTINUOUS
 10
4.348043323
 20
1.1755225388
 11
4.3481542529
 21
1.1756552732
  0
LINE
  5
270
100
AcDbEntity
  8
0
100
AcDbLine
 62
7
  6
CONTINUOUS
 10
4.348043323
 20
1.1546892034
 11
4.3481773617
 21
1.1548351108
  0
LINE
  5
271
100
AcDbEntity
  8
0
100
AcDbLine
 62
7
  6
CONTINUOUS
 10
4.330318323
 20
1.3936847826
 11
4.3061463639
 21
1.3695128235
  0
LINE
  5
272
100
AcDbEntity
  8
0
100
AcDbLine
 62
7
  6
CONTINUOUS
 10
4.625093323
 20
1.1565124129
 11
4.6249552896
 21
1.1563643624
  0
LINE
  5
273
100
AcDbEntity
  8
0
100
AcDbLine
 62
9
  6
CONTINUOUS
 10
4.2988579814
 20
1.0718779798
 11
4.1538751258
 21
0.9268951242
  0
LINE
  5
274
100
AcDbEntity
  8
0
100
AcDbLine
 62
9
  6
CONTINUOUS
 10
4.304114156
 20
1.0423684928
 11
4.1833846128
 21
0.9216389496
  0
LINE
  5
275
100
AcDbEntity
  8
0
100
AcDbLine
 62
7
  6
CONTINUOUS
 10
4.1888361538
 20
0.9096377311
 11
4.3161153744
 21
1.0369169518
  0
LINE
  5
276
100
AcDbEntity
  8
0
100
AcDbLine
 62
9
  6
CONTINUOUS
 10
4.3297687249
 20
1.0314968447
 11
4.1942562609
 21
0.8959843807
  0
LINE
  5
277
100
AcDbEntity
  8
0
100
AcDbLine
 62
7
  6
CONTINUOUS
 10
4.6669902821
 20
1.2083567417
 11
4.642818323
 21
1.1841847826
  0
LINE
  5
278
100
AcDbEntity
  8
0
100
AcDbLine
 62
9
  6
CONTINUOUS
 10
4.6433679211
 20
0.4468727206
 11
4.778880385
 21
0.5823851845
  0
LINE
  5
279
100
AcDbEntity
  8
0
100
AcDbLine
 62
7
  6
CONTINUOUS
 10
4.7843004921
 20
0.5687318341
 11
4.6570212715
 21
0.4414526135
  0
LINE
  5
27A
100
AcDbEntity
  8
0
100
AcDbLine
 62
9
  6
CONTINUOUS
 10
4.66902249
 20
0.4360010724
 11
4.7897520332
 21
0.5567306156
  0
LINE
  5
27B
100
AcDbEntity
  8
0
100
AcDbLine
 62
9
  6
CONTINUOUS
 10
4.6742786645
 20
0.4064915854
 11
4.8192615201
 21
0.5514744411
  0
LINE
  5
27C
100
AcDbEntity
  8
0
100
AcDbLine
 62
7
  6
CONTINUOUS
 10
4.3588604588
 20
1.1817871712
 11
4.3496308516
 21
1.1764497638
  0
LINE
  5
27D
100
AcDbEntity
  8
0
100
AcDbLine
 62
7
  6
CONTINUOUS
 10
4.3588647614
 20
1.1609662092
 11
4.3496276167
 21
1.155624261
  0
LINE
  5
27E
100
AcDbEntity
  8
0
100
AcDbLine
 62
7
  6
CONTINUOUS
 10
4.6143173092
 20
1.1502336075
 11
4.6236752579
 21
1.1556434979
  0
LINE
  5
27F
100
AcDbEntity
  8
0
100
AcDbLine
 62
7
  6
CONTINUOUS
 10
4.6143682045
 20
1.171083108
 11
4.6237065335
 21
1.1764795136
  0
LINE
  5
280
100
AcDbEntity
  8
0
100
AcDbLine
 62
9
  6
CONTINUOUS
 10
4.392818323
 20
10.6223306082
 11
4.580318323
 21
10.6223306082
  0
LINE
  5
281
100
AcDbEntity
  8
0
100
AcDbLine
 62
9
  6
CONTINUOUS
 10
4.5870154841
 20
10.6473278911
 11
4.3861211619
 21
10.6473278911
  0
LINE
  5
282
100
AcDbEntity
  8
0
100
AcDbLine
 62
9
  6
CONTINUOUS
 10
4.3657672065
 20
10.682581976
 11
4.6073695999
 21
10.6825822539
  0
LINE
  5
283
100
AcDbEntity
  8
0
100
AcDbLine
 62
9
  6
CONTINUOUS
 10
4.614068323
 20
10.7075822557
 11
4.359068323
 21
10.7075822557
  0
LINE
  5
284
100
AcDbEntity
  8
0
100
AcDbLine
 62
7
  6
CONTINUOUS
 10
4.2866042059
 20
10.8291847826
 11
4.6865324401
 21
10.8291847826
  0
LINE
  5
285
100
AcDbEntity
  8
0
100
AcDbLine
 62
7
  6
CONTINUOUS
 10
4.6977855212
 20
10.8591847826
 11
4.2755863405
 21
10.8591847826
  0
LINE
  5
286
100
AcDbEntity
  8
0
100
AcDbLine
 62
7
  6
CONTINUOUS
 10
4.6977855212
 20
10.9216847826
 11
4.2753511248
 21
10.9216847826
  0
ARC
  5
287
100
AcDbEntity
  8
0
100
AcDbCircle
 62
7
  6
CONTINUOUS
 10
4.1757948926
 20
0.4284113523
 40
0.125
100
AcDbArc
 50
100.0995
 51
349.9005
  0
ARC
  5
288
100
AcDbEntity
  8
0
100
AcDbCircle
 62
7
  6
CONTINUOUS
 10
4.1915040752
 20
0.6753444523
 40
0.093
100
AcDbArc
 50
271.6958241996
 51
351.040643182
  0
ARC
  5
289
100
AcDbEntity
  8
0
100
AcDbCircle
 62
7
  6
CONTINUOUS
 10
4.1944930081
 20
0.5743886883
 40
0.008
100
AcDbArc
 50
91.6958241996
 51
225.0
  0
ARC
  5
28A
100
AcDbEntity
  8
0
100
AcDbCircle
 62
7
  6
CONTINUOUS
 10
4.1819817477
 20
0.5646066533
 40
0.008
100
AcDbArc
 50
280.0995
 51
31.0407512246
  0
ARC
  5
28B
100
AcDbEntity
  8
0
100
AcDbCircle
 62
7
  6
CONTINUOUS
 10
4.1757948926
 20
1.0499582129
 40
0.125
100
AcDbArc
 50
10.0995
 51
259.9005
  0
ARC
  5
28C
100
AcDbEntity
  8
0
100
AcDbCircle
 62
7
  6
CONTINUOUS
 10
4.1915040752
 20
0.8030251129
 40
0.093
100
AcDbArc
 50
8.959356818
 51
88.3041758004
  0
ARC
  5
28D
100
AcDbEntity
  8
0
100
AcDbCircle
 62
7
  6
CONTINUOUS
 10
4.1944930081
 20
0.9039808769
 40
0.008
100
AcDbArc
 50
135.0
 51
268.3041758004
  0
ARC
  5
28E
100
AcDbEntity
  8
0
100
AcDbCircle
 62
7
  6
CONTINUOUS
 10
4.1819817477
 20
0.9137629119
 40
0.008
100
AcDbArc
 50
328.9592487754
 51
79.9005
  0
ARC
  5
28F
100
AcDbEntity
  8
0
100
AcDbCircle
 62
7
  6
CONTINUOUS
 10
4.4171475258
 20
0.1177768368
 40
1.0606868205
100
AcDbArc
 50
92.3040532762
 51
92.7309791499
  0
ARC
  5
290
100
AcDbEntity
  8
0
100
AcDbCircle
 62
9
  6
CONTINUOUS
 10
4.4267464058
 20
0.332808753
 40
0.6409075588
100
AcDbArc
 50
74.9559093674
 51
75.5762417487
  0
ARC
  5
291
100
AcDbEntity
  8
0
100
AcDbCircle
 62
9
  6
CONTINUOUS
 10
4.4375754242
 20
0.3747602558
 40
0.597580954
100
AcDbArc
 50
75.5798779447
 51
76.1013770232
  0
ARC
  5
292
100
AcDbEntity
  8
0
100
AcDbCircle
 62
7
  6
CONTINUOUS
 10
4.3936847221
 20
0.6013343852
 40
0.5765606832
100
AcDbArc
 50
92.6915952119
 51
93.3467292724
  0
ARC
  5
293
100
AcDbEntity
  8
0
100
AcDbCircle
 62
9
  6
CONTINUOUS
 10
4.4443461872
 20
0.4021078906
 40
0.569407627
100
AcDbArc
 50
76.10172916
 51
76.5757397181
  0
ARC
  5
294
100
AcDbEntity
  8
0
100
AcDbCircle
 62
7
  6
CONTINUOUS
 10
4.4031841321
 20
0.6501054421
 40
0.5339758473
100
AcDbArc
 50
92.9291908313
 51
93.6271263071
  0
ARC
  5
295
100
AcDbEntity
  8
0
100
AcDbCircle
 62
7
  6
CONTINUOUS
 10
4.4227279927
 20
0.4441205349
 40
0.093
100
AcDbArc
 50
98.959356818
 51
178.3041758004
  0
ARC
  5
296
100
AcDbEntity
  8
0
100
AcDbCircle
 62
7
  6
CONTINUOUS
 10
4.3217722287
 20
0.4471094677
 40
0.008
100
AcDbArc
 50
225.0
 51
358.3041758004
  0
ARC
  5
297
100
AcDbEntity
  8
0
100
AcDbCircle
 62
7
  6
CONTINUOUS
 10
4.3119901937
 20
0.4345982073
 40
0.008
100
AcDbArc
 50
58.9592487754
 51
169.9005
  0
ARC
  5
298
100
AcDbEntity
  8
0
100
AcDbCircle
 62
7
  6
CONTINUOUS
 10
4.4122602971
 20
1.2636913334
 40
0.1498611177
100
AcDbArc
 50
132.3072640831
 51
135.079060629
  0
ARC
  5
299
100
AcDbEntity
  8
0
100
AcDbCircle
 62
7
  6
CONTINUOUS
 10
4.4227279927
 20
1.0342490304
 40
0.093
100
AcDbArc
 50
181.6958241996
 51
261.040643182
  0
ARC
  5
29A
100
AcDbEntity
  8
0
100
AcDbCircle
 62
7
  6
CONTINUOUS
 10
4.351421819
 20
1.2247697726
 40
0.0405925869
100
AcDbArc
 50
262.1868161884
 51
263.1250402464
  0
ARC
  5
29B
100
AcDbEntity
  8
0
100
AcDbCircle
 62
7
  6
CONTINUOUS
 10
4.3513548333
 20
1.2242027653
 40
0.0400216382
100
AcDbArc
 50
263.1230811595
 51
264.9796959152
  0
ARC
  5
29C
100
AcDbEntity
  8
0
100
AcDbCircle
 62
7
  6
CONTINUOUS
 10
4.351306664
 20
1.2236713488
 40
0.0394880452
100
AcDbArc
 50
264.9818446957
 51
265.97707677
  0
ARC
  5
29D
100
AcDbEntity
  8
0
100
AcDbCircle
 62
7
  6
CONTINUOUS
 10
4.3512737374
 20
1.2231855914
 40
0.0390011746
100
AcDbArc
 50
265.9752653282
 51
267.972903023
  0
ARC
  5
29E
100
AcDbEntity
  8
0
100
AcDbCircle
 62
7
  6
CONTINUOUS
 10
4.3512534173
 20
1.2226215724
 40
0.0384367898
100
AcDbArc
 50
267.9734348251
 51
269.9976690979
  0
ARC
  5
29F
100
AcDbEntity
  8
0
100
AcDbCircle
 62
7
  6
CONTINUOUS
 10
4.3217722287
 20
1.0312600975
 40
0.008
100
AcDbArc
 50
1.6958241996
 51
135.0
  0
ARC
  5
2A0
100
AcDbEntity
  8
0
100
AcDbCircle
 62
7
  6
CONTINUOUS
 10
4.3119901937
 20
1.0437713579
 40
0.008
100
AcDbArc
 50
190.0995
 51
301.0407512246
  0
ARC
  5
2A1
100
AcDbEntity
  8
0
100
AcDbCircle
 62
7
  6
CONTINUOUS
 10
4.409068323
 20
10.7075822422
 40
0.05
100
AcDbArc
 50
180.0
 51
209.9999999993
  0
ARC
  5
2A2
100
AcDbEntity
  8
0
100
AcDbCircle
 62
7
  6
CONTINUOUS
 10
4.342818323
 20
10.6223306082
 40
0.05
100
AcDbArc
 50
0.0
 51
29.9969165241
  0
ARC
  5
2A3
100
AcDbEntity
  8
0
100
AcDbCircle
 62
7
  6
CONTINUOUS
 10
4.486568323
 20
0.7391847826
 40
0.625
100
AcDbArc
 50
106.7821402401
 51
73.2178764003
  0
ARC
  5
2A4
100
AcDbEntity
  8
0
100
AcDbCircle
 62
9
  6
CONTINUOUS
 10
4.539134087
 20
0.3604858773
 40
0.6122956281
100
AcDbArc
 50
103.9017491494
 51
105.060604383
  0
ARC
  5
2A5
100
AcDbEntity
  8
0
100
AcDbCircle
 62
9
  6
CONTINUOUS
 10
4.486568323
 20
0.7391847826
 40
0.5837863299
100
AcDbArc
 50
108.0112103213
 51
71.9889228275
  0
ARC
  5
2A6
100
AcDbEntity
  8
0
100
AcDbCircle
 62
9
  6
CONTINUOUS
 10
4.5287858172
 20
0.4021271976
 40
0.5693877678
100
AcDbArc
 50
103.4242109476
 51
103.8976724229
  0
ARC
  5
2A7
100
AcDbEntity
  8
0
100
AcDbCircle
 62
7
  6
CONTINUOUS
 10
4.486568323
 20
0.7391847826
 40
0.3225
100
AcDbArc
 50
151.0767963911
 51
208.9220809066
  0
ARC
  5
2A8
100
AcDbEntity
  8
0
100
AcDbCircle
 62
7
  6
CONTINUOUS
 10
4.486568323
 20
0.7391847826
 40
0.3225
100
AcDbArc
 50
241.0699933758
 51
298.9300066242
  0
ARC
  5
2A9
100
AcDbEntity
  8
0
100
AcDbCircle
 62
7
  6
CONTINUOUS
 10
4.486568323
 20
0.7391847826
 40
0.3225
100
AcDbArc
 50
331.0779190934
 51
28.9232036089
  0
ARC
  5
2AA
100
AcDbEntity
  8
0
100
AcDbCircle
 62
9
  6
CONTINUOUS
 10
4.486568323
 20
0.7391847826
 40
0.2597704967
100
AcDbArc
 50
150.7929138604
 51
209.2184138466
  0
ARC
  5
2AB
100
AcDbEntity
  8
0
100
AcDbCircle
 62
9
  6
CONTINUOUS
 10
4.486568323
 20
0.7391847826
 40
0.2597704967
100
AcDbArc
 50
240.7815861534
 51
299.2184138466
  0
ARC
  5
2AC
100
AcDbEntity
  8
0
100
AcDbCircle
 62
9
  6
CONTINUOUS
 10
4.486568323
 20
0.7391847826
 40
0.2597704967
100
AcDbArc
 50
330.7815861534
 51
29.2070861396
  0
ARC
  5
2AD
100
AcDbEntity
  8
0
100
AcDbCircle
 62
7
  6
CONTINUOUS
 10
4.486568323
 20
0.7391847826
 40
0.2348566488
100
AcDbArc
 50
243.9356568899
 51
296.06434311
  0
ARC
  5
2AE
100
AcDbEntity
  8
0
100
AcDbCircle
 62
7
  6
CONTINUOUS
 10
4.486568323
 20
0.7391847826
 40
0.2348566488
100
AcDbArc
 50
153.9356568899
 51
206.06434311
  0
ARC
  5
2AF
100
AcDbEntity
  8
0
100
AcDbCircle
 62
7
  6
CONTINUOUS
 10
4.486568323
 20
0.7391847826
 40
0.2348566488
100
AcDbArc
 50
63.9356568899
 51
116.06434311
  0
ARC
  5
2B0
100
AcDbEntity
  8
0
100
AcDbCircle
 62
7
  6
CONTINUOUS
 10
4.486568323
 20
0.7391847826
 40
0.2348566488
100
AcDbArc
 50
333.9356568899
 51
26.06434311
  0
ARC
  5
2B1
100
AcDbEntity
  8
0
100
AcDbCircle
 62
9
  6
CONTINUOUS
 10
4.486568323
 20
0.7391847826
 40
0.2341905455
100
AcDbArc
 50
64.0869637648
 51
115.9130362352
  0
ARC
  5
2B2
100
AcDbEntity
  8
0
100
AcDbCircle
 62
9
  6
CONTINUOUS
 10
4.486568323
 20
0.7391847826
 40
0.2341905455
100
AcDbArc
 50
334.0883752811
 51
25.9116247189
  0
ARC
  5
2B3
100
AcDbEntity
  8
0
100
AcDbCircle
 62
9
  6
CONTINUOUS
 10
4.486568323
 20
0.7391847826
 40
0.2341905455
100
AcDbArc
 50
244.0869637648
 51
295.9130362352
  0
ARC
  5
2B4
100
AcDbEntity
  8
0
100
AcDbCircle
 62
9
  6
CONTINUOUS
 10
4.486568323
 20
0.7391847826
 40
0.2341905455
100
AcDbArc
 50
154.0883752811
 51
205.9116247189
  0
ARC
  5
2B5
100
AcDbEntity
  8
0
100
AcDbCircle
 62
7
  6
CONTINUOUS
 10
4.486568323
 20
0.7391847826
 40
0.2321266318
100
AcDbArc
 50
64.5051441664
 51
115.4948558336
  0
ARC
  5
2B6
100
AcDbEntity
  8
0
100
AcDbCircle
 62
7
  6
CONTINUOUS
 10
4.486568323
 20
0.7391847826
 40
0.2321266318
100
AcDbArc
 50
334.5051441664
 51
25.4948558336
  0
ARC
  5
2B7
100
AcDbEntity
  8
0
100
AcDbCircle
 62
7
  6
CONTINUOUS
 10
4.486568323
 20
0.7391847826
 40
0.2321266318
100
AcDbArc
 50
244.5051441664
 51
295.4948558336
  0
ARC
  5
2B8
100
AcDbEntity
  8
0
100
AcDbCircle
 62
7
  6
CONTINUOUS
 10
4.486568323
 20
0.7391847826
 40
0.2321266318
100
AcDbArc
 50
154.5051441664
 51
205.4948558336
  0
ARC
  5
2B9
100
AcDbEntity
  8
0
100
AcDbCircle
 62
9
  6
CONTINUOUS
 10
4.486568323
 20
0.7391847826
 40
0.2284837014
100
AcDbArc
 50
155.3774570986
 51
204.6251413545
  0
ARC
  5
2BA
100
AcDbEntity
  8
0
100
AcDbCircle
 62
9
  6
CONTINUOUS
 10
4.486568323
 20
0.7391847826
 40
0.2284837014
100
AcDbArc
 50
245.3748586455
 51
294.6225429014
  0
ARC
  5
2BB
100
AcDbEntity
  8
0
100
AcDbCircle
 62
9
  6
CONTINUOUS
 10
4.486568323
 20
0.7391847826
 40
0.2284837014
100
AcDbArc
 50
335.3774570986
 51
24.6251413545
  0
ARC
  5
2BC
100
AcDbEntity
  8
0
100
AcDbCircle
 62
9
  6
CONTINUOUS
 10
4.486568323
 20
0.7391847826
 40
0.2284837014
100
AcDbArc
 50
65.3748586455
 51
114.6225429014
  0
CIRCLE
  5
2BD
100
AcDbEntity
  8
0
100
AcDbCircle
 62
7
  6
CONTINUOUS
 10
4.486568323
 20
0.7391847826
 40
0.2175
  0
CIRCLE
  5
2BE
100
AcDbEntity
  8
0
100
AcDbCircle
 62
7
  6
CONTINUOUS
 10
4.486568323
 20
0.7391847826
 40
0.2081951318
  0
CIRCLE
  5
2BF
100
AcDbEntity
  8
0
100
AcDbCircle
 62
9
  6
CONTINUOUS
 10
4.486568323
 20
0.7391847826
 40
0.1725049988
  0
ARC
  5
2C0
100
AcDbEntity
  8
0
100
AcDbCircle
 62
7
  6
CONTINUOUS
 10
4.5504086533
 20
1.0342490304
 40
0.093
100
AcDbArc
 50
278.959356818
 51
358.3041758004
  0
ARC
  5
2C1
100
AcDbEntity
  8
0
100
AcDbCircle
 62
7
  6
CONTINUOUS
 10
4.5504086533
 20
0.4441205349
 40
0.093
100
AcDbArc
 50
1.6958241996
 51
81.040643182
  0
ARC
  5
2C2
100
AcDbEntity
  8
0
100
AcDbCircle
 62
7
  6
CONTINUOUS
 10
4.5555114168
 20
2.2449543305
 40
1.0705609243
100
AcDbArc
 50
272.3083706729
 51
272.7313625514
  0
ARC
  5
2C3
100
AcDbEntity
  8
0
100
AcDbCircle
 62
7
  6
CONTINUOUS
 10
4.5793483533
 20
1.7536811139
 40
0.5787100544
100
AcDbArc
 50
272.6918484857
 51
273.3445543808
  0
ARC
  5
2C4
100
AcDbEntity
  8
0
100
AcDbCircle
 62
7
  6
CONTINUOUS
 10
4.6218519955
 20
1.3543359045
 40
0.0393488917
100
AcDbArc
 50
83.0728673415
 51
89.952244706
  0
ARC
  5
2C5
100
AcDbEntity
  8
0
100
AcDbCircle
 62
7
  6
CONTINUOUS
 10
4.6513644173
 20
0.4471094677
 40
0.008
100
AcDbArc
 50
181.6958241996
 51
315.0
  0
ARC
  5
2C6
100
AcDbEntity
  8
0
100
AcDbCircle
 62
7
  6
CONTINUOUS
 10
4.6611464523
 20
0.4345982073
 40
0.008
100
AcDbArc
 50
10.0995
 51
121.0407512246
  0
ARC
  5
2C7
100
AcDbEntity
  8
0
100
AcDbCircle
 62
7
  6
CONTINUOUS
 10
4.6513644173
 20
1.0312600975
 40
0.008
100
AcDbArc
 50
45.0
 51
178.3041758004
  0
ARC
  5
2C8
100
AcDbEntity
  8
0
100
AcDbCircle
 62
7
  6
CONTINUOUS
 10
4.6611464523
 20
1.0437713579
 40
0.008
100
AcDbArc
 50
238.9592487754
 51
349.9005
  0
ARC
  5
2C9
100
AcDbEntity
  8
0
100
AcDbCircle
 62
7
  6
CONTINUOUS
 10
4.7973417533
 20
0.4284113523
 40
0.125
100
AcDbArc
 50
190.0995
 51
79.9005
  0
ARC
  5
2CA
100
AcDbEntity
  8
0
100
AcDbCircle
 62
7
  6
CONTINUOUS
 10
4.7816325707
 20
0.6753444523
 40
0.093
100
AcDbArc
 50
188.959356818
 51
268.3041758004
  0
ARC
  5
2CB
100
AcDbEntity
  8
0
100
AcDbCircle
 62
7
  6
CONTINUOUS
 10
4.7786436379
 20
0.5743886883
 40
0.008
100
AcDbArc
 50
315.0
 51
88.3041758004
  0
ARC
  5
2CC
100
AcDbEntity
  8
0
100
AcDbCircle
 62
7
  6
CONTINUOUS
 10
4.7911548983
 20
0.5646066533
 40
0.008
100
AcDbArc
 50
148.9592487754
 51
259.9005
  0
ARC
  5
2CD
100
AcDbEntity
  8
0
100
AcDbCircle
 62
7
  6
CONTINUOUS
 10
4.7973417533
 20
1.0499582129
 40
0.125
100
AcDbArc
 50
280.0995
 51
169.9005
  0
ARC
  5
2CE
100
AcDbEntity
  8
0
100
AcDbCircle
 62
7
  6
CONTINUOUS
 10
4.7816325707
 20
0.8030251129
 40
0.093
100
AcDbArc
 50
91.6958241996
 51
171.040643182
  0
ARC
  5
2CF
100
AcDbEntity
  8
0
100
AcDbCircle
 62
7
  6
CONTINUOUS
 10
4.7786436379
 20
0.9039808769
 40
0.008
100
AcDbArc
 50
271.6958241996
 51
45.0
  0
ARC
  5
2D0
100
AcDbEntity
  8
0
100
AcDbCircle
 62
7
  6
CONTINUOUS
 10
4.7911548983
 20
0.9137629119
 40
0.008
100
AcDbArc
 50
100.0995
 51
211.0407512246
  0
ARC
  5
2D1
100
AcDbEntity
  8
0
100
AcDbCircle
 62
7
  6
CONTINUOUS
 10
4.564068323
 20
10.7075822422
 40
0.05
100
AcDbArc
 50
330.0000000007
 51
360.0
  0
ARC
  5
2D2
100
AcDbEntity
  8
0
100
AcDbCircle
 62
7
  6
CONTINUOUS
 10
4.630318323
 20
10.6223306082
 40
0.05
100
AcDbArc
 50
150.0030834759
 51
180.0
  0
SPLINE
  5
2D3
100
AcDbEntity
  8
0
100
AcDbSpline
 62
7
  6
CONTINUOUS
 70
0
 71
3
 72
10
 73
6
 74
0
 42
0.0000001
 43
0.0000001
 44
0.0000000001
 40
0.0
 40
0.0
 40
0.0
 40
0.0
 40
0.2682250822
 40
0.5250006016
 40
1.0
 40
1.0
 40
1.0
 40
1.0
 10
4.6669902821
 20
1.3695128235
 30
0.0
 10
4.6646039852
 20
1.3718991204
 30
0.0
 10
4.6597917343
 20
1.376438564
 30
0.0
 10
4.6499899015
 20
1.3843165776
 30
0.0
 10
4.6418974761
 20
1.3890223154
 30
0.0
 10
4.6362776017
 20
1.3910553666
 30
0.0
  0
SPLINE
  5
2D4
100
AcDbEntity
  8
0
100
AcDbSpline
 62
7
  6
CONTINUOUS
 70
0
 71
3
 72
9
 73
5
 74
0
 42
0.0000001
 43
0.0000001
 44
0.0000000001
 40
0.0
 40
0.0
 40
0.0
 40
0.0
 40
0.254253536
 40
1.0
 40
1.0
 40
1.0
 40
1.0
 10
4.6362776017
 20
1.3910553666
 30
0.0
 10
4.6354829519
 20
1.3913428399
 30
0.0
 10
4.6323291109
 20
1.3923922123
 30
0.0
 10
4.6290583452
 20
1.3930993865
 30
0.0
 10
4.6265977453
 20
1.3933975627
 30
0.0
  0
SPLINE
  5
2D5
100
AcDbEntity
  8
0
100
AcDbSpline
 62
7
  6
CONTINUOUS
 70
0
 71
3
 72
10
 73
6
 74
0
 42
0.0000001
 43
0.0000001
 44
0.0000000001
 40
0.0
 40
0.0
 40
0.0
 40
0.0
 40
0.268298238
 40
0.5251006405
 40
1.0
 40
1.0
 40
1.0
 40
1.0
 10
4.3061463639
 20
1.2083567417
 30
0.0
 10
4.3085398163
 20
1.2059632893
 30
0.0
 10
4.3133665404
 20
1.2014109558
 30
0.0
 10
4.3231980016
 20
1.1935152577
 30
0.0
 10
4.3313183127
 20
1.1888054173
 30
0.0
 10
4.3369565492
 20
1.1867789975
 30
0.0
  0
SPLINE
  5
2D6
100
AcDbEntity
  8
0
100
AcDbSpline
 62
7
  6
CONTINUOUS
 70
0
 71
3
 72
9
 73
5
 74
0
 42
0.0000001
 43
0.0000001
 44
0.0000000001
 40
0.0
 40
0.0
 40
0.0
 40
0.0
 40
0.253968361
 40
1.0
 40
1.0
 40
1.0
 40
1.0
 10
4.3369565492
 20
1.1867789975
 30
0.0
 10
4.3376917736
 20
1.1865147529
 30
0.0
 10
4.3406110527
 20
1.1855441204
 30
0.0
 10
4.343629846
 20
1.1848659796
 30
0.0
 10
4.345903519
 20
1.1845540235
 30
0.0
  0
SPLINE
  5
2D7
100
AcDbEntity
  8
0
100
AcDbSpline
 62
7
  6
CONTINUOUS
 70
0
 71
3
 72
11
 73
7
 74
0
 42
0.0000001
 43
0.0000001
 44
0.0000000001
 40
0.0
 40
0.0
 40
0.0
 40
0.0
 40
0.2359962739
 40
0.4787996476
 40
0.7327842735
 40
1.0
 40
1.0
 40
1.0
 40
1.0
 10
4.6218847923
 20
1.3936847826
 30
0.0
 10
4.6192406937
 20
1.3936847826
 30
0.0
 10
4.6138632668
 20
1.3931210139
 30
0.0
 10
4.6059683268
 20
1.3907223456
 30
0.0
 10
4.598267646
 20
1.3869157288
 30
0.0
 10
4.5933919269
 20
1.3836776827
 30
0.0
 10
4.5909799726
 20
1.3819040427
 30
0.0
  0
SPLINE
  5
2D8
100
AcDbEntity
  8
0
100
AcDbSpline
 62
7
  6
CONTINUOUS
 70
0
 71
3
 72
9
 73
5
 74
0
 42
0.0000001
 43
0.0000001
 44
0.0000000001
 40
0.0
 40
0.0
 40
0.0
 40
0.0
 40
0.2422356609
 40
1.0
 40
1.0
 40
1.0
 40
1.0
 10
4.5909799726
 20
1.3819040427
 30
0.0
 10
4.5897532719
 20
1.3810019836
 30
0.0
 10
4.5847808309
 20
1.3771533069
 30
0.0
 10
4.5801474038
 20
1.3728809247
 30
0.0
 10
4.5767793025
 20
1.3695128235
 30
0.0
  0
SPLINE
  5
2D9
100
AcDbEntity
  8
0
100
AcDbSpline
 62
7
  6
CONTINUOUS
 70
0
 71
3
 72
11
 73
7
 74
0
 42
0.0000001
 43
0.0000001
 44
0.0000000001
 40
0.0
 40
0.0
 40
0.0
 40
0.0
 40
0.249968898
 40
0.4999941334
 40
0.7500139013
 40
1.0
 40
1.0
 40
1.0
 40
1.0
 10
4.3963573434
 20
1.2083567417
 30
0.0
 10
4.4033779453
 20
1.2048464408
 30
0.0
 10
4.417672451
 20
1.1983075559
 30
0.0
 10
4.4399410653
 20
1.190510653
 30
0.0
 10
4.4629946861
 20
1.1853899254
 30
0.0
 10
4.4787185113
 20
1.1841847826
 30
0.0
 10
4.486568323
 20
1.1841847826
 30
0.0
  0
SPLINE
  5
2DA
100
AcDbEntity
  8
0
100
AcDbSpline
 62
7
  6
CONTINUOUS
 70
0
 71
3
 72
11
 73
7
 74
0
 42
0.0000001
 43
0.0000001
 44
0.0000000001
 40
0.0
 40
0.0
 40
0.0
 40
0.0
 40
0.2499860986
 40
0.5000058664
 40
0.7500311018
 40
1.0
 40
1.0
 40
1.0
 40
1.0
 10
4.486568323
 20
1.3936847826
 30
0.0
 10
4.4787185113
 20
1.3936847826
 30
0.0
 10
4.4629946861
 20
1.3924796398
 30
0.0
 10
4.4399410653
 20
1.3873589122
 30
0.0
 10
4.417672451
 20
1.3795620093
 30
0.0
 10
4.4033779453
 20
1.3730231244
 30
0.0
 10
4.3963573434
 20
1.3695128235
 30
0.0
  0
SPLINE
  5
2DB
100
AcDbEntity
  8
0
100
AcDbSpline
 62
7
  6
CONTINUOUS
 70
0
 71
3
 72
11
 73
7
 74
0
 42
0.0000001
 43
0.0000001
 44
0.0000000001
 40
0.0
 40
0.0
 40
0.0
 40
0.0
 40
0.2499688975
 40
0.4999941331
 40
0.750013901
 40
1.0
 40
1.0
 40
1.0
 40
1.0
 10
4.5767793025
 20
1.3695128235
 30
0.0
 10
4.5697587007
 20
1.3730231244
 30
0.0
 10
4.5554641951
 20
1.3795620094
 30
0.0
 10
4.5331955809
 20
1.387358913
 30
0.0
 10
4.51014196
 20
1.3924796406
 30
0.0
 10
4.4944181346
 20
1.3936847826
 30
0.0
 10
4.486568323
 20
1.3936847826
 30
0.0
  0
SPLINE
  5
2DC
100
AcDbEntity
  8
0
100
AcDbSpline
 62
7
  6
CONTINUOUS
 70
0
 71
3
 72
11
 73
7
 74
0
 42
0.0000001
 43
0.0000001
 44
0.0000000001
 40
0.0
 40
0.0
 40
0.0
 40
0.0
 40
0.2499844047
 40
0.4999986605
 40
0.7500223261
 40
1.0
 40
1.0
 40
1.0
 40
1.0
 10
4.486568323
 20
1.1841847826
 30
0.0
 10
4.4944180827
 20
1.1841847826
 30
0.0
 10
4.5101417219
 20
1.185389616
 30
0.0
 10
4.5331949714
 20
1.1905107495
 30
0.0
 10
4.5554638006
 20
1.1983071671
 30
0.0
 10
4.5697584531
 20
1.204846317
 30
0.0
 10
4.5767793025
 20
1.2083567417
 30
0.0
  0
SPLINE
  5
2DD
100
AcDbEntity
  8
0
100
AcDbSpline
 62
7
  6
CONTINUOUS
 70
0
 71
3
 72
10
 73
6
 74
0
 42
0.0000001
 43
0.0000001
 44
0.0000000001
 40
0.0
 40
0.0
 40
0.0
 40
0.0
 40
0.268298238
 40
0.5251006405
 40
1.0
 40
1.0
 40
1.0
 40
1.0
 10
4.5767793025
 20
1.2083567417
 30
0.0
 10
4.579172755
 20
1.2059632893
 30
0.0
 10
4.5839994791
 20
1.2014109558
 30
0.0
 10
4.5938309403
 20
1.1935152577
 30
0.0
 10
4.6019512514
 20
1.1888054173
 30
0.0
 10
4.6075894879
 20
1.1867789975
 30
0.0
  0
SPLINE
  5
2DE
100
AcDbEntity
  8
0
100
AcDbSpline
 62
7
  6
CONTINUOUS
 70
0
 71
3
 72
9
 73
5
 74
0
 42
0.0000001
 43
0.0000001
 44
0.0000000001
 40
0.0
 40
0.0
 40
0.0
 40
0.0
 40
0.5060212514
 40
1.0
 40
1.0
 40
1.0
 40
1.0
 10
4.6075894879
 20
1.1867789975
 30
0.0
 10
4.6099043434
 20
1.185947023
 30
0.0
 10
4.6146134532
 20
1.184647826
 30
0.0
 10
4.6194835075
 20
1.1841847826
 30
0.0
 10
4.6218847923
 20
1.1841847826
 30
0.0
  0
SPLINE
  5
2DF
100
AcDbEntity
  8
0
100
AcDbSpline
 62
7
  6
CONTINUOUS
 70
0
 71
3
 72
9
 73
5
 74
0
 42
0.0000001
 43
0.0000001
 44
0.0000000001
 40
0.0
 40
0.0
 40
0.0
 40
0.0
 40
0.4939776733
 40
1.0
 40
1.0
 40
1.0
 40
1.0
 10
4.6218847923
 20
1.1841847826
 30
0.0
 10
4.6242863153
 20
1.1841847826
 30
0.0
 10
4.6291568647
 20
1.1846479219
 30
0.0
 10
4.6338664225
 20
1.1859473699
 30
0.0
 10
4.6361814928
 20
1.1867794995
 30
0.0
  0
LINE
  5
2E0
100
AcDbEntity
  8
0
100
AcDbLine
 62
7
  6
CONTINUOUS
 10
4.6361814928
 20
1.1867794995
 11
4.6410909953
 21
1.1888369065
  0
SPLINE
  5
2E1
100
AcDbEntity
  8
0
100
AcDbSpline
 62
7
  6
CONTINUOUS
 70
0
 71
3
 72
9
 73
5
 74
0
 42
0.0000001
 43
0.0000001
 44
0.0000000001
 40
0.0
 40
0.0
 40
0.0
 40
0.0
 40
0.2437953842
 40
1.0
 40
1.0
 40
1.0
 40
1.0
 10
4.6410909953
 20
1.1888369065
 30
0.0
 10
4.6419489491
 20
1.1892467441
 30
0.0
 10
4.6454266642
 20
1.191014425
 30
0.0
 10
4.6487394501
 20
1.1930969615
 30
0.0
 10
4.6511540225
 20
1.1947904403
 30
0.0
  0
SPLINE
  5
2E2
100
AcDbEntity
  8
0
100
AcDbSpline
 62
7
  6
CONTINUOUS
 70
0
 71
3
 72
9
 73
5
 74
0
 42
0.0000001
 43
0.0000001
 44
0.0000000001
 40
0.0
 40
0.0
 40
0.0
 40
0.0
 40
0.2439488787
 40
1.0
 40
1.0
 40
1.0
 40
1.0
 10
4.6511540225
 20
1.1947904403
 30
0.0
 10
4.6520489556
 20
1.1954181085
 30
0.0
 10
4.655668858
 20
1.1980603452
 30
0.0
 10
4.6591039919
 20
1.2009504786
 30
0.0
 10
4.6616135518
 20
1.2032262321
 30
0.0
  0
LINE
  5
2E3
100
AcDbEntity
  8
0
100
AcDbLine
 62
7
  6
CONTINUOUS
 10
4.6616135518
 20
1.2032262321
 11
4.6669902821
 21
1.2083567417
  0
SPLINE
  5
2E4
100
AcDbEntity
  8
0
100
AcDbSpline
 62
7
  6
CONTINUOUS
 70
0
 71
3
 72
9
 73
5
 74
0
 42
0.0000001
 43
0.0000001
 44
0.0000000001
 40
0.0
 40
0.0
 40
0.0
 40
0.0
 40
0.4939776733
 40
1.0
 40
1.0
 40
1.0
 40
1.0
 10
4.3512518536
 20
1.1841847826
 30
0.0
 10
4.3536533766
 20
1.1841847826
 30
0.0
 10
4.3585239261
 20
1.1846479219
 30
0.0
 10
4.3632334838
 20
1.1859473699
 30
0.0
 10
4.3655485541
 20
1.1867794995
 30
0.0
  0
SPLINE
  5
2E5
100
AcDbEntity
  8
0
100
AcDbSpline
 62
7
  6
CONTINUOUS
 70
0
 71
3
 72
10
 73
6
 74
0
 42
0.0000001
 43
0.0000001
 44
0.0000000001
 40
0.0
 40
0.0
 40
0.0
 40
0.0
 40
0.4749005911
 40
0.7317026788
 40
1.0
 40
1.0
 40
1.0
 40
1.0
 10
4.3655485541
 20
1.1867794995
 30
0.0
 10
4.3711865256
 20
1.1888060139
 30
0.0
 10
4.3793064363
 20
1.1935157946
 30
0.0
 10
4.3891374732
 20
1.20141124
 30
0.0
 10
4.3939639922
 20
1.2059633905
 30
0.0
 10
4.3963573434
 20
1.2083567417
 30
0.0
  0
SPLINE
  5
2E6
100
AcDbEntity
  8
0
100
AcDbSpline
 62
7
  6
CONTINUOUS
 70
0
 71
3
 72
11
 73
7
 74
0
 42
0.0000001
 43
0.0000001
 44
0.0000000001
 40
0.0
 40
0.0
 40
0.0
 40
0.0
 40
0.2369265822
 40
0.4801489608
 40
0.7337859841
 40
1.0
 40
1.0
 40
1.0
 40
1.0
 10
4.3512518536
 20
1.3936847826
 30
0.0
 10
4.3487298894
 20
1.3936847826
 30
0.0
 10
4.3436076203
 20
1.3931727243
 30
0.0
 10
4.336070388
 20
1.3909889019
 30
0.0
 10
4.3287021182
 20
1.3875054761
 30
0.0
 10
4.324025275
 20
1.3845241196
 30
0.0
 10
4.3217115014
 20
1.3828881528
 30
0.0
  0
SPLINE
  5
2E7
100
AcDbEntity
  8
0
100
AcDbSpline
 62
7
  6
CONTINUOUS
 70
0
 71
3
 72
9
 73
5
 74
0
 42
0.0000001
 43
0.0000001
 44
0.0000000001
 40
0.0
 40
0.0
 40
0.0
 40
0.0
 40
0.2440501763
 40
1.0
 40
1.0
 40
1.0
 40
1.0
 10
4.3217115014
 20
1.3828881528
 30
0.0
 10
4.3208284752
 20
1.3822638041
 30
0.0
 10
4.3172575471
 20
1.3796386891
 30
0.0
 10
4.3138662739
 20
1.3767740864
 30
0.0
 10
4.3113878376
 20
1.374520488
 30
0.0
  0
SPLINE
  5
2E8
100
AcDbEntity
  8
0
100
AcDbSpline
 62
7
  6
CONTINUOUS
 70
0
 71
3
 72
9
 73
5
 74
0
 42
0.0000001
 43
0.0000001
 44
0.0000000001
 40
0.0
 40
0.0
 40
0.0
 40
0.0
 40
0.5113969885
 40
1.0
 40
1.0
 40
1.0
 40
1.0
 10
4.3963573434
 20
1.3695128235
 30
0.0
 10
4.3938814147
 20
1.3719887522
 30
0.0
 10
4.3888919697
 20
1.3766859614
 30
0.0
 10
4.3835238105
 20
1.3809567554
 30
0.0
 10
4.3807922182
 20
1.382888144
 30
0.0
  0
SPLINE
  5
2E9
100
AcDbEntity
  8
0
100
AcDbSpline
 62
7
  6
CONTINUOUS
 70
0
 71
3
 72
11
 73
7
 74
0
 42
0.0000001
 43
0.0000001
 44
0.0000000001
 40
0.0
 40
0.0
 40
0.0
 40
0.0
 40
0.2662140266
 40
0.5198510532
 40
0.7630734268
 40
1.0
 40
1.0
 40
1.0
 40
1.0
 10
4.3807922182
 20
1.382888144
 30
0.0
 10
4.3784784436
 20
1.3845241121
 30
0.0
 10
4.3738015987
 20
1.387505471
 30
0.0
 10
4.3664333259
 20
1.3909888998
 30
0.0
 10
4.3588960903
 20
1.393172724
 30
0.0
 10
4.3537738189
 20
1.3936847826
 30
0.0
 10
4.3512518536
 20
1.3936847826
 30
0.0
  0
LINE
  5
2EA
100
AcDbEntity
  8
0
100
AcDbLine
 62
7
  6
CONTINUOUS
 10
4.486568323
 20
1.1390642361
 11
4.5010547376
 21
1.1394065134
  0
SPLINE
  5
2EB
100
AcDbEntity
  8
0
100
AcDbSpline
 62
7
  6
CONTINUOUS
 70
0
 71
3
 72
11
 73
7
 74
0
 42
0.0000001
 43
0.0000001
 44
0.0000000001
 40
0.0
 40
0.0
 40
0.0
 40
0.0
 40
0.2904654606
 40
0.5615010844
 40
0.8014160081
 40
1.0
 40
1.0
 40
1.0
 40
1.0
 10
4.5010547376
 20
1.1394065134
 30
0.0
 10
4.5105048456
 20
1.1396333822
 30
0.0
 10
4.5287726021
 20
1.1400851885
 30
0.0
 10
4.5548449404
 20
1.1407611363
 30
0.0
 10
4.5779261248
 20
1.1414317689
 30
0.0
 10
4.592188154
 20
1.1419264231
 30
0.0
 10
4.5986454593
 20
1.1421895643
 30
0.0
  0
SPLINE
  5
2EC
100
AcDbEntity
  8
0
100
AcDbSpline
 62
7
  6
CONTINUOUS
 70
0
 71
3
 72
13
 73
9
 74
0
 42
0.0000001
 43
0.0000001
 44
0.0000000001
 40
0.0
 40
0.0
 40
0.0
 40
0.0
 40
0.3755819385
 40
0.6705679143
 40
0.786161362
 40
0.8797337436
 40
0.9510554682
 40
1.0
 40
1.0
 40
1.0
 40
1.0
 10
4.5986454593
 20
1.1421895643
 30
0.0
 10
4.6018676499
 20
1.1423208715
 30
0.0
 10
4.6076197865
 20
1.1425740239
 30
0.0
 10
4.6143603805
 20
1.1429427441
 30
0.0
 10
4.6186780904
 20
1.143252363
 30
0.0
 10
4.6210776372
 20
1.1434628891
 30
0.0
 10
4.6229015118
 20
1.1436717063
 30
0.0
 10
4.6239232065
 20
1.1438318938
 30
0.0
 10
4.6243328775
 20
1.1439256084
 30
0.0
  0
LINE
  5
2ED
100
AcDbEntity
  8
0
100
AcDbLine
 62
7
  6
CONTINUOUS
 10
4.6243328775
 20
1.1439256084
 11
4.625093323
 21
1.1442725523
  0
SPLINE
  5
2EE
100
AcDbEntity
  8
0
100
AcDbSpline
 62
7
  6
CONTINUOUS
 70
0
 71
3
 72
13
 73
9
 74
0
 42
0.0000001
 43
0.0000001
 44
0.0000000001
 40
0.0
 40
0.0
 40
0.0
 40
0.0
 40
0.0428657691
 40
0.108760597
 40
0.1982274804
 40
0.3113855732
 40
0.6086578968
 40
1.0
 40
1.0
 40
1.0
 40
1.0
 10
4.6249912032
 20
1.1443994974
 30
0.0
 10
4.6249091603
 20
1.1444505344
 30
0.0
 10
4.6246761905
 20
1.144535915
 30
0.0
 10
4.6242438603
 20
1.1446451713
 30
0.0
 10
4.6236479521
 20
1.1447556278
 30
0.0
 10
4.6225334186
 20
1.1449204261
 30
0.0
 10
4.6207360273
 20
1.1451154959
 30
0.0
 10
4.6191894265
 20
1.1452464056
 30
0.0
 10
4.6183099509
 20
1.1453145053
 30
0.0
  0
SPLINE
  5
2EF
100
AcDbEntity
  8
0
100
AcDbSpline
 62
7
  6
CONTINUOUS
 70
0
 71
3
 72
13
 73
9
 74
0
 42
0.0000001
 43
0.0000001
 44
0.0000000001
 40
0.0
 40
0.0
 40
0.0
 40
0.0
 40
0.0456610755
 40
0.1136621174
 40
0.2044222477
 40
0.3180318544
 40
0.6136656999
 40
1.0
 40
1.0
 40
1.0
 40
1.0
 10
4.3481782048
 20
1.1548351058
 30
0.0
 10
4.3482682117
 20
1.1548838297
 30
0.0
 10
4.3485111121
 20
1.1549673633
 30
0.0
 10
4.3489560733
 20
1.1550747384
 30
0.0
 10
4.3495574228
 20
1.1551832746
 30
0.0
 10
4.3506665058
 20
1.1553442644
 30
0.0
 10
4.3524400702
 20
1.1555355187
 30
0.0
 10
4.3539632477
 20
1.155664275
 30
0.0
 10
4.3548266233
 20
1.1557311664
 30
0.0
  0
LINE
  5
2F0
100
AcDbEntity
  8
0
100
AcDbLine
 62
7
  6
CONTINUOUS
 10
4.3548266233
 20
1.1557311664
 11
4.3666095287
 21
1.1564258471
  0
SPLINE
  5
2F1
100
AcDbEntity
  8
0
100
AcDbSpline
 62
7
  6
CONTINUOUS
 70
0
 71
3
 72
11
 73
7
 74
0
 42
0.0000001
 43
0.0000001
 44
0.0000000001
 40
0.0
 40
0.0
 40
0.0
 40
0.0
 40
0.1836011817
 40
0.4226867075
 40
0.7012662467
 40
1.0
 40
1.0
 40
1.0
 40
1.0
 10
4.3666095287
 20
1.1564258471
 30
0.0
 10
4.3739458339
 20
1.1567770724
 30
0.0
 10
4.3908441881
 20
1.157395783
 30
0.0
 10
4.4188848367
 20
1.158230231
 30
0.0
 10
4.4515333515
 20
1.1590587743
 30
0.0
 10
4.4746218712
 20
1.1595894336
 30
0.0
 10
4.486568323
 20
1.1598975695
 30
0.0
  0
SPLINE
  5
2F2
100
AcDbEntity
  8
0
100
AcDbSpline
 62
7
  6
CONTINUOUS
 70
0
 71
3
 72
13
 73
9
 74
0
 42
0.0000001
 43
0.0000001
 44
0.0000000001
 40
0.0
 40
0.0
 40
0.0
 40
0.0
 40
0.0438204322
 40
0.1104376591
 40
0.2003487973
 40
0.3136625461
 40
0.6103743348
 40
1.0
 40
1.0
 40
1.0
 40
1.0
 10
4.6249805884
 20
1.1652392648
 30
0.0
 10
4.6248957525
 20
1.1652894977
 30
0.0
 10
4.6246593865
 20
1.1653742628
 30
0.0
 10
4.6242226524
 20
1.1654828986
 30
0.0
 10
4.6236248316
 20
1.1655927224
 30
0.0
 10
4.6225120683
 20
1.1657562391
 30
0.0
 10
4.6207227254
 20
1.1659500162
 30
0.0
 10
4.6191840475
 20
1.1660801666
 30
0.0
 10
4.6183100358
 20
1.1661478321
 30
0.0
  0
SPLINE
  5
2F3
100
AcDbEntity
  8
0
100
AcDbSpline
 62
7
  6
CONTINUOUS
 70
0
 71
3
 72
13
 73
9
 74
0
 42
0.0000001
 43
0.0000001
 44
0.0000000001
 40
0.0
 40
0.0
 40
0.0
 40
0.0
 40
0.0437244771
 40
0.110269163
 40
0.200135692
 40
0.3134338121
 40
0.6102019215
 40
1.0
 40
1.0
 40
1.0
 40
1.0
 10
4.3481549707
 20
1.1756552868
 30
0.0
 10
4.3482395316
 20
1.175705597
 30
0.0
 10
4.3484755604
 20
1.1757904152
 30
0.0
 10
4.348911861
 20
1.1758990986
 30
0.0
 10
4.3495094965
 20
1.1760089702
 30
0.0
 10
4.3506224481
 20
1.1761725962
 30
0.0
 10
4.3524126095
 20
1.1763665029
 30
0.0
 10
4.3539520894
 20
1.1764967641
 30
0.0
 10
4.3548266527
 20
1.1765645021
 30
0.0
  0
LINE
  5
2F4
100
AcDbEntity
  8
0
100
AcDbLine
 62
7
  6
CONTINUOUS
 10
4.3548266527
 20
1.1765645021
 11
4.3600261271
 21
1.1769117653
  0
SPLINE
  5
2F5
100
AcDbEntity
  8
0
100
AcDbSpline
 62
7
  6
CONTINUOUS
 70
0
 71
3
 72
11
 73
7
 74
0
 42
0.0000001
 43
0.0000001
 44
0.0000000001
 40
0.0
 40
0.0
 40
0.0
 40
0.0
 40
0.1986040418
 40
0.4385248913
 40
0.7095531147
 40
1.0
 40
1.0
 40
1.0
 40
1.0
 10
4.3745052867
 20
1.1776061489
 30
0.0
 10
4.3809630431
 20
1.1778689849
 30
0.0
 10
4.3952254858
 20
1.1783623457
 30
0.0
 10
4.4183063956
 20
1.1790366437
 30
0.0
 10
4.444377204
 20
1.1797136216
 30
0.0
 10
4.462643836
 20
1.180151953
 30
0.0
 10
4.4720930016
 20
1.1803798323
 30
0.0
  0
LINE
  5
2F6
100
AcDbEntity
  8
0
100
AcDbLine
 62
7
  6
CONTINUOUS
 10
4.4720930016
 20
1.1803798323
 11
4.486568323
 21
1.1807309028
  0
LINE
  5
2F7
100
AcDbEntity
  8
0
100
AcDbLine
 62
7
  6
CONTINUOUS
 10
4.6243328729
 20
1.1776926364
 11
4.625093323
 21
1.1773457286
  0
LINE
  5
2F8
100
AcDbEntity
  8
0
100
AcDbLine
 62
7
  6
CONTINUOUS
 10
4.486568323
 20
1.1807309028
 11
4.5010545396
 21
1.1810822378
  0
SPLINE
  5
2F9
100
AcDbEntity
  8
0
100
AcDbSpline
 62
7
  6
CONTINUOUS
 70
0
 71
3
 72
11
 73
7
 74
0
 42
0.0000001
 43
0.0000001
 44
0.0000000001
 40
0.0
 40
0.0
 40
0.0
 40
0.0
 40
0.2904655705
 40
0.5615012454
 40
0.8014162759
 40
1.0
 40
1.0
 40
1.0
 40
1.0
 10
4.5010545396
 20
1.1810822378
 30
0.0
 10
4.5105046373
 20
1.1813101408
 30
0.0
 10
4.528772746
 20
1.1817485167
 30
0.0
 10
4.5548451092
 20
1.1824255618
 30
0.0
 10
4.5779262012
 20
1.1830999309
 30
0.0
 10
4.5921882806
 20
1.1835933581
 30
0.0
 10
4.5986455954
 20
1.1838562365
 30
0.0
  0
SPLINE
  5
2FA
100
AcDbEntity
  8
0
100
AcDbSpline
 62
7
  6
CONTINUOUS
 70
0
 71
3
 72
19
 73
15
 74
0
 42
0.0000001
 43
0.0000001
 44
0.0000000001
 40
0.0
 40
0.0
 40
0.0
 40
0.0
 40
0.1829695956
 40
0.3602083984
 40
0.5251588495
 40
0.672491794
 40
0.7974008342
 40
0.8500608696
 40
0.8955901844
 40
0.9336416386
 40
0.9638726019
 40
0.9860242616
 40
0.9940370939
 40
1.0
 40
1.0
 40
1.0
 40
1.0
 10
4.486568323
 20
1.1721373952
 30
0.0
 10
4.4781610477
 20
1.1719515054
 30
0.0
 10
4.4616105069
 20
1.1715546714
 30
0.0
 10
4.4374819943
 20
1.1709364248
 30
0.0
 10
4.4149911579
 20
1.1703460774
 30
0.0
 10
4.3949062819
 20
1.1697568516
 30
0.0
 10
4.3799824483
 20
1.1692418224
 30
0.0
 10
4.3697375382
 20
1.1688167582
 30
0.0
 10
4.3634830123
 20
1.168517557
 30
0.0
 10
4.3582603671
 20
1.1682215261
 30
0.0
 10
4.3541144834
 20
1.167927501
 30
0.0
 10
4.3513496789
 20
1.1676704429
 30
0.0
 10
4.3497039885
 20
1.1674492405
 30
0.0
 10
4.3490709279
 20
1.1673371543
 30
0.0
 10
4.348803773
 20
1.1672760369
 30
0.0
  0
LINE
  5
2FB
100
AcDbEntity
  8
0
100
AcDbLine
 62
7
  6
CONTINUOUS
 10
4.348803773
 20
1.1672760369
 11
4.348043323
 21
1.1669290943
  0
LINE
  5
2FC
100
AcDbEntity
  8
0
100
AcDbLine
 62
7
  6
CONTINUOUS
 10
4.3488037756
 20
1.1751755926
 11
4.348043323
 21
1.1755225387
  0
LINE
  5
2FD
100
AcDbEntity
  8
0
100
AcDbLine
 62
7
  6
CONTINUOUS
 10
4.6243328712
 20
1.156859304
 11
4.625093323
 21
1.1565124129
  0
SPLINE
  5
2FE
100
AcDbEntity
  8
0
100
AcDbSpline
 62
7
  6
CONTINUOUS
 70
0
 71
3
 72
19
 73
15
 74
0
 42
0.0000001
 43
0.0000001
 44
0.0000000001
 40
0.0
 40
0.0
 40
0.0
 40
0.0
 40
0.1829694973
 40
0.3602079998
 40
0.5251583959
 40
0.6724915385
 40
0.7974004586
 40
0.8500604274
 40
0.895589772
 40
0.9336413445
 40
0.9638724619
 40
0.9860242293
 40
0.9940370882
 40
1.0
 40
1.0
 40
1.0
 40
1.0
 10
4.486568323
 20
1.1598975695
 30
0.0
 10
4.4949748516
 20
1.1601143998
 30
0.0
 10
4.5115253926
 20
1.1605098029
 30
0.0
 10
4.5356549572
 20
1.161084944
 30
0.0
 10
4.5581455466
 20
1.1616852302
 30
0.0
 10
4.578230188
 20
1.1622817362
 30
0.0
 10
4.5931541183
 20
1.1627937127
 30
0.0
 10
4.6033990682
 20
1.1632176795
 30
0.0
 10
4.6096535995
 20
1.1635168559
 30
0.0
 10
4.6148762416
 20
1.1638131909
 30
0.0
 10
4.6190221199
 20
1.1641075291
 30
0.0
 10
4.6217869292
 20
1.164364652
 30
0.0
 10
4.6234326289
 20
1.1645858292
 30
0.0
 10
4.6240656951
 20
1.1646978896
 30
0.0
 10
4.6243328537
 20
1.1647589918
 30
0.0
  0
LINE
  5
2FF
100
AcDbEntity
  8
0
100
AcDbLine
 62
7
  6
CONTINUOUS
 10
4.6243328537
 20
1.1647589918
 11
4.625093323
 21
1.1651059027
  0
LINE
  5
300
100
AcDbEntity
  8
0
100
AcDbLine
 62
7
  6
CONTINUOUS
 10
4.486568323
 20
1.1513040618
 11
4.4454459157
 21
1.1503046955
  0
LINE
  5
301
100
AcDbEntity
  8
0
100
AcDbLine
 62
7
  6
CONTINUOUS
 10
4.3488037848
 20
1.1543422953
 11
4.348043323
 21
1.1546892034
  0
LINE
  5
302
100
AcDbEntity
  8
0
100
AcDbLine
 62
7
  6
CONTINUOUS
 10
4.4454459157
 20
1.1380648698
 11
4.486568323
 21
1.1390642361
  0
SPLINE
  5
303
100
AcDbEntity
  8
0
100
AcDbSpline
 62
9
  6
CONTINUOUS
 70
0
 71
3
 72
19
 73
15
 74
0
 42
0.0000001
 43
0.0000001
 44
0.0000000001
 40
0.0
 40
0.0
 40
0.0
 40
0.0
 40
0.1231152713
 40
0.2474326861
 40
0.3101926147
 40
0.3732222875
 40
0.4365111337
 40
0.5000000565
 40
0.5634890251
 40
0.626777937
 40
0.6898075259
 40
0.7525673538
 40
0.8768847822
 40
1.0
 40
1.0
 40
1.0
 40
1.0
 10
4.3653428654
 20
0.9611552642
 30
0.0
 10
4.3746227256
 20
0.9659239657
 30
0.0
 10
4.3935537113
 20
0.9749845043
 30
0.0
 10
4.4182505022
 20
0.9841527056
 30
0.0
 10
4.4387228916
 20
0.9896932841
 30
0.0
 10
4.454452196
 20
0.9928233714
 30
0.0
 10
4.4704396182
 20
0.9947438031
 30
0.0
 10
4.4865683285
 20
0.9953761906
 30
0.0
 10
4.5026970408
 20
0.9947437678
 30
0.0
 10
4.5186844714
 20
0.9928233907
 30
0.0
 10
4.5344137676
 20
0.9896933057
 30
0.0
 10
4.5548861345
 20
0.9841527005
 30
0.0
 10
4.5795829091
 20
0.9749844934
 30
0.0
 10
4.5985138956
 20
0.9659239641
 30
0.0
 10
4.6077937516
 20
0.9611552644
 30
0.0
  0
SPLINE
  5
304
100
AcDbEntity
  8
0
100
AcDbSpline
 62
7
  6
CONTINUOUS
 70
0
 71
3
 72
13
 73
9
 74
0
 42
0.0000001
 43
0.0000001
 44
0.0000000001
 40
0.0
 40
0.0
 40
0.0
 40
0.0
 40
0.0459764592
 40
0.1142135703
 40
0.2051182977
 40
0.3187781066
 40
0.6142275654
 40
1.0
 40
1.0
 40
1.0
 40
1.0
 10
4.6249544259
 20
1.156364367
 30
0.0
 10
4.6248635612
 20
1.1563158918
 30
0.0
 10
4.6246195485
 20
1.1562325642
 30
0.0
 10
4.6241732135
 20
1.1561253959
 30
0.0
 10
4.6235712823
 20
1.1560170719
 30
0.0
 10
4.6224628647
 20
1.1558565025
 30
0.0
 10
4.620692034
 20
1.1556656862
 30
0.0
 10
4.6191715354
 20
1.1555371981
 30
0.0
 10
4.6183099916
 20
1.1554704624
 30
0.0
  0
LINE
  5
305
100
AcDbEntity
  8
0
100
AcDbLine
 62
7
  6
CONTINUOUS
 10
4.6183099916
 20
1.1554704624
 11
4.6065270633
 21
1.1547759286
  0
SPLINE
  5
306
100
AcDbEntity
  8
0
100
AcDbSpline
 62
7
  6
CONTINUOUS
 70
0
 71
3
 72
11
 73
7
 74
0
 42
0.0000001
 43
0.0000001
 44
0.0000000001
 40
0.0
 40
0.0
 40
0.0
 40
0.0
 40
0.1836013538
 40
0.4226868079
 40
0.7012663134
 40
1.0
 40
1.0
 40
1.0
 40
1.0
 10
4.6065270633
 20
1.1547759286
 30
0.0
 10
4.5991907551
 20
1.1544246796
 30
0.0
 10
4.5822924627
 20
1.1538043091
 30
0.0
 10
4.5542516903
 20
1.1529740877
 30
0.0
 10
4.5216032759
 20
1.1521427829
 30
0.0
 10
4.49851509
 20
1.151599429
 30
0.0
 10
4.486568323
 20
1.1513040618
 30
0.0
  0
SPLINE
  5
307
100
AcDbEntity
  8
0
100
AcDbSpline
 62
7
  6
CONTINUOUS
 70
0
 71
3
 72
12
 73
8
 74
0
 42
0.0000001
 43
0.0000001
 44
0.0000000001
 40
0.0
 40
0.0
 40
0.0
 40
0.0
 40
0.0521807744
 40
0.1252108467
 40
0.334884253
 40
0.6277213777
 40
1.0
 40
1.0
 40
1.0
 40
1.0
 10
4.6140191976
 20
1.1501161315
 30
0.0
 10
4.6138390734
 20
1.1500579518
 30
0.0
 10
4.6133959673
 20
1.1499536267
 30
0.0
 10
4.6121988829
 20
1.1497470933
 30
0.0
 10
4.6101229088
 20
1.1495119006
 30
0.0
 10
4.6069614695
 20
1.1492408636
 30
0.0
 10
4.6045540007
 20
1.1490780188
 30
0.0
 10
4.6032062146
 20
1.1489932381
 30
0.0
  0
SPLINE
  5
308
100
AcDbEntity
  8
0
100
AcDbSpline
 62
7
  6
CONTINUOUS
 70
0
 71
3
 72
12
 73
8
 74
0
 42
0.0000001
 43
0.0000001
 44
0.0000000001
 40
0.0
 40
0.0
 40
0.0
 40
0.0
 40
0.0742511716
 40
0.1678697058
 40
0.4058720721
 40
0.6922571828
 40
1.0
 40
1.0
 40
1.0
 40
1.0
 10
4.6032062146
 20
1.1489932381
 30
0.0
 10
4.6000853086
 20
1.1487969215
 30
0.0
 10
4.5930247101
 20
1.1484299241
 30
0.0
 10
4.5759464741
 20
1.1477124828
 30
0.0
 10
4.5499321863
 20
1.1468772945
 30
0.0
 10
4.5149004753
 20
1.1459147368
 30
0.0
 10
4.4898871335
 20
1.1452712071
 30
0.0
 10
4.4769309952
 20
1.1449337575
 30
0.0
  0
LINE
  5
309
100
AcDbEntity
  8
0
100
AcDbLine
 62
7
  6
CONTINUOUS
 10
4.4769309952
 20
1.1449337575
 11
4.4626748394
 21
1.144560152
  0
LINE
  5
30A
100
AcDbEntity
  8
0
100
AcDbLine
 62
7
  6
CONTINUOUS
 10
4.4626748394
 20
1.144560152
 11
4.4486457499
 21
1.1441847826
  0
LINE
  5
30B
100
AcDbEntity
  8
0
100
AcDbLine
 62
7
  6
CONTINUOUS
 10
4.3588584637
 20
1.1606630997
 11
4.3595378941
 21
1.1604351745
  0
LINE
  5
30C
100
AcDbEntity
  8
0
100
AcDbLine
 62
7
  6
CONTINUOUS
 10
4.3595378941
 20
1.1604351745
 11
4.3658488926
 21
1.1596930285
  0
SPLINE
  5
30D
100
AcDbEntity
  8
0
100
AcDbSpline
 62
7
  6
CONTINUOUS
 70
0
 71
3
 72
13
 73
9
 74
0
 42
0.0000001
 43
0.0000001
 44
0.0000000001
 40
0.0
 40
0.0
 40
0.0
 40
0.0
 40
0.0439391269
 40
0.1106458506
 40
0.2006119437
 40
0.3139448815
 40
0.6105870832
 40
1.0
 40
1.0
 40
1.0
 40
1.0
 10
4.3481574262
 20
1.1667948933
 30
0.0
 10
4.3482426066
 20
1.1667447626
 30
0.0
 10
4.3484794003
 20
1.1666600853
 30
0.0
 10
4.3489166823
 20
1.1665515456
 30
0.0
 10
4.3495147445
 20
1.1664418204
 30
0.0
 10
4.3506272922
 20
1.1662784864
 30
0.0
 10
4.3524156413
 20
1.1660848711
 30
0.0
 10
4.3539533369
 20
1.1659547739
 30
0.0
 10
4.3548266712
 20
1.1658871278
 30
0.0
  0
SPLINE
  5
30E
100
AcDbEntity
  8
0
100
AcDbSpline
 62
7
  6
CONTINUOUS
 70
0
 71
3
 72
13
 73
9
 74
0
 42
0.0000001
 43
0.0000001
 44
0.0000000001
 40
0.0
 40
0.0
 40
0.0
 40
0.0
 40
0.0435295148
 40
0.1099269961
 40
0.1997030907
 40
0.3129695996
 40
0.609852087
 40
1.0
 40
1.0
 40
1.0
 40
1.0
 10
4.6249838846
 20
1.177214332
 30
0.0
 10
4.6248998909
 20
1.1771638558
 30
0.0
 10
4.6246645592
 20
1.1770789014
 30
0.0
 10
4.6242291558
 20
1.1769700732
 30
0.0
 10
4.6236319105
 20
1.1768600529
 30
0.0
 10
4.6225185951
 20
1.1766961417
 30
0.0
 10
4.6207267859
 20
1.1765019681
 30
0.0
 10
4.6191856817
 20
1.1763715903
 30
0.0
 10
4.6183099992
 20
1.1763037964
 30
0.0
  0
LINE
  5
30F
100
AcDbEntity
  8
0
100
AcDbLine
 62
7
  6
CONTINUOUS
 10
4.6183099992
 20
1.1763037964
 11
4.613110495
 21
1.1759567464
  0
SPLINE
  5
310
100
AcDbEntity
  8
0
100
AcDbSpline
 62
7
  6
CONTINUOUS
 70
0
 71
3
 72
11
 73
7
 74
0
 42
0.0000001
 43
0.0000001
 44
0.0000000001
 40
0.0
 40
0.0
 40
0.0
 40
0.0
 40
0.1986043551
 40
0.4385249327
 40
0.7095531189
 40
1.0
 40
1.0
 40
1.0
 40
1.0
 10
4.5986312237
 20
1.1752621436
 30
0.0
 10
4.5921734764
 20
1.1749988139
 30
0.0
 10
4.5779111046
 20
1.1745031113
 30
0.0
 10
4.5548299722
 20
1.1738359152
 30
0.0
 10
4.528759142
 20
1.1731610412
 30
0.0
 10
4.5104931326
 20
1.1726971397
 30
0.0
 10
4.5010439186
 20
1.1724712314
 30
0.0
  0
LINE
  5
311
100
AcDbEntity
  8
0
100
AcDbLine
 62
7
  6
CONTINUOUS
 10
4.5010439186
 20
1.1724712314
 11
4.486568323
 21
1.1721373952
  0
SPLINE
  5
312
100
AcDbEntity
  8
0
100
AcDbSpline
 62
7
  6
CONTINUOUS
 70
0
 71
3
 72
14
 73
10
 74
0
 42
0.0000001
 43
0.0000001
 44
0.0000000001
 40
0.0
 40
0.0
 40
0.0
 40
0.0
 40
0.0416356625
 40
0.1067368015
 40
0.1960065456
 40
0.3094990762
 40
0.4469634597
 40
0.6080924793
 40
1.0
 40
1.0
 40
1.0
 40
1.0
 10
4.6143314178
 20
1.1710831499
 30
0.0
 10
4.6142338431
 20
1.171023354
 30
0.0
 10
4.6139534901
 20
1.1709250122
 30
0.0
 10
4.6134309616
 20
1.1707990544
 30
0.0
 10
4.6127046805
 20
1.1706721779
 30
0.0
 10
4.6117786721
 20
1.1705431735
 30
0.0
 10
4.6106532735
 20
1.1704135425
 30
0.0
 10
4.6087645005
 20
1.1702275338
 30
0.0
 10
4.6072490231
 20
1.1701074053
 30
0.0
 10
4.6061747022
 20
1.1700287899
 30
0.0
  0
SPLINE
  5
313
100
AcDbEntity
  8
0
100
AcDbSpline
 62
7
  6
CONTINUOUS
 70
0
 71
3
 72
31
 73
27
 74
0
 42
0.0000001
 43
0.0000001
 44
0.0000000001
 40
0.0
 40
0.0
 40
0.0
 40
0.0
 40
0.0381116803
 40
0.0890563986
 40
0.1515455568
 40
0.2238295521
 40
0.3036069777
 40
0.3885174989
 40
0.4761717144
 40
0.5641087096
 40
0.6497982231
 40
0.7306723016
 40
0.8041596342
 40
0.8374702054
 40
0.8682327587
 40
0.8962573015
 40
0.9213487235
 40
0.9432984122
 40
0.9618961713
 40
0.9769340069
 40
0.9830697856
 40
0.9882818333
 40
0.9925731786
 40
0.9959485194
 40
0.9984166821
 40
1.0
 40
1.0
 40
1.0
 40
1.0
 10
4.6061747022
 20
1.1700287899
 30
0.0
 10
4.6030384337
 20
1.1697992878
 30
0.0
 10
4.5957011368
 20
1.1693864499
 30
0.0
 10
4.5832088879
 20
1.1688392281
 30
0.0
 10
4.5678947214
 20
1.1682890407
 30
0.0
 10
4.5502004466
 20
1.1677361311
 30
0.0
 10
4.5306554117
 20
1.1671798755
 30
0.0
 10
4.5098417531
 20
1.166621436
 30
0.0
 10
4.4883546057
 20
1.1660628402
 30
0.0
 10
4.4668031473
 20
1.1655048364
 30
0.0
 10
4.4458113024
 20
1.1649473426
 30
0.0
 10
4.4260121219
 20
1.1643912852
 30
0.0
 10
4.4105343159
 20
1.1639144781
 30
0.0
 10
4.3991906248
 20
1.1635260189
 30
0.0
 10
4.3915966991
 20
1.1632447073
 30
0.0
 10
4.3846814268
 20
1.1629639787
 30
0.0
 10
4.3784939458
 20
1.1626840951
 30
0.0
 10
4.3730850864
 20
1.162405464
 30
0.0
 10
4.3685069984
 20
1.162128344
 30
0.0
 10
4.3652340617
 20
1.161886574
 30
0.0
 10
4.3630661911
 20
1.1616858933
 30
0.0
 10
4.3617831561
 20
1.1615463743
 30
0.0
 10
4.3607298113
 20
1.1614074784
 30
0.0
 10
4.3599037543
 20
1.1612709807
 30
0.0
 10
4.3593073454
 20
1.1611355922
 30
0.0
 10
4.3589862013
 20
1.1610303683
 30
0.0
 10
4.3588724093
 20
1.160966191
 30
0.0
  0
LINE
  5
314
100
AcDbEntity
  8
0
100
AcDbLine
 62
7
  6
CONTINUOUS
 10
4.3588625895
 20
1.1814846182
 11
4.3601521711
 21
1.1811380947
  0
SPLINE
  5
315
100
AcDbEntity
  8
0
100
AcDbSpline
 62
7
  6
CONTINUOUS
 70
0
 71
3
 72
14
 73
10
 74
0
 42
0.0000001
 43
0.0000001
 44
0.0000000001
 40
0.0
 40
0.0
 40
0.0
 40
0.0
 40
0.3957690827
 40
0.557991463
 40
0.6958970372
 40
0.8091045953
 40
0.8973951647
 40
0.9608616473
 40
1.0
 40
1.0
 40
1.0
 40
1.0
 10
4.603225401
 20
1.1726236227
 30
0.0
 10
4.6046987221
 20
1.1725303094
 30
0.0
 10
4.6067754108
 20
1.1723878495
 30
0.0
 10
4.6093617325
 20
1.1721666466
 30
0.0
 10
4.6108961079
 20
1.1720127995
 30
0.0
 10
4.6121524073
 20
1.1718594444
 30
0.0
 10
4.6131309133
 20
1.1717093674
 30
0.0
 10
4.6138247186
 20
1.1715596353
 30
0.0
 10
4.6141953338
 20
1.1714443644
 30
0.0
 10
4.6143211584
 20
1.1713703261
 30
0.0
  0
SPLINE
  5
316
100
AcDbEntity
  8
0
100
AcDbSpline
 62
7
  6
CONTINUOUS
 70
0
 71
3
 72
14
 73
10
 74
0
 42
0.0000001
 43
0.0000001
 44
0.0000000001
 40
0.0
 40
0.0
 40
0.0
 40
0.0
 40
0.3969286548
 40
0.5586123026
 40
0.6957442293
 40
0.8083249136
 40
0.8963977163
 40
0.9601149518
 40
1.0
 40
1.0
 40
1.0
 40
1.0
 10
4.3694032066
 20
1.1830116764
 30
0.0
 10
4.3679989142
 20
1.1829208038
 30
0.0
 10
4.3660231628
 20
1.1827817957
 30
0.0
 10
4.3635661156
 20
1.1825648215
 30
0.0
 10
4.3621151463
 20
1.1824142377
 30
0.0
 10
4.360927337
 20
1.1822642741
 30
0.0
 10
4.3600002537
 20
1.1821174058
 30
0.0
 10
4.3593385156
 20
1.1819712826
 30
0.0
 10
4.3589840232
 20
1.1818583128
 30
0.0
 10
4.3588618066
 20
1.1817871913
 30
0.0
  0
LINE
  5
317
100
AcDbEntity
  8
0
100
AcDbLine
 62
7
  6
CONTINUOUS
 10
4.3115230989
 20
1.3746433374
 11
4.3061463639
 21
1.3695128235
  0
ENDSEC
  0
SECTION
  2
OBJECTS
  0
DICTIONARY
  5
C
100
AcDbDictionary
280
0
281
1
  3
ACAD_GROUP
350
D
  3
ACAD_MLINESTYLE
350
17
  3
ACAD_LAYOUT
350
1A
  3
ACAD_PLOTSETTINGS
350
19
  3
ACAD_PLOTSTYLENAME
350
E
  0
DICTIONARY
  5
D
102
{ACAD_REACTORS
330
C
102
}
100
AcDbDictionary
280
0
281
1
  0
ACDBDICTIONARYWDFLT
  5
E
102
{ACAD_REACTORS
330
C
102
}
100
AcDbDictionary
281
1
  3
Normal
350
F
100
AcDbDictionaryWithDefault
340
F
  0
DICTIONARY
  5
17
102
{ACAD_REACTORS
330
C
102
}
100
AcDbDictionary
280
0
281
1
  3
Standard
350
18
  0
DICTIONARY
  5
19
102
{ACAD_REACTORS
330
C
102
}
100
AcDbDictionary
281
1
  0
DICTIONARY
  5
1A
102
{ACAD_REACTORS
330
C
102
}
100
AcDbDictionary
281
1
  3
Model
350
318
  3
Layout1
350
319
  0
ACDBPLACEHOLDER
  5
F
102
{ACAD_REACTORS
330
E
102
}
  0
MLINESTYLE
  5
18
102
{ACAD_REACTORS
330
17
102
}
100
AcDbMlineStyle
  2
STANDARD
 70
0
  3

 62
256
 51
90.0
 52
90.0
 71
2
 49
0.5
 62
256
  6
BYLAYER
 49
-0.5
 62
256
  6
BYLAYER
  0
LAYOUT
  5
318
102
{ACAD_REACTORS
330
1A
102
}
100
AcDbPlotSettings
  1

  2
none_device
  4

  6

 40
0.0
 41
0.0
 42
0.0
 43
0.0
 44
215.9
 45
279.4
 46
0.0
 47
0.0
 48
0.0
 49
0.0
140
0.0
141
0.0
142
1.0
143
1.0
 70
1024
 72
0
 73
0
 74
0
  7

 75
0
147
1.0
148
0.0
149
0.0
100
AcDbLayout
  1
Model
 70
0
 71
0
 10
0.0
 20
0.0
 11
8.5
 21
11.0
 12
0.0
 22
0.0
 32
0.0
 14
0.0
 24
0.0
 34
0.0
 15
0.0
 25
0.0
 35
0.0
146
0.0
 13
0.0
 23
0.0
 33
0.0
 16
1.0
 26
0.0
 36
0.0
 17
0.0
 27
1.0
 37
0.0
 76
0
330
22E
345
0
346
0
  0
LAYOUT
  5
319
102
{ACAD_REACTORS
330
1A
102
}
100
AcDbPlotSettings
  1

  2
none_device
  4

  6

 40
0.0
 41
0.0
 42
0.0
 43
0.0
 44
215.9
 45
279.4
 46
0.0
 47
0.0
 48
0.0
 49
0.0
140
0.0
141
0.0
142
1.0
143
1.0
 70
0
 72
0
 73
0
 74
0
  7

 75
0
147
1.0
148
0.0
149
0.0
100
AcDbLayout
  1
Layout1
 70
0
 71
1
 10
0.0
 20
0.0
 11
8.5
 21
11.0
 12
0.0
 22
0.0
 32
0.0
 14
0.0
 24
0.0
 34
0.0
 15
0.0
 25
0.0
 35
0.0
146
0.0
 13
0.0
 23
0.0
 33
0.0
 16
1.0
 26
0.0
 36
0.0
 17
0.0
 27
1.0
 37
0.0
 76
0
330
22F
345
0
346
0
  0
ENDSEC
  0
EOF
