999
DXF file: C:\Prowork\plots\482_front.dxf
999
Pro/ENGINEER 2018500 by Parametric Technology Corporation
  0
SECTION
  2
HEADER
  9
$ACADVER
  1
AC1032
  9
$DWGCODEPAGE
  3
ANSI_1252
  9
$EXTMAX
 10
8.5
 20
11.0
 30
0.0
  9
$EXTMIN
 10
0.0
 20
0.0
 30
0.0
  9
$LIMMIN
 10
0.0
 20
0.0
  9
$LIMMAX
 10
8.5
 20
11.0
  9
$VIEWCTR
 10
4.25
 20
5.5
  9
$VIEWSIZE
 40
11.0
  9
$CLAYER
  8
0
  9
$LTSCALE
 40
0.717037037
  9
$CELTYPE
  6
BYLAYER
  9
$DIMSCALE
 40
1.0
  9
$DIMASZ
 40
0.1
  9
$DIMEXO
 40
0.0625
  9
$DIMDLI
 40
0.4954074074
  9
$DIMEXE
 40
0.125
  9
$DIMCEN
 40
0.1173333333
  9
$DIMLFAC
 40
1.0
  9
$DIMBLK
  1
_FILLED
  9
$DIMALT
 70
1
  9
$DIMALTD
 70
2
  9
$DIMALTTD
 70
2
  9
$DIMALTF
 40
25.4
  9
$DIMTXT
 40
0.08
  9
$DIMTOL
 70
1
  9
$DIMLIM
 70
0
  9
$DIMTFAC
 40
1.0
  9
$DIMTP
 40
0.001
  9
$DIMTM
 40
0.001
  9
$DIMGAP
 40
0.09
  9
$DIMDSEP
 70
46
  9
$AUNITS
 70
0
  9
$PDMODE
 70
3
  9
$PDSIZE
 40
0.06
  9
$HANDSEED
  5
297
  9
$TILEMODE
 70
1
  9
$MEASUREMENT
 70
0
  9
$INSUNITS
 70
1
  0
ENDSEC
  0
SECTION
  2
CLASSES
  0
CLASS
  1
ACDBDICTIONARYWDFLT
  2
AcDbDictionaryWithDefault
  3
AutoCAD 2000
 90
0
 91
1
280
0
281
0
  0
CLASS
  1
ACDBPLACEHOLDER
  2
AcDbPlaceHolder
  3
AutoCAD 2000
 90
0
 91
1
280
0
281
0
  0
CLASS
  1
LAYOUT
  2
AcDbLayout
  3
AutoCAD 2000
 90
0
 91
0
280
0
281
0
  0
ENDSEC
  0
SECTION
  2
TABLES
  0
TABLE
  2
VPORT
  5
8
100
AcDbSymbolTable
 70
2
  0
VPORT
  5
1F4
100
AcDbSymbolTableRecord
100
AcDbViewportTableRecord
  2
*ACTIVE
 70
0
 10
0.0
 20
0.0
 11
1.0
 21
1.0
 12
4.25
 22
5.5
 13
0.0
 23
0.0
 14
1.0
 24
1.0
 15
0.0
 25
0.0
 16
0.0
 26
0.0
 36
1.0
 17
0.0
 27
0.0
 37
0.0
 40
11.0
 41
0.7727272727
 42
50.0
 43
0.0
 44
0.0
 50
0.0
 51
0.0
 71
0
 72
100
 73
1
 74
1
 75
0
 76
0
 77
0
 78
0
  0
ENDTAB
  0
TABLE
  2
LTYPE
  5
5
100
AcDbSymbolTable
 70
6
  0
LTYPE
  5
14
100
AcDbSymbolTableRecord
100
AcDbLinetypeTableRecord
  2
BYBLOCK
 70
0
  3

 72
65
 73
0
 40
0.0
  0
LTYPE
  5
15
100
AcDbSymbolTableRecord
100
AcDbLinetypeTableRecord
  2
BYLAYER
 70
0
  3

 72
65
 73
0
 40
0.0
  0
LTYPE
  5
16
100
AcDbSymbolTableRecord
100
AcDbLinetypeTableRecord
  2
CONTINUOUS
 70
64
  3
Solid line
 72
65
 73
0
 40
0.0
  0
LTYPE
  5
1F5
100
AcDbSymbolTableRecord
100
AcDbLinetypeTableRecord
  2
CENTER
 70
64
  3
____ _ ____ _ ____ _ ____ _ ____ _ ____ _ ____
 72
65
 73
4
 40
0.6
 49
0.375
 74
0
 49
-0.075
 74
0
 49
0.075
 74
0
 49
-0.075
 74
0
  0
LTYPE
  5
1F6
100
AcDbSymbolTableRecord
100
AcDbLinetypeTableRecord
  2
HIDDEN
 70
64
  3
- - - - - - - - - - - - - - - - - - - -
 72
65
 73
2
 40
0.2
 49
0.1
 74
0
 49
-0.1
 74
0
  0
LTYPE
  5
1F7
100
AcDbSymbolTableRecord
100
AcDbLinetypeTableRecord
  2
PHANTOM
 70
64
  3
_____ _ _ _____ _ _ _____ _ _ _____
 72
65
 73
6
 40
0.8
 49
0.45
 74
0
 49
-0.05
 74
0
 49
0.1
 74
0
 49
-0.05
 74
0
 49
0.1
 74
0
 49
-0.05
 74
0
  0
LTYPE
  5
1F8
100
AcDbSymbolTableRecord
100
AcDbLinetypeTableRecord
  2
DOT
 70
64
  3
. . . . . . . . . . . . . . . . . . . .
 72
65
 73
2
 40
0.2
 49
0.1
 74
0
 49
-0.1
 74
0
  0
LTYPE
  5
1F9
100
AcDbSymbolTableRecord
100
AcDbLinetypeTableRecord
  2
DASHED
 70
64
  3
- - - - - - - - - - - - - - - - - - - -
 72
65
 73
2
 40
0.2
 49
0.1
 74
0
 49
-0.1
 74
0
  0
ENDTAB
  0
TABLE
  2
LAYER
  5
2
100
AcDbSymbolTable
 70
36
  0
LAYER
  5
10
100
AcDbSymbolTableRecord
100
AcDbLayerTableRecord
  2
0
 70
0
 62
7
  6
CONTINUOUS
370
-3
390
F
  0
LAYER
  5
1FA
100
AcDbSymbolTableRecord
100
AcDbLayerTableRecord
  2
DEFAULT_1
 70
0
 62
7
  6
CENTER
370
-3
390
F
  0
LAYER
  5
1FB
100
AcDbSymbolTableRecord
100
AcDbLayerTableRecord
  2
DEFAULT_2
 70
0
 62
8
  6
HIDDEN
370
-3
390
F
  0
LAYER
  5
1FC
100
AcDbSymbolTableRecord
100
AcDbLayerTableRecord
  2
DEFAULT_3
 70
0
 62
7
  6
PHANTOM
370
-3
390
F
  0
LAYER
  5
1FD
100
AcDbSymbolTableRecord
100
AcDbLayerTableRecord
  2
403
 70
0
 62
7
  6
CONTINUOUS
370
-3
390
F
  0
LAYER
  5
1FE
100
AcDbSymbolTableRecord
100
AcDbLayerTableRecord
  2
436
 70
0
 62
7
  6
CONTINUOUS
370
-3
390
F
  0
LAYER
  5
1FF
100
AcDbSymbolTableRecord
100
AcDbLayerTableRecord
  2
441
 70
0
 62
7
  6
CONTINUOUS
370
-3
390
F
  0
LAYER
  5
200
100
AcDbSymbolTableRecord
100
AcDbLayerTableRecord
  2
50350
 70
0
 62
7
  6
CONTINUOUS
370
-3
390
F
  0
LAYER
  5
201
100
AcDbSymbolTableRecord
100
AcDbLayerTableRecord
  2
50355
 70
0
 62
7
  6
CONTINUOUS
370
-3
390
F
  0
LAYER
  5
202
100
AcDbSymbolTableRecord
100
AcDbLayerTableRecord
  2
50359
 70
0
 62
7
  6
CONTINUOUS
370
-3
390
F
  0
LAYER
  5
203
100
AcDbSymbolTableRecord
100
AcDbLayerTableRecord
  2
50362
 70
0
 62
7
  6
CONTINUOUS
370
-3
390
F
  0
LAYER
  5
204
100
AcDbSymbolTableRecord
100
AcDbLayerTableRecord
  2
50392
 70
0
 62
7
  6
CONTINUOUS
370
-3
390
F
  0
LAYER
  5
205
100
AcDbSymbolTableRecord
100
AcDbLayerTableRecord
  2
50663
 70
0
 62
7
  6
CONTINUOUS
370
-3
390
F
  0
LAYER
  5
206
100
AcDbSymbolTableRecord
100
AcDbLayerTableRecord
  2
50664
 70
0
 62
7
  6
CONTINUOUS
370
-3
390
F
  0
LAYER
  5
207
100
AcDbSymbolTableRecord
100
AcDbLayerTableRecord
  2
50668
 70
0
 62
7
  6
CONTINUOUS
370
-3
390
F
  0
LAYER
  5
208
100
AcDbSymbolTableRecord
100
AcDbLayerTableRecord
  2
50675
 70
0
 62
7
  6
CONTINUOUS
370
-3
390
F
  0
LAYER
  5
209
100
AcDbSymbolTableRecord
100
AcDbLayerTableRecord
  2
50677
 70
0
 62
7
  6
CONTINUOUS
370
-3
390
F
  0
LAYER
  5
20A
100
AcDbSymbolTableRecord
100
AcDbLayerTableRecord
  2
50678
 70
0
 62
7
  6
CONTINUOUS
370
-3
390
F
  0
LAYER
  5
20B
100
AcDbSymbolTableRecord
100
AcDbLayerTableRecord
  2
50851
 70
0
 62
7
  6
CONTINUOUS
370
-3
390
F
  0
LAYER
  5
20C
100
AcDbSymbolTableRecord
100
AcDbLayerTableRecord
  2
6-403
 70
0
 62
7
  6
CONTINUOUS
370
-3
390
F
  0
LAYER
  5
20D
100
AcDbSymbolTableRecord
100
AcDbLayerTableRecord
  2
91203
 70
0
 62
7
  6
CONTINUOUS
370
-3
390
F
  0
LAYER
  5
20E
100
AcDbSymbolTableRecord
100
AcDbLayerTableRecord
  2
92073
 70
0
 62
7
  6
CONTINUOUS
370
-3
390
F
  0
LAYER
  5
20F
100
AcDbSymbolTableRecord
100
AcDbLayerTableRecord
  2
DEFAULT_COORDINATE_SYSTEM
 70
0
 62
7
  6
CONTINUOUS
370
-3
390
F
  0
LAYER
  5
210
100
AcDbSymbolTableRecord
100
AcDbLayerTableRecord
  2
DEFAULT_DATUM_AXES
 70
0
 62
7
  6
CONTINUOUS
370
-3
390
F
  0
LAYER
  5
211
100
AcDbSymbolTableRecord
100
AcDbLayerTableRecord
  2
DEFAULT_DATUM_PLANES
 70
0
 62
7
  6
CONTINUOUS
370
-3
390
F
  0
LAYER
  5
212
100
AcDbSymbolTableRecord
100
AcDbLayerTableRecord
  2
INTF_50350
 70
0
 62
7
  6
CONTINUOUS
370
-3
390
F
  0
LAYER
  5
213
100
AcDbSymbolTableRecord
100
AcDbLayerTableRecord
  2
INTF_50355
 70
0
 62
7
  6
CONTINUOUS
370
-3
390
F
  0
LAYER
  5
214
100
AcDbSymbolTableRecord
100
AcDbLayerTableRecord
  2
INTF_50359
 70
0
 62
7
  6
CONTINUOUS
370
-3
390
F
  0
LAYER
  5
215
100
AcDbSymbolTableRecord
100
AcDbLayerTableRecord
  2
INTF_50362
 70
0
 62
7
  6
CONTINUOUS
370
-3
390
F
  0
LAYER
  5
216
100
AcDbSymbolTableRecord
100
AcDbLayerTableRecord
  2
INTF_50392
 70
0
 62
7
  6
CONTINUOUS
370
-3
390
F
  0
LAYER
  5
217
100
AcDbSymbolTableRecord
100
AcDbLayerTableRecord
  2
INTF_50663
 70
0
 62
7
  6
CONTINUOUS
370
-3
390
F
  0
LAYER
  5
218
100
AcDbSymbolTableRecord
100
AcDbLayerTableRecord
  2
INTF_50664
 70
0
 62
7
  6
CONTINUOUS
370
-3
390
F
  0
LAYER
  5
219
100
AcDbSymbolTableRecord
100
AcDbLayerTableRecord
  2
INTF_50668
 70
0
 62
7
  6
CONTINUOUS
370
-3
390
F
  0
LAYER
  5
21A
100
AcDbSymbolTableRecord
100
AcDbLayerTableRecord
  2
INTF_50675
 70
0
 62
7
  6
CONTINUOUS
370
-3
390
F
  0
LAYER
  5
21B
100
AcDbSymbolTableRecord
100
AcDbLayerTableRecord
  2
INTF_50677
 70
0
 62
7
  6
CONTINUOUS
370
-3
390
F
  0
LAYER
  5
21C
100
AcDbSymbolTableRecord
100
AcDbLayerTableRecord
  2
INTF_50678
 70
0
 62
7
  6
CONTINUOUS
370
-3
390
F
  0
LAYER
  5
21D
100
AcDbSymbolTableRecord
100
AcDbLayerTableRecord
  2
INTF_50851
 70
0
 62
7
  6
CONTINUOUS
370
-3
390
F
  0
LAYER
  5
21E
100
AcDbSymbolTableRecord
100
AcDbLayerTableRecord
  2
INTF_91203
 70
0
 62
7
  6
CONTINUOUS
370
-3
390
F
  0
LAYER
  5
21F
100
AcDbSymbolTableRecord
100
AcDbLayerTableRecord
  2
INTF_92073
 70
0
 62
7
  6
CONTINUOUS
370
-3
390
F
  0
LAYER
  5
220
100
AcDbSymbolTableRecord
100
AcDbLayerTableRecord
  2
INTF_BLANK
 70
0
 62
7
  6
CONTINUOUS
370
-3
390
F
  0
LAYER
  5
221
100
AcDbSymbolTableRecord
100
AcDbLayerTableRecord
  2
NONE
 70
0
 62
7
  6
CONTINUOUS
370
-3
390
F
  0
LAYER
  5
222
100
AcDbSymbolTableRecord
100
AcDbLayerTableRecord
  2
PLATED_SURFACE
 70
0
 62
7
  6
CONTINUOUS
370
-3
390
F
  0
LAYER
  5
223
100
AcDbSymbolTableRecord
100
AcDbLayerTableRecord
  2
QUILT
 70
0
 62
7
  6
CONTINUOUS
370
-3
390
F
  0
LAYER
  5
224
100
AcDbSymbolTableRecord
100
AcDbLayerTableRecord
  2
WETTED_SURFACE
 70
0
 62
7
  6
CONTINUOUS
370
-3
390
F
  0
LAYER
  5
225
100
AcDbSymbolTableRecord
100
AcDbLayerTableRecord
  2
_BLACK_HOLE
 70
0
 62
7
  6
CONTINUOUS
370
-3
390
F
  0
ENDTAB
  0
TABLE
  2
STYLE
  5
3
100
AcDbSymbolTable
 70
1
  0
STYLE
  5
11
100
AcDbSymbolTableRecord
100
AcDbTextStyleTableRecord
  2
STANDARD
 70
0
 40
0.0
 41
0.8
 50
0.0
 71
0
 42
0.2
  3
txt
  4

  0
STYLE
  5
226
100
AcDbSymbolTableRecord
100
AcDbTextStyleTableRecord
  2
TEXTSTYLE_1
 70
0
 40
0.0
 41
0.8
 50
0.0
 71
0
 42
0.2
  3
gdt
  4

  0
ENDTAB
  0
TABLE
  2
VIEW
  5
6
100
AcDbSymbolTable
 70
0
  0
ENDTAB
  0
TABLE
  2
UCS
  5
7
100
AcDbSymbolTable
 70
0
  0
ENDTAB
  0
TABLE
  2
APPID
  5
9
100
AcDbSymbolTable
 70
1
  0
APPID
  5
227
100
AcDbSymbolTableRecord
100
AcDbRegAppTableRecord
  2
ACAD
 70
0
  0
ENDTAB
  0
TABLE
  2
BLOCK_RECORD
  5
1
100
AcDbSymbolTable
 70
0
  0
BLOCK_RECORD
  5
228
100
AcDbSymbolTableRecord
100
AcDbBlockTableRecord
  2
*Model_Space
  0
BLOCK_RECORD
  5
229
100
AcDbSymbolTableRecord
100
AcDbBlockTableRecord
  2
*Paper_Space
  0
BLOCK_RECORD
  5
22A
100
AcDbSymbolTableRecord
100
AcDbBlockTableRecord
  2
_FILLED
  0
ENDTAB
  0
TABLE
  2
DIMSTYLE
  5
A
100
AcDbSymbolTable
 70
1
100
AcDbDimStyleTable
 71
0
  0
DIMSTYLE
105
22B
100
AcDbSymbolTableRecord
100
AcDbDimStyleTableRecord
  2
STANDARD
 70
0
  3

  4

 40
1.0
 41
0.1
 42
0.0625
 43
0.38
 44
0.125
 45
0.0
 46
0.0
 47
0.001
 48
0.001
140
0.08
141
0.09
142
0.0
143
25.4
144
1.0
145
0.0
146
1.0
147
0.09
 71
1.0
 72
0.0
 73
1
 74
1
 75
0
 76
0
 77
0
 78
4
 79
1
170
1
171
2
172
0
173
0
174
0
175
0
176
0
177
0
178
0
270
2
179
3
271
3
272
3
273
2
274
2
275
0
280
0
281
0
282
0
283
1
284
4
285
0
286
0
287
3
288
0
340
11
278
46
341
22A
342
22A
343
22A
344
22A
  0
ENDTAB
  0
ENDSEC
  0
SECTION
  2
BLOCKS
  0
BLOCK
  5
20
100
AcDbEntity
  8
0
100
AcDbBlockBegin
  2
*Model_Space
 70
0
 10
0.0
 20
0.0
 30
0.0
  3
*Model_Space
  1

  0
ENDBLK
  5
21
100
AcDbEntity
  8
0
100
AcDbBlockEnd
  0
BLOCK
  5
1C
100
AcDbEntity
  8
0
100
AcDbBlockBegin
  2
*Paper_Space
 70
0
 10
0.0
 20
0.0
 30
0.0
  3
*Paper_Space
  1

  0
ENDBLK
  5
1D
100
AcDbEntity
  8
0
100
AcDbBlockEnd
  0
BLOCK
  5
22C
100
AcDbEntity
  8
0
100
AcDbBlockBegin
  2
_FILLED
 70
64
 10
0.0
 20
0.0
  3
_FILLED
  1

  0
SOLID
  5
22D
100
AcDbEntity
  8
0
  6
BYBLOCK
 62
0
100
AcDbTrace
 10
0.0
 20
0.0
 11
-1.0
 21
0.2
 12
-1.0
 22
-0.2
 13
-1.0
 23
-0.2
  0
ENDBLK
  5
22E
100
AcDbEntity
  8
0
  6
BYBLOCK
 62
0
100
AcDbBlockEnd
  0
ENDSEC
  0
SECTION
  2
ENTITIES
  0
MTEXT
  5
22F
100
AcDbEntity
  8
0
100
AcDbMText
 62
7
  6
CONTINUOUS
  7
STANDARD
 71
1
 72
1
 10
7.2169254658
 20
0.2876708075
 30
0.0
 11
1.0
 21
0.0
 31
0.0
 73
2
 44
0.9
  1
SCALE: .50
 40
0.08
 41
0.64
  0
LINE
  5
230
100
AcDbEntity
  8
0
100
AcDbLine
 62
7
  6
CONTINUOUS
 10
0.0
 20
0.0
 11
8.5
 21
0.0
  0
LINE
  5
231
100
AcDbEntity
  8
0
100
AcDbLine
 62
7
  6
CONTINUOUS
 10
0.0
 20
0.0
 11
0.0
 21
11.0
  0
LINE
  5
232
100
AcDbEntity
  8
0
100
AcDbLine
 62
7
  6
CONTINUOUS
 10
8.5
 20
0.0
 11
8.5
 21
11.0
  0
LINE
  5
233
100
AcDbEntity
  8
0
100
AcDbLine
 62
7
  6
CONTINUOUS
 10
0.0
 20
11.0
 11
8.5
 21
11.0
  0
LINE
  5
234
100
AcDbEntity
  8
0
100
AcDbLine
 62
7
  6
CONTINUOUS
 10
4.580701087
 20
0.8403315217
 11
4.5553856503
 21
0.8403315217
  0
LINE
  5
235
100
AcDbEntity
  8
0
100
AcDbLine
 62
7
  6
CONTINUOUS
 10
4.5193303745
 20
0.8403315217
 11
4.544997727
 21
0.8403315217
  0
LINE
  5
236
100
AcDbEntity
  8
0
100
AcDbLine
 62
7
  6
CONTINUOUS
 10
4.6006544469
 20
0.8403315217
 11
4.6263217994
 21
0.8403315217
  0
LINE
  5
237
100
AcDbEntity
  8
0
100
AcDbLine
 62
7
  6
CONTINUOUS
 10
4.564951087
 20
0.8482065217
 11
4.580701087
 21
0.8482065217
  0
LINE
  5
238
100
AcDbEntity
  8
0
100
AcDbLine
 62
7
  6
CONTINUOUS
 10
4.6263217994
 20
0.8560815217
 11
4.6006544469
 21
0.8560815217
  0
LINE
  5
239
100
AcDbEntity
  8
0
100
AcDbLine
 62
7
  6
CONTINUOUS
 10
4.580701087
 20
0.8560815217
 11
4.5553856506
 21
0.8560815217
  0
LINE
  5
23A
100
AcDbEntity
  8
0
100
AcDbLine
 62
7
  6
CONTINUOUS
 10
4.544997727
 20
0.8560815217
 11
4.5193303745
 21
0.8560815217
  0
LINE
  5
23B
100
AcDbEntity
  8
0
100
AcDbLine
 62
7
  6
CONTINUOUS
 10
4.729076087
 20
1.3537065217
 11
4.4165760869
 21
1.3537065217
  0
LINE
  5
23C
100
AcDbEntity
  8
0
100
AcDbLine
 62
9
  6
CONTINUOUS
 10
4.6844878253
 20
0.4119209457
 11
4.6868949361
 21
0.4099442356
  0
LINE
  5
23D
100
AcDbEntity
  8
0
100
AcDbLine
 62
9
  6
CONTINUOUS
 10
4.4587572378
 20
1.2864688079
 11
4.4611643469
 21
1.2844920963
  0
LINE
  5
23E
100
AcDbEntity
  8
0
100
AcDbLine
 62
7
  6
CONTINUOUS
 10
4.564951087
 20
0.8560815217
 11
4.580701087
 21
0.8403315217
  0
LINE
  5
23F
100
AcDbEntity
  8
0
100
AcDbLine
 62
9
  6
CONTINUOUS
 10
4.438616096
 20
0.4410485683
 11
4.46116537
 21
0.4119196962
  0
LINE
  5
240
100
AcDbEntity
  8
0
100
AcDbLine
 62
9
  6
CONTINUOUS
 10
4.7070360767
 20
1.2553644769
 11
4.6844868035
 21
1.2844933478
  0
LINE
  5
241
100
AcDbEntity
  8
0
100
AcDbLine
 62
7
  6
CONTINUOUS
 10
4.673273248
 20
10.5263496302
 11
4.6936273571
 21
10.5616039814
  0
LINE
  5
242
100
AcDbEntity
  8
0
100
AcDbLine
 62
7
  6
CONTINUOUS
 10
4.361576087
 20
10.8007065217
 11
4.361576087
 21
10.7382065217
  0
LINE
  5
243
100
AcDbEntity
  8
0
100
AcDbLine
 62
7
  6
CONTINUOUS
 10
4.372826087
 20
10.7082065217
 11
4.372826087
 21
10.7382065217
  0
LINE
  5
244
100
AcDbEntity
  8
0
100
AcDbLine
 62
7
  6
CONTINUOUS
 10
4.416576087
 20
1.2285832749
 11
4.416576087
 21
1.3537065217
  0
LINE
  5
245
100
AcDbEntity
  8
0
100
AcDbLine
 62
7
  6
CONTINUOUS
 10
4.445326087
 20
10.5866039814
 11
4.445326087
 21
10.7082065217
  0
LINE
  5
246
100
AcDbEntity
  8
0
100
AcDbLine
 62
7
  6
CONTINUOUS
 10
4.479076087
 20
1.3537065217
 11
4.479076087
 21
10.5013523474
  0
LINE
  5
247
100
AcDbEntity
  8
0
100
AcDbLine
 62
7
  6
CONTINUOUS
 10
4.564951087
 20
0.9017022342
 11
4.564951087
 21
0.8760348817
  0
LINE
  5
248
100
AcDbEntity
  8
0
100
AcDbLine
 62
7
  6
CONTINUOUS
 10
4.564951087
 20
0.8595317548
 11
4.564951087
 21
0.8307660853
  0
LINE
  5
249
100
AcDbEntity
  8
0
100
AcDbLine
 62
7
  6
CONTINUOUS
 10
4.564951087
 20
0.8203781618
 11
4.564951087
 21
0.7947108093
  0
LINE
  5
24A
100
AcDbEntity
  8
0
100
AcDbLine
 62
7
  6
CONTINUOUS
 10
4.572826087
 20
0.9269565217
 11
4.572826087
 21
0.9237268682
  0
LINE
  5
24B
100
AcDbEntity
  8
0
100
AcDbLine
 62
7
  6
CONTINUOUS
 10
4.572826087
 20
0.8560815217
 11
4.572826087
 21
0.8403315217
  0
LINE
  5
24C
100
AcDbEntity
  8
0
100
AcDbLine
 62
7
  6
CONTINUOUS
 10
4.572826087
 20
0.7726861753
 11
4.572826087
 21
0.7694565217
  0
LINE
  5
24D
100
AcDbEntity
  8
0
100
AcDbLine
 62
7
  6
CONTINUOUS
 10
4.580701087
 20
0.9017022342
 11
4.580701087
 21
0.8760348817
  0
LINE
  5
24E
100
AcDbEntity
  8
0
100
AcDbLine
 62
7
  6
CONTINUOUS
 10
4.580701087
 20
0.8595317546
 11
4.580701087
 21
0.8307660851
  0
LINE
  5
24F
100
AcDbEntity
  8
0
100
AcDbLine
 62
7
  6
CONTINUOUS
 10
4.580701087
 20
0.8203781618
 11
4.580701087
 21
0.7947108093
  0
LINE
  5
250
100
AcDbEntity
  8
0
100
AcDbLine
 62
7
  6
CONTINUOUS
 10
4.666576087
 20
1.3537065217
 11
4.666576087
 21
10.5013523474
  0
LINE
  5
251
100
AcDbEntity
  8
0
100
AcDbLine
 62
7
  6
CONTINUOUS
 10
4.700326087
 20
10.5866039814
 11
4.700326087
 21
10.7082065217
  0
LINE
  5
252
100
AcDbEntity
  8
0
100
AcDbLine
 62
7
  6
CONTINUOUS
 10
4.729076087
 20
1.2285807654
 11
4.729076087
 21
1.3537065217
  0
LINE
  5
253
100
AcDbEntity
  8
0
100
AcDbLine
 62
7
  6
CONTINUOUS
 10
4.772826087
 20
10.7082065217
 11
4.772826087
 21
10.7382065217
  0
LINE
  5
254
100
AcDbEntity
  8
0
100
AcDbLine
 62
7
  6
CONTINUOUS
 10
4.784076087
 20
10.8007065217
 11
4.784076087
 21
10.7382065217
  0
LINE
  5
255
100
AcDbEntity
  8
0
100
AcDbLine
 62
9
  6
CONTINUOUS
 10
4.4611643469
 20
1.2844920963
 11
4.4386161733
 21
1.255364588
  0
LINE
  5
256
100
AcDbEntity
  8
0
100
AcDbLine
 62
7
  6
CONTINUOUS
 10
4.4723789259
 20
10.5263496302
 11
4.4520248168
 21
10.5616039814
  0
LINE
  5
257
100
AcDbEntity
  8
0
100
AcDbLine
 62
9
  6
CONTINUOUS
 10
4.6844878257
 20
0.4119209454
 11
4.7070360031
 21
0.4410484591
  0
LINE
  5
258
100
AcDbEntity
  8
0
100
AcDbLine
 62
7
  6
CONTINUOUS
 10
4.564951087
 20
0.8403315217
 11
4.580701087
 21
0.8560815217
  0
LINE
  5
259
100
AcDbEntity
  8
0
100
AcDbLine
 62
9
  6
CONTINUOUS
 10
4.6868949361
 20
1.2864688079
 11
4.6844868034
 21
1.2844933477
  0
LINE
  5
25A
100
AcDbEntity
  8
0
100
AcDbLine
 62
9
  6
CONTINUOUS
 10
4.46116537
 20
0.4119196962
 11
4.4587572378
 21
0.4099442356
  0
LINE
  5
25B
100
AcDbEntity
  8
0
100
AcDbLine
 62
9
  6
CONTINUOUS
 10
4.479076087
 20
10.5013523474
 11
4.666576087
 21
10.5013523474
  0
LINE
  5
25C
100
AcDbEntity
  8
0
100
AcDbLine
 62
9
  6
CONTINUOUS
 10
4.673273248
 20
10.5263496302
 11
4.4723789259
 21
10.5263496302
  0
LINE
  5
25D
100
AcDbEntity
  8
0
100
AcDbLine
 62
9
  6
CONTINUOUS
 10
4.4520249704
 20
10.5616037152
 11
4.6936273639
 21
10.5616039931
  0
LINE
  5
25E
100
AcDbEntity
  8
0
100
AcDbLine
 62
9
  6
CONTINUOUS
 10
4.700326087
 20
10.5866039948
 11
4.445326087
 21
10.5866039948
  0
LINE
  5
25F
100
AcDbEntity
  8
0
100
AcDbLine
 62
7
  6
CONTINUOUS
 10
4.3728619699
 20
10.7082065217
 11
4.7727902041
 21
10.7082065217
  0
LINE
  5
260
100
AcDbEntity
  8
0
100
AcDbLine
 62
7
  6
CONTINUOUS
 10
4.7840432852
 20
10.7382065217
 11
4.3616088887
 21
10.7382065217
  0
LINE
  5
261
100
AcDbEntity
  8
0
100
AcDbLine
 62
7
  6
CONTINUOUS
 10
4.7840432852
 20
10.8007065217
 11
4.3616088887
 21
10.8007065217
  0
ARC
  5
262
100
AcDbEntity
  8
0
100
AcDbCircle
 62
7
  6
CONTINUOUS
 10
4.15229059
 20
0.8482065217
 40
0.691285497
100
AcDbArc
 50
320.6555074171
 51
39.3444925829
  0
ARC
  5
263
100
AcDbEntity
  8
0
100
AcDbCircle
 62
7
  6
CONTINUOUS
 10
4.1524234326
 20
0.8482065256
 40
0.6879822539
100
AcDbArc
 50
323.715932461
 51
36.2840559032
  0
ARC
  5
264
100
AcDbEntity
  8
0
100
AcDbCircle
 62
9
  6
CONTINUOUS
 10
4.1492641033
 20
0.8549659698
 40
0.6786023694
100
AcDbArc
 50
323.4521459139
 51
324.0959638663
  0
ARC
  5
265
100
AcDbEntity
  8
0
100
AcDbCircle
 62
9
  6
CONTINUOUS
 10
4.1492824432
 20
0.841461189
 40
0.6785792749
100
AcDbArc
 50
35.9032488791
 51
36.5478362309
  0
ARC
  5
266
100
AcDbEntity
  8
0
100
AcDbCircle
 62
9
  6
CONTINUOUS
 10
4.1506937828
 20
0.8538899029
 40
0.6768130312
100
AcDbArc
 50
320.2909388554
 51
323.4532551702
  0
ARC
  5
267
100
AcDbEntity
  8
0
100
AcDbCircle
 62
9
  6
CONTINUOUS
 10
4.1507261223
 20
0.8425477996
 40
0.6767724113
100
AcDbArc
 50
36.5467155311
 51
39.7092043283
  0
ARC
  5
268
100
AcDbEntity
  8
0
100
AcDbCircle
 62
7
  6
CONTINUOUS
 10
4.4148985041
 20
0.8482065217
 40
0.2115699068
100
AcDbArc
 50
357.866858652
 51
2.133141348
  0
ARC
  5
269
100
AcDbEntity
  8
0
100
AcDbCircle
 62
7
  6
CONTINUOUS
 10
4.572825064
 20
0.6903339372
 40
0.2115149084
100
AcDbArc
 50
89.9997228933
 51
92.1334189671
  0
ARC
  5
26A
100
AcDbEntity
  8
0
100
AcDbCircle
 62
7
  6
CONTINUOUS
 10
4.5728230415
 20
1.0060032474
 40
0.2114390269
100
AcDbArc
 50
267.8663634648
 51
270.0000082029
  0
ARC
  5
26B
100
AcDbEntity
  8
0
100
AcDbCircle
 62
7
  6
CONTINUOUS
 10
4.544987212
 20
0.875753931
 40
0.0196724121
100
AcDbArc
 50
270.0306248303
 51
300.0166300089
  0
ARC
  5
26C
100
AcDbEntity
  8
0
100
AcDbCircle
 62
7
  6
CONTINUOUS
 10
4.5452786916
 20
0.8203676676
 40
0.0196723981
100
AcDbArc
 50
0.0305642031
 51
30.0108740255
  0
ARC
  5
26D
100
AcDbEntity
  8
0
100
AcDbCircle
 62
7
  6
CONTINUOUS
 10
4.495326087
 20
10.5866039814
 40
0.05
100
AcDbArc
 50
180.0
 51
209.9999999993
  0
ARC
  5
26E
100
AcDbEntity
  8
0
100
AcDbCircle
 62
7
  6
CONTINUOUS
 10
4.429076087
 20
10.5013523474
 40
0.05
100
AcDbArc
 50
0.0
 51
29.9969165241
  0
ARC
  5
26F
100
AcDbEntity
  8
0
100
AcDbCircle
 62
7
  6
CONTINUOUS
 10
4.572826087
 20
0.6902789388
 40
0.2115699068
100
AcDbArc
 50
87.866858652
 51
92.133141348
  0
ARC
  5
270
100
AcDbEntity
  8
0
100
AcDbCircle
 62
7
  6
CONTINUOUS
 10
4.572826087
 20
0.5034565217
 40
0.1475
100
AcDbArc
 50
219.3444925829
 51
320.6555074171
  0
ARC
  5
271
100
AcDbEntity
  8
0
100
AcDbCircle
 62
9
  6
CONTINUOUS
 10
4.5728260866
 20
0.5032715309
 40
0.1442703796
100
AcDbArc
 50
219.2872756875
 51
320.7133654255
  0
ARC
  5
272
100
AcDbEntity
  8
0
100
AcDbCircle
 62
7
  6
CONTINUOUS
 10
4.6006649619
 20
0.8206591125
 40
0.0196724121
100
AcDbArc
 50
90.0306248303
 51
120.0166300087
  0
ARC
  5
273
100
AcDbEntity
  8
0
100
AcDbCircle
 62
7
  6
CONTINUOUS
 10
4.572826087
 20
0.8482065217
 40
0.625
100
AcDbArc
 50
98.6300332353
 51
81.37009596
  0
ARC
  5
274
100
AcDbEntity
  8
0
100
AcDbCircle
 62
9
  6
CONTINUOUS
 10
4.572826087
 20
0.8482065217
 40
0.5833572567
100
AcDbArc
 50
99.2518259695
 51
80.7486204131
  0
ARC
  5
275
100
AcDbEntity
  8
0
100
AcDbCircle
 62
7
  6
CONTINUOUS
 10
4.572826087
 20
1.0061341046
 40
0.2115699068
100
AcDbArc
 50
267.866858652
 51
272.133141348
  0
CIRCLE
  5
276
100
AcDbEntity
  8
0
100
AcDbCircle
 62
7
  6
CONTINUOUS
 10
4.572826087
 20
0.8482065217
 40
0.0825
  0
CIRCLE
  5
277
100
AcDbEntity
  8
0
100
AcDbCircle
 62
7
  6
CONTINUOUS
 10
4.572826087
 20
0.8482065217
 40
0.07875
  0
CIRCLE
  5
278
100
AcDbEntity
  8
0
100
AcDbCircle
 62
9
  6
CONTINUOUS
 10
4.572826087
 20
0.8482065217
 40
0.0755203465
  0
ARC
  5
279
100
AcDbEntity
  8
0
100
AcDbCircle
 62
7
  6
CONTINUOUS
 10
4.6003734823
 20
0.8760453759
 40
0.0196723981
100
AcDbArc
 50
180.0305642029
 51
210.0108740261
  0
ARC
  5
27A
100
AcDbEntity
  8
0
100
AcDbCircle
 62
7
  6
CONTINUOUS
 10
4.572826087
 20
1.1929565217
 40
0.1475
100
AcDbArc
 50
39.3444925829
 51
140.6555074171
  0
ARC
  5
27B
100
AcDbEntity
  8
0
100
AcDbCircle
 62
9
  6
CONTINUOUS
 10
4.5728260873
 20
1.1931415119
 40
0.1442703796
100
AcDbArc
 50
39.2872761474
 51
140.7133660789
  0
ARC
  5
27C
100
AcDbEntity
  8
0
100
AcDbCircle
 62
7
  6
CONTINUOUS
 10
4.7307536698
 20
0.8482065217
 40
0.2115699068
100
AcDbArc
 50
177.866858652
 51
182.133141348
  0
ARC
  5
27D
100
AcDbEntity
  8
0
100
AcDbCircle
 62
9
  6
CONTINUOUS
 10
4.9963880534
 20
0.8414470577
 40
0.6786023662
100
AcDbArc
 50
143.4521431719
 51
144.0959702723
  0
ARC
  5
27E
100
AcDbEntity
  8
0
100
AcDbCircle
 62
9
  6
CONTINUOUS
 10
4.9949585172
 20
0.8425230164
 40
0.6768132076
100
AcDbArc
 50
140.2909375965
 51
143.4532523018
  0
ARC
  5
27F
100
AcDbEntity
  8
0
100
AcDbCircle
 62
7
  6
CONTINUOUS
 10
4.9933615839
 20
0.8482065217
 40
0.691285497
100
AcDbArc
 50
140.6555074171
 51
219.3444925829
  0
ARC
  5
280
100
AcDbEntity
  8
0
100
AcDbCircle
 62
7
  6
CONTINUOUS
 10
4.9932467184
 20
0.8482065244
 40
0.6879936624
100
AcDbArc
 50
143.7173194521
 51
216.2826695167
  0
ARC
  5
281
100
AcDbEntity
  8
0
100
AcDbCircle
 62
9
  6
CONTINUOUS
 10
4.99636975
 20
0.8549518614
 40
0.6785792942
100
AcDbArc
 50
215.9032518797
 51
216.5478351926
  0
ARC
  5
282
100
AcDbEntity
  8
0
100
AcDbCircle
 62
9
  6
CONTINUOUS
 10
4.9949260343
 20
0.8538652232
 40
0.6767723847
100
AcDbArc
 50
216.5467144588
 51
219.7092039178
  0
ARC
  5
283
100
AcDbEntity
  8
0
100
AcDbCircle
 62
7
  6
CONTINUOUS
 10
4.650326087
 20
10.5866039814
 40
0.05
100
AcDbArc
 50
330.0000000007
 51
360.0
  0
ARC
  5
284
100
AcDbEntity
  8
0
100
AcDbCircle
 62
7
  6
CONTINUOUS
 10
4.716576087
 20
10.5013523474
 40
0.05
100
AcDbArc
 50
150.0030834759
 51
180.0
  0
SPLINE
  5
285
100
AcDbEntity
  8
0
100
AcDbSpline
 62
7
  6
CONTINUOUS
 70
0
 71
3
 72
11
 73
7
 74
0
 42
0.0000001
 43
0.0000001
 44
0.0000000001
 40
0.0
 40
0.0
 40
0.0
 40
0.0
 40
0.2478919298
 40
0.4968982093
 40
0.7474763046
 40
1.0
 40
1.0
 40
1.0
 40
1.0
 10
4.650951087
 20
1.3537065217
 30
0.0
 10
4.6458268651
 20
1.3537065217
 30
0.0
 10
4.6355441721
 20
1.3530177115
 30
0.0
 10
4.6203424487
 20
1.3500615446
 30
0.0
 10
4.6054877793
 20
1.3453812064
 30
0.0
 10
4.595889706
 20
1.3413412959
 30
0.0
 10
4.5911593139
 20
1.3391341629
 30
0.0
  0
SPLINE
  5
286
100
AcDbEntity
  8
0
100
AcDbSpline
 62
7
  6
CONTINUOUS
 70
0
 71
3
 72
11
 73
7
 74
0
 42
0.0000001
 43
0.0000001
 44
0.0000000001
 40
0.0
 40
0.0
 40
0.0
 40
0.0
 40
0.253536281
 40
0.5045714093
 40
0.7531164267
 40
1.0
 40
1.0
 40
1.0
 40
1.0
 10
4.729076087
 20
1.3295345626
 30
0.0
 10
4.7230244839
 20
1.3330284573
 30
0.0
 10
4.7107132001
 20
1.3395380904
 30
0.0
 10
4.6914309411
 20
1.3473476603
 30
0.0
 10
4.6714364598
 20
1.3524913418
 30
0.0
 10
4.657755519
 20
1.3537065217
 30
0.0
 10
4.650951087
 20
1.3537065217
 30
0.0
  0
SPLINE
  5
287
100
AcDbEntity
  8
0
100
AcDbSpline
 62
7
  6
CONTINUOUS
 70
0
 71
3
 72
11
 73
7
 74
0
 42
0.0000001
 43
0.0000001
 44
0.0000000001
 40
0.0
 40
0.0
 40
0.0
 40
0.0
 40
0.246883573
 40
0.4954285903
 40
0.7464637184
 40
1.0
 40
1.0
 40
1.0
 40
1.0
 10
4.494701087
 20
1.3537065217
 30
0.0
 10
4.4878966549
 20
1.3537065217
 30
0.0
 10
4.4742157142
 20
1.3524913415
 30
0.0
 10
4.4542212329
 20
1.3473476602
 30
0.0
 10
4.4349389737
 20
1.3395380906
 30
0.0
 10
4.4226276901
 20
1.3330284573
 30
0.0
 10
4.416576087
 20
1.3295345626
 30
0.0
  0
SPLINE
  5
288
100
AcDbEntity
  8
0
100
AcDbSpline
 62
7
  6
CONTINUOUS
 70
0
 71
3
 72
11
 73
7
 74
0
 42
0.0000001
 43
0.0000001
 44
0.0000000001
 40
0.0
 40
0.0
 40
0.0
 40
0.0
 40
0.2525237433
 40
0.5031018589
 40
0.7521081142
 40
1.0
 40
1.0
 40
1.0
 40
1.0
 10
4.5544936961
 20
1.3391337727
 30
0.0
 10
4.5497632427
 20
1.3413409602
 30
0.0
 10
4.5401650432
 20
1.3453809737
 30
0.0
 10
4.52531017
 20
1.3500614393
 30
0.0
 10
4.5101082288
 20
1.3530176915
 30
0.0
 10
4.4998253841
 20
1.3537065217
 30
0.0
 10
4.494701087
 20
1.3537065217
 30
0.0
  0
SPLINE
  5
289
100
AcDbEntity
  8
0
100
AcDbSpline
 62
7
  6
CONTINUOUS
 70
0
 71
3
 72
11
 73
7
 74
0
 42
0.0000001
 43
0.0000001
 44
0.0000000001
 40
0.0
 40
0.0
 40
0.0
 40
0.0
 40
0.2481245359
 40
0.4984346934
 40
0.7492173017
 40
1.0
 40
1.0
 40
1.0
 40
1.0
 10
4.564951087
 20
0.8760348817
 30
0.0
 10
4.564951087
 20
0.8743109356
 30
0.0
 10
4.5644877047
 20
0.8708319792
 30
0.0
 10
4.5624748234
 20
0.8659695387
 30
0.0
 10
4.5592613512
 20
0.861776856
 30
0.0
 10
4.5564578274
 20
0.8596289844
 30
0.0
 10
4.5549492846
 20
0.858757028
 30
0.0
  0
SPLINE
  5
28A
100
AcDbEntity
  8
0
100
AcDbSpline
 62
7
  6
CONTINUOUS
 70
0
 71
3
 72
11
 73
7
 74
0
 42
0.0000001
 43
0.0000001
 44
0.0000000001
 40
0.0
 40
0.0
 40
0.0
 40
0.0
 40
0.2481250539
 40
0.4984356714
 40
0.7492176625
 40
1.0
 40
1.0
 40
1.0
 40
1.0
 10
4.544997727
 20
0.8403315217
 30
0.0
 10
4.5467218459
 20
0.8403315217
 30
0.0
 10
4.5502011511
 20
0.8398680338
 30
0.0
 10
4.5550640106
 20
0.8378547793
 30
0.0
 10
4.5592568977
 20
0.8346407044
 30
0.0
 10
4.5614047231
 20
0.8318367074
 30
0.0
 10
4.5622766094
 20
0.8303279295
 30
0.0
  0
SPLINE
  5
28B
100
AcDbEntity
  8
0
100
AcDbSpline
 62
7
  6
CONTINUOUS
 70
0
 71
3
 72
11
 73
7
 74
0
 42
0.0000001
 43
0.0000001
 44
0.0000000001
 40
0.0
 40
0.0
 40
0.0
 40
0.0
 40
0.2481245359
 40
0.4984346934
 40
0.7492173017
 40
1.0
 40
1.0
 40
1.0
 40
1.0
 10
4.580701087
 20
0.8203781618
 30
0.0
 10
4.580701087
 20
0.8221021079
 30
0.0
 10
4.5811644692
 20
0.8255810643
 30
0.0
 10
4.5831773505
 20
0.8304435048
 30
0.0
 10
4.5863908227
 20
0.8346361875
 30
0.0
 10
4.5891943465
 20
0.8367840591
 30
0.0
 10
4.5907028893
 20
0.8376560154
 30
0.0
  0
SPLINE
  5
28C
100
AcDbEntity
  8
0
100
AcDbSpline
 62
7
  6
CONTINUOUS
 70
0
 71
3
 72
11
 73
7
 74
0
 42
0.0000001
 43
0.0000001
 44
0.0000000001
 40
0.0
 40
0.0
 40
0.0
 40
0.0
 40
0.2481250539
 40
0.4984356714
 40
0.7492176625
 40
1.0
 40
1.0
 40
1.0
 40
1.0
 10
4.6006544469
 20
0.8560815217
 30
0.0
 10
4.598930328
 20
0.8560815217
 30
0.0
 10
4.5954510228
 20
0.8565450097
 30
0.0
 10
4.5905881633
 20
0.8585582642
 30
0.0
 10
4.5863952762
 20
0.8617723391
 30
0.0
 10
4.5842474508
 20
0.8645763361
 30
0.0
 10
4.5833755646
 20
0.866085114
 30
0.0
  0
SPLINE
  5
28D
100
AcDbEntity
  8
0
100
AcDbSpline
 62
9
  6
CONTINUOUS
 70
0
 71
3
 72
18
 73
14
 74
0
 42
0.0000001
 43
0.0000001
 44
0.0000000001
 40
0.0
 40
0.0
 40
0.0
 40
0.0
 40
0.0089699934
 40
0.0259318547
 40
0.0511534034
 40
0.084608118
 40
0.126208453
 40
0.1758467679
 40
0.2987667166
 40
0.4510376851
 40
0.6248210365
 40
0.8108877655
 40
1.0
 40
1.0
 40
1.0
 40
1.0
 10
4.461166026
 20
1.2844941118
 30
0.0
 10
4.4612131694
 20
1.284506135
 30
0.0
 10
4.4613569042
 20
1.2844595512
 30
0.0
 10
4.461604432
 20
1.2843498368
 30
0.0
 10
4.4619657332
 20
1.2841476579
 30
0.0
 10
4.4624288065
 20
1.2838650335
 30
0.0
 10
4.4629960857
 20
1.2834956534
 30
0.0
 10
4.4639566089
 20
1.2828428134
 30
0.0
 10
4.4653896576
 20
1.2818172255
 30
0.0
 10
4.4673417397
 20
1.2803613429
 30
0.0
 10
4.4695473195
 20
1.2786727069
 30
0.0
 10
4.4718938743
 20
1.2768398121
 30
0.0
 10
4.473486922
 20
1.2755735977
 30
0.0
 10
4.4742871178
 20
1.2749318769
 30
0.0
  0
SPLINE
  5
28E
100
AcDbEntity
  8
0
100
AcDbSpline
 62
9
  6
CONTINUOUS
 70
0
 71
3
 72
18
 73
14
 74
0
 42
0.0000001
 43
0.0000001
 44
0.0000000001
 40
0.0
 40
0.0
 40
0.0
 40
0.0
 40
0.0089699931
 40
0.0259318536
 40
0.0511534013
 40
0.0846081147
 40
0.1262084484
 40
0.1758467621
 40
0.2987667088
 40
0.4510376769
 40
0.6248210294
 40
0.8108877612
 40
1.0
 40
1.0
 40
1.0
 40
1.0
 10
4.684486148
 20
0.4119189317
 30
0.0
 10
4.6844390045
 20
0.4119069084
 30
0.0
 10
4.6842952698
 20
0.4119534922
 30
0.0
 10
4.684047742
 20
0.4120632066
 30
0.0
 10
4.6836864408
 20
0.4122653855
 30
0.0
 10
4.6832233675
 20
0.4125480099
 30
0.0
 10
4.6826560883
 20
0.41291739
 30
0.0
 10
4.6816955651
 20
0.41357023
 30
0.0
 10
4.6802625164
 20
0.4145958179
 30
0.0
 10
4.6783104344
 20
0.4160517005
 30
0.0
 10
4.6761048546
 20
0.4177403365
 30
0.0
 10
4.6737582997
 20
0.4195732314
 30
0.0
 10
4.672165252
 20
0.4208394458
 30
0.0
 10
4.6713650561
 20
0.4214811666
 30
0.0
  0
SPLINE
  5
28F
100
AcDbEntity
  8
0
100
AcDbSpline
 62
9
  6
CONTINUOUS
 70
0
 71
3
 72
18
 73
14
 74
0
 42
0.0000001
 43
0.0000001
 44
0.0000000001
 40
0.0
 40
0.0
 40
0.0
 40
0.0
 40
0.0089345727
 40
0.0258207806
 40
0.0509367966
 40
0.0842675644
 40
0.125737123
 40
0.1752494422
 40
0.2979782018
 40
0.4502014969
 40
0.6240984982
 40
0.8104430047
 40
1.0
 40
1.0
 40
1.0
 40
1.0
 10
4.4611660219
 20
0.4119189278
 30
0.0
 10
4.4612129794
 20
0.4119069522
 30
0.0
 10
4.4613561207
 20
0.4119531431
 30
0.0
 10
4.4616026872
 20
0.4120622895
 30
0.0
 10
4.461962612
 20
0.412263475
 30
0.0
 10
4.4624241133
 20
0.4125449508
 30
0.0
 10
4.4629897447
 20
0.4129130721
 30
0.0
 10
4.4639483702
 20
0.4135643892
 30
0.0
 10
4.4653799098
 20
0.4145886913
 30
0.0
 10
4.4673315473
 20
0.4160440424
 30
0.0
 10
4.4695387018
 20
0.4177336979
 30
0.0
 10
4.4718889028
 20
0.4195693024
 30
0.0
 10
4.473485039
 20
0.4208379362
 30
0.0
 10
4.4742871183
 20
0.4214811675
 30
0.0
  0
SPLINE
  5
290
100
AcDbEntity
  8
0
100
AcDbSpline
 62
9
  6
CONTINUOUS
 70
0
 71
3
 72
17
 73
13
 74
0
 42
0.0000001
 43
0.0000001
 44
0.0000000001
 40
0.0
 40
0.0
 40
0.0
 40
0.0
 40
0.1252052331
 40
0.1877983196
 40
0.2503425086
 40
0.3752223774
 40
0.5000001333
 40
0.6247781498
 40
0.7496581156
 40
0.8122019832
 40
0.8747946105
 40
1.0
 40
1.0
 40
1.0
 40
1.0
 10
4.6989373489
 20
1.2393924857
 30
0.0
 10
4.7193941632
 20
1.2111359152
 30
0.0
 10
4.7468703538
 20
1.166285755
 30
0.0
 10
4.7761890452
 20
1.1029409145
 30
0.0
 10
4.8004197775
 20
1.0375619753
 30
0.0
 10
4.8208915499
 20
0.9526233998
 30
0.0
 10
4.8292376007
 20
0.8482019997
 30
0.0
 10
4.8208899112
 20
0.7437807161
 30
0.0
 10
4.8004171016
 20
0.6588423933
 30
0.0
 10
4.7761856881
 20
0.5934639095
 30
0.0
 10
4.746866308
 20
0.5301195755
 30
0.0
 10
4.7193894757
 20
0.4852699024
 30
0.0
 10
4.6989322479
 20
0.4570135774
 30
0.0
  0
SPLINE
  5
291
100
AcDbEntity
  8
0
100
AcDbSpline
 62
9
  6
CONTINUOUS
 70
0
 71
3
 72
15
 73
11
 74
0
 42
0.0000001
 43
0.0000001
 44
0.0000000001
 40
0.0
 40
0.0
 40
0.0
 40
0.0
 40
0.1245656296
 40
0.2494941328
 40
0.3746749425
 40
0.4999994292
 40
0.6253241643
 40
0.7505046729
 40
0.8754318391
 40
1.0
 40
1.0
 40
1.0
 40
1.0
 10
4.6713650614
 20
0.4214811626
 30
0.0
 10
4.6654192892
 20
0.4143226231
 30
0.0
 10
4.6518422636
 20
0.4012927546
 30
0.0
 10
4.6277456429
 20
0.3866313735
 30
0.0
 10
4.6009536651
 20
0.3775998661
 30
0.0
 10
4.5728261941
 20
0.3744970204
 30
0.0
 10
4.5446987631
 20
0.3775999315
 30
0.0
 10
4.5179068487
 20
0.3866312426
 30
0.0
 10
4.4938100312
 20
0.4012924623
 30
0.0
 10
4.4802330201
 20
0.4143224896
 30
0.0
 10
4.4742871228
 20
0.4214811711
 30
0.0
  0
SPLINE
  5
292
100
AcDbEntity
  8
0
100
AcDbSpline
 62
9
  6
CONTINUOUS
 70
0
 71
3
 72
17
 73
13
 74
0
 42
0.0000001
 43
0.0000001
 44
0.0000000001
 40
0.0
 40
0.0
 40
0.0
 40
0.0
 40
0.1252052642
 40
0.1877983705
 40
0.2503425801
 40
0.3752224872
 40
0.5000002674
 40
0.6247782834
 40
0.7496582224
 40
0.8122020657
 40
0.8747946636
 40
1.0
 40
1.0
 40
1.0
 40
1.0
 10
4.4467148495
 20
0.4570205246
 30
0.0
 10
4.4262580301
 20
0.4852770991
 30
0.0
 10
4.3987818319
 20
0.5301272672
 30
0.0
 10
4.369463132
 20
0.5934721205
 30
0.0
 10
4.3452323933
 20
0.6588510757
 30
0.0
 10
4.3247606199
 20
0.7437896688
 30
0.0
 10
4.3164145727
 20
0.8482110795
 30
0.0
 10
4.324762269
 20
0.9526323546
 30
0.0
 10
4.3452350768
 20
1.0375706563
 30
0.0
 10
4.3694664777
 20
1.1029491157
 30
0.0
 10
4.3987858379
 20
1.1662934207
 30
0.0
 10
4.4262626523
 20
1.2111430734
 30
0.0
 10
4.4467198669
 20
1.2393993867
 30
0.0
  0
SPLINE
  5
293
100
AcDbEntity
  8
0
100
AcDbSpline
 62
9
  6
CONTINUOUS
 70
0
 71
3
 72
15
 73
11
 74
0
 42
0.0000001
 43
0.0000001
 44
0.0000000001
 40
0.0
 40
0.0
 40
0.0
 40
0.0
 40
0.1245656753
 40
0.2494942129
 40
0.3746750247
 40
0.4999995008
 40
0.6253242323
 40
0.7505047338
 40
0.8754318767
 40
1.0
 40
1.0
 40
1.0
 40
1.0
 10
4.4742871126
 20
1.2749318808
 30
0.0
 10
4.4802328873
 20
1.2820904227
 30
0.0
 10
4.4938099186
 20
1.295120294
 30
0.0
 10
4.5179065454
 20
1.3097816768
 30
0.0
 10
4.544698526
 20
1.3188131825
 30
0.0
 10
4.5728259968
 20
1.3219160229
 30
0.0
 10
4.6009534255
 20
1.3188131077
 30
0.0
 10
4.6277453367
 20
1.3097817954
 30
0.0
 10
4.651842149
 20
1.2951205769
 30
0.0
 10
4.665419156
 20
1.282090552
 30
0.0
 10
4.6713650511
 20
1.2749318724
 30
0.0
  0
SPLINE
  5
294
100
AcDbEntity
  8
0
100
AcDbSpline
 62
9
  6
CONTINUOUS
 70
0
 71
3
 72
18
 73
14
 74
0
 42
0.0000001
 43
0.0000001
 44
0.0000000001
 40
0.0
 40
0.0
 40
0.0
 40
0.0
 40
0.189112306
 40
0.3751790744
 40
0.5489624384
 40
0.7012333984
 40
0.8241533231
 40
0.8737916224
 40
0.9153919406
 40
0.9488466381
 40
0.9740681703
 40
0.991030017
 40
1.0
 40
1.0
 40
1.0
 40
1.0
 10
4.6713650559
 20
1.2749318769
 30
0.0
 10
4.6721652514
 20
1.2755735973
 30
0.0
 10
4.6737582982
 20
1.2768398109
 30
0.0
 10
4.6761048516
 20
1.2786727044
 30
0.0
 10
4.6783104297
 20
1.2803613389
 30
0.0
 10
4.68026251
 20
1.28181722
 30
0.0
 10
4.6816955574
 20
1.2828428068
 30
0.0
 10
4.6826560795
 20
1.2834956459
 30
0.0
 10
4.683223358
 20
1.2838650255
 30
0.0
 10
4.6836864307
 20
1.2841476494
 30
0.0
 10
4.6840477315
 20
1.2843498279
 30
0.0
 10
4.6842952589
 20
1.2844595421
 30
0.0
 10
4.6844389935
 20
1.2845061257
 30
0.0
 10
4.6844861368
 20
1.2844941024
 30
0.0
  0
ENDSEC
  0
SECTION
  2
OBJECTS
  0
DICTIONARY
  5
C
100
AcDbDictionary
280
0
281
1
  3
ACAD_GROUP
350
D
  3
ACAD_MLINESTYLE
350
17
  3
ACAD_LAYOUT
350
1A
  3
ACAD_PLOTSETTINGS
350
19
  3
ACAD_PLOTSTYLENAME
350
E
  0
DICTIONARY
  5
D
102
{ACAD_REACTORS
330
C
102
}
100
AcDbDictionary
280
0
281
1
  0
ACDBDICTIONARYWDFLT
  5
E
102
{ACAD_REACTORS
330
C
102
}
100
AcDbDictionary
281
1
  3
Normal
350
F
100
AcDbDictionaryWithDefault
340
F
  0
DICTIONARY
  5
17
102
{ACAD_REACTORS
330
C
102
}
100
AcDbDictionary
280
0
281
1
  3
Standard
350
18
  0
DICTIONARY
  5
19
102
{ACAD_REACTORS
330
C
102
}
100
AcDbDictionary
281
1
  0
DICTIONARY
  5
1A
102
{ACAD_REACTORS
330
C
102
}
100
AcDbDictionary
281
1
  3
Model
350
295
  3
Layout1
350
296
  0
ACDBPLACEHOLDER
  5
F
102
{ACAD_REACTORS
330
E
102
}
  0
MLINESTYLE
  5
18
102
{ACAD_REACTORS
330
17
102
}
100
AcDbMlineStyle
  2
STANDARD
 70
0
  3

 62
256
 51
90.0
 52
90.0
 71
2
 49
0.5
 62
256
  6
BYLAYER
 49
-0.5
 62
256
  6
BYLAYER
  0
LAYOUT
  5
295
102
{ACAD_REACTORS
330
1A
102
}
100
AcDbPlotSettings
  1

  2
none_device
  4

  6

 40
0.0
 41
0.0
 42
0.0
 43
0.0
 44
215.9
 45
279.4
 46
0.0
 47
0.0
 48
0.0
 49
0.0
140
0.0
141
0.0
142
1.0
143
1.0
 70
1024
 72
0
 73
0
 74
0
  7

 75
0
147
1.0
148
0.0
149
0.0
100
AcDbLayout
  1
Model
 70
0
 71
0
 10
0.0
 20
0.0
 11
8.5
 21
11.0
 12
0.0
 22
0.0
 32
0.0
 14
0.0
 24
0.0
 34
0.0
 15
0.0
 25
0.0
 35
0.0
146
0.0
 13
0.0
 23
0.0
 33
0.0
 16
1.0
 26
0.0
 36
0.0
 17
0.0
 27
1.0
 37
0.0
 76
0
330
228
345
0
346
0
  0
LAYOUT
  5
296
102
{ACAD_REACTORS
330
1A
102
}
100
AcDbPlotSettings
  1

  2
none_device
  4

  6

 40
0.0
 41
0.0
 42
0.0
 43
0.0
 44
215.9
 45
279.4
 46
0.0
 47
0.0
 48
0.0
 49
0.0
140
0.0
141
0.0
142
1.0
143
1.0
 70
0
 72
0
 73
0
 74
0
  7

 75
0
147
1.0
148
0.0
149
0.0
100
AcDbLayout
  1
Layout1
 70
0
 71
1
 10
0.0
 20
0.0
 11
8.5
 21
11.0
 12
0.0
 22
0.0
 32
0.0
 14
0.0
 24
0.0
 34
0.0
 15
0.0
 25
0.0
 35
0.0
146
0.0
 13
0.0
 23
0.0
 33
0.0
 16
1.0
 26
0.0
 36
0.0
 17
0.0
 27
1.0
 37
0.0
 76
0
330
229
345
0
346
0
  0
ENDSEC
  0
EOF
