999
DXF file: C:\Prowork\plots\482_top.dxf
999
Pro/ENGINEER 2018500 by Parametric Technology Corporation
  0
SECTION
  2
HEADER
  9
$ACADVER
  1
AC1032
  9
$DWGCODEPAGE
  3
ANSI_1252
  9
$EXTMAX
 10
8.5
 20
11.0
 30
0.0
  9
$EXTMIN
 10
0.0
 20
0.0
 30
0.0
  9
$LIMMIN
 10
0.0
 20
0.0
  9
$LIMMAX
 10
8.5
 20
11.0
  9
$VIEWCTR
 10
4.25
 20
5.5
  9
$VIEWSIZE
 40
11.0
  9
$CLAYER
  8
0
  9
$LTSCALE
 40
0.717037037
  9
$CELTYPE
  6
BYLAYER
  9
$DIMSCALE
 40
1.0
  9
$DIMASZ
 40
0.1
  9
$DIMEXO
 40
0.0625
  9
$DIMDLI
 40
0.4954074074
  9
$DIMEXE
 40
0.125
  9
$DIMCEN
 40
0.1173333333
  9
$DIMLFAC
 40
1.0
  9
$DIMBLK
  1
_FILLED
  9
$DIMALT
 70
1
  9
$DIMALTD
 70
2
  9
$DIMALTTD
 70
2
  9
$DIMALTF
 40
25.4
  9
$DIMTXT
 40
0.08
  9
$DIMTOL
 70
1
  9
$DIMLIM
 70
0
  9
$DIMTFAC
 40
1.0
  9
$DIMTP
 40
0.001
  9
$DIMTM
 40
0.001
  9
$DIMGAP
 40
0.09
  9
$DIMDSEP
 70
46
  9
$AUNITS
 70
0
  9
$PDMODE
 70
3
  9
$PDSIZE
 40
0.06
  9
$HANDSEED
  5
40C
  9
$TILEMODE
 70
1
  9
$MEASUREMENT
 70
0
  9
$INSUNITS
 70
1
  0
ENDSEC
  0
SECTION
  2
CLASSES
  0
CLASS
  1
ACDBDICTIONARYWDFLT
  2
AcDbDictionaryWithDefault
  3
AutoCAD 2000
 90
0
 91
1
280
0
281
0
  0
CLASS
  1
ACDBPLACEHOLDER
  2
AcDbPlaceHolder
  3
AutoCAD 2000
 90
0
 91
1
280
0
281
0
  0
CLASS
  1
LAYOUT
  2
AcDbLayout
  3
AutoCAD 2000
 90
0
 91
0
280
0
281
0
  0
ENDSEC
  0
SECTION
  2
TABLES
  0
TABLE
  2
VPORT
  5
8
100
AcDbSymbolTable
 70
2
  0
VPORT
  5
1F4
100
AcDbSymbolTableRecord
100
AcDbViewportTableRecord
  2
*ACTIVE
 70
0
 10
0.0
 20
0.0
 11
1.0
 21
1.0
 12
4.25
 22
5.5
 13
0.0
 23
0.0
 14
1.0
 24
1.0
 15
0.0
 25
0.0
 16
0.0
 26
0.0
 36
1.0
 17
0.0
 27
0.0
 37
0.0
 40
11.0
 41
0.7727272727
 42
50.0
 43
0.0
 44
0.0
 50
0.0
 51
0.0
 71
0
 72
100
 73
1
 74
1
 75
0
 76
0
 77
0
 78
0
  0
ENDTAB
  0
TABLE
  2
LTYPE
  5
5
100
AcDbSymbolTable
 70
6
  0
LTYPE
  5
14
100
AcDbSymbolTableRecord
100
AcDbLinetypeTableRecord
  2
BYBLOCK
 70
0
  3

 72
65
 73
0
 40
0.0
  0
LTYPE
  5
15
100
AcDbSymbolTableRecord
100
AcDbLinetypeTableRecord
  2
BYLAYER
 70
0
  3

 72
65
 73
0
 40
0.0
  0
LTYPE
  5
16
100
AcDbSymbolTableRecord
100
AcDbLinetypeTableRecord
  2
CONTINUOUS
 70
64
  3
Solid line
 72
65
 73
0
 40
0.0
  0
LTYPE
  5
1F5
100
AcDbSymbolTableRecord
100
AcDbLinetypeTableRecord
  2
CENTER
 70
64
  3
____ _ ____ _ ____ _ ____ _ ____ _ ____ _ ____
 72
65
 73
4
 40
0.6
 49
0.375
 74
0
 49
-0.075
 74
0
 49
0.075
 74
0
 49
-0.075
 74
0
  0
LTYPE
  5
1F6
100
AcDbSymbolTableRecord
100
AcDbLinetypeTableRecord
  2
HIDDEN
 70
64
  3
- - - - - - - - - - - - - - - - - - - -
 72
65
 73
2
 40
0.2
 49
0.1
 74
0
 49
-0.1
 74
0
  0
LTYPE
  5
1F7
100
AcDbSymbolTableRecord
100
AcDbLinetypeTableRecord
  2
PHANTOM
 70
64
  3
_____ _ _ _____ _ _ _____ _ _ _____
 72
65
 73
6
 40
0.8
 49
0.45
 74
0
 49
-0.05
 74
0
 49
0.1
 74
0
 49
-0.05
 74
0
 49
0.1
 74
0
 49
-0.05
 74
0
  0
LTYPE
  5
1F8
100
AcDbSymbolTableRecord
100
AcDbLinetypeTableRecord
  2
DOT
 70
64
  3
. . . . . . . . . . . . . . . . . . . .
 72
65
 73
2
 40
0.2
 49
0.1
 74
0
 49
-0.1
 74
0
  0
LTYPE
  5
1F9
100
AcDbSymbolTableRecord
100
AcDbLinetypeTableRecord
  2
DASHED
 70
64
  3
- - - - - - - - - - - - - - - - - - - -
 72
65
 73
2
 40
0.2
 49
0.1
 74
0
 49
-0.1
 74
0
  0
ENDTAB
  0
TABLE
  2
LAYER
  5
2
100
AcDbSymbolTable
 70
36
  0
LAYER
  5
10
100
AcDbSymbolTableRecord
100
AcDbLayerTableRecord
  2
0
 70
0
 62
7
  6
CONTINUOUS
370
-3
390
F
  0
LAYER
  5
1FA
100
AcDbSymbolTableRecord
100
AcDbLayerTableRecord
  2
DEFAULT_1
 70
0
 62
7
  6
CENTER
370
-3
390
F
  0
LAYER
  5
1FB
100
AcDbSymbolTableRecord
100
AcDbLayerTableRecord
  2
DEFAULT_2
 70
0
 62
8
  6
HIDDEN
370
-3
390
F
  0
LAYER
  5
1FC
100
AcDbSymbolTableRecord
100
AcDbLayerTableRecord
  2
DEFAULT_3
 70
0
 62
7
  6
PHANTOM
370
-3
390
F
  0
LAYER
  5
1FD
100
AcDbSymbolTableRecord
100
AcDbLayerTableRecord
  2
403
 70
0
 62
7
  6
CONTINUOUS
370
-3
390
F
  0
LAYER
  5
1FE
100
AcDbSymbolTableRecord
100
AcDbLayerTableRecord
  2
436
 70
0
 62
7
  6
CONTINUOUS
370
-3
390
F
  0
LAYER
  5
1FF
100
AcDbSymbolTableRecord
100
AcDbLayerTableRecord
  2
441
 70
0
 62
7
  6
CONTINUOUS
370
-3
390
F
  0
LAYER
  5
200
100
AcDbSymbolTableRecord
100
AcDbLayerTableRecord
  2
50350
 70
0
 62
7
  6
CONTINUOUS
370
-3
390
F
  0
LAYER
  5
201
100
AcDbSymbolTableRecord
100
AcDbLayerTableRecord
  2
50355
 70
0
 62
7
  6
CONTINUOUS
370
-3
390
F
  0
LAYER
  5
202
100
AcDbSymbolTableRecord
100
AcDbLayerTableRecord
  2
50359
 70
0
 62
7
  6
CONTINUOUS
370
-3
390
F
  0
LAYER
  5
203
100
AcDbSymbolTableRecord
100
AcDbLayerTableRecord
  2
50362
 70
0
 62
7
  6
CONTINUOUS
370
-3
390
F
  0
LAYER
  5
204
100
AcDbSymbolTableRecord
100
AcDbLayerTableRecord
  2
50392
 70
0
 62
7
  6
CONTINUOUS
370
-3
390
F
  0
LAYER
  5
205
100
AcDbSymbolTableRecord
100
AcDbLayerTableRecord
  2
50663
 70
0
 62
7
  6
CONTINUOUS
370
-3
390
F
  0
LAYER
  5
206
100
AcDbSymbolTableRecord
100
AcDbLayerTableRecord
  2
50664
 70
0
 62
7
  6
CONTINUOUS
370
-3
390
F
  0
LAYER
  5
207
100
AcDbSymbolTableRecord
100
AcDbLayerTableRecord
  2
50668
 70
0
 62
7
  6
CONTINUOUS
370
-3
390
F
  0
LAYER
  5
208
100
AcDbSymbolTableRecord
100
AcDbLayerTableRecord
  2
50675
 70
0
 62
7
  6
CONTINUOUS
370
-3
390
F
  0
LAYER
  5
209
100
AcDbSymbolTableRecord
100
AcDbLayerTableRecord
  2
50677
 70
0
 62
7
  6
CONTINUOUS
370
-3
390
F
  0
LAYER
  5
20A
100
AcDbSymbolTableRecord
100
AcDbLayerTableRecord
  2
50678
 70
0
 62
7
  6
CONTINUOUS
370
-3
390
F
  0
LAYER
  5
20B
100
AcDbSymbolTableRecord
100
AcDbLayerTableRecord
  2
50851
 70
0
 62
7
  6
CONTINUOUS
370
-3
390
F
  0
LAYER
  5
20C
100
AcDbSymbolTableRecord
100
AcDbLayerTableRecord
  2
6-403
 70
0
 62
7
  6
CONTINUOUS
370
-3
390
F
  0
LAYER
  5
20D
100
AcDbSymbolTableRecord
100
AcDbLayerTableRecord
  2
91203
 70
0
 62
7
  6
CONTINUOUS
370
-3
390
F
  0
LAYER
  5
20E
100
AcDbSymbolTableRecord
100
AcDbLayerTableRecord
  2
92073
 70
0
 62
7
  6
CONTINUOUS
370
-3
390
F
  0
LAYER
  5
20F
100
AcDbSymbolTableRecord
100
AcDbLayerTableRecord
  2
DEFAULT_COORDINATE_SYSTEM
 70
0
 62
7
  6
CONTINUOUS
370
-3
390
F
  0
LAYER
  5
210
100
AcDbSymbolTableRecord
100
AcDbLayerTableRecord
  2
DEFAULT_DATUM_AXES
 70
0
 62
7
  6
CONTINUOUS
370
-3
390
F
  0
LAYER
  5
211
100
AcDbSymbolTableRecord
100
AcDbLayerTableRecord
  2
DEFAULT_DATUM_PLANES
 70
0
 62
7
  6
CONTINUOUS
370
-3
390
F
  0
LAYER
  5
212
100
AcDbSymbolTableRecord
100
AcDbLayerTableRecord
  2
INTF_50350
 70
0
 62
7
  6
CONTINUOUS
370
-3
390
F
  0
LAYER
  5
213
100
AcDbSymbolTableRecord
100
AcDbLayerTableRecord
  2
INTF_50355
 70
0
 62
7
  6
CONTINUOUS
370
-3
390
F
  0
LAYER
  5
214
100
AcDbSymbolTableRecord
100
AcDbLayerTableRecord
  2
INTF_50359
 70
0
 62
7
  6
CONTINUOUS
370
-3
390
F
  0
LAYER
  5
215
100
AcDbSymbolTableRecord
100
AcDbLayerTableRecord
  2
INTF_50362
 70
0
 62
7
  6
CONTINUOUS
370
-3
390
F
  0
LAYER
  5
216
100
AcDbSymbolTableRecord
100
AcDbLayerTableRecord
  2
INTF_50392
 70
0
 62
7
  6
CONTINUOUS
370
-3
390
F
  0
LAYER
  5
217
100
AcDbSymbolTableRecord
100
AcDbLayerTableRecord
  2
INTF_50663
 70
0
 62
7
  6
CONTINUOUS
370
-3
390
F
  0
LAYER
  5
218
100
AcDbSymbolTableRecord
100
AcDbLayerTableRecord
  2
INTF_50664
 70
0
 62
7
  6
CONTINUOUS
370
-3
390
F
  0
LAYER
  5
219
100
AcDbSymbolTableRecord
100
AcDbLayerTableRecord
  2
INTF_50668
 70
0
 62
7
  6
CONTINUOUS
370
-3
390
F
  0
LAYER
  5
21A
100
AcDbSymbolTableRecord
100
AcDbLayerTableRecord
  2
INTF_50675
 70
0
 62
7
  6
CONTINUOUS
370
-3
390
F
  0
LAYER
  5
21B
100
AcDbSymbolTableRecord
100
AcDbLayerTableRecord
  2
INTF_50677
 70
0
 62
7
  6
CONTINUOUS
370
-3
390
F
  0
LAYER
  5
21C
100
AcDbSymbolTableRecord
100
AcDbLayerTableRecord
  2
INTF_50678
 70
0
 62
7
  6
CONTINUOUS
370
-3
390
F
  0
LAYER
  5
21D
100
AcDbSymbolTableRecord
100
AcDbLayerTableRecord
  2
INTF_50851
 70
0
 62
7
  6
CONTINUOUS
370
-3
390
F
  0
LAYER
  5
21E
100
AcDbSymbolTableRecord
100
AcDbLayerTableRecord
  2
INTF_91203
 70
0
 62
7
  6
CONTINUOUS
370
-3
390
F
  0
LAYER
  5
21F
100
AcDbSymbolTableRecord
100
AcDbLayerTableRecord
  2
INTF_92073
 70
0
 62
7
  6
CONTINUOUS
370
-3
390
F
  0
LAYER
  5
220
100
AcDbSymbolTableRecord
100
AcDbLayerTableRecord
  2
INTF_BLANK
 70
0
 62
7
  6
CONTINUOUS
370
-3
390
F
  0
LAYER
  5
221
100
AcDbSymbolTableRecord
100
AcDbLayerTableRecord
  2
NONE
 70
0
 62
7
  6
CONTINUOUS
370
-3
390
F
  0
LAYER
  5
222
100
AcDbSymbolTableRecord
100
AcDbLayerTableRecord
  2
PLATED_SURFACE
 70
0
 62
7
  6
CONTINUOUS
370
-3
390
F
  0
LAYER
  5
223
100
AcDbSymbolTableRecord
100
AcDbLayerTableRecord
  2
QUILT
 70
0
 62
7
  6
CONTINUOUS
370
-3
390
F
  0
LAYER
  5
224
100
AcDbSymbolTableRecord
100
AcDbLayerTableRecord
  2
WETTED_SURFACE
 70
0
 62
7
  6
CONTINUOUS
370
-3
390
F
  0
LAYER
  5
225
100
AcDbSymbolTableRecord
100
AcDbLayerTableRecord
  2
_BLACK_HOLE
 70
0
 62
7
  6
CONTINUOUS
370
-3
390
F
  0
ENDTAB
  0
TABLE
  2
STYLE
  5
3
100
AcDbSymbolTable
 70
1
  0
STYLE
  5
11
100
AcDbSymbolTableRecord
100
AcDbTextStyleTableRecord
  2
STANDARD
 70
0
 40
0.0
 41
0.8
 50
0.0
 71
0
 42
0.2
  3
txt
  4

  0
STYLE
  5
226
100
AcDbSymbolTableRecord
100
AcDbTextStyleTableRecord
  2
TEXTSTYLE_1
 70
0
 40
0.0
 41
0.8
 50
0.0
 71
0
 42
0.2
  3
gdt
  4

  0
ENDTAB
  0
TABLE
  2
VIEW
  5
6
100
AcDbSymbolTable
 70
0
  0
ENDTAB
  0
TABLE
  2
UCS
  5
7
100
AcDbSymbolTable
 70
0
  0
ENDTAB
  0
TABLE
  2
APPID
  5
9
100
AcDbSymbolTable
 70
1
  0
APPID
  5
227
100
AcDbSymbolTableRecord
100
AcDbRegAppTableRecord
  2
ACAD
 70
0
  0
ENDTAB
  0
TABLE
  2
BLOCK_RECORD
  5
1
100
AcDbSymbolTable
 70
0
  0
BLOCK_RECORD
  5
228
100
AcDbSymbolTableRecord
100
AcDbBlockTableRecord
  2
*Model_Space
  0
BLOCK_RECORD
  5
229
100
AcDbSymbolTableRecord
100
AcDbBlockTableRecord
  2
*Paper_Space
  0
BLOCK_RECORD
  5
22A
100
AcDbSymbolTableRecord
100
AcDbBlockTableRecord
  2
_FILLED
  0
ENDTAB
  0
TABLE
  2
DIMSTYLE
  5
A
100
AcDbSymbolTable
 70
1
100
AcDbDimStyleTable
 71
0
  0
DIMSTYLE
105
22B
100
AcDbSymbolTableRecord
100
AcDbDimStyleTableRecord
  2
STANDARD
 70
0
  3

  4

 40
1.0
 41
0.1
 42
0.0625
 43
0.38
 44
0.125
 45
0.0
 46
0.0
 47
0.001
 48
0.001
140
0.08
141
0.09
142
0.0
143
25.4
144
1.0
145
0.0
146
1.0
147
0.09
 71
1.0
 72
0.0
 73
1
 74
1
 75
0
 76
0
 77
0
 78
4
 79
1
170
1
171
2
172
0
173
0
174
0
175
0
176
0
177
0
178
0
270
2
179
3
271
3
272
3
273
2
274
2
275
0
280
0
281
0
282
0
283
1
284
4
285
0
286
0
287
3
288
0
340
11
278
46
341
22A
342
22A
343
22A
344
22A
  0
ENDTAB
  0
ENDSEC
  0
SECTION
  2
BLOCKS
  0
BLOCK
  5
20
100
AcDbEntity
  8
0
100
AcDbBlockBegin
  2
*Model_Space
 70
0
 10
0.0
 20
0.0
 30
0.0
  3
*Model_Space
  1

  0
ENDBLK
  5
21
100
AcDbEntity
  8
0
100
AcDbBlockEnd
  0
BLOCK
  5
1C
100
AcDbEntity
  8
0
100
AcDbBlockBegin
  2
*Paper_Space
 70
0
 10
0.0
 20
0.0
 30
0.0
  3
*Paper_Space
  1

  0
ENDBLK
  5
1D
100
AcDbEntity
  8
0
100
AcDbBlockEnd
  0
BLOCK
  5
22C
100
AcDbEntity
  8
0
100
AcDbBlockBegin
  2
_FILLED
 70
64
 10
0.0
 20
0.0
  3
_FILLED
  1

  0
SOLID
  5
22D
100
AcDbEntity
  8
0
  6
BYBLOCK
 62
0
100
AcDbTrace
 10
0.0
 20
0.0
 11
-1.0
 21
0.2
 12
-1.0
 22
-0.2
 13
-1.0
 23
-0.2
  0
ENDBLK
  5
22E
100
AcDbEntity
  8
0
  6
BYBLOCK
 62
0
100
AcDbBlockEnd
  0
ENDSEC
  0
SECTION
  2
ENTITIES
  0
MTEXT
  5
22F
100
AcDbEntity
  8
0
100
AcDbMText
 62
7
  6
CONTINUOUS
  7
STANDARD
 71
1
 72
1
 10
7.2357142857
 20
0.2586335404
 30
0.0
 11
1.0
 21
0.0
 31
0.0
 73
2
 44
0.9
  1
SCALE: .50
 40
0.08
 41
0.64
  0
LINE
  5
230
100
AcDbEntity
  8
0
100
AcDbLine
 62
7
  6
CONTINUOUS
 10
0.0
 20
0.0
 11
8.5
 21
0.0
  0
LINE
  5
231
100
AcDbEntity
  8
0
100
AcDbLine
 62
7
  6
CONTINUOUS
 10
0.0
 20
0.0
 11
0.0
 21
11.0
  0
LINE
  5
232
100
AcDbEntity
  8
0
100
AcDbLine
 62
7
  6
CONTINUOUS
 10
8.5
 20
0.0
 11
8.5
 21
11.0
  0
LINE
  5
233
100
AcDbEntity
  8
0
100
AcDbLine
 62
7
  6
CONTINUOUS
 10
0.0
 20
11.0
 11
8.5
 21
11.0
  0
LINE
  5
234
100
AcDbEntity
  8
0
100
AcDbLine
 62
7
  6
CONTINUOUS
 10
4.3256640791
 20
3.6163414787
 11
4.3209244207
 21
3.616025921
  0
LINE
  5
235
100
AcDbEntity
  8
0
100
AcDbLine
 62
7
  6
CONTINUOUS
 10
4.3256677019
 20
3.6163350596
 11
4.3244155361
 21
3.6162579391
  0
LINE
  5
236
100
AcDbEntity
  8
0
100
AcDbLine
 62
9
  6
CONTINUOUS
 10
4.167790983
 20
3.6075247002
 11
4.1676782586
 21
3.6075214628
  0
LINE
  5
237
100
AcDbEntity
  8
0
100
AcDbLine
 62
9
  6
CONTINUOUS
 10
4.1676782586
 20
3.6075214628
 11
4.1769559223
 21
3.6075371049
  0
LINE
  5
238
100
AcDbEntity
  8
0
100
AcDbLine
 62
9
  6
CONTINUOUS
 10
4.1769559223
 20
3.6075371049
 11
4.3185444207
 21
3.6075247002
  0
LINE
  5
239
100
AcDbEntity
  8
0
100
AcDbLine
 62
9
  6
CONTINUOUS
 10
4.3185444207
 20
3.6075247002
 11
4.3186571451
 21
3.6075214628
  0
LINE
  5
23A
100
AcDbEntity
  8
0
100
AcDbLine
 62
7
  6
CONTINUOUS
 10
4.1652881085
 20
3.6160364733
 11
4.1608063043
 21
3.6163265433
  0
LINE
  5
23B
100
AcDbEntity
  8
0
100
AcDbLine
 62
7
  6
CONTINUOUS
 10
4.1654109684
 20
3.6160259003
 11
4.1608091882
 21
3.6163322544
  0
LINE
  5
23C
100
AcDbEntity
  8
0
100
AcDbLine
 62
7
  6
CONTINUOUS
 10
3.9724419745
 20
3.7597982514
 11
4.5138934293
 21
3.7597982514
  0
LINE
  5
23D
100
AcDbEntity
  8
0
100
AcDbLine
 62
7
  6
CONTINUOUS
 10
4.3369177019
 20
3.7702982514
 11
4.3361772475
 21
3.7702982514
  0
LINE
  5
23E
100
AcDbEntity
  8
0
100
AcDbLine
 62
7
  6
CONTINUOUS
 10
4.3345900871
 20
3.7702982514
 11
4.3265460841
 21
3.7702982514
  0
LINE
  5
23F
100
AcDbEntity
  8
0
100
AcDbLine
 62
7
  6
CONTINUOUS
 10
4.3219760377
 20
3.7702982514
 11
4.3068582572
 21
3.7702982514
  0
LINE
  5
240
100
AcDbEntity
  8
0
100
AcDbLine
 62
7
  6
CONTINUOUS
 10
4.29985654
 20
3.7702982514
 11
4.2794884094
 21
3.7702982514
  0
LINE
  5
241
100
AcDbEntity
  8
0
100
AcDbLine
 62
7
  6
CONTINUOUS
 10
4.2708995317
 20
3.7702982514
 11
4.2477377482
 21
3.7702982514
  0
LINE
  5
242
100
AcDbEntity
  8
0
100
AcDbLine
 62
7
  6
CONTINUOUS
 10
4.2385976555
 20
3.7702982514
 11
4.215435872
 21
3.7702982514
  0
LINE
  5
243
100
AcDbEntity
  8
0
100
AcDbLine
 62
7
  6
CONTINUOUS
 10
4.2068469943
 20
3.7702982514
 11
4.1864788637
 21
3.7702982514
  0
LINE
  5
244
100
AcDbEntity
  8
0
100
AcDbLine
 62
7
  6
CONTINUOUS
 10
4.1794771465
 20
3.7702982514
 11
4.164359366
 21
3.7702982514
  0
LINE
  5
245
100
AcDbEntity
  8
0
100
AcDbLine
 62
7
  6
CONTINUOUS
 10
4.1501581562
 20
3.7702982514
 11
4.1494269128
 21
3.7702982514
  0
LINE
  5
246
100
AcDbEntity
  8
0
100
AcDbLine
 62
7
  6
CONTINUOUS
 10
4.1597893196
 20
3.7702982514
 11
4.1517453166
 21
3.7702982514
  0
LINE
  5
247
100
AcDbEntity
  8
0
100
AcDbLine
 62
7
  6
CONTINUOUS
 10
4.0859179081
 20
3.7947982514
 11
4.4004174956
 21
3.7947982514
  0
LINE
  5
248
100
AcDbEntity
  8
0
100
AcDbLine
 62
7
  6
CONTINUOUS
 10
4.4004177019
 20
3.8072982514
 11
4.0859177019
 21
3.8072982514
  0
LINE
  5
249
100
AcDbEntity
  8
0
100
AcDbLine
 62
7
  6
CONTINUOUS
 10
4.0244177019
 20
3.8359761724
 11
4.0859177019
 21
3.8072982514
  0
LINE
  5
24A
100
AcDbEntity
  8
0
100
AcDbLine
 62
7
  6
CONTINUOUS
 10
4.0281677019
 20
3.9497982514
 11
4.4581677019
 21
3.9497982514
  0
LINE
  5
24B
100
AcDbEntity
  8
0
100
AcDbLine
 62
7
  6
CONTINUOUS
 10
4.2611796597
 20
3.9641177006
 11
4.2234801796
 21
3.963318082
  0
LINE
  5
24C
100
AcDbEntity
  8
0
100
AcDbLine
 62
7
  6
CONTINUOUS
 10
4.2234720519
 20
3.9664429904
 11
4.2611728216
 21
3.9672425551
  0
LINE
  5
24D
100
AcDbEntity
  8
0
100
AcDbLine
 62
7
  6
CONTINUOUS
 10
4.228268216
 20
3.9884199689
 11
4.2470093392
 21
3.9888170737
  0
LINE
  5
24E
100
AcDbEntity
  8
0
100
AcDbLine
 62
7
  6
CONTINUOUS
 10
4.2470105325
 20
3.991942099
 11
4.2282687993
 21
3.9915449767
  0
LINE
  5
24F
100
AcDbEntity
  8
0
100
AcDbLine
 62
7
  6
CONTINUOUS
 10
4.252824609
 20
3.9758257081
 11
4.233494878
 21
3.9754469309
  0
LINE
  5
250
100
AcDbEntity
  8
0
100
AcDbLine
 62
7
  6
CONTINUOUS
 10
4.23351189
 20
3.9797708126
 11
4.2528416338
 21
3.9801495871
  0
LINE
  5
251
100
AcDbEntity
  8
0
100
AcDbLine
 62
7
  6
CONTINUOUS
 10
4.252824609
 20
4.0008257113
 11
4.2334948779
 21
4.0004469379
  0
LINE
  5
252
100
AcDbEntity
  8
0
100
AcDbLine
 62
7
  6
CONTINUOUS
 10
4.0281677019
 20
3.9622982514
 11
4.4581677019
 21
3.9622982514
  0
LINE
  5
253
100
AcDbEntity
  8
0
100
AcDbLine
 62
7
  6
CONTINUOUS
 10
4.0400427019
 20
4.0252982514
 11
4.4462927019
 21
4.0252982514
  0
LINE
  5
254
100
AcDbEntity
  8
0
100
AcDbLine
 62
7
  6
CONTINUOUS
 10
4.0401648314
 20
3.9692545441
 11
4.0522051839
 21
3.9622982514
  0
LINE
  5
255
100
AcDbEntity
  8
0
100
AcDbLine
 62
7
  6
CONTINUOUS
 10
4.0401573439
 20
3.9942607818
 11
4.0553798913
 21
3.9854660645
  0
LINE
  5
256
100
AcDbEntity
  8
0
100
AcDbLine
 62
7
  6
CONTINUOUS
 10
4.2968100258
 20
3.5983262285
 11
4.2966634143
 21
3.5984728399
  0
LINE
  5
257
100
AcDbEntity
  8
0
100
AcDbLine
 62
7
  6
CONTINUOUS
 10
3.6181677019
 20
5.8101564777
 11
3.6181677019
 21
5.8652982514
  0
LINE
  5
258
100
AcDbEntity
  8
0
100
AcDbLine
 62
7
  6
CONTINUOUS
 10
4.0431677019
 20
4.0752982514
 11
4.1085254459
 21
4.0752982514
  0
LINE
  5
259
100
AcDbEntity
  8
0
100
AcDbLine
 62
7
  6
CONTINUOUS
 10
4.3778097616
 20
4.0752982514
 11
4.4431677019
 21
4.0752982514
  0
LINE
  5
25A
100
AcDbEntity
  8
0
100
AcDbLine
 62
7
  6
CONTINUOUS
 10
4.4581677019
 20
3.9497982514
 11
4.4619177019
 21
3.9480495977
  0
LINE
  5
25B
100
AcDbEntity
  8
0
100
AcDbLine
 62
7
  6
CONTINUOUS
 10
4.0552529638
 20
3.9856126608
 11
4.0553798913
 21
3.9854660645
  0
LINE
  5
25C
100
AcDbEntity
  8
0
100
AcDbLine
 62
7
  6
CONTINUOUS
 10
4.2691500555
 20
4.1983613737
 11
4.2171732351
 21
4.19502807
  0
LINE
  5
25D
100
AcDbEntity
  8
0
100
AcDbLine
 62
7
  6
CONTINUOUS
 10
4.2171853511
 20
4.2011320165
 11
4.2691621943
 21
4.2044652915
  0
LINE
  5
25E
100
AcDbEntity
  8
0
100
AcDbLine
 62
7
  6
CONTINUOUS
 10
4.2297453931
 20
4.1701558602
 11
4.2638636161
 21
4.1718976694
  0
LINE
  5
25F
100
AcDbEntity
  8
0
100
AcDbLine
 62
7
  6
CONTINUOUS
 10
4.2666845687
 20
4.1798553405
 11
4.2262486898
 21
4.1777894328
  0
LINE
  5
260
100
AcDbEntity
  8
0
100
AcDbLine
 62
7
  6
CONTINUOUS
 10
4.4445068213
 20
3.9622982514
 11
4.4309519258
 21
3.9701296831
  0
LINE
  5
261
100
AcDbEntity
  8
0
100
AcDbLine
 62
7
  6
CONTINUOUS
 10
4.446176589
 20
3.9863358668
 11
4.4309530201
 21
3.9951312907
  0
LWPOLYLINE
  5
262
100
AcDbEntity
  8
0
100
AcDbPolyline
 62
7
  6
CONTINUOUS
 90
10
 70
0
 10
3.9755635658
 20
3.6697127779
 10
3.9758186152
 20
3.6671497368
 10
3.9764889061
 20
3.6643563143
 10
3.9775387515
 20
3.6617161355
 10
3.9789692805
 20
3.6592258844
 10
3.9807420867
 20
3.6569657947
 10
3.9827987374
 20
3.6550008494
 10
3.9851443162
 20
3.6533286221
 10
3.9877349216
 20
3.6519983066
 10
3.98953772
 20
3.6513331293
  0
LINE
  5
263
100
AcDbEntity
  8
0
100
AcDbLine
 62
7
  6
CONTINUOUS
 10
4.4310800996
 20
3.9949846652
 11
4.4309530201
 21
3.9951312907
  0
LINE
  5
264
100
AcDbEntity
  8
0
100
AcDbLine
 62
7
  6
CONTINUOUS
 10
4.4309519258
 20
3.9701296831
 11
4.4310788916
 21
3.9699830539
  0
LINE
  5
265
100
AcDbEntity
  8
0
100
AcDbLine
 62
7
  6
CONTINUOUS
 10
3.9755653014
 20
3.6696627933
 11
3.9724177019
 21
3.7597982514
  0
LINE
  5
266
100
AcDbEntity
  8
0
100
AcDbLine
 62
7
  6
CONTINUOUS
 10
4.0431677019
 20
4.4002982514
 11
4.1085256421
 21
4.4002982514
  0
LINE
  5
267
100
AcDbEntity
  8
0
100
AcDbLine
 62
7
  6
CONTINUOUS
 10
4.3778099578
 20
4.4002982514
 11
4.4431677019
 21
4.4002982514
  0
LINE
  5
268
100
AcDbEntity
  8
0
100
AcDbLine
 62
7
  6
CONTINUOUS
 10
4.0401841387
 20
4.5033731789
 11
4.0553987081
 21
4.4945822902
  0
LINE
  5
269
100
AcDbEntity
  8
0
100
AcDbLine
 62
7
  6
CONTINUOUS
 10
4.0401856276
 20
4.5311708699
 11
4.0553976289
 21
4.5223815125
  0
LINE
  5
26A
100
AcDbEntity
  8
0
100
AcDbLine
 62
7
  6
CONTINUOUS
 10
4.0552429832
 20
4.5225601536
 11
4.0553976289
 21
4.5223815125
  0
LINE
  5
26B
100
AcDbEntity
  8
0
100
AcDbLine
 62
7
  6
CONTINUOUS
 10
4.0552521566
 20
4.5503555988
 11
4.0554059597
 21
4.5501776066
  0
LINE
  5
26C
100
AcDbEntity
  8
0
100
AcDbLine
 62
7
  6
CONTINUOUS
 10
4.0400427019
 20
4.5313366139
 11
4.0401856274
 21
4.5311706251
  0
LINE
  5
26D
100
AcDbEntity
  8
0
100
AcDbLine
 62
7
  6
CONTINUOUS
 10
4.0400427019
 20
4.503536614
 11
4.0401841374
 21
4.5033714927
  0
LINE
  5
26E
100
AcDbEntity
  8
0
100
AcDbLine
 62
7
  6
CONTINUOUS
 10
4.0244177019
 20
4.8340482514
 11
4.0244177019
 21
4.5527982514
  0
LINE
  5
26F
100
AcDbEntity
  8
0
100
AcDbLine
 62
7
  6
CONTINUOUS
 10
4.0244177019
 20
3.8359763491
 11
4.0244177019
 21
3.948049421
  0
LINE
  5
270
100
AcDbEntity
  8
0
100
AcDbLine
 62
7
  6
CONTINUOUS
 10
4.0281677019
 20
3.9497982514
 11
4.0281677019
 21
3.9622982514
  0
LINE
  5
271
100
AcDbEntity
  8
0
100
AcDbLine
 62
9
  6
CONTINUOUS
 10
4.0369177019
 20
3.9354863136
 11
4.0369177019
 21
3.8485394565
  0
LINE
  5
272
100
AcDbEntity
  8
0
100
AcDbLine
 62
7
  6
CONTINUOUS
 10
4.0400427019
 20
4.0252982514
 11
4.0400427019
 21
3.9943864755
  0
LINE
  5
273
100
AcDbEntity
  8
0
100
AcDbLine
 62
7
  6
CONTINUOUS
 10
4.0400427019
 20
3.9737100273
 11
4.0400427019
 21
3.9693864755
  0
LINE
  5
274
100
AcDbEntity
  8
0
100
AcDbLine
 62
7
  6
CONTINUOUS
 10
4.0400427019
 20
4.5035369088
 11
4.0400427019
 21
4.510659996
  0
LINE
  5
275
100
AcDbEntity
  8
0
100
AcDbLine
 62
7
  6
CONTINUOUS
 10
4.0400427019
 20
4.5313367986
 11
4.0400427019
 21
4.5384543195
  0
LINE
  5
276
100
AcDbEntity
  8
0
100
AcDbLine
 62
7
  6
CONTINUOUS
 10
4.0431677019
 20
4.0752982514
 11
4.0431677019
 21
4.1700638098
  0
LINE
  5
277
100
AcDbEntity
  8
0
100
AcDbLine
 62
7
  6
CONTINUOUS
 10
4.0431677019
 20
4.3055318539
 11
4.0431677019
 21
4.4002982514
  0
LINE
  5
278
100
AcDbEntity
  8
0
100
AcDbLine
 62
7
  6
CONTINUOUS
 10
4.0481677019
 20
4.4002982514
 11
4.0481677019
 21
4.487550834
  0
LINE
  5
279
100
AcDbEntity
  8
0
100
AcDbLine
 62
7
  6
CONTINUOUS
 10
4.0552429832
 20
4.5225601536
 11
4.0552429832
 21
4.5194351536
  0
LINE
  5
27A
100
AcDbEntity
  8
0
100
AcDbLine
 62
7
  6
CONTINUOUS
 10
4.055243186
 20
4.4947618243
 11
4.055243186
 21
4.4916368243
  0
LINE
  5
27B
100
AcDbEntity
  8
0
100
AcDbLine
 62
7
  6
CONTINUOUS
 10
4.0552521566
 20
4.5503555988
 11
4.0552521566
 21
4.5472305988
  0
LINE
  5
27C
100
AcDbEntity
  8
0
100
AcDbLine
 62
7
  6
CONTINUOUS
 10
4.0552529638
 20
3.9856126608
 11
4.0552529638
 21
3.9824876608
  0
LINE
  5
27D
100
AcDbEntity
  8
0
100
AcDbLine
 62
7
  6
CONTINUOUS
 10
4.0556677019
 20
4.0252982514
 11
4.0556677019
 21
4.0752982514
  0
LINE
  5
27E
100
AcDbEntity
  8
0
100
AcDbLine
 62
7
  6
CONTINUOUS
 10
4.2604154504
 20
4.4989925287
 11
4.2231963327
 21
4.4981147805
  0
LINE
  5
27F
100
AcDbEntity
  8
0
100
AcDbLine
 62
7
  6
CONTINUOUS
 10
4.2604154504
 20
4.5021175287
 11
4.2231963327
 21
4.5012397805
  0
LINE
  5
280
100
AcDbEntity
  8
0
100
AcDbLine
 62
7
  6
CONTINUOUS
 10
4.2433963475
 20
4.4898150784
 11
4.258157978
 21
4.4901369838
  0
LINE
  5
281
100
AcDbEntity
  8
0
100
AcDbLine
 62
7
  6
CONTINUOUS
 10
4.2624474898
 20
4.510907203
 11
4.2234215101
 21
4.5100557852
  0
LINE
  5
282
100
AcDbEntity
  8
0
100
AcDbLine
 62
7
  6
CONTINUOUS
 10
4.2186000314
 20
4.5448737146
 11
4.2584968252
 21
4.5457443853
  0
LINE
  5
283
100
AcDbEntity
  8
0
100
AcDbLine
 62
7
  6
CONTINUOUS
 10
4.048471762
 20
4.4877982514
 11
4.4461468025
 21
4.4877982514
  0
LINE
  5
284
100
AcDbEntity
  8
0
100
AcDbLine
 62
7
  6
CONTINUOUS
 10
4.4619177019
 20
4.5527982514
 11
4.0244177019
 21
4.5527982514
  0
LINE
  5
285
100
AcDbEntity
  8
0
100
AcDbLine
 62
9
  6
CONTINUOUS
 10
4.1290988528
 20
3.7597982514
 11
4.1315059618
 21
3.6706039966
  0
LINE
  5
286
100
AcDbEntity
  8
0
100
AcDbLine
 62
7
  6
CONTINUOUS
 10
4.0859177019
 20
3.8072982514
 11
4.0859177019
 21
3.7947982514
  0
LINE
  5
287
100
AcDbEntity
  8
0
100
AcDbLine
 62
7
  6
CONTINUOUS
 10
4.1494177019
 20
3.7702982514
 11
4.1494177019
 21
3.7947982514
  0
LINE
  5
288
100
AcDbEntity
  8
0
100
AcDbLine
 62
7
  6
CONTINUOUS
 10
4.1501581562
 20
3.7597982514
 11
4.1501581562
 21
3.7702982514
  0
LINE
  5
289
100
AcDbEntity
  8
0
100
AcDbLine
 62
7
  6
CONTINUOUS
 10
4.1517453166
 20
3.7702982514
 11
4.1517453166
 21
3.7597982514
  0
LINE
  5
28A
100
AcDbEntity
  8
0
100
AcDbLine
 62
7
  6
CONTINUOUS
 10
4.1597893196
 20
3.7597982514
 11
4.1597893196
 21
3.7702982514
  0
LINE
  5
28B
100
AcDbEntity
  8
0
100
AcDbLine
 62
7
  6
CONTINUOUS
 10
4.164359366
 20
3.7702982514
 11
4.164359366
 21
3.7597982514
  0
LINE
  5
28C
100
AcDbEntity
  8
0
100
AcDbLine
 62
7
  6
CONTINUOUS
 10
4.4461468025
 20
4.4969225272
 11
4.4309266053
 21
4.5057171361
  0
LINE
  5
28D
100
AcDbEntity
  8
0
100
AcDbLine
 62
7
  6
CONTINUOUS
 10
4.1774045107
 20
3.7702982514
 11
4.1774045107
 21
3.7597982514
  0
LINE
  5
28E
100
AcDbEntity
  8
0
100
AcDbLine
 62
7
  6
CONTINUOUS
 10
4.1794771465
 20
3.7597982514
 11
4.1794771465
 21
3.7702982514
  0
LINE
  5
28F
100
AcDbEntity
  8
0
100
AcDbLine
 62
7
  6
CONTINUOUS
 10
4.1864788637
 20
3.7702982514
 11
4.1864788637
 21
3.7597982514
  0
LINE
  5
290
100
AcDbEntity
  8
0
100
AcDbLine
 62
7
  6
CONTINUOUS
 10
4.1991276384
 20
3.7702982514
 11
4.1991276384
 21
3.7597982514
  0
LINE
  5
291
100
AcDbEntity
  8
0
100
AcDbLine
 62
7
  6
CONTINUOUS
 10
4.2034577654
 20
3.7702982514
 11
4.2034577654
 21
3.7597982514
  0
LINE
  5
292
100
AcDbEntity
  8
0
100
AcDbLine
 62
7
  6
CONTINUOUS
 10
4.2068469943
 20
3.7597982514
 11
4.2068469943
 21
3.7702982514
  0
LINE
  5
293
100
AcDbEntity
  8
0
100
AcDbLine
 62
7
  6
CONTINUOUS
 10
4.215435872
 20
3.7702982514
 11
4.215435872
 21
3.7597982514
  0
LINE
  5
294
100
AcDbEntity
  8
0
100
AcDbLine
 62
7
  6
CONTINUOUS
 10
4.2261626476
 20
3.7702982514
 11
4.2261626476
 21
3.7597982514
  0
LINE
  5
295
100
AcDbEntity
  8
0
100
AcDbLine
 62
9
  6
CONTINUOUS
 10
4.2306677019
 20
3.8485394565
 11
4.2306677019
 21
3.9354863136
  0
LINE
  5
296
100
AcDbEntity
  8
0
100
AcDbLine
 62
7
  6
CONTINUOUS
 10
4.2310866864
 20
3.7702982514
 11
4.2310866864
 21
3.7597982514
  0
LINE
  5
297
100
AcDbEntity
  8
0
100
AcDbLine
 62
7
  6
CONTINUOUS
 10
4.2352927019
 20
3.5984728399
 11
4.2352927019
 21
3.5919940799
  0
LINE
  5
298
100
AcDbEntity
  8
0
100
AcDbLine
 62
7
  6
CONTINUOUS
 10
4.2385976555
 20
3.7597982514
 11
4.2385976555
 21
3.7702982514
  0
LINE
  5
299
100
AcDbEntity
  8
0
100
AcDbLine
 62
7
  6
CONTINUOUS
 10
4.2431677019
 20
4.8340482514
 11
4.2431677019
 21
4.5527982514
  0
LINE
  5
29A
100
AcDbEntity
  8
0
100
AcDbLine
 62
7
  6
CONTINUOUS
 10
4.2431677019
 20
3.6075371442
 11
4.2431677019
 21
3.6135444171
  0
LINE
  5
29B
100
AcDbEntity
  8
0
100
AcDbLine
 62
7
  6
CONTINUOUS
 10
4.2431677019
 20
4.2527982514
 11
4.2431677019
 21
4.2966951432
  0
LINE
  5
29C
100
AcDbEntity
  8
0
100
AcDbLine
 62
7
  6
CONTINUOUS
 10
4.2477377482
 20
3.7702982514
 11
4.2477377482
 21
3.7597982514
  0
LINE
  5
29D
100
AcDbEntity
  8
0
100
AcDbLine
 62
7
  6
CONTINUOUS
 10
4.2510427019
 20
3.5984728399
 11
4.2510427019
 21
3.5919940799
  0
LINE
  5
29E
100
AcDbEntity
  8
0
100
AcDbLine
 62
7
  6
CONTINUOUS
 10
4.0400427019
 20
4.5384601629
 11
4.0401763545
 21
4.5386206789
  0
LINE
  5
29F
100
AcDbEntity
  8
0
100
AcDbLine
 62
7
  6
CONTINUOUS
 10
4.0400427019
 20
4.5106601656
 11
4.0401842571
 21
4.5108253567
  0
LINE
  5
2A0
100
AcDbEntity
  8
0
100
AcDbLine
 62
7
  6
CONTINUOUS
 10
4.0481677019
 20
4.4875511364
 11
4.048316875
 21
4.4877242121
  0
LINE
  5
2A1
100
AcDbEntity
  8
0
100
AcDbLine
 62
7
  6
CONTINUOUS
 10
4.4461455158
 20
4.524724638
 11
4.4309276813
 21
4.5335178327
  0
LINE
  5
2A2
100
AcDbEntity
  8
0
100
AcDbLine
 62
7
  6
CONTINUOUS
 10
4.4309266053
 20
4.5057171361
 11
4.4310834981
 21
4.5055358182
  0
LINE
  5
2A3
100
AcDbEntity
  8
0
100
AcDbLine
 62
7
  6
CONTINUOUS
 10
4.2552487174
 20
3.7702982514
 11
4.2552487174
 21
3.7597982514
  0
LINE
  5
2A4
100
AcDbEntity
  8
0
100
AcDbLine
 62
9
  6
CONTINUOUS
 10
4.2556677019
 20
3.9354863136
 11
4.2556677019
 21
3.8485394565
  0
LINE
  5
2A5
100
AcDbEntity
  8
0
100
AcDbLine
 62
7
  6
CONTINUOUS
 10
4.2601727561
 20
3.7702982514
 11
4.2601727561
 21
3.7597982514
  0
LINE
  5
2A6
100
AcDbEntity
  8
0
100
AcDbLine
 62
7
  6
CONTINUOUS
 10
4.2708995317
 20
3.7597982514
 11
4.2708995317
 21
3.7702982514
  0
LINE
  5
2A7
100
AcDbEntity
  8
0
100
AcDbLine
 62
7
  6
CONTINUOUS
 10
4.2794884094
 20
3.7702982514
 11
4.2794884094
 21
3.7597982514
  0
LINE
  5
2A8
100
AcDbEntity
  8
0
100
AcDbLine
 62
7
  6
CONTINUOUS
 10
4.2828776384
 20
3.7702982514
 11
4.2828776384
 21
3.7597982514
  0
LINE
  5
2A9
100
AcDbEntity
  8
0
100
AcDbLine
 62
7
  6
CONTINUOUS
 10
4.2872077654
 20
3.7702982514
 11
4.2872077654
 21
3.7597982514
  0
LINE
  5
2AA
100
AcDbEntity
  8
0
100
AcDbLine
 62
7
  6
CONTINUOUS
 10
4.29985654
 20
3.7597982514
 11
4.29985654
 21
3.7702982514
  0
LINE
  5
2AB
100
AcDbEntity
  8
0
100
AcDbLine
 62
7
  6
CONTINUOUS
 10
4.3068582572
 20
3.7702982514
 11
4.3068582572
 21
3.7597982514
  0
LINE
  5
2AC
100
AcDbEntity
  8
0
100
AcDbLine
 62
7
  6
CONTINUOUS
 10
4.308930893
 20
3.7702982514
 11
4.308930893
 21
3.7597982514
  0
LINE
  5
2AD
100
AcDbEntity
  8
0
100
AcDbLine
 62
7
  6
CONTINUOUS
 10
4.3219760377
 20
3.7597982514
 11
4.3219760377
 21
3.7702982514
  0
LINE
  5
2AE
100
AcDbEntity
  8
0
100
AcDbLine
 62
7
  6
CONTINUOUS
 10
4.3265460841
 20
3.7702982514
 11
4.3265460841
 21
3.7597982514
  0
LINE
  5
2AF
100
AcDbEntity
  8
0
100
AcDbLine
 62
7
  6
CONTINUOUS
 10
4.3345900871
 20
3.7597982514
 11
4.3345900871
 21
3.7702982514
  0
LINE
  5
2B0
100
AcDbEntity
  8
0
100
AcDbLine
 62
7
  6
CONTINUOUS
 10
4.3361772475
 20
3.7702982514
 11
4.3361772475
 21
3.7597982514
  0
LINE
  5
2B1
100
AcDbEntity
  8
0
100
AcDbLine
 62
7
  6
CONTINUOUS
 10
4.3369177019
 20
3.7947982514
 11
4.3369177019
 21
3.7702982514
  0
LINE
  5
2B2
100
AcDbEntity
  8
0
100
AcDbLine
 62
7
  6
CONTINUOUS
 10
4.0553977581
 20
4.4918154618
 11
4.055243186
 21
4.4916368243
  0
LINE
  5
2B3
100
AcDbEntity
  8
0
100
AcDbLine
 62
7
  6
CONTINUOUS
 10
4.0554076603
 20
4.5474100651
 11
4.0426673151
 21
4.5400483484
  0
LINE
  5
2B4
100
AcDbEntity
  8
0
100
AcDbLine
 62
7
  6
CONTINUOUS
 10
4.0553983901
 20
4.5196145465
 11
4.0426552572
 21
4.5122515822
  0
LINE
  5
2B5
100
AcDbEntity
  8
0
100
AcDbLine
 62
7
  6
CONTINUOUS
 10
4.4462927019
 20
4.5245601631
 11
4.4461455191
 21
4.5247286087
  0
LINE
  5
2B6
100
AcDbEntity
  8
0
100
AcDbLine
 62
7
  6
CONTINUOUS
 10
4.4309276813
 20
4.5335178327
 11
4.4310842912
 21
4.5333367931
  0
LINE
  5
2B7
100
AcDbEntity
  8
0
100
AcDbLine
 62
7
  6
CONTINUOUS
 10
4.4004177019
 20
3.8072982514
 11
4.4004177019
 21
3.7947982514
  0
LINE
  5
2B8
100
AcDbEntity
  8
0
100
AcDbLine
 62
9
  6
CONTINUOUS
 10
4.357236551
 20
3.7597982514
 11
4.3548284183
 21
3.6706040451
  0
LINE
  5
2B9
100
AcDbEntity
  8
0
100
AcDbLine
 62
7
  6
CONTINUOUS
 10
4.0553977581
 20
4.4918154618
 11
4.0483168752
 21
4.4877240585
  0
LINE
  5
2BA
100
AcDbEntity
  8
0
100
AcDbLine
 62
7
  6
CONTINUOUS
 10
4.048316875
 20
4.4877242121
 11
4.048471762
 21
4.4877982514
  0
LINE
  5
2BB
100
AcDbEntity
  8
0
100
AcDbLine
 62
7
  6
CONTINUOUS
 10
4.4619177019
 20
4.8340482514
 11
4.0244177019
 21
4.8340482514
  0
LINE
  5
2BC
100
AcDbEntity
  8
0
100
AcDbLine
 62
7
  6
CONTINUOUS
 10
4.4306677019
 20
4.0252982514
 11
4.4306677019
 21
4.0752982514
  0
LINE
  5
2BD
100
AcDbEntity
  8
0
100
AcDbLine
 62
7
  6
CONTINUOUS
 10
4.4310788916
 20
3.9699830539
 11
4.4310788916
 21
3.9731080539
  0
LINE
  5
2BE
100
AcDbEntity
  8
0
100
AcDbLine
 62
7
  6
CONTINUOUS
 10
4.4310800996
 20
3.9949846652
 11
4.4310800998
 21
3.9981094865
  0
LINE
  5
2BF
100
AcDbEntity
  8
0
100
AcDbLine
 62
7
  6
CONTINUOUS
 10
4.4310834981
 20
4.5055358182
 11
4.4310834981
 21
4.508660819
  0
LINE
  5
2C0
100
AcDbEntity
  8
0
100
AcDbLine
 62
7
  6
CONTINUOUS
 10
4.4310842912
 20
4.5333367931
 11
4.4310842911
 21
4.5364616218
  0
LINE
  5
2C1
100
AcDbEntity
  8
0
100
AcDbLine
 62
7
  6
CONTINUOUS
 10
4.4381677019
 20
4.4002982514
 11
4.4381677019
 21
4.4877982514
  0
LINE
  5
2C2
100
AcDbEntity
  8
0
100
AcDbLine
 62
7
  6
CONTINUOUS
 10
4.4431677019
 20
4.4002982514
 11
4.4431677019
 21
4.3055326931
  0
LINE
  5
2C3
100
AcDbEntity
  8
0
100
AcDbLine
 62
7
  6
CONTINUOUS
 10
4.4431677019
 20
4.170064649
 11
4.4431677019
 21
4.0752982514
  0
LINE
  5
2C4
100
AcDbEntity
  8
0
100
AcDbLine
 62
7
  6
CONTINUOUS
 10
4.4462927019
 20
3.9818864755
 11
4.4462927019
 21
3.9862100273
  0
LINE
  5
2C5
100
AcDbEntity
  8
0
100
AcDbLine
 62
7
  6
CONTINUOUS
 10
4.4462927019
 20
4.0068864755
 11
4.4462927019
 21
4.0252982514
  0
LINE
  5
2C6
100
AcDbEntity
  8
0
100
AcDbLine
 62
7
  6
CONTINUOUS
 10
4.4462927019
 20
4.4877982514
 11
4.4462927019
 21
4.4967544229
  0
LINE
  5
2C7
100
AcDbEntity
  8
0
100
AcDbLine
 62
7
  6
CONTINUOUS
 10
4.4462927019
 20
4.5174423589
 11
4.4462927019
 21
4.5245549017
  0
LINE
  5
2C8
100
AcDbEntity
  8
0
100
AcDbLine
 62
7
  6
CONTINUOUS
 10
4.4462927019
 20
4.5452418527
 11
4.4462927019
 21
4.5523505044
  0
LINE
  5
2C9
100
AcDbEntity
  8
0
100
AcDbLine
 62
9
  6
CONTINUOUS
 10
4.4494177019
 20
3.8485394565
 11
4.4494177019
 21
3.9354863136
  0
LINE
  5
2CA
100
AcDbEntity
  8
0
100
AcDbLine
 62
7
  6
CONTINUOUS
 10
4.4581677019
 20
3.9622982514
 11
4.4581677019
 21
3.9497982514
  0
LINE
  5
2CB
100
AcDbEntity
  8
0
100
AcDbLine
 62
7
  6
CONTINUOUS
 10
4.4619177019
 20
4.8340482514
 11
4.4619177019
 21
4.5527982514
  0
LINE
  5
2CC
100
AcDbEntity
  8
0
100
AcDbLine
 62
7
  6
CONTINUOUS
 10
4.4619177019
 20
3.948049421
 11
4.4619177019
 21
3.8359763491
  0
LINE
  5
2CD
100
AcDbEntity
  8
0
100
AcDbLine
 62
7
  6
CONTINUOUS
 10
4.4310842911
 20
4.5364616218
 11
4.4309273649
 21
4.5362804784
  0
LINE
  5
2CE
100
AcDbEntity
  8
0
100
AcDbLine
 62
7
  6
CONTINUOUS
 10
4.4309273649
 20
4.5362804784
 11
4.444693974
 21
4.5442351798
  0
LINE
  5
2CF
100
AcDbEntity
  8
0
100
AcDbLine
 62
7
  6
CONTINUOUS
 10
4.5107717363
 20
3.6697095848
 11
4.5139177019
 21
3.7597982514
  0
LINE
  5
2D0
100
AcDbEntity
  8
0
100
AcDbLine
 62
7
  6
CONTINUOUS
 10
4.0552529638
 20
3.9824876608
 11
4.0553793968
 21
3.982633829
  0
LINE
  5
2D1
100
AcDbEntity
  8
0
100
AcDbLine
 62
7
  6
CONTINUOUS
 10
4.4310834981
 20
4.508660819
 11
4.4309266322
 21
4.5084795228
  0
LINE
  5
2D2
100
AcDbEntity
  8
0
100
AcDbLine
 62
7
  6
CONTINUOUS
 10
4.4462927019
 20
4.5452366163
 11
4.4461482955
 21
4.5450697673
  0
LINE
  5
2D3
100
AcDbEntity
  8
0
100
AcDbLine
 62
7
  6
CONTINUOUS
 10
4.4462927019
 20
4.5174366166
 11
4.446146591
 21
4.5172687854
  0
LINE
  5
2D4
100
AcDbEntity
  8
0
100
AcDbLine
 62
7
  6
CONTINUOUS
 10
4.0400427019
 20
3.9737100273
 11
4.0401634492
 21
3.9738472272
  0
LINE
  5
2D5
100
AcDbEntity
  8
0
100
AcDbLine
 62
7
  6
CONTINUOUS
 10
4.4309266322
 20
4.5084795228
 11
4.4446951809
 21
4.5164353763
  0
LINE
  5
2D6
100
AcDbEntity
  8
0
100
AcDbLine
 62
7
  6
CONTINUOUS
 10
4.0553793968
 20
3.982633829
 11
4.0416113057
 21
3.9746793963
  0
LINE
  5
2D7
100
AcDbEntity
  8
0
100
AcDbLine
 62
7
  6
CONTINUOUS
 10
4.0281677019
 20
3.9497982514
 11
4.0244177019
 21
3.9480495977
  0
LINE
  5
2D8
100
AcDbEntity
  8
0
100
AcDbLine
 62
7
  6
CONTINUOUS
 10
4.8681677019
 20
5.8101564777
 11
4.8681677019
 21
5.8652982514
  0
LINE
  5
2D9
100
AcDbEntity
  8
0
100
AcDbLine
 62
7
  6
CONTINUOUS
 10
4.4309525224
 20
3.9729619427
 11
4.4310788916
 21
3.9731080539
  0
LINE
  5
2DA
100
AcDbEntity
  8
0
100
AcDbLine
 62
7
  6
CONTINUOUS
 10
4.4310800998
 20
3.9981094865
 11
4.4309533136
 21
3.9979629375
  0
LINE
  5
2DB
100
AcDbEntity
  8
0
100
AcDbLine
 62
7
  6
CONTINUOUS
 10
4.4462927019
 20
4.0068864755
 11
4.4461724838
 21
4.0067495767
  0
LINE
  5
2DC
100
AcDbEntity
  8
0
100
AcDbLine
 62
7
  6
CONTINUOUS
 10
4.4462927019
 20
3.9818864755
 11
4.446170612
 21
3.9817485149
  0
LINE
  5
2DD
100
AcDbEntity
  8
0
100
AcDbLine
 62
7
  6
CONTINUOUS
 10
4.4309533136
 20
3.9979629375
 11
4.4437030364
 21
4.0053291419
  0
LINE
  5
2DE
100
AcDbEntity
  8
0
100
AcDbLine
 62
7
  6
CONTINUOUS
 10
4.4309525224
 20
3.9729619427
 11
4.4437044038
 21
3.9803294264
  0
LINE
  5
2DF
100
AcDbEntity
  8
0
100
AcDbLine
 62
9
  6
CONTINUOUS
 10
4.0119678718
 20
5.5840482514
 11
4.474367532
 21
5.5840482514
  0
LINE
  5
2E0
100
AcDbEntity
  8
0
100
AcDbLine
 62
9
  6
CONTINUOUS
 10
3.9778237278
 20
5.594175479
 11
4.508511676
 21
5.594175479
  0
LINE
  5
2E1
100
AcDbEntity
  8
0
100
AcDbLine
 62
7
  6
CONTINUOUS
 10
4.4619177019
 20
3.8359761724
 11
4.4004177019
 21
3.8072982514
  0
LINE
  5
2E2
100
AcDbEntity
  8
0
100
AcDbLine
 62
9
  6
CONTINUOUS
 10
4.8265249585
 20
5.7512393762
 11
3.6598104452
 21
5.7512393762
  0
LWPOLYLINE
  5
2E3
100
AcDbEntity
  8
0
100
AcDbPolyline
 62
7
  6
CONTINUOUS
 90
9
 70
0
 10
4.4986004542
 20
3.6519982948
 10
4.5011910532
 20
3.6533286013
 10
4.5035366322
 20
3.6550008213
 10
4.505593288
 20
3.6569657628
 10
4.507366101
 20
3.6592258515
 10
4.5087966373
 20
3.6617161046
 10
4.5098464896
 20
3.6643562887
 10
4.5105167854
 20
3.6671497178
 10
4.5107717267
 20
3.6697095852
  0
LINE
  5
2E4
100
AcDbEntity
  8
0
100
AcDbLine
 62
7
  6
CONTINUOUS
 10
4.4967976837
 20
3.6513331294
 11
4.4986004542
 21
3.6519982948
  0
LINE
  5
2E5
100
AcDbEntity
  8
0
100
AcDbLine
 62
9
  6
CONTINUOUS
 10
3.6181677019
 20
5.8101564777
 11
4.8681677019
 21
5.8101564777
  0
LINE
  5
2E6
100
AcDbEntity
  8
0
100
AcDbLine
 62
7
  6
CONTINUOUS
 10
3.6181677019
 20
5.8652982514
 11
4.8681677019
 21
5.8652982514
  0
ARC
  5
2E7
100
AcDbEntity
  8
0
100
AcDbCircle
 62
7
  6
CONTINUOUS
 10
4.2256316002
 20
0.1345994973
 40
3.855861675
100
AcDbArc
 50
91.6995007125
 51
91.8880538603
  0
ARC
  5
2E8
100
AcDbEntity
  8
0
100
AcDbCircle
 62
7
  6
CONTINUOUS
 10
4.2176786413
 20
0.3854194876
 40
3.6017925494
100
AcDbArc
 50
91.6928629274
 51
91.8947153014
  0
ARC
  5
2E9
100
AcDbEntity
  8
0
100
AcDbCircle
 62
7
  6
CONTINUOUS
 10
4.1891339003
 20
0.6665652549
 40
3.3071587398
100
AcDbArc
 50
91.6134211696
 51
92.0248079253
  0
ARC
  5
2EA
100
AcDbEntity
  8
0
100
AcDbCircle
 62
7
  6
CONTINUOUS
 10
4.2060191268
 20
0.7279724747
 40
3.2371785721
100
AcDbArc
 50
91.7351156722
 51
91.9496020638
  0
ARC
  5
2EB
100
AcDbEntity
  8
0
100
AcDbCircle
 62
7
  6
CONTINUOUS
 10
4.1811111791
 20
1.4923204389
 40
2.4974110366
100
AcDbArc
 50
91.8934750554
 51
92.1516277192
  0
ARC
  5
2EC
100
AcDbEntity
  8
0
100
AcDbCircle
 62
7
  6
CONTINUOUS
 10
4.1640923818
 20
2.2313362203
 40
2.276576027
100
AcDbArc
 50
91.9078605697
 51
92.4689914065
  0
ARC
  5
2ED
100
AcDbEntity
  8
0
100
AcDbCircle
 62
7
  6
CONTINUOUS
 10
4.1284338899
 20
2.4183313264
 40
1.5543422541
100
AcDbArc
 50
92.0702089047
 51
92.4267345144
  0
ARC
  5
2EE
100
AcDbEntity
  8
0
100
AcDbCircle
 62
7
  6
CONTINUOUS
 10
4.126544375
 20
3.1575756588
 40
1.3566974682
100
AcDbArc
 50
92.2404139448
 51
92.6659809781
  0
ARC
  5
2EF
100
AcDbEntity
  8
0
100
AcDbCircle
 62
7
  6
CONTINUOUS
 10
4.1022906873
 20
3.4118340788
 40
0.5391589013
100
AcDbArc
 50
76.2252131895
 51
76.4797260479
  0
ARC
  5
2F0
100
AcDbEntity
  8
0
100
AcDbCircle
 62
7
  6
CONTINUOUS
 10
4.1097097732
 20
3.4432068428
 40
0.5069210734
100
AcDbArc
 50
76.4660342151
 51
78.1047484904
  0
ARC
  5
2F1
100
AcDbEntity
  8
0
100
AcDbCircle
 62
7
  6
CONTINUOUS
 10
4.1348297947
 20
3.5761618553
 40
0.3719112298
100
AcDbArc
 50
92.6119013755
 51
97.5554539135
  0
ARC
  5
2F2
100
AcDbEntity
  8
0
100
AcDbCircle
 62
7
  6
CONTINUOUS
 10
4.133848067
 20
3.5964465912
 40
0.3516028339
100
AcDbArc
 50
90.0087144461
 51
92.6027233065
  0
ARC
  5
2F3
100
AcDbEntity
  8
0
100
AcDbCircle
 62
7
  6
CONTINUOUS
 10
4.2431646564
 20
3.8097652765
 40
0.2114390253
100
AcDbArc
 50
269.2890291328
 51
270.0000082041
  0
ARC
  5
2F4
100
AcDbEntity
  8
0
100
AcDbCircle
 62
7
  6
CONTINUOUS
 10
4.2431595469
 20
3.8096083585
 40
0.2112820259
100
AcDbArc
 50
267.8661638169
 51
269.2890291328
  0
ARC
  5
2F5
100
AcDbEntity
  8
0
100
AcDbCircle
 62
7
  6
CONTINUOUS
 10
4.2350654734
 20
3.7084887321
 40
0.1181529697
100
AcDbArc
 50
260.3892247227
 51
261.7008751001
  0
ARC
  5
2F6
100
AcDbEntity
  8
0
100
AcDbCircle
 62
7
  6
CONTINUOUS
 10
4.1703177019
 20
3.6127982514
 40
0.0059
100
AcDbArc
 50
139.0000000001
 51
243.0893094774
  0
ARC
  5
2F7
100
AcDbEntity
  8
0
100
AcDbCircle
 62
7
  6
CONTINUOUS
 10
3.1592362852
 20
4.3372289412
 40
1.5
100
AcDbArc
 50
56.925781093
 51
70.5055160444
  0
ARC
  5
2F8
100
AcDbEntity
  8
0
100
AcDbCircle
 62
7
  6
CONTINUOUS
 10
3.6806677019
 20
5.8101564777
 40
0.0625
100
AcDbArc
 50
180.0
 51
250.5055160444
  0
ARC
  5
2F9
100
AcDbEntity
  8
0
100
AcDbCircle
 62
7
  6
CONTINUOUS
 10
3.6276177522
 20
33.9938742059
 40
30.0333148407
100
AcDbArc
 50
271.2087485036
 51
271.3457136465
  0
ARC
  5
2FA
100
AcDbEntity
  8
0
100
AcDbCircle
 62
7
  6
CONTINUOUS
 10
3.6281723064
 20
31.596031903
 40
27.1012901449
100
AcDbArc
 50
271.3367684789
 51
271.4511314306
  0
ARC
  5
2FB
100
AcDbEntity
  8
0
100
AcDbCircle
 62
7
  6
CONTINUOUS
 10
4.1070284198
 20
13.3749209639
 40
9.4087908718
100
AcDbArc
 50
271.3759007171
 51
271.5658359253
  0
ARC
  5
2FC
100
AcDbEntity
  8
0
100
AcDbCircle
 62
7
  6
CONTINUOUS
 10
3.7986725343
 20
13.3730726781
 40
9.162989271
100
AcDbArc
 50
272.9405891836
 51
273.2301240309
  0
ARC
  5
2FD
100
AcDbEntity
  8
0
100
AcDbCircle
 62
7
  6
CONTINUOUS
 10
4.1341647012
 20
12.3149790243
 40
8.3516272304
100
AcDbArc
 50
271.3639124436
 51
271.5778822575
  0
ARC
  5
2FE
100
AcDbEntity
  8
0
100
AcDbCircle
 62
7
  6
CONTINUOUS
 10
3.8879237449
 20
11.7257772149
 40
7.5054831997
100
AcDbArc
 50
272.9084146947
 51
273.2567710365
  0
ARC
  5
2FF
100
AcDbEntity
  8
0
100
AcDbCircle
 62
7
  6
CONTINUOUS
 10
4.1673675817
 20
11.1103659316
 40
7.1215661115
100
AcDbArc
 50
271.4874047478
 51
271.6057397537
  0
ARC
  5
300
100
AcDbEntity
  8
0
100
AcDbCircle
 62
7
  6
CONTINUOUS
 10
4.1789375844
 20
10.6849628936
 40
6.6928821535
100
AcDbArc
 50
271.4836244918
 51
271.6095384637
  0
ARC
  5
301
100
AcDbEntity
  8
0
100
AcDbCircle
 62
7
  6
CONTINUOUS
 10
4.2295180955
 20
9.6561943473
 40
5.6752888332
100
AcDbArc
 50
271.4984445194
 51
271.6275051233
  0
ARC
  5
302
100
AcDbEntity
  8
0
100
AcDbCircle
 62
7
  6
CONTINUOUS
 10
4.2338053809
 20
9.4969039119
 40
5.5202630072
100
AcDbArc
 50
271.4778883452
 51
271.6231206961
  0
ARC
  5
303
100
AcDbEntity
  8
0
100
AcDbCircle
 62
7
  6
CONTINUOUS
 10
4.2338373279
 20
9.5192920503
 40
5.5176511907
100
AcDbArc
 50
271.4782562177
 51
271.6235573394
  0
ARC
  5
304
100
AcDbEntity
  8
0
100
AcDbCircle
 62
7
  6
CONTINUOUS
 10
4.2188341756
 20
9.2294142153
 40
5.2617771717
100
AcDbArc
 50
271.5823264695
 51
271.7359736092
  0
ARC
  5
305
100
AcDbEntity
  8
0
100
AcDbCircle
 62
7
  6
CONTINUOUS
 10
3.940510192
 20
9.2852635745
 40
5.09750701
100
AcDbArc
 50
273.6964566855
 51
273.9764304126
  0
ARC
  5
306
100
AcDbEntity
  8
0
100
AcDbCircle
 62
7
  6
CONTINUOUS
 10
4.2277838701
 20
8.9174817982
 40
4.9528403956
100
AcDbArc
 50
271.5775236061
 51
271.7376879557
  0
ARC
  5
307
100
AcDbEntity
  8
0
100
AcDbCircle
 62
7
  6
CONTINUOUS
 10
4.2295908659
 20
8.8803335703
 40
4.8906658568
100
AcDbArc
 50
271.609144463
 51
271.767027114
  0
ARC
  5
308
100
AcDbEntity
  8
0
100
AcDbCircle
 62
7
  6
CONTINUOUS
 10
4.2326300138
 20
8.7825168038
 40
4.7896785584
100
AcDbArc
 50
271.6067244139
 51
271.7386273586
  0
ARC
  5
309
100
AcDbEntity
  8
0
100
AcDbCircle
 62
9
  6
CONTINUOUS
 10
3.9522332808
 20
6.7210168479
 40
3.0556762358
100
AcDbArc
 50
273.1089167963
 51
273.3634026797
  0
ARC
  5
30A
100
AcDbEntity
  8
0
100
AcDbCircle
 62
7
  6
CONTINUOUS
 10
4.0864198916
 20
7.186204994
 40
2.9933833053
100
AcDbArc
 50
273.9764895018
 51
274.2002023074
  0
ARC
  5
30B
100
AcDbEntity
  8
0
100
AcDbCircle
 62
9
  6
CONTINUOUS
 10
3.9836759227
 20
6.1453157324
 40
2.479117152
100
AcDbArc
 50
272.7927432615
 51
273.104903056
  0
ARC
  5
30C
100
AcDbEntity
  8
0
100
AcDbCircle
 62
7
  6
CONTINUOUS
 10
4.2429632484
 20
4.8514259244
 40
1.2378815242
100
AcDbArc
 50
270.0094632
 51
270.8855061473
  0
ARC
  5
30D
100
AcDbEntity
  8
0
100
AcDbCircle
 62
7
  6
CONTINUOUS
 10
4.242424754
 20
4.84425609
 40
1.2307337751
100
AcDbArc
 50
273.1163395591
 51
273.5635088922
  0
ARC
  5
30E
100
AcDbEntity
  8
0
100
AcDbCircle
 62
7
  6
CONTINUOUS
 10
4.2428183712
 20
4.8217113185
 40
1.208161895
100
AcDbArc
 50
267.5020596376
 51
269.1180968528
  0
ARC
  5
30F
100
AcDbEntity
  8
0
100
AcDbCircle
 62
7
  6
CONTINUOUS
 10
4.2423856102
 20
4.8145490505
 40
1.2009875775
100
AcDbArc
 50
267.1738507442
 51
267.5077937229
  0
ARC
  5
310
100
AcDbEntity
  8
0
100
AcDbCircle
 62
7
  6
CONTINUOUS
 10
4.0119315379
 20
5.6465482514
 40
0.0625
100
AcDbArc
 50
236.9257810931
 51
270.0
  0
ARC
  5
311
100
AcDbEntity
  8
0
100
AcDbCircle
 62
7
  6
CONTINUOUS
 10
3.7643604559
 20
29.8013697685
 40
25.8258402674
100
AcDbArc
 50
271.0837819275
 51
271.3237821282
  0
ARC
  5
312
100
AcDbEntity
  8
0
100
AcDbCircle
 62
7
  6
CONTINUOUS
 10
3.7647463875
 20
29.8030265991
 40
25.8068167546
100
AcDbArc
 50
271.0836861373
 51
271.3238705897
  0
ARC
  5
313
100
AcDbEntity
  8
0
100
AcDbCircle
 62
7
  6
CONTINUOUS
 10
3.7650000707
 20
29.7654803552
 40
25.7942679601
100
AcDbArc
 50
271.0836498117
 51
271.3239511141
  0
ARC
  5
314
100
AcDbEntity
  8
0
100
AcDbCircle
 62
7
  6
CONTINUOUS
 10
3.7934481951
 20
26.5529723922
 40
22.5936966653
100
AcDbArc
 50
271.1862137405
 51
271.3682740416
  0
ARC
  5
315
100
AcDbEntity
  8
0
100
AcDbCircle
 62
7
  6
CONTINUOUS
 10
3.8648708596
 20
23.3432395837
 40
19.358175845
100
AcDbArc
 50
271.186478627
 51
271.4426048056
  0
ARC
  5
316
100
AcDbEntity
  8
0
100
AcDbCircle
 62
7
  6
CONTINUOUS
 10
3.8648825233
 20
23.345854438
 40
19.3576655664
100
AcDbArc
 50
271.1864789482
 51
271.4426116707
  0
ARC
  5
317
100
AcDbEntity
  8
0
100
AcDbCircle
 62
7
  6
CONTINUOUS
 10
4.6089700613
 20
-16.7108093022
 40
20.7146300886
100
AcDbArc
 50
91.1443457737
 51
91.3378233911
  0
ARC
  5
318
100
AcDbEntity
  8
0
100
AcDbCircle
 62
7
  6
CONTINUOUS
 10
4.5565453955
 20
-12.0213220477
 40
16.5696120095
100
AcDbArc
 50
91.3033636183
 51
91.4296051129
  0
ARC
  5
319
100
AcDbEntity
  8
0
100
AcDbCircle
 62
7
  6
CONTINUOUS
 10
4.5176769272
 20
-12.5161022731
 40
16.4982656645
100
AcDbArc
 50
91.1196713234
 51
91.3626039441
  0
ARC
  5
31A
100
AcDbEntity
  8
0
100
AcDbCircle
 62
7
  6
CONTINUOUS
 10
4.5342886304
 20
-11.6018115966
 40
15.5963379584
100
AcDbArc
 50
91.1926011046
 51
91.5027581896
  0
ARC
  5
31B
100
AcDbEntity
  8
0
100
AcDbCircle
 62
7
  6
CONTINUOUS
 10
4.5342806188
 20
-11.6045957299
 40
15.595996998
100
AcDbArc
 50
91.1926019406
 51
91.5027648365
  0
ARC
  5
31C
100
AcDbEntity
  8
0
100
AcDbCircle
 62
7
  6
CONTINUOUS
 10
4.3461096275
 20
-4.1540837708
 40
8.1212490145
100
AcDbArc
 50
91.3696941114
 51
91.5879947525
  0
ARC
  5
31D
100
AcDbEntity
  8
0
100
AcDbCircle
 62
7
  6
CONTINUOUS
 10
4.28067919
 20
-1.734671758
 40
5.7259432635
100
AcDbArc
 50
91.555233792
 51
91.6953520822
  0
ARC
  5
31E
100
AcDbEntity
  8
0
100
AcDbCircle
 62
7
  6
CONTINUOUS
 10
4.2561338319
 20
-1.6806023701
 40
5.6552823291
100
AcDbArc
 50
91.5038923783
 51
91.6224077996
  0
ARC
  5
31F
100
AcDbEntity
  8
0
100
AcDbCircle
 62
7
  6
CONTINUOUS
 10
4.25590347
 20
-1.6423716835
 40
5.6420501106
100
AcDbArc
 50
91.505080071
 51
91.623884798
  0
ARC
  5
320
100
AcDbEntity
  8
0
100
AcDbCircle
 62
7
  6
CONTINUOUS
 10
4.2525159703
 20
-1.540002895
 40
5.5189585649
100
AcDbArc
 50
91.4780816232
 51
91.623348838
  0
ARC
  5
321
100
AcDbEntity
  8
0
100
AcDbCircle
 62
7
  6
CONTINUOUS
 10
4.2704975182
 20
-1.3789636393
 40
5.3669660107
100
AcDbArc
 50
91.5505569036
 51
91.7000464379
  0
ARC
  5
322
100
AcDbEntity
  8
0
100
AcDbCircle
 62
7
  6
CONTINUOUS
 10
4.2547863855
 20
-0.8602214298
 40
4.8261209357
100
AcDbArc
 50
91.5878993734
 51
91.7429061951
  0
ARC
  5
323
100
AcDbEntity
  8
0
100
AcDbCircle
 62
7
  6
CONTINUOUS
 10
4.3290991459
 20
2.2203920589
 40
2.0336630714
100
AcDbArc
 50
94.185459785
 51
94.5175493416
  0
ARC
  5
324
100
AcDbEntity
  8
0
100
AcDbCircle
 62
7
  6
CONTINUOUS
 10
4.2512703398
 20
3.7084863747
 40
0.1181505771
100
AcDbArc
 50
278.299078536
 51
279.6107703831
  0
ARC
  5
325
100
AcDbEntity
  8
0
100
AcDbCircle
 62
7
  6
CONTINUOUS
 10
4.243170625
 20
3.8097702014
 40
0.2114439514
100
AcDbArc
 50
269.2889965247
 51
272.1336199949
  0
ARC
  5
326
100
AcDbEntity
  8
0
100
AcDbCircle
 62
7
  6
CONTINUOUS
 10
4.2431677019
 20
3.7563270663
 40
0.1666725773
100
AcDbArc
 50
243.0893094774
 51
260.3886398641
  0
ARC
  5
327
100
AcDbEntity
  8
0
100
AcDbCircle
 62
7
  6
CONTINUOUS
 10
4.2431677019
 20
3.7563270663
 40
0.1666725773
100
AcDbArc
 50
279.6113601359
 51
296.9106905226
  0
ARC
  5
328
100
AcDbEntity
  8
0
100
AcDbCircle
 62
7
  6
CONTINUOUS
 10
4.3160177019
 20
3.6127982514
 40
0.0059
100
AcDbArc
 50
296.9106905226
 51
40.9999999999
  0
ARC
  5
329
100
AcDbEntity
  8
0
100
AcDbCircle
 62
7
  6
CONTINUOUS
 10
4.4212179256
 20
0.9073018502
 40
3.2940220836
100
AcDbArc
 50
93.9846110323
 51
94.1436169284
  0
ARC
  5
32A
100
AcDbEntity
  8
0
100
AcDbCircle
 62
7
  6
CONTINUOUS
 10
4.4003733509
 20
1.2070019709
 40
2.9996862736
100
AcDbArc
 50
93.976886119
 51
94.2001289702
  0
ARC
  5
32B
100
AcDbEntity
  8
0
100
AcDbCircle
 62
7
  6
CONTINUOUS
 10
4.3840444193
 20
3.4118352905
 40
0.5391576537
100
AcDbArc
 50
103.520272683
 51
103.7747868038
  0
ARC
  5
32C
100
AcDbEntity
  8
0
100
AcDbCircle
 62
7
  6
CONTINUOUS
 10
4.376624764
 20
3.4432105477
 40
0.5069172685
100
AcDbArc
 50
101.8950307874
 51
103.5339678456
  0
ARC
  5
32D
100
AcDbEntity
  8
0
100
AcDbCircle
 62
7
  6
CONTINUOUS
 10
4.6345403189
 20
-3.944402977
 40
8.1745774197
100
AcDbArc
 50
92.9009305931
 51
93.2219806126
  0
ARC
  5
32E
100
AcDbEntity
  8
0
100
AcDbCircle
 62
7
  6
CONTINUOUS
 10
4.5972867294
 20
-1.6592566012
 40
5.8666119081
100
AcDbArc
 50
93.7149493541
 51
93.9582105375
  0
ARC
  5
32F
100
AcDbEntity
  8
0
100
AcDbCircle
 62
7
  6
CONTINUOUS
 10
4.5914098467
 20
-1.4807350163
 40
5.7878729954
100
AcDbArc
 50
93.7072458772
 51
93.9471934952
  0
ARC
  5
330
100
AcDbEntity
  8
0
100
AcDbCircle
 62
7
  6
CONTINUOUS
 10
4.5454897974
 20
-0.8804467818
 40
5.0921730903
100
AcDbArc
 50
93.6965521359
 51
93.9768188675
  0
ARC
  5
331
100
AcDbEntity
  8
0
100
AcDbCircle
 62
7
  6
CONTINUOUS
 10
4.4809331839
 20
0.1347357101
 40
4.1248387384
100
AcDbArc
 50
93.6660983902
 51
94.1744482956
  0
ARC
  5
332
100
AcDbEntity
  8
0
100
AcDbCircle
 62
7
  6
CONTINUOUS
 10
4.8902387945
 20
-26.1810872506
 40
30.6777224517
100
AcDbArc
 50
91.2081760294
 51
91.3752691162
  0
ARC
  5
333
100
AcDbEntity
  8
0
100
AcDbCircle
 62
7
  6
CONTINUOUS
 10
4.6792295685
 20
-20.150473774
 40
24.1300168007
100
AcDbArc
 50
91.1492141199
 51
91.2766852765
  0
ARC
  5
334
100
AcDbEntity
  8
0
100
AcDbCircle
 62
7
  6
CONTINUOUS
 10
4.6791736134
 20
-18.0167339731
 40
21.9878997024
100
AcDbArc
 50
91.1875461531
 51
91.373874876
  0
ARC
  5
335
100
AcDbEntity
  8
0
100
AcDbCircle
 62
7
  6
CONTINUOUS
 10
5.0326943441
 20
-8.2740759414
 40
12.5517301342
100
AcDbArc
 50
93.6063895531
 51
93.7252450524
  0
ARC
  5
336
100
AcDbEntity
  8
0
100
AcDbCircle
 62
7
  6
CONTINUOUS
 10
4.8251217218
 20
-7.4632262826
 40
11.756279471
100
AcDbArc
 50
92.9163749922
 51
93.1547446602
  0
ARC
  5
337
100
AcDbEntity
  8
0
100
AcDbCircle
 62
7
  6
CONTINUOUS
 10
4.6974787509
 20
-5.0948865814
 40
9.3345754355
100
AcDbArc
 50
92.9268667646
 51
93.2441551286
  0
ARC
  5
338
100
AcDbEntity
  8
0
100
AcDbCircle
 62
7
  6
CONTINUOUS
 10
4.6562053476
 20
-4.2824986344
 40
8.5632771924
100
AcDbArc
 50
92.8730860786
 51
93.2274469376
  0
ARC
  5
339
100
AcDbEntity
  8
0
100
AcDbCircle
 62
7
  6
CONTINUOUS
 10
4.2435306341
 20
4.8629566976
 40
1.2494133535
100
AcDbArc
 50
269.1145497255
 51
269.5464338215
  0
ARC
  5
33A
100
AcDbEntity
  8
0
100
AcDbCircle
 62
7
  6
CONTINUOUS
 10
4.2435241979
 20
4.8372162618
 40
1.2236833584
100
AcDbArc
 50
266.3342990423
 51
267.1729338628
  0
ARC
  5
33B
100
AcDbEntity
  8
0
100
AcDbCircle
 62
7
  6
CONTINUOUS
 10
4.2432056332
 20
4.832250469
 40
1.2187046141
100
AcDbArc
 50
270.8880443686
 51
272.4901525525
  0
ARC
  5
33C
100
AcDbEntity
  8
0
100
AcDbCircle
 62
7
  6
CONTINUOUS
 10
4.2432888586
 20
4.8279718026
 40
1.2144265931
100
AcDbArc
 50
272.825344211
 51
273.1173985089
  0
ARC
  5
33D
100
AcDbEntity
  8
0
100
AcDbCircle
 62
7
  6
CONTINUOUS
 10
4.2432552539
 20
4.8262727268
 40
1.2127283523
100
AcDbArc
 50
269.5457240081
 51
269.9958635708
  0
ARC
  5
33E
100
AcDbEntity
  8
0
100
AcDbCircle
 62
7
  6
CONTINUOUS
 10
4.243850923
 20
4.8166765429
 40
1.2031173586
100
AcDbArc
 50
272.4916750725
 51
272.825124192
  0
ARC
  5
33F
100
AcDbEntity
  8
0
100
AcDbCircle
 62
9
  6
CONTINUOUS
 10
4.4419092186
 20
4.8677843958
 40
1.2003432209
100
AcDbArc
 50
265.8397322156
 51
266.4876751696
  0
ARC
  5
340
100
AcDbEntity
  8
0
100
AcDbCircle
 62
9
  6
CONTINUOUS
 10
4.4414465319
 20
4.8601175891
 40
1.1926624695
100
AcDbArc
 50
266.4872992394
 51
267.1359933755
  0
ARC
  5
341
100
AcDbEntity
  8
0
100
AcDbCircle
 62
7
  6
CONTINUOUS
 10
4.2431677019
 20
4.4557982514
 40
0.8435
100
AcDbArc
 50
275.6128877567
 51
287.4989039172
  0
ARC
  5
342
100
AcDbEntity
  8
0
100
AcDbCircle
 62
7
  6
CONTINUOUS
 10
4.2431677019
 20
4.4557982514
 40
0.8435
100
AcDbArc
 50
252.5008940466
 51
264.3871122433
  0
CIRCLE
  5
343
100
AcDbEntity
  8
0
100
AcDbCircle
 62
7
  6
CONTINUOUS
 10
4.2431677019
 20
4.2377982514
 40
0.21125
  0
CIRCLE
  5
344
100
AcDbEntity
  8
0
100
AcDbCircle
 62
7
  6
CONTINUOUS
 10
4.2431677019
 20
4.2377982514
 40
0.121
  0
CIRCLE
  5
345
100
AcDbEntity
  8
0
100
AcDbCircle
 62
7
  6
CONTINUOUS
 10
4.2431677019
 20
4.2377982514
 40
0.075
  0
ARC
  5
346
100
AcDbEntity
  8
0
100
AcDbCircle
 62
7
  6
CONTINUOUS
 10
4.4744038659
 20
5.6465482514
 40
0.0625
100
AcDbArc
 50
270.0
 51
303.0742189069
  0
ARC
  5
347
100
AcDbEntity
  8
0
100
AcDbCircle
 62
7
  6
CONTINUOUS
 10
4.4356159797
 20
4.5568660673
 40
0.0613495675
100
AcDbArc
 50
276.4279814156
 51
277.0706609362
  0
ARC
  5
348
100
AcDbEntity
  8
0
100
AcDbCircle
 62
7
  6
CONTINUOUS
 10
4.278787411
 20
7.2520653225
 40
3.2866432122
100
AcDbArc
 50
271.7293471547
 51
271.946172161
  0
ARC
  5
349
100
AcDbEntity
  8
0
100
AcDbCircle
 62
7
  6
CONTINUOUS
 10
4.2796081636
 20
7.2510371544
 40
3.2606019164
100
AcDbArc
 50
271.7713629007
 51
271.9842226523
  0
ARC
  5
34A
100
AcDbEntity
  8
0
100
AcDbCircle
 62
7
  6
CONTINUOUS
 10
4.2908256421
 20
6.8676488819
 40
2.898914934
100
AcDbArc
 50
271.7278398659
 51
272.1867226406
  0
ARC
  5
34B
100
AcDbEntity
  8
0
100
AcDbCircle
 62
7
  6
CONTINUOUS
 10
4.360836192
 20
5.8664089117
 40
1.3247711626
100
AcDbArc
 50
272.1132348237
 51
272.7639859
  0
ARC
  5
34C
100
AcDbEntity
  8
0
100
AcDbCircle
 62
7
  6
CONTINUOUS
 10
5.3270991185
 20
4.3372289412
 40
1.5
100
AcDbArc
 50
109.4944839556
 51
123.074218907
  0
ARC
  5
34D
100
AcDbEntity
  8
0
100
AcDbCircle
 62
7
  6
CONTINUOUS
 10
4.8056677019
 20
5.8101564777
 40
0.0625
100
AcDbArc
 50
289.4944839556
 51
360.0
  0
SPLINE
  5
34E
100
AcDbEntity
  8
0
100
AcDbSpline
 62
7
  6
CONTINUOUS
 70
0
 71
3
 72
13
 73
9
 74
0
 42
0.0000001
 43
0.0000001
 44
0.0000000001
 40
0.0
 40
0.0
 40
0.0
 40
0.0
 40
0.0688162233
 40
0.1438084338
 40
0.2330643452
 40
0.3413608753
 40
0.6237922137
 40
1.0
 40
1.0
 40
1.0
 40
1.0
 10
4.2352927019
 20
3.5919940799
 30
0.0
 10
4.2352927019
 20
3.5919223749
 30
0.0
 10
4.2352611163
 20
3.5917708338
 30
0.0
 10
4.2351203923
 20
3.5915672777
 30
0.0
 10
4.2348981734
 20
3.5913865183
 30
0.0
 10
4.2344555042
 20
3.5911495389
 30
0.0
 10
4.2336834115
 20
3.5909209799
 30
0.0
 10
4.2330053231
 20
3.5908125347
 30
0.0
 10
4.2326162515
 20
3.5907647062
 30
0.0
  0
SPLINE
  5
34F
100
AcDbEntity
  8
0
100
AcDbSpline
 62
7
  6
CONTINUOUS
 70
0
 71
3
 72
9
 73
5
 74
0
 42
0.0000001
 43
0.0000001
 44
0.0000000001
 40
0.0
 40
0.0
 40
0.0
 40
0.0
 40
0.4342892326
 40
1.0
 40
1.0
 40
1.0
 40
1.0
 10
4.2326162515
 20
3.5907647062
 30
0.0
 10
4.2315626817
 20
3.590635191
 30
0.0
 10
4.2291123124
 20
3.5905562733
 30
0.0
 10
4.2266701429
 20
3.5906667701
 30
0.0
 10
4.2252908995
 20
3.5907648227
 30
0.0
  0
LINE
  5
350
100
AcDbEntity
  8
0
100
AcDbLine
 62
7
  6
CONTINUOUS
 10
4.2252908995
 20
3.5907648227
 11
4.2180111452
 21
3.591573061
  0
SPLINE
  5
351
100
AcDbEntity
  8
0
100
AcDbSpline
 62
7
  6
CONTINUOUS
 70
0
 71
3
 72
18
 73
14
 74
0
 42
0.0000001
 43
0.0000001
 44
0.0000000001
 40
0.0
 40
0.0
 40
0.0
 40
0.0
 40
0.1971754088
 40
0.3831754819
 40
0.5516744836
 40
0.6974282242
 40
0.8161335713
 40
0.8644351636
 40
0.9050022594
 40
0.9378745814
 40
0.9635715308
 40
0.9833423987
 40
1.0
 40
1.0
 40
1.0
 40
1.0
 10
4.2683242279
 20
3.5915730574
 30
0.0
 10
4.2671676326
 20
3.5914043361
 30
0.0
 10
4.2649150061
 20
3.5911092926
 30
0.0
 10
4.2616596616
 20
3.5907909188
 30
0.0
 10
4.2586984585
 20
3.5906146148
 30
0.0
 10
4.2561312027
 20
3.5905843455
 30
0.0
 10
4.2542770933
 20
3.5906830965
 30
0.0
 10
4.2530574894
 20
3.5908525615
 30
0.0
 10
4.2523514451
 20
3.5910060978
 30
0.0
 10
4.2517925192
 20
3.5911938162
 30
0.0
 10
4.2513808989
 20
3.5914145207
 30
0.0
 10
4.2511094125
 20
3.5916766906
 30
0.0
 10
4.2510427019
 20
3.5918953352
 30
0.0
 10
4.2510427019
 20
3.5919940799
 30
0.0
  0
SPLINE
  5
352
100
AcDbEntity
  8
0
100
AcDbSpline
 62
7
  6
CONTINUOUS
 70
0
 71
3
 72
9
 73
5
 74
0
 42
0.0000001
 43
0.0000001
 44
0.0000000001
 40
0.0
 40
0.0
 40
0.0
 40
0.0
 40
0.5171010831
 40
1.0
 40
1.0
 40
1.0
 40
1.0
 10
4.2431677019
 20
3.9340728513
 30
0.0
 10
4.2409956005
 20
3.9340728513
 30
0.0
 10
4.2367920336
 20
3.9342992506
 30
0.0
 10
4.2326377995
 20
3.9350033441
 30
0.0
 10
4.2306677019
 20
3.9354863136
 30
0.0
  0
SPLINE
  5
353
100
AcDbEntity
  8
0
100
AcDbSpline
 62
7
  6
CONTINUOUS
 70
0
 71
3
 72
9
 73
5
 74
0
 42
0.0000001
 43
0.0000001
 44
0.0000000001
 40
0.0
 40
0.0
 40
0.0
 40
0.0
 40
0.5007196041
 40
1.0
 40
1.0
 40
1.0
 40
1.0
 10
4.2141979107
 20
3.9392423292
 30
0.0
 10
4.2009689326
 20
3.942025554
 30
0.0
 10
4.1742930991
 20
3.9464668186
 30
0.0
 10
4.1472743207
 20
3.9480493489
 30
0.0
 10
4.1337945897
 20
3.948049421
 30
0.0
  0
SPLINE
  5
354
100
AcDbEntity
  8
0
100
AcDbSpline
 62
7
  6
CONTINUOUS
 70
0
 71
3
 72
9
 73
5
 74
0
 42
0.0000001
 43
0.0000001
 44
0.0000000001
 40
0.0
 40
0.0
 40
0.0
 40
0.0
 40
0.2496047276
 40
1.0
 40
1.0
 40
1.0
 40
1.0
 10
4.0859287847
 20
3.9448441766
 30
0.0
 10
4.0818116421
 20
3.9443019694
 30
0.0
 10
4.0653517261
 20
3.9418672242
 30
0.0
 10
4.0490430413
 20
3.9384588405
 30
0.0
 10
4.0369177019
 20
3.9354863136
 30
0.0
  0
SPLINE
  5
355
100
AcDbEntity
  8
0
100
AcDbSpline
 62
7
  6
CONTINUOUS
 70
0
 71
3
 72
17
 73
13
 74
0
 42
0.0000001
 43
0.0000001
 44
0.0000000001
 40
0.0
 40
0.0
 40
0.0
 40
0.0
 40
0.207815825
 40
0.3965875045
 40
0.5618047945
 40
0.700134936
 40
0.8102095198
 40
0.8921072461
 40
0.9238140981
 40
0.9508899581
 40
0.9753902239
 40
1.0
 40
1.0
 40
1.0
 40
1.0
 10
4.0369177019
 20
3.9354863136
 30
0.0
 10
4.0360262293
 20
3.9352677691
 30
0.0
 10
4.0343175186
 20
3.9348802478
 30
0.0
 10
4.0318760439
 20
3.9344320064
 30
0.0
 10
4.029718828
 20
3.9341509977
 30
0.0
 10
4.0278919741
 20
3.9340451044
 30
0.0
 10
4.0264333002
 20
3.9341112765
 30
0.0
 10
4.0254549749
 20
3.9343227576
 30
0.0
 10
4.0249006608
 20
3.934612674
 30
0.0
 10
4.024621742
 20
3.9348601366
 30
0.0
 10
4.0244513512
 20
3.9351581629
 30
0.0
 10
4.0244177019
 20
3.9353776184
 30
0.0
 10
4.0244177019
 20
3.9354863136
 30
0.0
  0
SPLINE
  5
356
100
AcDbEntity
  8
0
100
AcDbSpline
 62
7
  6
CONTINUOUS
 70
0
 71
3
 72
17
 73
13
 74
0
 42
0.0000001
 43
0.0000001
 44
0.0000000001
 40
0.0
 40
0.0
 40
0.0
 40
0.0
 40
0.0246097199
 40
0.0491099843
 40
0.0761860371
 40
0.1078932135
 40
0.1897914732
 40
0.2998671588
 40
0.4381976838
 40
0.6034135825
 40
0.7921843485
 40
1.0
 40
1.0
 40
1.0
 40
1.0
 10
4.4619177019
 20
3.9354863136
 30
0.0
 10
4.4619177019
 20
3.9353776188
 30
0.0
 10
4.4618840509
 20
3.9351581634
 30
0.0
 10
4.4617136537
 20
3.9348601403
 30
0.0
 10
4.4614347285
 20
3.9346126821
 30
0.0
 10
4.460880408
 20
3.9343227704
 30
0.0
 10
4.4599020776
 20
3.9341112809
 30
0.0
 10
4.4584433954
 20
3.9340451043
 30
0.0
 10
4.4566165425
 20
3.934150989
 30
0.0
 10
4.4544593362
 20
3.9344319948
 30
0.0
 10
4.4520178764
 20
3.9348802452
 30
0.0
 10
4.4503091729
 20
3.9352677694
 30
0.0
 10
4.4494177019
 20
3.9354863136
 30
0.0
  0
SPLINE
  5
357
100
AcDbEntity
  8
0
100
AcDbSpline
 62
7
  6
CONTINUOUS
 70
0
 71
3
 72
9
 73
5
 74
0
 42
0.0000001
 43
0.0000001
 44
0.0000000001
 40
0.0
 40
0.0
 40
0.0
 40
0.0
 40
0.2504866858
 40
1.0
 40
1.0
 40
1.0
 40
1.0
 10
4.4494177019
 20
3.9354863136
 30
0.0
 10
4.4453706412
 20
3.9364784505
 30
0.0
 10
4.4291697742
 20
3.9402534741
 30
0.0
 10
4.4127722457
 20
3.9432155543
 30
0.0
 10
4.4004106904
 20
3.94484364
 30
0.0
  0
SPLINE
  5
358
100
AcDbEntity
  8
0
100
AcDbSpline
 62
7
  6
CONTINUOUS
 70
0
 71
3
 72
12
 73
8
 74
0
 42
0.0000001
 43
0.0000001
 44
0.0000000001
 40
0.0
 40
0.0
 40
0.0
 40
0.0
 40
0.2498876267
 40
0.3747238904
 40
0.4995619837
 40
0.7494602157
 40
1.0
 40
1.0
 40
1.0
 40
1.0
 10
4.4004106904
 20
3.94484364
 30
0.0
 10
4.3897566282
 20
3.9462468393
 30
0.0
 10
4.3736808344
 20
3.9476939455
 30
0.0
 10
4.3521973585
 20
3.948174709
 30
0.0
 10
4.3307131887
 20
3.9476513443
 30
0.0
 10
4.3039010697
 20
3.9451878263
 30
0.0
 10
4.2826826306
 20
3.9414608614
 30
0.0
 10
4.2721393217
 20
3.9392427135
 30
0.0
  0
SPLINE
  5
359
100
AcDbEntity
  8
0
100
AcDbSpline
 62
7
  6
CONTINUOUS
 70
0
 71
3
 72
9
 73
5
 74
0
 42
0.0000001
 43
0.0000001
 44
0.0000000001
 40
0.0
 40
0.0
 40
0.0
 40
0.0
 40
0.4828997477
 40
1.0
 40
1.0
 40
1.0
 40
1.0
 10
4.2556677019
 20
3.9354863136
 30
0.0
 10
4.2536976009
 20
3.9350033433
 30
0.0
 10
4.2495433663
 20
3.9342992529
 30
0.0
 10
4.2453397997
 20
3.9340728513
 30
0.0
 10
4.2431677019
 20
3.9340728513
 30
0.0
  0
LINE
  5
35A
100
AcDbEntity
  8
0
100
AcDbLine
 62
7
  6
CONTINUOUS
 10
4.1710707802
 20
4.2170234894
 11
4.1750919818
 21
4.2172526894
  0
LINE
  5
35B
100
AcDbEntity
  8
0
100
AcDbLine
 62
7
  6
CONTINUOUS
 10
4.2208318127
 20
4.2196990105
 11
4.2687378697
 21
4.2221486286
  0
LINE
  5
35C
100
AcDbEntity
  8
0
100
AcDbLine
 62
7
  6
CONTINUOUS
 10
4.3149743686
 20
4.2246408564
 11
4.3170800296
 21
4.2247621141
  0
LINE
  5
35D
100
AcDbEntity
  8
0
100
AcDbLine
 62
7
  6
CONTINUOUS
 10
4.318015616
 20
4.2326288072
 11
4.3143160546
 21
4.2324156423
  0
LINE
  5
35E
100
AcDbEntity
  8
0
100
AcDbLine
 62
7
  6
CONTINUOUS
 10
4.2687490772
 20
4.2299617072
 11
4.2208436844
 21
4.2275121215
  0
LINE
  5
35F
100
AcDbEntity
  8
0
100
AcDbLine
 62
7
  6
CONTINUOUS
 10
4.2269813583
 20
4.2700146243
 11
4.2431671746
 21
4.2708404473
  0
LINE
  5
360
100
AcDbEntity
  8
0
100
AcDbLine
 62
7
  6
CONTINUOUS
 10
4.212930937
 20
4.1692906386
 11
4.2184334808
 21
4.1695753005
  0
LINE
  5
361
100
AcDbEntity
  8
0
100
AcDbLine
 62
7
  6
CONTINUOUS
 10
4.2184334808
 20
4.1695753005
 11
4.2297453931
 21
4.1701558602
  0
LINE
  5
362
100
AcDbEntity
  8
0
100
AcDbLine
 62
7
  6
CONTINUOUS
 10
4.2638636161
 20
4.1718976694
 11
4.2802690019
 21
4.1727485038
  0
LINE
  5
363
100
AcDbEntity
  8
0
100
AcDbLine
 62
7
  6
CONTINUOUS
 10
4.2922897958
 20
4.1811981801
 11
4.2799453417
 21
4.180544043
  0
LINE
  5
364
100
AcDbEntity
  8
0
100
AcDbLine
 62
7
  6
CONTINUOUS
 10
4.2799453417
 20
4.180544043
 11
4.2666845687
 21
4.1798553405
  0
LINE
  5
365
100
AcDbEntity
  8
0
100
AcDbLine
 62
7
  6
CONTINUOUS
 10
4.2262486898
 20
4.1777894328
 11
4.212887329
 21
4.1771008546
  0
LINE
  5
366
100
AcDbEntity
  8
0
100
AcDbLine
 62
7
  6
CONTINUOUS
 10
4.212887329
 20
4.1771008546
 11
4.2002037672
 21
4.176436244
  0
LINE
  5
367
100
AcDbEntity
  8
0
100
AcDbLine
 62
7
  6
CONTINUOUS
 10
4.2431671746
 20
4.2786529473
 11
4.2269813906
 21
4.277827126
  0
LINE
  5
368
100
AcDbEntity
  8
0
100
AcDbLine
 62
7
  6
CONTINUOUS
 10
4.2431677019
 20
4.2966951432
 11
4.2171746112
 21
4.2950265611
  0
LINE
  5
369
100
AcDbEntity
  8
0
100
AcDbLine
 62
7
  6
CONTINUOUS
 10
4.3168249908
 20
4.25170965
 11
4.2691494539
 21
4.2483613886
  0
LINE
  5
36A
100
AcDbEntity
  8
0
100
AcDbLine
 62
7
  6
CONTINUOUS
 10
4.2691494539
 20
4.2483613886
 11
4.2431612417
 21
4.246694734
  0
LINE
  5
36B
100
AcDbEntity
  8
0
100
AcDbLine
 62
7
  6
CONTINUOUS
 10
4.2431612417
 20
4.246694734
 11
4.2171731825
 21
4.2450280713
  0
LINE
  5
36C
100
AcDbEntity
  8
0
100
AcDbLine
 62
7
  6
CONTINUOUS
 10
4.2171731825
 20
4.2450280713
 11
4.1682460906
 21
4.2415805247
  0
LINE
  5
36D
100
AcDbEntity
  8
0
100
AcDbLine
 62
7
  6
CONTINUOUS
 10
4.3085792592
 20
4.2010775221
 11
4.3056604292
 21
4.2008612619
  0
LINE
  5
36E
100
AcDbEntity
  8
0
100
AcDbLine
 62
7
  6
CONTINUOUS
 10
4.2691621943
 20
4.2044652915
 11
4.3117905203
 21
4.2074229051
  0
SPLINE
  5
36F
100
AcDbEntity
  8
0
100
AcDbSpline
 62
7
  6
CONTINUOUS
 70
0
 71
3
 72
17
 73
13
 74
0
 42
0.0000001
 43
0.0000001
 44
0.0000000001
 40
0.0
 40
0.0
 40
0.0
 40
0.0
 40
0.0246098166
 40
0.049110322
 40
0.0761866324
 40
0.1078939896
 40
0.1897922733
 40
0.2998680506
 40
0.4381986261
 40
0.603414166
 40
0.7921845648
 40
1.0
 40
1.0
 40
1.0
 40
1.0
 10
4.0244177019
 20
3.8485394565
 30
0.0
 10
4.0244177019
 20
3.8486481518
 30
0.0
 10
4.0244513535
 20
3.8488676086
 30
0.0
 10
4.0246217515
 20
3.8491656344
 30
0.0
 10
4.0249006774
 20
3.8494130964
 30
0.0
 10
4.0254549982
 20
3.8497030128
 30
0.0
 10
4.0264333312
 20
3.8499145026
 30
0.0
 10
4.0278920155
 20
3.8499806637
 30
0.0
 10
4.0297188669
 20
3.8498747668
 30
0.0
 10
4.031876071
 20
3.8495937627
 30
0.0
 10
4.034317529
 20
3.849145521
 30
0.0
 10
4.0360262314
 20
3.8487580005
 30
0.0
 10
4.0369177019
 20
3.8485394565
 30
0.0
  0
SPLINE
  5
370
100
AcDbEntity
  8
0
100
AcDbSpline
 62
7
  6
CONTINUOUS
 70
0
 71
3
 72
9
 73
5
 74
0
 42
0.0000001
 43
0.0000001
 44
0.0000000001
 40
0.0
 40
0.0
 40
0.0
 40
0.0
 40
0.2503044819
 40
1.0
 40
1.0
 40
1.0
 40
1.0
 10
4.0369177019
 20
3.8485394565
 30
0.0
 10
4.0396341382
 20
3.8478735222
 30
0.0
 10
4.050506853
 20
3.8452967773
 30
0.0
 10
4.0614653273
 20
3.8430760563
 30
0.0
 10
4.0697203502
 20
3.8416516751
 30
0.0
  0
SPLINE
  5
371
100
AcDbEntity
  8
0
100
AcDbSpline
 62
7
  6
CONTINUOUS
 70
0
 71
3
 72
13
 73
9
 74
0
 42
0.0000001
 43
0.0000001
 44
0.0000000001
 40
0.0
 40
0.0
 40
0.0
 40
0.0
 40
0.1250927272
 40
0.2500011451
 40
0.3747816654
 40
0.4995391961
 40
0.7493266804
 40
1.0
 40
1.0
 40
1.0
 40
1.0
 10
4.0697203502
 20
3.8416516751
 30
0.0
 10
4.0763887782
 20
3.8405010564
 30
0.0
 10
4.0897729361
 20
3.8385155599
 30
0.0
 10
4.1099654797
 20
3.8365980313
 30
0.0
 10
4.130217071
 20
3.8357971074
 30
0.0
 10
4.157237029
 20
3.8363116477
 30
0.0
 10
4.1909455776
 20
3.8398363539
 30
0.0
 10
4.2174973597
 20
3.8453107472
 30
0.0
 10
4.2306677019
 20
3.8485394565
 30
0.0
  0
SPLINE
  5
372
100
AcDbEntity
  8
0
100
AcDbSpline
 62
7
  6
CONTINUOUS
 70
0
 71
3
 72
9
 73
5
 74
0
 42
0.0000001
 43
0.0000001
 44
0.0000000001
 40
0.0
 40
0.0
 40
0.0
 40
0.0
 40
0.4828997738
 40
1.0
 40
1.0
 40
1.0
 40
1.0
 10
4.2306677019
 20
3.8485394565
 30
0.0
 10
4.232637803
 20
3.8490224268
 30
0.0
 10
4.2367920372
 20
3.8497265198
 30
0.0
 10
4.2409956041
 20
3.8499529188
 30
0.0
 10
4.2431677019
 20
3.8499529188
 30
0.0
  0
SPLINE
  5
373
100
AcDbEntity
  8
0
100
AcDbSpline
 62
7
  6
CONTINUOUS
 70
0
 71
3
 72
9
 73
5
 74
0
 42
0.0000001
 43
0.0000001
 44
0.0000000001
 40
0.0
 40
0.0
 40
0.0
 40
0.0
 40
0.4828997342
 40
1.0
 40
1.0
 40
1.0
 40
1.0
 10
4.2556677019
 20
3.8485394565
 30
0.0
 10
4.2536976009
 20
3.8490224268
 30
0.0
 10
4.2495433662
 20
3.8497265156
 30
0.0
 10
4.2453397997
 20
3.8499529188
 30
0.0
 10
4.2431677019
 20
3.8499529188
 30
0.0
  0
SPLINE
  5
374
100
AcDbEntity
  8
0
100
AcDbSpline
 62
7
  6
CONTINUOUS
 70
0
 71
3
 72
13
 73
9
 74
0
 42
0.0000001
 43
0.0000001
 44
0.0000000001
 40
0.0
 40
0.0
 40
0.0
 40
0.0
 40
0.2506733233
 40
0.5004608356
 40
0.6252183724
 40
0.7499988908
 40
0.8749072943
 40
1.0
 40
1.0
 40
1.0
 40
1.0
 10
4.2556677019
 20
3.8485394565
 30
0.0
 10
4.2688378051
 20
3.8453108058
 30
0.0
 10
4.2953891017
 20
3.8398364945
 30
0.0
 10
4.3290970269
 20
3.8363117533
 30
0.0
 10
4.3561164932
 20
3.8357970962
 30
0.0
 10
4.3763677204
 20
3.8365978892
 30
0.0
 10
4.3965599077
 20
3.8385152516
 30
0.0
 10
4.409943834
 20
3.8405006217
 30
0.0
 10
4.4166121476
 20
3.841651174
 30
0.0
  0
SPLINE
  5
375
100
AcDbEntity
  8
0
100
AcDbSpline
 62
7
  6
CONTINUOUS
 70
0
 71
3
 72
9
 73
5
 74
0
 42
0.0000001
 43
0.0000001
 44
0.0000000001
 40
0.0
 40
0.0
 40
0.0
 40
0.0
 40
0.2497192152
 40
1.0
 40
1.0
 40
1.0
 40
1.0
 10
4.4166121476
 20
3.841651174
 30
0.0
 10
4.4193621161
 20
3.8421256541
 30
0.0
 10
4.4303558549
 20
3.8441324019
 30
0.0
 10
4.4412744734
 20
3.8465431441
 30
0.0
 10
4.4494177019
 20
3.8485394565
 30
0.0
  0
SPLINE
  5
376
100
AcDbEntity
  8
0
100
AcDbSpline
 62
7
  6
CONTINUOUS
 70
0
 71
3
 72
17
 73
13
 74
0
 42
0.0000001
 43
0.0000001
 44
0.0000000001
 40
0.0
 40
0.0
 40
0.0
 40
0.0
 40
0.2078160403
 40
0.3965880855
 40
0.5618057337
 40
0.7001358264
 40
0.8102103202
 40
0.8921080235
 40
0.9238146945
 40
0.9508902963
 40
0.9753903208
 40
1.0
 40
1.0
 40
1.0
 40
1.0
 10
4.4494177019
 20
3.8485394565
 30
0.0
 10
4.4503091751
 20
3.8487580012
 30
0.0
 10
4.4520178869
 20
3.8491455263
 30
0.0
 10
4.4544593633
 20
3.8495937762
 30
0.0
 10
4.4566165814
 20
3.8498747868
 30
0.0
 10
4.4584434368
 20
3.8499806679
 30
0.0
 10
4.4599021086
 20
3.8499144802
 30
0.0
 10
4.4608804313
 20
3.8497029994
 30
0.0
 10
4.4614347451
 20
3.8494130877
 30
0.0
 10
4.4617136632
 20
3.8491656289
 30
0.0
 10
4.4618840532
 20
3.8488676053
 30
0.0
 10
4.4619177019
 20
3.8486481512
 30
0.0
 10
4.4619177019
 20
3.8485394565
 30
0.0
  0
LINE
  5
377
100
AcDbEntity
  8
0
100
AcDbLine
 62
7
  6
CONTINUOUS
 10
4.3210470266
 20
3.6160364618
 11
4.3189208562
 21
3.6159019182
  0
SPLINE
  5
378
100
AcDbEntity
  8
0
100
AcDbSpline
 62
7
  6
CONTINUOUS
 70
0
 71
3
 72
13
 73
9
 74
0
 42
0.0000001
 43
0.0000001
 44
0.0000000001
 40
0.0
 40
0.0
 40
0.0
 40
0.0
 40
0.042262559
 40
0.1077805538
 40
0.1970252049
 40
0.31010143
 40
0.6076624339
 40
1.0
 40
1.0
 40
1.0
 40
1.0
 10
4.0401661403
 20
3.9692463222
 30
0.0
 10
4.0402664986
 20
3.9691894741
 30
0.0
 10
4.0405488507
 20
3.9690962026
 30
0.0
 10
4.0410720369
 20
3.9689766804
 30
0.0
 10
4.0417939496
 20
3.9688564865
 30
0.0
 10
4.0431461781
 20
3.9686771934
 30
0.0
 10
4.0453281235
 20
3.9684657452
 30
0.0
 10
4.0472055394
 20
3.9683238362
 30
0.0
 10
4.0482737304
 20
3.9682499006
 30
0.0
  0
SPLINE
  5
379
100
AcDbEntity
  8
0
100
AcDbSpline
 62
7
  6
CONTINUOUS
 70
0
 71
3
 72
9
 73
5
 74
0
 42
0.0000001
 43
0.0000001
 44
0.0000000001
 40
0.0
 40
0.0
 40
0.0
 40
0.0
 40
0.5560563825
 40
1.0
 40
1.0
 40
1.0
 40
1.0
 10
4.154673766
 20
4.5520165489
 30
0.0
 10
4.1420478471
 20
4.5516794338
 30
0.0
 10
4.1193427057
 20
4.551036445
 30
0.0
 10
4.0966413225
 20
4.5502554158
 30
0.0
 10
4.0865665692
 20
4.5498269954
 30
0.0
  0
LINE
  5
37A
100
AcDbEntity
  8
0
100
AcDbLine
 62
7
  6
CONTINUOUS
 10
4.0865665692
 20
4.5498269954
 11
4.0692437078
 21
4.5489535911
  0
SPLINE
  5
37B
100
AcDbEntity
  8
0
100
AcDbSpline
 62
7
  6
CONTINUOUS
 70
0
 71
3
 72
12
 73
8
 74
0
 42
0.0000001
 43
0.0000001
 44
0.0000000001
 40
0.0
 40
0.0
 40
0.0
 40
0.0
 40
0.362164477
 40
0.6502767075
 40
0.8631161086
 40
0.941050912
 40
1.0
 40
1.0
 40
1.0
 40
1.0
 10
4.0692437078
 20
4.5489535911
 30
0.0
 10
4.0676444869
 20
4.5488537948
 30
0.0
 10
4.0647737386
 20
4.5486608778
 30
0.0
 10
4.0609685388
 20
4.5483407574
 30
0.0
 10
4.0584215837
 20
4.5480611449
 30
0.0
 10
4.0568928209
 20
4.547821661
 30
0.0
 10
4.0562988678
 20
4.5477002392
 30
0.0
 10
4.0560463968
 20
4.5476348169
 30
0.0
  0
LINE
  5
37C
100
AcDbEntity
  8
0
100
AcDbLine
 62
7
  6
CONTINUOUS
 10
4.0560463968
 20
4.5476348169
 11
4.0554189356
 21
4.5474099972
  0
SPLINE
  5
37D
100
AcDbEntity
  8
0
100
AcDbSpline
 62
7
  6
CONTINUOUS
 70
0
 71
3
 72
12
 73
8
 74
0
 42
0.0000001
 43
0.0000001
 44
0.0000000001
 40
0.0
 40
0.0
 40
0.0
 40
0.0
 40
0.0474817573
 40
0.1166900908
 40
0.3218648743
 40
0.6164598282
 40
1.0
 40
1.0
 40
1.0
 40
1.0
 10
4.4309529995
 20
3.9951312811
 30
0.0
 10
4.4308767117
 20
3.9951754581
 30
0.0
 10
4.4306725511
 20
3.9952531072
 30
0.0
 10
4.4300953725
 20
3.9954065453
 30
0.0
 10
4.4290510894
 20
3.9955799959
 30
0.0
 10
4.427423999
 20
3.9957804704
 30
0.0
 10
4.4261701678
 20
3.9958990539
 30
0.0
 10
4.4254607815
 20
3.9959610425
 30
0.0
  0
SPLINE
  5
37E
100
AcDbEntity
  8
0
100
AcDbSpline
 62
7
  6
CONTINUOUS
 70
0
 71
3
 72
14
 73
10
 74
0
 42
0.0000001
 43
0.0000001
 44
0.0000000001
 40
0.0
 40
0.0
 40
0.0
 40
0.0
 40
0.039514242
 40
0.1031060369
 40
0.1912278097
 40
0.3039703069
 40
0.4413207863
 40
0.6032255938
 40
1.0
 40
1.0
 40
1.0
 40
1.0
 10
4.4461758131
 20
3.9863436056
 30
0.0
 10
4.4460625391
 20
3.9864085387
 30
0.0
 10
4.4457329476
 20
3.986510822
 30
0.0
 10
4.4451171121
 20
3.9866439714
 30
0.0
 10
4.4442523099
 20
3.9867779671
 30
0.0
 10
4.4431435174
 20
3.9869151334
 30
0.0
 10
4.4417889283
 20
3.9870528658
 30
0.0
 10
4.4394976247
 20
3.9872509535
 30
0.0
 10
4.4376557845
 20
3.9873776447
 30
0.0
 10
4.4363473624
 20
3.9874605443
 30
0.0
  0
SPLINE
  5
37F
100
AcDbEntity
  8
0
100
AcDbSpline
 62
7
  6
CONTINUOUS
 70
0
 71
3
 72
12
 73
8
 74
0
 42
0.0000001
 43
0.0000001
 44
0.0000000001
 40
0.0
 40
0.0
 40
0.0
 40
0.0
 40
0.1022842103
 40
0.1852663818
 40
0.2938392787
 40
0.5917352181
 40
1.0
 40
1.0
 40
1.0
 40
1.0
 10
4.055245504
 20
4.4916368174
 30
0.0
 10
4.0552444321
 20
4.4915815267
 30
0.0
 10
4.0553266403
 20
4.4914946572
 30
0.0
 10
4.0554614307
 20
4.4914203421
 30
0.0
 10
4.0557080083
 20
4.4913167371
 30
0.0
 10
4.0561321525
 20
4.4911998493
 30
0.0
 10
4.0565063813
 20
4.4911215487
 30
0.0
 10
4.0567233141
 20
4.4910807671
 30
0.0
  0
SPLINE
  5
380
100
AcDbEntity
  8
0
100
AcDbSpline
 62
7
  6
CONTINUOUS
 70
0
 71
3
 72
14
 73
10
 74
0
 42
0.0000001
 43
0.0000001
 44
0.0000000001
 40
0.0
 40
0.0
 40
0.0
 40
0.0
 40
0.0421388899
 40
0.1075706984
 40
0.1967649913
 40
0.3098253286
 40
0.4467431902
 40
0.6074646966
 40
1.0
 40
1.0
 40
1.0
 40
1.0
 10
4.0401647494
 20
3.973848774
 30
0.0
 10
4.0402647835
 20
3.9739055682
 30
0.0
 10
4.0405466782
 20
3.9739986937
 30
0.0
 10
4.0410692584
 20
3.9741182103
 30
0.0
 10
4.0417909365
 20
3.9742384722
 30
0.0
 10
4.0427085702
 20
3.9743606199
 30
0.0
 10
4.0438231553
 20
3.9744831918
 30
0.0
 10
4.0456989841
 20
3.9746592463
 30
0.0
 10
4.0472051781
 20
3.9747725323
 30
0.0
 10
4.0482741698
 20
3.9748466328
 30
0.0
  0
LINE
  5
381
100
AcDbEntity
  8
0
100
AcDbLine
 62
7
  6
CONTINUOUS
 10
4.0482741698
 20
3.9748466328
 11
4.0626286184
 21
3.9756037254
  0
LINE
  5
382
100
AcDbEntity
  8
0
100
AcDbLine
 62
7
  6
CONTINUOUS
 10
4.0626286184
 20
3.9756037254
 11
4.0961694394
 21
3.9767406556
  0
LINE
  5
383
100
AcDbEntity
  8
0
100
AcDbLine
 62
7
  6
CONTINUOUS
 10
4.1101570299
 20
3.9771193234
 11
4.125353391
 21
3.977498067
  0
LINE
  5
384
100
AcDbEntity
  8
0
100
AcDbLine
 62
7
  6
CONTINUOUS
 10
4.195289146
 20
3.979013248
 11
4.2142692238
 21
3.979392028
  0
LINE
  5
385
100
AcDbEntity
  8
0
100
AcDbLine
 62
7
  6
CONTINUOUS
 10
4.2142692238
 20
3.979392028
 11
4.23351189
 21
3.9797708126
  0
LINE
  5
386
100
AcDbEntity
  8
0
100
AcDbLine
 62
7
  6
CONTINUOUS
 10
4.3609967967
 20
3.9824222571
 11
4.3761920613
 21
3.9828010861
  0
LINE
  5
387
100
AcDbEntity
  8
0
100
AcDbLine
 62
7
  6
CONTINUOUS
 10
4.3761920613
 20
3.9828010861
 11
4.3779258165
 21
3.9828462627
  0
LINE
  5
388
100
AcDbEntity
  8
0
100
AcDbLine
 62
7
  6
CONTINUOUS
 10
4.3907048299
 20
3.9831949487
 11
4.4237156234
 21
3.9843158982
  0
LINE
  5
389
100
AcDbEntity
  8
0
100
AcDbLine
 62
7
  6
CONTINUOUS
 10
4.4237156234
 20
3.9843158982
 11
4.4380666102
 21
3.9850737957
  0
LINE
  5
38A
100
AcDbEntity
  8
0
100
AcDbLine
 62
7
  6
CONTINUOUS
 10
4.4380666102
 20
3.9850737957
 11
4.4453672935
 21
3.9858330811
  0
LINE
  5
38B
100
AcDbEntity
  8
0
100
AcDbLine
 62
7
  6
CONTINUOUS
 10
4.4453672935
 20
3.9858330811
 11
4.4462927019
 21
3.9862100273
  0
SPLINE
  5
38C
100
AcDbEntity
  8
0
100
AcDbSpline
 62
7
  6
CONTINUOUS
 70
0
 71
3
 72
13
 73
9
 74
0
 42
0.0000001
 43
0.0000001
 44
0.0000000001
 40
0.0
 40
0.0
 40
0.0
 40
0.0
 40
0.0430217249
 40
0.1089554068
 40
0.1983557959
 40
0.3114138909
 40
0.6086974576
 40
1.0
 40
1.0
 40
1.0
 40
1.0
 10
4.0553867507
 20
3.9826338982
 30
0.0
 10
4.0554862776
 20
3.9826907664
 30
0.0
 10
4.0557637438
 20
3.9827858323
 30
0.0
 10
4.056277069
 20
3.9829078325
 30
0.0
 10
4.0569823057
 20
3.9830310589
 30
0.0
 10
4.058300926
 20
3.9832149859
 30
0.0
 10
4.0604264917
 20
3.9834323746
 30
0.0
 10
4.0622553094
 20
3.9835783799
 30
0.0
 10
4.0632951299
 20
3.9836544039
 30
0.0
  0
SPLINE
  5
38D
100
AcDbEntity
  8
0
100
AcDbSpline
 62
7
  6
CONTINUOUS
 70
0
 71
3
 72
10
 73
6
 74
0
 42
0.0000001
 43
0.0000001
 44
0.0000000001
 40
0.0
 40
0.0
 40
0.0
 40
0.0
 40
0.1790796675
 40
0.4069297631
 40
1.0
 40
1.0
 40
1.0
 40
1.0
 10
4.0632951299
 20
3.9836544039
 30
0.0
 10
4.0653987627
 20
3.9838082058
 30
0.0
 10
4.0701832633
 20
3.9840974316
 30
0.0
 10
4.0819479156
 20
3.9846651776
 30
0.0
 10
4.0916110928
 20
3.9850114321
 30
0.0
 10
4.0985925974
 20
3.9852428282
 30
0.0
  0
LINE
  5
38E
100
AcDbEntity
  8
0
100
AcDbLine
 62
7
  6
CONTINUOUS
 10
4.209676025
 20
3.9880228513
 11
4.2282676269
 21
3.9884199518
  0
LINE
  5
38F
100
AcDbEntity
  8
0
100
AcDbLine
 62
7
  6
CONTINUOUS
 10
4.2470093392
 20
3.9888170737
 11
4.2657105131
 21
3.9892141725
  0
SPLINE
  5
390
100
AcDbEntity
  8
0
100
AcDbSpline
 62
7
  6
CONTINUOUS
 70
0
 71
3
 72
19
 73
15
 74
0
 42
0.0000001
 43
0.0000001
 44
0.0000000001
 40
0.0
 40
0.0
 40
0.0
 40
0.0
 40
0.2270786253
 40
0.4269498226
 40
0.5983927002
 40
0.7404012868
 40
0.8000572164
 40
0.8519842995
 40
0.8960905346
 40
0.9323475552
 40
0.9607457659
 40
0.981303873
 40
0.9941384327
 40
1.0
 40
1.0
 40
1.0
 40
1.0
 10
4.392504211
 20
3.9923902973
 30
0.0
 10
4.3954360931
 20
3.9924925124
 30
0.0
 10
4.4009482497
 20
3.992694135
 30
0.0
 10
4.408672403
 20
3.9930143358
 30
0.0
 10
4.4152964232
 20
3.9933334038
 30
0.0
 10
4.4201089178
 20
3.9936107878
 30
0.0
 10
4.4233770593
 20
3.9938383574
 30
0.0
 10
4.42538248
 20
3.9939988435
 30
0.0
 10
4.4270829984
 20
3.9941577652
 30
0.0
 10
4.428482498
 20
3.9943182745
 30
0.0
 10
4.429564051
 20
3.9944696629
 30
0.0
 10
4.4303675624
 20
3.9946340133
 30
0.0
 10
4.4308184578
 20
3.9947562246
 30
0.0
 10
4.4310767182
 20
3.9949089084
 30
0.0
 10
4.4310781573
 20
3.9949846212
 30
0.0
  0
SPLINE
  5
391
100
AcDbEntity
  8
0
100
AcDbSpline
 62
7
  6
CONTINUOUS
 70
0
 71
3
 72
15
 73
11
 74
0
 42
0.0000001
 43
0.0000001
 44
0.0000000001
 40
0.0
 40
0.0
 40
0.0
 40
0.0
 40
0.0251930416
 40
0.0468147595
 40
0.0754441604
 40
0.1546033733
 40
0.2635878263
 40
0.4026619348
 40
0.5719037061
 40
1.0
 40
1.0
 40
1.0
 40
1.0
 10
4.4310870354
 20
4.5055357919
 30
0.0
 10
4.4310868326
 20
4.5054681636
 30
0.0
 10
4.4309694997
 20
4.5053690593
 30
0.0
 10
4.4307945717
 20
4.5052853953
 30
0.0
 10
4.4304635811
 20
4.5051653241
 30
0.0
 10
4.4298993451
 20
4.5050306433
 30
0.0
 10
4.4290336668
 20
4.5048738989
 30
0.0
 10
4.4279246819
 20
4.5047173536
 30
0.0
 10
4.4259608936
 20
4.5044879429
 30
0.0
 10
4.4243635905
 20
4.5043448802
 30
0.0
 10
4.4232182595
 20
4.5042507857
 30
0.0
  0
LINE
  5
392
100
AcDbEntity
  8
0
100
AcDbLine
 62
7
  6
CONTINUOUS
 10
4.4232182595
 20
4.5042507857
 11
4.4091287389
 21
4.5033754711
  0
LINE
  5
393
100
AcDbEntity
  8
0
100
AcDbLine
 62
7
  6
CONTINUOUS
 10
4.4091287389
 20
4.5033754711
 11
4.3885490751
 21
4.502499772
  0
LINE
  5
394
100
AcDbEntity
  8
0
100
AcDbLine
 62
7
  6
CONTINUOUS
 10
4.3885490751
 20
4.502499772
 11
4.3257498237
 21
4.5005990343
  0
LINE
  5
395
100
AcDbEntity
  8
0
100
AcDbLine
 62
7
  6
CONTINUOUS
 10
4.3257498237
 20
4.5005990343
 11
4.3140912354
 21
4.5002982213
  0
LINE
  5
396
100
AcDbEntity
  8
0
100
AcDbLine
 62
7
  6
CONTINUOUS
 10
4.3140912354
 20
4.5002982213
 11
4.2604154504
 21
4.4989925287
  0
LINE
  5
397
100
AcDbEntity
  8
0
100
AcDbLine
 62
7
  6
CONTINUOUS
 10
4.2231963327
 20
4.4981147805
 11
4.1867444753
 21
4.4972366344
  0
LINE
  5
398
100
AcDbEntity
  8
0
100
AcDbLine
 62
7
  6
CONTINUOUS
 10
4.1867444753
 20
4.4972366344
 11
4.1692570167
 21
4.4967974311
  0
LINE
  5
399
100
AcDbEntity
  8
0
100
AcDbLine
 62
7
  6
CONTINUOUS
 10
4.1692570167
 20
4.4967974311
 11
4.1524984433
 21
4.4963581777
  0
LINE
  5
39A
100
AcDbEntity
  8
0
100
AcDbLine
 62
7
  6
CONTINUOUS
 10
4.1524984433
 20
4.4963581777
 11
4.1366272726
 21
4.4959188092
  0
LINE
  5
39B
100
AcDbEntity
  8
0
100
AcDbLine
 62
7
  6
CONTINUOUS
 10
4.1366272726
 20
4.4959188092
 11
4.095874404
 21
4.4946002131
  0
LINE
  5
39C
100
AcDbEntity
  8
0
100
AcDbLine
 62
7
  6
CONTINUOUS
 10
4.095874404
 20
4.4946002131
 11
4.068093041
 21
4.4932809033
  0
SPLINE
  5
39D
100
AcDbEntity
  8
0
100
AcDbSpline
 62
7
  6
CONTINUOUS
 70
0
 71
3
 72
12
 73
8
 74
0
 42
0.0000001
 43
0.0000001
 44
0.0000000001
 40
0.0
 40
0.0
 40
0.0
 40
0.0
 40
0.3715983011
 40
0.6627676414
 40
0.8722642702
 40
0.9463142804
 40
1.0
 40
1.0
 40
1.0
 40
1.0
 10
4.068093041
 20
4.4932809033
 30
0.0
 10
4.0665578385
 20
4.4931814615
 30
0.0
 10
4.0638203646
 20
4.4929903458
 30
0.0
 10
4.060223581
 20
4.4926708407
 30
0.0
 10
4.0578589905
 20
4.4923924671
 30
0.0
 10
4.056483898
 20
4.4921508795
 30
0.0
 10
4.0559682925
 20
4.4920286291
 30
0.0
 10
4.0557565813
 20
4.4919609716
 30
0.0
  0
LINE
  5
39E
100
AcDbEntity
  8
0
100
AcDbLine
 62
7
  6
CONTINUOUS
 10
4.0557565813
 20
4.4919609716
 11
4.0554024526
 21
4.491815438
  0
LINE
  5
39F
100
AcDbEntity
  8
0
100
AcDbLine
 62
7
  6
CONTINUOUS
 10
4.4302585215
 20
4.5059518429
 11
4.430930079
 21
4.5057171207
  0
SPLINE
  5
3A0
100
AcDbEntity
  8
0
100
AcDbSpline
 62
7
  6
CONTINUOUS
 70
0
 71
3
 72
16
 73
12
 74
0
 42
0.0000001
 43
0.0000001
 44
0.0000000001
 40
0.0
 40
0.0
 40
0.0
 40
0.0
 40
0.0231295237
 40
0.044294507
 40
0.0726846104
 40
0.1517851744
 40
0.2610572389
 40
0.400623403
 40
0.570479154
 40
0.7704223102
 40
1.0
 40
1.0
 40
1.0
 40
1.0
 10
4.4310862511
 20
4.5333367853
 30
0.0
 10
4.4310863241
 20
4.5332523454
 30
0.0
 10
4.4309162493
 20
4.5331384125
 30
0.0
 10
4.4306852565
 20
4.5330430371
 30
0.0
 10
4.4302285453
 20
4.5329019686
 30
0.0
 10
4.4294574918
 20
4.5327447617
 30
0.0
 10
4.4282718115
 20
4.5325610379
 30
0.0
 10
4.4267550117
 20
4.5323777705
 30
0.0
 10
4.424904328
 20
4.5321922406
 30
0.0
 10
4.4227241183
 20
4.5320063758
 30
0.0
 10
4.421160322
 20
4.5318899554
 30
0.0
 10
4.4203242704
 20
4.5318309819
 30
0.0
  0
SPLINE
  5
3A1
100
AcDbEntity
  8
0
100
AcDbSpline
 62
7
  6
CONTINUOUS
 70
0
 71
3
 72
28
 73
24
 74
0
 42
0.0000001
 43
0.0000001
 44
0.0000000001
 40
0.0
 40
0.0
 40
0.0
 40
0.0
 40
0.0361220511
 40
0.0851967479
 40
0.1457877583
 40
0.2161818814
 40
0.2943299134
 40
0.3780013938
 40
0.464778507
 40
0.552172202
 40
0.6376578582
 40
0.7187842966
 40
0.7931999172
 40
0.8587807174
 40
0.8876490664
 40
0.9136329105
 40
0.9365373449
 40
0.9561865247
 40
0.9724585384
 40
0.9852424479
 40
0.9944349635
 40
0.9976694143
 40
1.0
 40
1.0
 40
1.0
 40
1.0
 10
4.4203242704
 20
4.5318309819
 30
0.0
 10
4.4159441104
 20
4.5315220138
 30
0.0
 10
4.4056009935
 20
4.5309729223
 30
0.0
 10
4.3878936639
 20
4.5302505531
 30
0.0
 10
4.3660172809
 20
4.5295209203
 30
0.0
 10
4.3406054226
 20
4.5287852882
 30
0.0
 10
4.3123868596
 20
4.5280467266
 30
0.0
 10
4.282176191
 20
4.5273066692
 30
0.0
 10
4.2508413048
 20
4.5265657061
 30
0.0
 10
4.2192858257
 20
4.5258247613
 30
0.0
 10
4.1884174333
 20
4.5250841273
 30
0.0
 10
4.1591270995
 20
4.5243449917
 30
0.0
 10
4.1322572126
 20
4.523607497
 30
0.0
 10
4.1117395198
 20
4.5229727783
 30
0.0
 10
4.09710872
 20
4.5224532085
 30
0.0
 10
4.0876638315
 20
4.5220810523
 30
0.0
 10
4.079340507
 20
4.5217102227
 30
0.0
 10
4.0721991623
 20
4.5213402871
 30
0.0
 10
4.0662894521
 20
4.5209743155
 30
0.0
 10
4.0616544124
 20
4.5206108114
 30
0.0
 10
4.0586044382
 20
4.5202945685
 30
0.0
 10
4.0568317952
 20
4.5200190431
 30
0.0
 10
4.0561686248
 20
4.5198797922
 30
0.0
 10
4.0558961254
 20
4.5198022803
 30
0.0
  0
LINE
  5
3A2
100
AcDbEntity
  8
0
100
AcDbLine
 62
7
  6
CONTINUOUS
 10
4.0558961254
 20
4.5198022803
 11
4.0554041834
 21
4.5196145062
  0
SPLINE
  5
3A3
100
AcDbEntity
  8
0
100
AcDbSpline
 62
7
  6
CONTINUOUS
 70
0
 71
3
 72
16
 73
12
 74
0
 42
0.0000001
 43
0.0000001
 44
0.0000000001
 40
0.0
 40
0.0
 40
0.0
 40
0.0
 40
0.0216412145
 40
0.0424080527
 40
0.0705717568
 40
0.1495880155
 40
0.2590920354
 40
0.3990466339
 40
0.5693088262
 40
0.7696944429
 40
1.0
 40
1.0
 40
1.0
 40
1.0
 10
4.4310730268
 20
3.9731080248
 30
0.0
 10
4.4310767231
 20
3.973185355
 30
0.0
 10
4.430906232
 20
3.9732878003
 30
0.0
 10
4.430687078
 20
3.9733705322
 30
0.0
 10
4.4302370211
 20
3.973497268
 30
0.0
 10
4.4294804777
 20
3.9736369207
 30
0.0
 10
4.4283137198
 20
3.9738011661
 30
0.0
 10
4.4268221497
 20
3.9739646621
 30
0.0
 10
4.4250026035
 20
3.9741304321
 30
0.0
 10
4.4228592918
 20
3.9742965102
 30
0.0
 10
4.4213220029
 20
3.9744004258
 30
0.0
 10
4.4204997979
 20
3.9744530441
 30
0.0
  0
LINE
  5
3A4
100
AcDbEntity
  8
0
100
AcDbLine
 62
7
  6
CONTINUOUS
 10
4.055397563
 20
4.4945822925
 11
4.0567233141
 21
4.4942057671
  0
SPLINE
  5
3A5
100
AcDbEntity
  8
0
100
AcDbSpline
 62
7
  6
CONTINUOUS
 70
0
 71
3
 72
14
 73
10
 74
0
 42
0.0000001
 43
0.0000001
 44
0.0000000001
 40
0.0
 40
0.0
 40
0.0
 40
0.0
 40
0.0253479033
 40
0.0760195589
 40
0.1556462609
 40
0.2649138948
 40
0.4039938247
 40
0.5729036403
 40
1.0
 40
1.0
 40
1.0
 40
1.0
 10
4.4310730255
 20
3.9699830247
 30
0.0
 10
4.4310702766
 20
3.9699255149
 30
0.0
 10
4.4309072689
 20
3.9698005738
 30
0.0
 10
4.4305879195
 20
3.9696961104
 30
0.0
 10
4.4300503834
 20
3.9695627763
 30
0.0
 10
4.4293194835
 20
3.969438072
 30
0.0
 10
4.4283792973
 20
3.9693069959
 30
0.0
 10
4.426720865
 20
3.9691183613
 30
0.0
 10
4.4253717812
 20
3.9689997876
 30
0.0
 10
4.424404779
 20
3.9689221815
 30
0.0
  0
LINE
  5
3A6
100
AcDbEntity
  8
0
100
AcDbLine
 62
7
  6
CONTINUOUS
 10
4.424404779
 20
3.9689221815
 11
4.418497311
 21
3.9685213575
  0
LINE
  5
3A7
100
AcDbEntity
  8
0
100
AcDbLine
 62
7
  6
CONTINUOUS
 10
4.418497311
 20
3.9685213575
 11
4.3904037231
 21
3.9673179344
  0
SPLINE
  5
3A8
100
AcDbEntity
  8
0
100
AcDbSpline
 62
7
  6
CONTINUOUS
 70
0
 71
3
 72
13
 73
9
 74
0
 42
0.0000001
 43
0.0000001
 44
0.0000000001
 40
0.0
 40
0.0
 40
0.0
 40
0.0
 40
0.0465078338
 40
0.1150078473
 40
0.2060297804
 40
0.3196958241
 40
0.6148698555
 40
1.0
 40
1.0
 40
1.0
 40
1.0
 10
4.0401846941
 20
4.5033714928
 30
0.0
 10
4.0402742313
 20
4.5033189994
 30
0.0
 10
4.0405164341
 20
4.5032274524
 30
0.0
 10
4.0409605729
 20
4.5031101672
 30
0.0
 10
4.0415591751
 20
4.5029914884
 30
0.0
 10
4.042660775
 20
4.5028158525
 30
0.0
 10
4.044420966
 20
4.5026070093
 30
0.0
 10
4.045932655
 20
4.5024663753
 30
0.0
 10
4.046789033
 20
4.5023933367
 30
0.0
  0
LINE
  5
3A9
100
AcDbEntity
  8
0
100
AcDbLine
 62
7
  6
CONTINUOUS
 10
4.4014373512
 20
3.9708449802
 11
4.4184961059
 21
3.9716462866
  0
SPLINE
  5
3AA
100
AcDbEntity
  8
0
100
AcDbSpline
 62
7
  6
CONTINUOUS
 70
0
 71
3
 72
12
 73
8
 74
0
 42
0.0000001
 43
0.0000001
 44
0.0000000001
 40
0.0
 40
0.0
 40
0.0
 40
0.0
 40
0.3767809116
 40
0.6696867988
 40
0.877456196
 40
0.9493407188
 40
1.0
 40
1.0
 40
1.0
 40
1.0
 10
4.4184961059
 20
3.9716462866
 30
0.0
 10
4.4200304759
 20
3.9717366197
 30
0.0
 10
4.422757165
 20
3.9719097575
 30
0.0
 10
4.4263244568
 20
3.9722005605
 30
0.0
 10
4.4286481197
 20
3.9724529325
 30
0.0
 10
4.4299771699
 20
3.9726741295
 30
0.0
 10
4.4304657139
 20
3.972785663
 30
0.0
 10
4.4306624867
 20
3.9728488127
 30
0.0
  0
SPLINE
  5
3AB
100
AcDbEntity
  8
0
100
AcDbSpline
 62
7
  6
CONTINUOUS
 70
0
 71
3
 72
13
 73
9
 74
0
 42
0.0000001
 43
0.0000001
 44
0.0000000001
 40
0.0
 40
0.0
 40
0.0
 40
0.0
 40
0.0470490284
 40
0.115949116
 40
0.2072385779
 40
0.3210245419
 40
0.6159299536
 40
1.0
 40
1.0
 40
1.0
 40
1.0
 10
4.0554011569
 20
4.5223815057
 30
0.0
 10
4.0554956984
 20
4.522326209
 30
0.0
 10
4.0557500688
 20
4.5222292595
 30
0.0
 10
4.0562158065
 20
4.5221049872
 30
0.0
 10
4.0568416833
 20
4.5219792591
 30
0.0
 10
4.057990647
 20
4.5217933971
 30
0.0
 10
4.0598235032
 20
4.5215722683
 30
0.0
 10
4.0613970468
 20
4.5214232205
 30
0.0
 10
4.0622877678
 20
4.5213458354
 30
0.0
  0
SPLINE
  5
3AC
100
AcDbEntity
  8
0
100
AcDbSpline
 62
7
  6
CONTINUOUS
 70
0
 71
3
 72
13
 73
9
 74
0
 42
0.0000001
 43
0.0000001
 44
0.0000000001
 40
0.0
 40
0.0
 40
0.0
 40
0.0
 40
0.0431624719
 40
0.1092957103
 40
0.199000818
 40
0.3123513798
 40
0.6096104404
 40
1.0
 40
1.0
 40
1.0
 40
1.0
 10
4.0401874197
 20
4.5311706328
 30
0.0
 10
4.0402960704
 20
4.5311071865
 30
0.0
 10
4.040599986
 20
4.5310008099
 30
0.0
 10
4.0411628252
 20
4.5308645164
 30
0.0
 10
4.0419362793
 20
4.5307268912
 30
0.0
 10
4.0433800279
 20
4.5305216456
 30
0.0
 10
4.0457030896
 20
4.5302786285
 30
0.0
 10
4.0477008693
 20
4.530115226
 30
0.0
 10
4.0488356801
 20
4.5300302354
 30
0.0
  0
SPLINE
  5
3AD
100
AcDbEntity
  8
0
100
AcDbSpline
 62
7
  6
CONTINUOUS
 70
0
 71
3
 72
13
 73
9
 74
0
 42
0.0000001
 43
0.0000001
 44
0.0000000001
 40
0.0
 40
0.0
 40
0.0
 40
0.0
 40
0.3994708287
 40
0.6986146175
 40
0.8104503492
 40
0.8973842804
 40
0.9600196358
 40
1.0
 40
1.0
 40
1.0
 40
1.0
 10
4.441648303
 20
4.5183845588
 30
0.0
 10
4.4422719161
 20
4.5183207011
 30
0.0
 10
4.4433612772
 20
4.5181983763
 30
0.0
 10
4.4446208303
 20
4.5180147434
 30
0.0
 10
4.4453862249
 20
4.5178589018
 30
0.0
 10
4.4457842579
 20
4.5177545596
 30
0.0
 10
4.4460621622
 20
4.517652687
 30
0.0
 10
4.4462058427
 20
4.517569478
 30
0.0
 10
4.4462471373
 20
4.5175222443
 30
0.0
  0
LINE
  5
3AE
100
AcDbEntity
  8
0
100
AcDbLine
 62
7
  6
CONTINUOUS
 10
4.4461379906
 20
4.5172691093
 11
4.4456659267
 21
4.5170911024
  0
LINE
  5
3AF
100
AcDbEntity
  8
0
100
AcDbLine
 62
7
  6
CONTINUOUS
 10
4.4456659267
 20
4.5170911024
 11
4.4431677019
 21
4.5166595054
  0
SPLINE
  5
3B0
100
AcDbEntity
  8
0
100
AcDbSpline
 62
7
  6
CONTINUOUS
 70
0
 71
3
 72
13
 73
9
 74
0
 42
0.0000001
 43
0.0000001
 44
0.0000000001
 40
0.0
 40
0.0
 40
0.0
 40
0.0
 40
0.0458712326
 40
0.1138066749
 40
0.2043796939
 40
0.3178024858
 40
0.6134361697
 40
1.0
 40
1.0
 40
1.0
 40
1.0
 10
4.430929215
 20
4.5084794906
 30
0.0
 10
4.4308257096
 20
4.5084199188
 30
0.0
 10
4.4305451817
 20
4.5083167297
 30
0.0
 10
4.430030364
 20
4.5081843805
 30
0.0
 10
4.4293344711
 20
4.5080505327
 30
0.0
 10
4.4280489656
 20
4.5078520742
 30
0.0
 10
4.4259902684
 20
4.5076166583
 30
0.0
 10
4.4242212873
 20
4.5074581893
 30
0.0
 10
4.4232182595
 20
4.5073757857
 30
0.0
  0
LINE
  5
3B1
100
AcDbEntity
  8
0
100
AcDbLine
 62
7
  6
CONTINUOUS
 10
4.4232182595
 20
4.5073757857
 11
4.4091287389
 21
4.5065004711
  0
LINE
  5
3B2
100
AcDbEntity
  8
0
100
AcDbLine
 62
7
  6
CONTINUOUS
 10
4.4091287389
 20
4.5065004711
 11
4.3885490751
 21
4.505624772
  0
LINE
  5
3B3
100
AcDbEntity
  8
0
100
AcDbLine
 62
7
  6
CONTINUOUS
 10
4.3885490751
 20
4.505624772
 11
4.3256690887
 21
4.5037219183
  0
LINE
  5
3B4
100
AcDbEntity
  8
0
100
AcDbLine
 62
7
  6
CONTINUOUS
 10
4.3256690887
 20
4.5037219183
 11
4.3144938804
 21
4.5034334633
  0
LINE
  5
3B5
100
AcDbEntity
  8
0
100
AcDbLine
 62
7
  6
CONTINUOUS
 10
4.2231963327
 20
4.5012397805
 11
4.1867444753
 21
4.5003616344
  0
LINE
  5
3B6
100
AcDbEntity
  8
0
100
AcDbLine
 62
7
  6
CONTINUOUS
 10
4.1867444753
 20
4.5003616344
 11
4.184184855
 21
4.5002983152
  0
LINE
  5
3B7
100
AcDbEntity
  8
0
100
AcDbLine
 62
7
  6
CONTINUOUS
 10
4.184184855
 20
4.5002983152
 11
4.1524984433
 21
4.4994831777
  0
LINE
  5
3B8
100
AcDbEntity
  8
0
100
AcDbLine
 62
7
  6
CONTINUOUS
 10
4.1524984433
 20
4.4994831777
 11
4.1366272726
 21
4.4990438092
  0
LINE
  5
3B9
100
AcDbEntity
  8
0
100
AcDbLine
 62
7
  6
CONTINUOUS
 10
4.1366272726
 20
4.4990438092
 11
4.095874404
 21
4.4977252131
  0
LINE
  5
3BA
100
AcDbEntity
  8
0
100
AcDbLine
 62
7
  6
CONTINUOUS
 10
4.095874404
 20
4.4977252131
 11
4.068093041
 21
4.4964059033
  0
SPLINE
  5
3BB
100
AcDbEntity
  8
0
100
AcDbSpline
 62
7
  6
CONTINUOUS
 70
0
 71
3
 72
17
 73
13
 74
0
 42
0.0000001
 43
0.0000001
 44
0.0000000001
 40
0.0
 40
0.0
 40
0.0
 40
0.0
 40
0.2291771463
 40
0.4289672686
 40
0.5988509881
 40
0.7385961371
 40
0.8481126327
 40
0.9274145034
 40
0.955836333
 40
0.9769386676
 40
0.991145333
 40
1.0
 40
1.0
 40
1.0
 40
1.0
 10
4.068093041
 20
4.4964059033
 30
0.0
 10
4.0670983905
 20
4.4963414755
 30
0.0
 10
4.0652370473
 20
4.4962143122
 30
0.0
 10
4.0626403851
 20
4.4960112937
 30
0.0
 10
4.0604340383
 20
4.4958089586
 30
0.0
 10
4.0586219069
 20
4.4956081768
 30
0.0
 10
4.0572068124
 20
4.4954094806
 30
0.0
 10
4.0562771928
 20
4.4952340827
 30
0.0
 10
4.0557367109
 20
4.4950855481
 30
0.0
 10
4.0554772979
 20
4.4949845796
 30
0.0
 10
4.0553093312
 20
4.4948924309
 30
0.0
 10
4.0552462504
 20
4.4948003208
 30
0.0
 10
4.055245504
 20
4.4947618174
 30
0.0
  0
LINE
  5
3BC
100
AcDbEntity
  8
0
100
AcDbLine
 62
7
  6
CONTINUOUS
 10
4.4461402981
 20
4.5450714524
 11
4.4455823545
 21
4.5448698226
  0
LINE
  5
3BD
100
AcDbEntity
  8
0
100
AcDbLine
 62
7
  6
CONTINUOUS
 10
4.4455823545
 20
4.5448698226
 11
4.4431677019
 21
4.5444595054
  0
SPLINE
  5
3BE
100
AcDbEntity
  8
0
100
AcDbSpline
 62
7
  6
CONTINUOUS
 70
0
 71
3
 72
14
 73
10
 74
0
 42
0.0000001
 43
0.0000001
 44
0.0000000001
 40
0.0
 40
0.0
 40
0.0
 40
0.0
 40
0.0419883749
 40
0.1072687473
 40
0.1963519634
 40
0.3093777284
 40
0.4463722428
 40
0.6073026219
 40
1.0
 40
1.0
 40
1.0
 40
1.0
 10
4.4309288732
 20
4.5362804618
 30
0.0
 10
4.4307989614
 20
4.5362056145
 30
0.0
 10
4.4304316881
 20
4.5360825829
 30
0.0
 10
4.429750094
 20
4.5359244039
 30
0.0
 10
4.4288075278
 20
4.5357648595
 30
0.0
 10
4.4276078071
 20
4.5356025596
 30
0.0
 10
4.4261492664
 20
4.5354395126
 30
0.0
 10
4.4236943411
 20
4.5352054046
 30
0.0
 10
4.4217230248
 20
4.5350546473
 30
0.0
 10
4.4203242704
 20
4.5349559819
 30
0.0
  0
SPLINE
  5
3BF
100
AcDbEntity
  8
0
100
AcDbSpline
 62
7
  6
CONTINUOUS
 70
0
 71
3
 72
34
 73
30
 74
0
 42
0.0000001
 43
0.0000001
 44
0.0000000001
 40
0.0
 40
0.0
 40
0.0
 40
0.0
 40
0.0373559521
 40
0.0883968131
 40
0.151538026
 40
0.2248794917
 40
0.306160938
 40
0.3929111681
 40
0.4824758197
 40
0.5721207987
 40
0.6591012858
 40
0.7407605326
 40
0.7788025233
 40
0.8146020222
 40
0.8478755691
 40
0.878364616
 40
0.9058520702
 40
0.9301249762
 40
0.9509819446
 40
0.9682808217
 40
0.9755579686
 40
0.9819002675
 40
0.9872931858
 40
0.9917251851
 40
0.9951944526
 40
0.9977047733
 40
0.998604987
 40
0.9992750526
 40
1.0
 40
1.0
 40
1.0
 40
1.0
 10
4.4203242704
 20
4.5349559819
 30
0.0
 10
4.415785006
 20
4.5346357909
 30
0.0
 10
4.4050306042
 20
4.5340701521
 30
0.0
 10
4.3865859897
 20
4.5333266
 30
0.0
 10
4.3637547607
 20
4.5325755655
 30
0.0
 10
4.3372384829
 20
4.5318179727
 30
0.0
 10
4.3078452345
 20
4.5310574526
 30
0.0
 10
4.2764752014
 20
4.5302952908
 30
0.0
 10
4.2440860851
 20
4.5295323618
 30
0.0
 10
4.2116689112
 20
4.5287695166
 30
0.0
 10
4.1802149975
 20
4.5280072541
 30
0.0
 10
4.1550462284
 20
4.5273592146
 30
0.0
 10
4.1361110955
 20
4.5268329223
 30
0.0
 10
4.12306847
 20
4.5264479333
 30
0.0
 10
4.1109463275
 20
4.5260632981
 30
0.0
 10
4.0998372602
 20
4.5256789983
 30
0.0
 10
4.0898253016
 20
4.5252954899
 30
0.0
 10
4.0809875736
 20
4.524913336
 30
0.0
 10
4.0733922514
 20
4.5245322333
 30
0.0
 10
4.067867571
 20
4.5242009822
 30
0.0
 10
4.0641109601
 20
4.5239290741
 30
0.0
 10
4.0618029334
 20
4.5237377466
 30
0.0
 10
4.0598423367
 20
4.5235469306
 30
0.0
 10
4.0582347429
 20
4.5233583837
 30
0.0
 10
4.0569776694
 20
4.5231693782
 30
0.0
 10
4.0561605115
 20
4.523007586
 30
0.0
 10
4.0556755155
 20
4.5228625291
 30
0.0
 10
4.0554318911
 20
4.5227644949
 30
0.0
 10
4.0552495484
 20
4.5226484389
 30
0.0
 10
4.0552490444
 20
4.5225601304
 30
0.0
  0
SPLINE
  5
3C0
100
AcDbEntity
  8
0
100
AcDbSpline
 62
9
  6
CONTINUOUS
 70
0
 71
3
 72
34
 73
30
 74
0
 42
0.0000001
 43
0.0000001
 44
0.0000000001
 40
0.0
 40
0.0
 40
0.0
 40
0.0
 40
0.0000631442
 40
0.0002525756
 40
0.0005682943
 40
0.0010103001
 40
0.0015785931
 40
0.0022731733
 40
0.0040411951
 40
0.0063143656
 40
0.0090926845
 40
0.0123761519
 40
0.0161647676
 40
0.0252574438
 40
0.0363693877
 40
0.0494930395
 40
0.0646190376
 40
0.0817380744
 40
0.1008409063
 40
0.1449612868
 40
0.1969076973
 40
0.2566082792
 40
0.3239715221
 40
0.3988817798
 40
0.4812250487
 40
0.5708909452
 40
0.6677721214
 40
0.7717222354
 40
1.0
 40
1.0
 40
1.0
 40
1.0
 10
4.5107695204
 20
3.6697036127
 30
0.0
 10
4.5107681228
 20
3.6697012852
 30
0.0
 10
4.5107540877
 20
3.6697058943
 30
0.0
 10
4.5107327858
 20
3.6696993257
 30
0.0
 10
4.5106903771
 20
3.6696997603
 30
0.0
 10
4.5106342476
 20
3.6696950239
 30
0.0
 10
4.5105607791
 20
3.6696910805
 30
0.0
 10
4.5104308483
 20
3.6696829495
 30
0.0
 10
4.5102275126
 20
3.6696707706
 30
0.0
 10
4.5099348859
 20
3.6696529416
 30
0.0
 10
4.509577166
 20
3.6696312581
 30
0.0
 10
4.5091544289
 20
3.6696055948
 30
0.0
 10
4.508460696
 20
3.6695634986
 30
0.0
 10
4.5074309981
 20
3.669501003
 30
0.0
 10
4.5060006718
 20
3.6694142283
 30
0.0
 10
4.5043113064
 20
3.6693135973
 30
0.0
 10
4.5023639243
 20
3.6692009614
 30
0.0
 10
4.5001596253
 20
3.6690782192
 30
0.0
 10
4.4967101746
 20
3.6688946091
 30
0.0
 10
4.4917643452
 20
3.6686521364
 30
0.0
 10
4.4850732579
 20
3.6683639784
 30
0.0
 10
4.4773818419
 20
3.6680806062
 30
0.0
 10
4.468701695
 20
3.6678219085
 30
0.0
 10
4.4590463453
 20
3.6676149303
 30
0.0
 10
4.4484306253
 20
3.6674851534
 30
0.0
 10
4.4368694669
 20
3.6674587102
 30
0.0
 10
4.4243796363
 20
3.6675612466
 30
0.0
 10
4.4059331921
 20
3.6679173242
 30
0.0
 10
4.3916571069
 20
3.6684544502
 30
0.0
 10
4.3818545174
 20
3.6689448233
 30
0.0
  0
SPLINE
  5
3C1
100
AcDbEntity
  8
0
100
AcDbSpline
 62
7
  6
CONTINUOUS
 70
0
 71
3
 72
10
 73
6
 74
0
 42
0.0000001
 43
0.0000001
 44
0.0000000001
 40
0.0
 40
0.0
 40
0.0
 40
0.0
 40
0.1960902219
 40
0.4359461151
 40
1.0
 40
1.0
 40
1.0
 40
1.0
 10
4.4096865244
 20
4.5147387222
 30
0.0
 10
4.4000659627
 20
4.5143765597
 30
0.0
 10
4.3786732095
 20
4.513689771
 30
0.0
 10
4.3295939022
 20
4.5123819891
 30
0.0
 10
4.2901340242
 20
4.5115131719
 30
0.0
 10
4.2624474898
 20
4.510907203
 30
0.0
  0
LINE
  5
3C2
100
AcDbEntity
  8
0
100
AcDbLine
 62
7
  6
CONTINUOUS
 10
4.2234215101
 20
4.5100557852
 11
4.1851248158
 21
4.5092044298
  0
LINE
  5
3C3
100
AcDbEntity
  8
0
100
AcDbLine
 62
7
  6
CONTINUOUS
 10
4.1851248158
 20
4.5092044298
 11
4.1603810805
 21
4.5086292642
  0
LINE
  5
3C4
100
AcDbEntity
  8
0
100
AcDbLine
 62
7
  6
CONTINUOUS
 10
4.1603810805
 20
4.5086292642
 11
4.0882999401
 21
4.5066502454
  0
SPLINE
  5
3C5
100
AcDbEntity
  8
0
100
AcDbSpline
 62
7
  6
CONTINUOUS
 70
0
 71
3
 72
10
 73
6
 74
0
 42
0.0000001
 43
0.0000001
 44
0.0000000001
 40
0.0
 40
0.0
 40
0.0
 40
0.0
 40
0.5934911285
 40
0.8207514458
 40
1.0
 40
1.0
 40
1.0
 40
1.0
 10
4.0660204596
 20
4.5057988612
 30
0.0
 10
4.0618693592
 20
4.5056140643
 30
0.0
 10
4.0561293741
 20
4.5053355041
 30
0.0
 10
4.0491429718
 20
4.5048775371
 30
0.0
 10
4.0463060761
 20
4.504644978
 30
0.0
 10
4.0450571645
 20
4.5045217765
 30
0.0
  0
SPLINE
  5
3C6
100
AcDbEntity
  8
0
100
AcDbSpline
 62
7
  6
CONTINUOUS
 70
0
 71
3
 72
12
 73
8
 74
0
 42
0.0000001
 43
0.0000001
 44
0.0000000001
 40
0.0
 40
0.0
 40
0.0
 40
0.0
 40
0.3868122761
 40
0.6818718663
 40
0.885500206
 40
0.9535501747
 40
1.0
 40
1.0
 40
1.0
 40
1.0
 10
4.0450571645
 20
4.5045217765
 30
0.0
 10
4.0444141973
 20
4.5044583497
 30
0.0
 10
4.0432812467
 20
4.5043371733
 30
0.0
 10
4.0418173296
 20
4.5041316253
 30
0.0
 10
4.0408847619
 20
4.5039535712
 30
0.0
 10
4.0403778442
 20
4.5037957888
 30
0.0
 10
4.0402017133
 20
4.5037155876
 30
0.0
 10
4.0401386584
 20
4.5036703831
 30
0.0
  0
LINE
  5
3C7
100
AcDbEntity
  8
0
100
AcDbLine
 62
7
  6
CONTINUOUS
 10
4.4431677019
 20
4.4959830572
 11
4.4456666102
 21
4.496414195
  0
LINE
  5
3C8
100
AcDbEntity
  8
0
100
AcDbLine
 62
7
  6
CONTINUOUS
 10
4.4456666102
 20
4.496414195
 11
4.4462841511
 21
4.4967598988
  0
SPLINE
  5
3C9
100
AcDbEntity
  8
0
100
AcDbSpline
 62
7
  6
CONTINUOUS
 70
0
 71
3
 72
10
 73
6
 74
0
 42
0.0000001
 43
0.0000001
 44
0.0000000001
 40
0.0
 40
0.0
 40
0.0
 40
0.0
 40
0.5510026884
 40
0.7931107971
 40
1.0
 40
1.0
 40
1.0
 40
1.0
 10
4.258157978
 20
4.4901369838
 30
0.0
 10
4.2838414584
 20
4.4906980598
 30
0.0
 10
4.3208101138
 20
4.4915109096
 30
0.0
 10
4.3674183329
 20
4.4927012573
 30
0.0
 10
4.3883430945
 20
4.4933204088
 30
0.0
 10
4.3979835157
 20
4.4936447038
 30
0.0
  0
SPLINE
  5
3CA
100
AcDbEntity
  8
0
100
AcDbSpline
 62
7
  6
CONTINUOUS
 70
0
 71
3
 72
12
 73
8
 74
0
 42
0.0000001
 43
0.0000001
 44
0.0000000001
 40
0.0
 40
0.0
 40
0.0
 40
0.0
 40
0.3472544047
 40
0.6326324067
 40
0.8513691999
 40
0.9346360749
 40
1.0
 40
1.0
 40
1.0
 40
1.0
 10
4.3979835157
 20
4.4936447038
 30
0.0
 10
4.4031389957
 20
4.4938181294
 30
0.0
 10
4.4125307069
 20
4.4941546427
 30
0.0
 10
4.4251657786
 20
4.4947023376
 30
0.0
 10
4.433878669
 20
4.4951821434
 30
0.0
 10
4.4393208536
 20
4.4955877834
 30
0.0
 10
4.4415194747
 20
4.4957933473
 30
0.0
 10
4.4424843241
 20
4.4959021824
 30
0.0
  0
SPLINE
  5
3CB
100
AcDbEntity
  8
0
100
AcDbSpline
 62
7
  6
CONTINUOUS
 70
0
 71
3
 72
11
 73
7
 74
0
 42
0.0000001
 43
0.0000001
 44
0.0000000001
 40
0.0
 40
0.0
 40
0.0
 40
0.0
 40
0.1503822305
 40
0.3689541703
 40
0.6533042685
 40
1.0
 40
1.0
 40
1.0
 40
1.0
 10
4.4431677019
 20
4.5166595054
 30
0.0
 10
4.4414992905
 20
4.51645119
 30
0.0
 10
4.4373873489
 20
4.5160987038
 30
0.0
 10
4.4300979436
 20
4.5156381974
 30
0.0
 10
4.4206096421
 20
4.515172283
 30
0.0
 10
4.4135600526
 20
4.5148845398
 30
0.0
 10
4.4096865244
 20
4.5147387222
 30
0.0
  0
SPLINE
  5
3CC
100
AcDbEntity
  8
0
100
AcDbSpline
 62
7
  6
CONTINUOUS
 70
0
 71
3
 72
11
 73
7
 74
0
 42
0.0000001
 43
0.0000001
 44
0.0000000001
 40
0.0
 40
0.0
 40
0.0
 40
0.0
 40
0.3466968255
 40
0.6310452567
 40
0.8496195449
 40
1.0
 40
1.0
 40
1.0
 40
1.0
 10
4.4096865244
 20
4.5218622741
 30
0.0
 10
4.413559974
 20
4.522010432
 30
0.0
 10
4.4206095871
 20
4.5222971341
 30
0.0
 10
4.4300980107
 20
4.5227604124
 30
0.0
 10
4.4373874151
 20
4.523222307
 30
0.0
 10
4.4414990443
 20
4.5235768926
 30
0.0
 10
4.4431677019
 20
4.5237830572
 30
0.0
  0
SPLINE
  5
3CD
100
AcDbEntity
  8
0
100
AcDbSpline
 62
7
  6
CONTINUOUS
 70
0
 71
3
 72
13
 73
9
 74
0
 42
0.0000001
 43
0.0000001
 44
0.0000000001
 40
0.0
 40
0.0
 40
0.0
 40
0.0
 40
0.3919630162
 40
0.6889265798
 40
0.801628175
 40
0.8906457948
 40
0.9564059508
 40
1.0
 40
1.0
 40
1.0
 40
1.0
 10
4.0450805301
 20
4.5374730046
 30
0.0
 10
4.0444222281
 20
4.537537764
 30
0.0
 10
4.0432662994
 20
4.5376621354
 30
0.0
 10
4.0419254519
 20
4.537847797
 30
0.0
 10
4.0410987113
 20
4.5380047015
 30
0.0
 10
4.0406589819
 20
4.5381102255
 30
0.0
 10
4.0403415111
 20
4.5382141268
 30
0.0
 10
4.0401728681
 20
4.5382966156
 30
0.0
 10
4.0401163304
 20
4.5383436897
 30
0.0
  0
LINE
  5
3CE
100
AcDbEntity
  8
0
100
AcDbLine
 62
7
  6
CONTINUOUS
 10
4.4431677019
 20
4.5237830572
 11
4.4455828567
 21
4.5241899016
  0
LINE
  5
3CF
100
AcDbEntity
  8
0
100
AcDbLine
 62
7
  6
CONTINUOUS
 10
4.4455828567
 20
4.5241899016
 11
4.4462850531
 21
4.5245588805
  0
SPLINE
  5
3D0
100
AcDbEntity
  8
0
100
AcDbSpline
 62
7
  6
CONTINUOUS
 70
0
 71
3
 72
16
 73
12
 74
0
 42
0.0000001
 43
0.0000001
 44
0.0000000001
 40
0.0
 40
0.0
 40
0.0
 40
0.0
 40
0.1007016231
 40
0.2261821095
 40
0.3682087379
 40
0.5175844721
 40
0.6645670036
 40
0.7995977618
 40
0.9138867856
 40
0.9608549532
 40
1.0
 40
1.0
 40
1.0
 40
1.0
 10
4.4096865244
 20
4.5425387222
 30
0.0
 10
4.3980678892
 20
4.5420991911
 30
0.0
 10
4.3719651412
 20
4.5412897495
 30
0.0
 10
4.3294658129
 20
4.540206154
 30
0.0
 10
4.281345097
 20
4.5391147577
 30
0.0
 10
4.2307413476
 20
4.5380183539
 30
0.0
 10
4.1809454346
 20
4.5369242196
 30
0.0
 10
4.1352016112
 20
4.5358342687
 30
0.0
 10
4.1010051395
 20
4.5348898805
 30
0.0
 10
4.077880343
 20
4.5340970184
 30
0.0
 10
4.0679458658
 20
4.5336918746
 30
0.0
 10
4.0634311361
 20
4.5334807721
 30
0.0
  0
LINE
  5
3D1
100
AcDbEntity
  8
0
100
AcDbLine
 62
7
  6
CONTINUOUS
 10
4.0634311361
 20
4.5334807721
 11
4.0485066097
 21
4.5326181425
  0
SPLINE
  5
3D2
100
AcDbEntity
  8
0
100
AcDbSpline
 62
7
  6
CONTINUOUS
 70
0
 71
3
 72
10
 73
6
 74
0
 42
0.0000001
 43
0.0000001
 44
0.0000000001
 40
0.0
 40
0.0
 40
0.0
 40
0.0
 40
0.6239642833
 40
0.8430527803
 40
1.0
 40
1.0
 40
1.0
 40
1.0
 10
4.0485066097
 20
4.5326181425
 30
0.0
 10
4.0469295469
 20
4.5324979308
 30
0.0
 10
4.0447988703
 20
4.5323209312
 30
0.0
 10
4.0422839385
 20
4.5320046408
 30
0.0
 10
4.0413430978
 20
4.531844963
 30
0.0
 10
4.0409554556
 20
4.5317554942
 30
0.0
  0
LINE
  5
3D3
100
AcDbEntity
  8
0
100
AcDbLine
 62
7
  6
CONTINUOUS
 10
4.0409554556
 20
4.5317554942
 11
4.0400459112
 21
4.5313366203
  0
SPLINE
  5
3D4
100
AcDbEntity
  8
0
100
AcDbSpline
 62
7
  6
CONTINUOUS
 70
0
 71
3
 72
10
 73
6
 74
0
 42
0.0000001
 43
0.0000001
 44
0.0000000001
 40
0.0
 40
0.0
 40
0.0
 40
0.0
 40
0.1679062873
 40
0.3913352469
 40
1.0
 40
1.0
 40
1.0
 40
1.0
 10
4.4431677019
 20
4.5444595054
 30
0.0
 10
4.4421406149
 20
4.5443303142
 30
0.0
 10
4.4397387681
 20
4.5440951165
 30
0.0
 10
4.4335908438
 20
4.5436331166
 30
0.0
 10
4.4284673557
 20
4.5433613243
 30
0.0
 10
4.4247192355
 20
4.5431789278
 30
0.0
  0
LINE
  5
3D5
100
AcDbEntity
  8
0
100
AcDbLine
 62
7
  6
CONTINUOUS
 10
4.4096865244
 20
4.5496622741
 11
4.4247217449
 21
4.5503026015
  0
SPLINE
  5
3D6
100
AcDbEntity
  8
0
100
AcDbSpline
 62
7
  6
CONTINUOUS
 70
0
 71
3
 72
10
 73
6
 74
0
 42
0.0000001
 43
0.0000001
 44
0.0000000001
 40
0.0
 40
0.0
 40
0.0
 40
0.0
 40
0.6086602001
 40
0.8320941614
 40
1.0
 40
1.0
 40
1.0
 40
1.0
 10
4.4247217449
 20
4.5503026015
 30
0.0
 10
4.4284694208
 20
4.5504829543
 30
0.0
 10
4.433592167
 20
4.5507560199
 30
0.0
 10
4.4397391129
 20
4.551219829
 30
0.0
 10
4.4421406494
 20
4.5514547544
 30
0.0
 10
4.4431677019
 20
4.5515830572
 30
0.0
  0
SPLINE
  5
3D7
100
AcDbEntity
  8
0
100
AcDbSpline
 62
7
  6
CONTINUOUS
 70
0
 71
3
 72
10
 73
6
 74
0
 42
0.0000001
 43
0.0000001
 44
0.0000000001
 40
0.0
 40
0.0
 40
0.0
 40
0.0
 40
0.6965569268
 40
0.8891097477
 40
1.0
 40
1.0
 40
1.0
 40
1.0
 10
4.4452503744
 20
4.5456850351
 30
0.0
 10
4.4455138878
 20
4.5456282241
 30
0.0
 10
4.4458537536
 20
4.545544209
 30
0.0
 10
4.4462014523
 20
4.5453853217
 30
0.0
 10
4.4462854009
 20
4.545280818
 30
0.0
 10
4.4462850499
 20
4.5452379048
 30
0.0
  0
LINE
  5
3D8
100
AcDbEntity
  8
0
100
AcDbLine
 62
7
  6
CONTINUOUS
 10
4.4305205708
 20
3.9702917516
 11
4.4309520821
 21
3.9701296842
  0
SPLINE
  5
3D9
100
AcDbEntity
  8
0
100
AcDbSpline
 62
7
  6
CONTINUOUS
 70
0
 71
3
 72
20
 73
16
 74
0
 42
0.0000001
 43
0.0000001
 44
0.0000000001
 40
0.0
 40
0.0
 40
0.0
 40
0.0
 40
0.2279241864
 40
0.4282388395
 40
0.5996912233
 40
0.7412906646
 40
0.8007032162
 40
0.8524299064
 40
0.8964038789
 40
0.9325644629
 40
0.9608642007
 40
0.9812970394
 40
0.9886084858
 40
0.9940480551
 40
1.0
 40
1.0
 40
1.0
 40
1.0
 10
4.0885322139
 20
3.9800811745
 30
0.0
 10
4.0859918629
 20
3.9801758772
 30
0.0
 10
4.0812192117
 20
3.98036281
 30
0.0
 10
4.0745372019
 20
3.9806597208
 30
0.0
 10
4.0688190406
 20
3.9809555663
 30
0.0
 10
4.0646726813
 20
3.9812131141
 30
0.0
 10
4.0618616652
 20
3.9814245293
 30
0.0
 10
4.0601380656
 20
3.9815731623
 30
0.0
 10
4.0586745563
 20
3.9817214419
 30
0.0
 10
4.0574745851
 20
3.9818677711
 30
0.0
 10
4.0565371342
 20
3.9820145308
 30
0.0
 10
4.0559282301
 20
3.9821399199
 30
0.0
 10
4.0555689876
 20
3.9822530331
 30
0.0
 10
4.0553876493
 20
3.9823288159
 30
0.0
 10
4.0552557121
 20
3.9824213613
 30
0.0
 10
4.0552571883
 20
3.9824877289
 30
0.0
  0
SPLINE
  5
3DA
100
AcDbEntity
  8
0
100
AcDbSpline
 62
9
  6
CONTINUOUS
 70
0
 71
3
 72
33
 73
29
 74
0
 42
0.0000001
 43
0.0000001
 44
0.0000000001
 40
0.0
 40
0.0
 40
0.0
 40
0.0
 40
0.0000631444
 40
0.0002525762
 40
0.0005682952
 40
0.0010103016
 40
0.002273176
 40
0.0040411995
 40
0.0063143719
 40
0.009092693
 40
0.0123761628
 40
0.0161647811
 40
0.0252574631
 40
0.0363694145
 40
0.049493077
 40
0.0646190882
 40
0.0817381399
 40
0.100840988
 40
0.1449614027
 40
0.196907846
 40
0.2566084563
 40
0.3239717285
 40
0.3988820106
 40
0.4812252909
 40
0.570891178
 40
0.6677723175
 40
0.7717223796
 40
1.0
 40
1.0
 40
1.0
 40
1.0
 10
4.5107695204
 20
3.6697036115
 30
0.0
 10
4.5107677472
 20
3.6697015556
 30
0.0
 10
4.5107546264
 20
3.6697055032
 30
0.0
 10
4.5107324394
 20
3.6696995758
 30
0.0
 10
4.5106905431
 20
3.6696996272
 30
0.0
 10
4.510604584
 20
3.6696928321
 30
0.0
 10
4.5104549728
 20
3.669684927
 30
0.0
 10
4.5102276107
 20
3.6696705624
 30
0.0
 10
4.5099348315
 20
3.6696530155
 30
0.0
 10
4.5095771586
 20
3.6696312297
 30
0.0
 10
4.5091543959
 20
3.669605601
 30
0.0
 10
4.5084606587
 20
3.6695634894
 30
0.0
 10
4.5074309381
 20
3.6695010024
 30
0.0
 10
4.5060005887
 20
3.6694142229
 30
0.0
 10
4.504311193
 20
3.6693135914
 30
0.0
 10
4.5023637768
 20
3.6692009532
 30
0.0
 10
4.5001594389
 20
3.6690782089
 30
0.0
 10
4.4967099277
 20
3.6688945955
 30
0.0
 10
4.4917640118
 20
3.6686521192
 30
0.0
 10
4.4850728083
 20
3.6683639586
 30
0.0
 10
4.4773812593
 20
3.668080587
 30
0.0
 10
4.4687009633
 20
3.6678218906
 30
0.0
 10
4.459045449
 20
3.6676149159
 30
0.0
 10
4.4484295499
 20
3.6674851457
 30
0.0
 10
4.4368681993
 20
3.6674587136
 30
0.0
 10
4.4243781638
 20
3.6675612666
 30
0.0
 10
4.4059314212
 20
3.667917375
 30
0.0
 10
4.3916551061
 20
3.6684545327
 30
0.0
 10
4.3818523596
 20
3.6689449314
 30
0.0
  0
SPLINE
  5
3DB
100
AcDbEntity
  8
0
100
AcDbSpline
 62
9
  6
CONTINUOUS
 70
0
 71
3
 72
26
 73
22
 74
0
 42
0.0000001
 43
0.0000001
 44
0.0000000001
 40
0.0
 40
0.0
 40
0.0
 40
0.0
 40
0.0002582974
 40
0.0010322892
 40
0.002320798
 40
0.0041226515
 40
0.0092617272
 40
0.016440242
 40
0.0256490037
 40
0.0368789042
 40
0.05012092
 40
0.0653661129
 40
0.1018306456
 40
0.146202785
 40
0.1984141808
 40
0.258397924
 40
0.3260667486
 40
0.401248948
 40
0.5734027692
 40
0.7734278462
 40
1.0
 40
1.0
 40
1.0
 40
1.0
 10
3.98953772
 20
3.6513331293
 30
0.0
 10
3.9895510805
 20
3.6513334464
 30
0.0
 10
3.9896041589
 20
3.6513250273
 30
0.0
 10
3.9897238977
 20
3.6513181297
 30
0.0
 10
3.9899230417
 20
3.6512990512
 30
0.0
 10
3.9903473802
 20
3.651264683
 30
0.0
 10
3.9910755077
 20
3.6512048692
 30
0.0
 10
3.9921859745
 20
3.6511194386
 30
0.0
 10
3.9936110117
 20
3.6510142792
 30
0.0
 10
3.9953493892
 20
3.6508926595
 30
0.0
 10
3.9973998403
 20
3.6507567082
 30
0.0
 10
4.0007538679
 20
3.6505468859
 30
0.0
 10
4.0057172032
 20
3.6502657716
 30
0.0
 10
4.012592825
 20
3.6499279169
 30
0.0
 10
4.0206866548
 20
3.6495916925
 30
0.0
 10
4.029987491
 20
3.6492764914
 30
0.0
 10
4.0404786503
 20
3.6490027073
 30
0.0
 10
4.0567749056
 20
3.6487348834
 30
0.0
 10
4.0799236829
 20
3.6487563278
 30
0.0
 10
4.1108951093
 20
3.649598327
 30
0.0
 10
4.1329360416
 20
3.6508450189
 30
0.0
 10
4.1446287385
 20
3.6516839503
 30
0.0
  0
SPLINE
  5
3DC
100
AcDbEntity
  8
0
100
AcDbSpline
 62
7
  6
CONTINUOUS
 70
0
 71
3
 72
16
 73
12
 74
0
 42
0.0000001
 43
0.0000001
 44
0.0000000001
 40
0.0
 40
0.0
 40
0.0
 40
0.0
 40
0.2291928332
 40
0.4289904275
 40
0.5990582723
 40
0.7390799218
 40
0.8487973072
 40
0.9281492429
 40
0.9774452269
 40
0.9914464669
 40
1.0
 40
1.0
 40
1.0
 40
1.0
 10
4.0692437078
 20
4.5520785911
 30
0.0
 10
4.0681622524
 20
4.552011105
 30
0.0
 10
4.066138445
 20
4.5518778542
 30
0.0
 10
4.0633142903
 20
4.5516649747
 30
0.0
 10
4.0609127485
 20
4.5514529732
 30
0.0
 10
4.0589395763
 20
4.5512425977
 30
0.0
 10
4.0573960036
 20
4.551034621
 30
0.0
 10
4.0562898458
 20
4.5508327414
 30
0.0
 10
4.0556328963
 20
4.5506508866
 30
0.0
 10
4.0553330234
 20
4.5504938735
 30
0.0
 10
4.0552643276
 20
4.5503959799
 30
0.0
 10
4.0552642428
 20
4.5503555413
 30
0.0
  0
SPLINE
  5
3DD
100
AcDbEntity
  8
0
100
AcDbSpline
 62
9
  6
CONTINUOUS
 70
0
 71
3
 72
17
 73
13
 74
0
 42
0.0000001
 43
0.0000001
 44
0.0000000001
 40
0.0
 40
0.0
 40
0.0
 40
0.0
 40
0.0483422317
 40
0.1021783478
 40
0.2235652877
 40
0.3583750784
 40
0.4999994549
 40
0.6416240986
 40
0.7764337589
 40
0.8978197711
 40
0.9516561883
 40
1.0
 40
1.0
 40
1.0
 40
1.0
 10
4.1446287275
 20
3.6516839426
 30
0.0
 10
4.1477973524
 20
3.6519112819
 30
0.0
 10
4.1545016123
 20
3.6522958611
 30
0.0
 10
4.1691823586
 20
3.6528673163
 30
0.0
 10
4.1895534484
 20
3.6532647622
 30
0.0
 10
4.2156951164
 20
3.6534789443
 30
0.0
 10
4.243167607
 20
3.653520339
 30
0.0
 10
4.270640089
 20
3.6534789375
 30
0.0
 10
4.296781705
 20
3.6532647617
 30
0.0
 10
4.3171527455
 20
3.6528673348
 30
0.0
 10
4.3318335544
 20
3.6522958769
 30
0.0
 10
4.3385379375
 20
3.6519112868
 30
0.0
 10
4.341706666
 20
3.6516839409
 30
0.0
  0
SPLINE
  5
3DE
100
AcDbEntity
  8
0
100
AcDbSpline
 62
9
  6
CONTINUOUS
 70
0
 71
3
 72
26
 73
22
 74
0
 42
0.0000001
 43
0.0000001
 44
0.0000000001
 40
0.0
 40
0.0
 40
0.0
 40
0.0
 40
0.4265670364
 40
0.5987302546
 40
0.6739168942
 40
0.7415897258
 40
0.8015768856
 40
0.8537911013
 40
0.8981654946
 40
0.9346317464
 40
0.9498776078
 40
0.9631201698
 40
0.9743504982
 40
0.9835595732
 40
0.9907382904
 40
0.9935633979
 40
0.9958774636
 40
0.9976793259
 40
0.9989678181
 40
0.9997417685
 40
1.0
 40
1.0
 40
1.0
 40
1.0
 10
4.3417066753
 20
3.6516839477
 30
0.0
 10
4.3637194917
 20
3.6501045535
 30
0.0
 10
4.3946912494
 20
3.648767134
 30
0.0
 10
4.4295599882
 20
3.6487349064
 30
0.0
 10
4.445856536
 20
3.6490027111
 30
0.0
 10
4.4563478115
 20
3.6492764879
 30
0.0
 10
4.4656487586
 20
3.6495916836
 30
0.0
 10
4.4737426535
 20
3.6499279046
 30
0.0
 10
4.4806183235
 20
3.6502657599
 30
0.0
 10
4.485581646
 20
3.6505468709
 30
0.0
 10
4.4889357146
 20
3.6507567013
 30
0.0
 10
4.4909860568
 20
3.650892638
 30
0.0
 10
4.4927247148
 20
3.651014305
 30
0.0
 10
4.4941489213
 20
3.651119338
 30
0.0
 10
4.495141869
 20
3.6511958799
 30
0.0
 10
4.4957742445
 20
3.6512469938
 30
0.0
 10
4.4961381927
 20
3.6512760992
 30
0.0
 10
4.496401205
 20
3.6513001807
 30
0.0
 10
4.4966357871
 20
3.6513156477
 30
0.0
 10
4.4966932645
 20
3.651328913
 30
0.0
 10
4.4968108274
 20
3.6513307339
 30
0.0
 10
4.4967976837
 20
3.6513331294
 30
0.0
  0
SPLINE
  5
3DF
100
AcDbEntity
  8
0
100
AcDbSpline
 62
9
  6
CONTINUOUS
 70
0
 71
3
 72
12
 73
8
 74
0
 42
0.0000001
 43
0.0000001
 44
0.0000000001
 40
0.0
 40
0.0
 40
0.0
 40
0.0
 40
0.2171957988
 40
0.4645863079
 40
0.5974442494
 40
0.7335508909
 40
1.0
 40
1.0
 40
1.0
 40
1.0
 10
4.3417066708
 20
3.6516839422
 30
0.0
 10
4.3434265702
 20
3.6521074075
 30
0.0
 10
4.3469007293
 20
3.6538662057
 30
0.0
 10
4.3503513044
 20
3.6574298373
 30
0.0
 10
4.3524491411
 20
3.6611007426
 30
0.0
 10
4.3540610926
 20
3.6651671822
 30
0.0
 10
4.3547038977
 20
3.6684346841
 30
0.0
 10
4.3548277517
 20
3.6706040838
 30
0.0
  0
SPLINE
  5
3E0
100
AcDbEntity
  8
0
100
AcDbSpline
 62
9
  6
CONTINUOUS
 70
0
 71
3
 72
12
 73
8
 74
0
 42
0.0000001
 43
0.0000001
 44
0.0000000001
 40
0.0
 40
0.0
 40
0.0
 40
0.0
 40
0.2664491418
 40
0.4025557952
 40
0.5354137408
 40
0.7828042332
 40
1.0
 40
1.0
 40
1.0
 40
1.0
 10
4.1315076409
 20
3.6706040832
 30
0.0
 10
4.1316314951
 20
3.6684346826
 30
0.0
 10
4.1322743012
 20
3.6651671792
 30
0.0
 10
4.1338862546
 20
3.6611007383
 30
0.0
 10
4.1359840933
 20
3.6574298324
 30
0.0
 10
4.1394346714
 20
3.6538662016
 30
0.0
 10
4.1429088326
 20
3.6521074053
 30
0.0
 10
4.1446287327
 20
3.6516839414
 30
0.0
  0
SPLINE
  5
3E1
100
AcDbEntity
  8
0
100
AcDbSpline
 62
9
  6
CONTINUOUS
 70
0
 71
3
 72
35
 73
31
 74
0
 42
0.0000001
 43
0.0000001
 44
0.0000000001
 40
0.0
 40
0.0
 40
0.0
 40
0.0
 40
0.2282752247
 40
0.3322084819
 40
0.4290737541
 40
0.5187335824
 40
0.6010817697
 40
0.6760056597
 40
0.7433860578
 40
0.8031001238
 40
0.8550531918
 40
0.878097271
 40
0.8991746159
 40
0.9182763502
 40
0.935393549
 40
0.9505172407
 40
0.9636384111
 40
0.9747480094
 40
0.9838387295
 40
0.9876265289
 40
0.990909288
 40
0.9936870068
 40
0.9959596855
 40
0.9977273241
 40
0.9984217534
 40
0.9989899227
 40
0.999431832
 40
0.9997474813
 40
0.9999368706
 40
1.0
 40
1.0
 40
1.0
 40
1.0
 10
4.1044666087
 20
3.6691429872
 30
0.0
 10
4.094664055
 20
3.6686662754
 30
0.0
 10
4.0803932278
 20
3.6680651833
 30
0.0
 10
4.0619521668
 20
3.6675826256
 30
0.0
 10
4.0494652585
 20
3.6674208333
 30
0.0
 10
4.0379053867
 20
3.6674273521
 30
0.0
 10
4.0272897742
 20
3.6675622165
 30
0.0
 10
4.0176338918
 20
3.6677892802
 30
0.0
 10
4.0089531424
 20
3.6680727076
 30
0.0
 10
4.0012612654
 20
3.6683733159
 30
0.0
 10
3.9954752675
 20
3.6686281376
 30
0.0
 10
3.9913495021
 20
3.6688256984
 30
0.0
 10
3.9886347923
 20
3.668961981
 30
0.0
 10
3.9861748502
 20
3.6690908634
 30
0.0
 10
3.9839707567
 20
3.6692107695
 30
0.0
 10
3.9820235933
 20
3.6693201383
 30
0.0
 10
3.9803344422
 20
3.6694174048
 30
0.0
 10
3.9789043081
 20
3.6695010486
 30
0.0
 10
3.9778747614
 20
3.6695612791
 30
0.0
 10
3.9771811264
 20
3.6696018608
 30
0.0
 10
3.9767584602
 20
3.6696265772
 30
0.0
 10
3.976400767
 20
3.6696475308
 30
0.0
 10
3.9761082555
 20
3.6696645639
 30
0.0
 10
3.975904785
 20
3.669676647
 30
0.0
 10
3.9757751249
 20
3.6696839569
 30
0.0
 10
3.9757011403
 20
3.6696888614
 30
0.0
 10
3.9756463797
 20
3.6696905767
 30
0.0
 10
3.9756008999
 20
3.6696966032
 30
0.0
 10
3.9755849981
 20
3.6696916303
 30
0.0
 10
3.9755653791
 20
3.6696988879
 30
0.0
 10
3.9755662757
 20
3.6696963262
 30
0.0
  0
SPLINE
  5
3E2
100
AcDbEntity
  8
0
100
AcDbSpline
 62
9
  6
CONTINUOUS
 70
0
 71
3
 72
17
 73
13
 74
0
 42
0.0000001
 43
0.0000001
 44
0.0000000001
 40
0.0
 40
0.0
 40
0.0
 40
0.0
 40
0.048172609
 40
0.1019578849
 40
0.2233882265
 40
0.3582227621
 40
0.5000013735
 40
0.641779798
 40
0.7766138547
 40
0.8980432148
 40
0.9518278636
 40
1.0
 40
1.0
 40
1.0
 40
1.0
 10
4.3548284183
 20
3.6706040451
 30
0.0
 10
4.351248876
 20
3.6708349961
 30
0.0
 10
4.3436665519
 20
3.6712283478
 30
0.0
 10
4.3270429827
 20
3.6718211078
 30
0.0
 10
4.3039588356
 20
3.6722432909
 30
0.0
 10
4.2743208632
 20
3.6724666277
 30
0.0
 10
4.2431668965
 20
3.6725270813
 30
0.0
 10
4.2120129654
 20
3.6724666196
 30
0.0
 10
4.1823751158
 20
3.6722432762
 30
0.0
 10
4.1592911243
 20
3.6718210753
 30
0.0
 10
4.1426677111
 20
3.6712282907
 30
0.0
 10
4.1350854693
 20
3.6708349342
 30
0.0
 10
4.1315059621
 20
3.6706039855
 30
0.0
  0
SPLINE
  5
3E3
100
AcDbEntity
  8
0
100
AcDbSpline
 62
7
  6
CONTINUOUS
 70
0
 71
3
 72
13
 73
9
 74
0
 42
0.0000001
 43
0.0000001
 44
0.0000000001
 40
0.0
 40
0.0
 40
0.0
 40
0.0
 40
0.0436554654
 40
0.1100208836
 40
0.1996698401
 40
0.3128002752
 40
0.6097080429
 40
1.0
 40
1.0
 40
1.0
 40
1.0
 10
4.0401881797
 20
4.510825358
 30
0.0
 10
4.0402940265
 20
4.5108870721
 30
0.0
 10
4.0405880636
 20
4.5109912817
 30
0.0
 10
4.0411314202
 20
4.5111248423
 30
0.0
 10
4.041875508
 20
4.5112598386
 30
0.0
 10
4.0432633121
 20
4.5114609962
 30
0.0
 10
4.045497692
 20
4.5116989836
 30
0.0
 10
4.0474197145
 20
4.5118588717
 30
0.0
 10
4.0485119473
 20
4.5119421015
 30
0.0
  0
LINE
  5
3E4
100
AcDbEntity
  8
0
100
AcDbLine
 62
7
  6
CONTINUOUS
 10
4.0485119473
 20
4.5119421015
 11
4.0634398205
 21
4.51280473
  0
SPLINE
  5
3E5
100
AcDbEntity
  8
0
100
AcDbSpline
 62
7
  6
CONTINUOUS
 70
0
 71
3
 72
15
 73
11
 74
0
 42
0.0000001
 43
0.0000001
 44
0.0000000001
 40
0.0
 40
0.0
 40
0.0
 40
0.0
 40
0.0950966427
 40
0.2143849102
 40
0.3508229402
 40
0.4963447406
 40
0.6423622365
 40
0.7802278907
 40
0.9018660414
 40
1.0
 40
1.0
 40
1.0
 40
1.0
 10
4.0735074948
 20
4.5132360549
 30
0.0
 10
4.0841592392
 20
4.5136579176
 30
0.0
 10
4.1081793801
 20
4.5144285928
 30
0.0
 10
4.1474921314
 20
4.5154627286
 30
0.0
 10
4.1924590466
 20
4.5165044188
 30
0.0
 10
4.2404228058
 20
4.5175509991
 30
0.0
 10
4.2885466385
 20
4.5185974445
 30
0.0
 10
4.3339926647
 20
4.5196402323
 30
0.0
 10
4.3740695392
 20
4.5206762932
 30
0.0
 10
4.398693992
 20
4.5214418139
 30
0.0
 10
4.4096865244
 20
4.5218622741
 30
0.0
  0
SPLINE
  5
3E6
100
AcDbEntity
  8
0
100
AcDbSpline
 62
7
  6
CONTINUOUS
 70
0
 71
3
 72
10
 73
6
 74
0
 42
0.0000001
 43
0.0000001
 44
0.0000000001
 40
0.0
 40
0.0
 40
0.0
 40
0.0
 40
0.6956636535
 40
0.8884119965
 40
1.0
 40
1.0
 40
1.0
 40
1.0
 10
4.0410615707
 20
4.5102168234
 30
0.0
 10
4.0408028751
 20
4.5102731562
 30
0.0
 10
4.0404691651
 20
4.51035636
 30
0.0
 10
4.040127685
 20
4.5105143347
 30
0.0
 10
4.0400456134
 20
4.5106177044
 30
0.0
 10
4.0400459085
 20
4.5106601719
 30
0.0
  0
SPLINE
  5
3E7
100
AcDbEntity
  8
0
100
AcDbSpline
 62
7
  6
CONTINUOUS
 70
0
 71
3
 72
13
 73
9
 74
0
 42
0.0000001
 43
0.0000001
 44
0.0000000001
 40
0.0
 40
0.0
 40
0.0
 40
0.0
 40
0.0441753485
 40
0.110970988
 40
0.201006718
 40
0.3143986673
 40
0.6110110016
 40
1.0
 40
1.0
 40
1.0
 40
1.0
 10
4.4461401296
 20
4.5247278357
 30
0.0
 10
4.4460357306
 20
4.5247883881
 30
0.0
 10
4.4457473706
 20
4.5248913066
 30
0.0
 10
4.4452150303
 20
4.5250230205
 30
0.0
 10
4.4444880147
 20
4.5251558947
 30
0.0
 10
4.4431363358
 20
4.5253533581
 30
0.0
 10
4.4409652394
 20
4.5255871145
 30
0.0
 10
4.439098789
 20
4.5257442448
 30
0.0
 10
4.4380392034
 20
4.5258259659
 30
0.0
  0
SPLINE
  5
3E8
100
AcDbEntity
  8
0
100
AcDbSpline
 62
7
  6
CONTINUOUS
 70
0
 71
3
 72
13
 73
9
 74
0
 42
0.0000001
 43
0.0000001
 44
0.0000000001
 40
0.0
 40
0.0
 40
0.0
 40
0.0
 40
0.0449017448
 40
0.1120802222
 40
0.2021662226
 40
0.3153985383
 40
0.6115830526
 40
1.0
 40
1.0
 40
1.0
 40
1.0
 10
4.0401803891
 20
4.5386206766
 30
0.0
 10
4.0402734604
 20
4.5386766462
 30
0.0
 10
4.0405297685
 20
4.5387729289
 30
0.0
 10
4.0410023222
 20
4.538896163
 30
0.0
 10
4.041645313
 20
4.539020823
 30
0.0
 10
4.0428391226
 20
4.539206015
 30
0.0
 10
4.0447570683
 20
4.5394254372
 30
0.0
 10
4.0464063084
 20
4.5395729604
 30
0.0
 10
4.0473426355
 20
4.5396496979
 30
0.0
  0
LINE
  5
3E9
100
AcDbEntity
  8
0
100
AcDbLine
 62
7
  6
CONTINUOUS
 10
4.0473426355
 20
4.5396496979
 11
4.0616678379
 21
4.5405203598
  0
SPLINE
  5
3EA
100
AcDbEntity
  8
0
100
AcDbSpline
 62
7
  6
CONTINUOUS
 70
0
 71
3
 72
10
 73
6
 74
0
 42
0.0000001
 43
0.0000001
 44
0.0000000001
 40
0.0
 40
0.0
 40
0.0
 40
0.0
 40
0.1889077868
 40
0.4220009692
 40
1.0
 40
1.0
 40
1.0
 40
1.0
 10
4.0616678379
 20
4.5405203598
 30
0.0
 10
4.0667956904
 20
4.540769142
 30
0.0
 10
4.0782548912
 20
4.5412393398
 30
0.0
 10
4.1054161774
 20
4.5421555071
 30
0.0
 10
4.1274514936
 20
4.5427393878
 30
0.0
 10
4.1431546636
 20
4.5431323728
 30
0.0
  0
LINE
  5
3EB
100
AcDbEntity
  8
0
100
AcDbLine
 62
7
  6
CONTINUOUS
 10
4.1796525925
 20
4.5440030008
 11
4.2186003703
 21
4.5448738148
  0
SPLINE
  5
3EC
100
AcDbEntity
  8
0
100
AcDbSpline
 62
7
  6
CONTINUOUS
 70
0
 71
3
 72
11
 73
7
 74
0
 42
0.0000001
 43
0.0000001
 44
0.0000000001
 40
0.0
 40
0.0
 40
0.0
 40
0.0
 40
0.2916585907
 40
0.5640828728
 40
0.8042033446
 40
1.0
 40
1.0
 40
1.0
 40
1.0
 10
4.2584968252
 20
4.5457443853
 30
0.0
 10
4.2731969646
 20
4.5460653117
 30
0.0
 10
4.3016277101
 20
4.5466896295
 30
0.0
 10
4.3421595176
 20
4.5476463414
 30
0.0
 10
4.3778572469
 20
4.5485882109
 30
0.0
 10
4.3998232911
 20
4.5492740745
 30
0.0
 10
4.4096865244
 20
4.5496622741
 30
0.0
  0
SPLINE
  5
3ED
100
AcDbEntity
  8
0
100
AcDbSpline
 62
7
  6
CONTINUOUS
 70
0
 71
3
 72
17
 73
13
 74
0
 42
0.0000001
 43
0.0000001
 44
0.0000000001
 40
0.0
 40
0.0
 40
0.0
 40
0.0
 40
0.012988651
 40
0.0324855563
 40
0.0586346236
 40
0.0914756561
 40
0.1772386246
 40
0.2896930625
 40
0.428668449
 40
0.5937836241
 40
0.7844345809
 40
1.0
 40
1.0
 40
1.0
 40
1.0
 10
4.4461711887
 20
4.0067485598
 30
0.0
 10
4.446086218
 20
4.0067003528
 30
0.0
 10
4.4458537065
 20
4.0066181824
 30
0.0
 10
4.4454260176
 20
4.0065128862
 30
0.0
 10
4.4448447309
 20
4.0064065558
 30
0.0
 10
4.4437675517
 20
4.0062487049
 30
0.0
 10
4.4420391731
 20
4.006061591
 30
0.0
 10
4.4395120385
 20
4.0058478744
 30
0.0
 10
4.4363862754
 20
4.0056328814
 30
0.0
 10
4.4326713991
 20
4.0054163561
 30
0.0
 10
4.4283796423
 20
4.005198993
 30
0.0
 10
4.4253273837
 20
4.0050619411
 30
0.0
 10
4.4237075088
 20
4.0049926424
 30
0.0
  0
LINE
  5
3EE
100
AcDbEntity
  8
0
100
AcDbLine
 62
7
  6
CONTINUOUS
 10
4.4237075088
 20
4.0049926424
 11
4.3901668931
 21
4.0038559181
  0
LINE
  5
3EF
100
AcDbEntity
  8
0
100
AcDbLine
 62
7
  6
CONTINUOUS
 10
4.3761793532
 20
4.0034772049
 11
4.3609830751
 21
4.0030984438
  0
LINE
  5
3F0
100
AcDbEntity
  8
0
100
AcDbLine
 62
7
  6
CONTINUOUS
 10
4.2334948779
 20
4.0004469379
 11
4.2142523527
 21
4.0000681424
  0
LINE
  5
3F1
100
AcDbEntity
  8
0
100
AcDbLine
 62
7
  6
CONTINUOUS
 10
4.2142523527
 20
4.0000681424
 11
4.1952725142
 21
3.999689341
  0
LINE
  5
3F2
100
AcDbEntity
  8
0
100
AcDbLine
 62
7
  6
CONTINUOUS
 10
4.1253393497
 20
3.9981742809
 11
4.1101440046
 21
3.997795434
  0
LINE
  5
3F3
100
AcDbEntity
  8
0
100
AcDbLine
 62
7
  6
CONTINUOUS
 10
4.1101440046
 20
3.997795434
 11
4.1077117414
 21
3.9977319204
  0
SPLINE
  5
3F4
100
AcDbEntity
  8
0
100
AcDbSpline
 62
7
  6
CONTINUOUS
 70
0
 71
3
 72
11
 73
7
 74
0
 42
0.0000001
 43
0.0000001
 44
0.0000000001
 40
0.0
 40
0.0
 40
0.0
 40
0.0
 40
0.3256077419
 40
0.6032737377
 40
0.8290697373
 40
1.0
 40
1.0
 40
1.0
 40
1.0
 10
4.0960171237
 20
3.9974125151
 30
0.0
 10
4.090832531
 20
3.9972651054
 30
0.0
 10
4.0812271496
 20
3.9969765741
 30
0.0
 10
4.0680286061
 20
3.99651555
 30
0.0
 10
4.0572957738
 20
3.9960581161
 30
0.0
 10
4.0509851632
 20
3.9957124792
 30
0.0
 10
4.0482689923
 20
3.995522721
 30
0.0
  0
LINE
  5
3F5
100
AcDbEntity
  8
0
100
AcDbLine
 62
7
  6
CONTINUOUS
 10
4.0482689923
 20
3.995522721
 11
4.0409681387
 21
3.9947625262
  0
LINE
  5
3F6
100
AcDbEntity
  8
0
100
AcDbLine
 62
7
  6
CONTINUOUS
 10
4.0409681387
 20
3.9947625262
 11
4.0400427019
 21
3.9943864755
  0
SPLINE
  5
3F7
100
AcDbEntity
  8
0
100
AcDbSpline
 62
7
  6
CONTINUOUS
 70
0
 71
3
 72
12
 73
8
 74
0
 42
0.0000001
 43
0.0000001
 44
0.0000000001
 40
0.0
 40
0.0
 40
0.0
 40
0.0
 40
0.046993748
 40
0.1157667318
 40
0.3203748108
 40
0.6151343361
 40
1.0
 40
1.0
 40
1.0
 40
1.0
 10
4.4309475844
 20
3.9979628718
 30
0.0
 10
4.4308666976
 20
3.9979168987
 30
0.0
 10
4.4306501096
 20
3.9978364231
 30
0.0
 10
4.4300365629
 20
3.997677157
 30
0.0
 10
4.428923866
 20
3.9974974258
 30
0.0
 10
4.4271862622
 20
3.9972895566
 30
0.0
 10
4.4258459346
 20
3.99716685
 30
0.0
 10
4.4250866816
 20
3.9971026683
 30
0.0
  0
SPLINE
  5
3F8
100
AcDbEntity
  8
0
100
AcDbSpline
 62
7
  6
CONTINUOUS
 70
0
 71
3
 72
11
 73
7
 74
0
 42
0.0000001
 43
0.0000001
 44
0.0000000001
 40
0.0
 40
0.0
 40
0.0
 40
0.0
 40
0.162870116
 40
0.3861532853
 40
0.6666598836
 40
1.0
 40
1.0
 40
1.0
 40
1.0
 10
4.4250866816
 20
3.9971026683
 30
0.0
 10
4.4226666082
 20
3.9968980932
 30
0.0
 10
4.4169189603
 20
3.9965343286
 30
0.0
 10
4.4069893965
 20
3.9960553504
 30
0.0
 10
4.3945152951
 20
3.9955729082
 30
0.0
 10
4.3853665962
 20
3.9952723702
 30
0.0
 10
4.3803982433
 20
3.9951183964
 30
0.0
  0
LINE
  5
3F9
100
AcDbEntity
  8
0
100
AcDbLine
 62
7
  6
CONTINUOUS
 10
4.3803982433
 20
3.9951183964
 11
4.3779494128
 21
3.9950432566
  0
LINE
  5
3FA
100
AcDbEntity
  8
0
100
AcDbLine
 62
7
  6
CONTINUOUS
 10
4.2657117193
 20
3.9923391982
 11
4.2470105325
 21
3.991942099
  0
LINE
  5
3FB
100
AcDbEntity
  8
0
100
AcDbLine
 62
7
  6
CONTINUOUS
 10
4.2282687993
 20
3.9915449767
 11
4.2096771677
 21
3.9911478758
  0
SPLINE
  5
3FC
100
AcDbEntity
  8
0
100
AcDbSpline
 62
7
  6
CONTINUOUS
 70
0
 71
3
 72
19
 73
15
 74
0
 42
0.0000001
 43
0.0000001
 44
0.0000000001
 40
0.0
 40
0.0
 40
0.0
 40
0.0
 40
0.2279734943
 40
0.4281127622
 40
0.5993814674
 40
0.7409934038
 40
0.8004378916
 40
0.852182518
 40
0.8961374633
 40
0.9322455168
 40
0.9605176403
 40
0.9810053721
 40
0.9938752442
 40
1.0
 40
1.0
 40
1.0
 40
1.0
 10
4.0873479739
 20
3.9879707244
 30
0.0
 10
4.0848973715
 20
3.9878779483
 30
0.0
 10
4.0802956974
 20
3.9876949265
 30
0.0
 10
4.0738545432
 20
3.9874038615
 30
0.0
 10
4.0683434888
 20
3.9871137748
 30
0.0
 10
4.064346048
 20
3.9868614949
 30
0.0
 10
4.061634573
 20
3.9866545545
 30
0.0
 10
4.0599717267
 20
3.9865086789
 30
0.0
 10
4.0585619511
 20
3.9863642902
 30
0.0
 10
4.0574033133
 20
3.986218426
 30
0.0
 10
4.0565066565
 20
3.9860806291
 30
0.0
 10
4.055845429
 20
3.9859312805
 30
0.0
 10
4.0554641643
 20
3.9858189069
 30
0.0
 10
4.0552586542
 20
3.9856785979
 30
0.0
 10
4.0552571889
 20
3.9856127289
 30
0.0
  0
SPLINE
  5
3FD
100
AcDbEntity
  8
0
100
AcDbSpline
 62
7
  6
CONTINUOUS
 70
0
 71
3
 72
13
 73
9
 74
0
 42
0.0000001
 43
0.0000001
 44
0.0000000001
 40
0.0
 40
0.0
 40
0.0
 40
0.0
 40
0.0422603166
 40
0.1077763452
 40
0.1970196738
 40
0.3100953402
 40
0.607657692
 40
1.0
 40
1.0
 40
1.0
 40
1.0
 10
4.4461692993
 20
3.9817463181
 30
0.0
 10
4.4460689527
 20
3.9816894607
 30
0.0
 10
4.445786612
 20
3.9815961789
 30
0.0
 10
4.4452634408
 20
3.9814766508
 30
0.0
 10
4.4445415343
 20
3.9813564563
 30
0.0
 10
4.4431892998
 20
3.9811771675
 30
0.0
 10
4.4410073261
 20
3.9809657333
 30
0.0
 10
4.4391298831
 20
3.9808238331
 30
0.0
 10
4.4380616733
 20
3.9807499006
 30
0.0
  0
LINE
  5
3FE
100
AcDbEntity
  8
0
100
AcDbLine
 62
7
  6
CONTINUOUS
 10
4.4380616733
 20
3.9807499006
 11
4.4237075084
 21
3.9799930099
  0
LINE
  5
3FF
100
AcDbEntity
  8
0
100
AcDbLine
 62
7
  6
CONTINUOUS
 10
4.4237075084
 20
3.9799930099
 11
4.3901668934
 21
3.9788558198
  0
LINE
  5
400
100
AcDbEntity
  8
0
100
AcDbLine
 62
7
  6
CONTINUOUS
 10
4.3761793532
 20
3.9784772049
 11
4.3609830748
 21
3.9780984823
  0
LINE
  5
401
100
AcDbEntity
  8
0
100
AcDbLine
 62
7
  6
CONTINUOUS
 10
4.233494878
 20
3.9754469309
 11
4.2142523527
 21
3.9750681424
  0
LINE
  5
402
100
AcDbEntity
  8
0
100
AcDbLine
 62
7
  6
CONTINUOUS
 10
4.2142523527
 20
3.9750681424
 11
4.1952725139
 21
3.9746893626
  0
LINE
  5
403
100
AcDbEntity
  8
0
100
AcDbLine
 62
7
  6
CONTINUOUS
 10
4.1416003008
 20
3.9735529539
 11
4.1253393505
 21
3.9731741574
  0
LINE
  5
404
100
AcDbEntity
  8
0
100
AcDbLine
 62
7
  6
CONTINUOUS
 10
4.1253393505
 20
3.9731741574
 11
4.1101440046
 21
3.972795434
  0
LINE
  5
405
100
AcDbEntity
  8
0
100
AcDbLine
 62
7
  6
CONTINUOUS
 10
4.1101440046
 20
3.972795434
 11
4.1077117402
 21
3.9727319651
  0
LINE
  5
406
100
AcDbEntity
  8
0
100
AcDbLine
 62
7
  6
CONTINUOUS
 10
4.0626201709
 20
3.9712796183
 11
4.0482689923
 21
3.970522721
  0
LINE
  5
407
100
AcDbEntity
  8
0
100
AcDbLine
 62
7
  6
CONTINUOUS
 10
4.0482689923
 20
3.970522721
 11
4.0437194444
 21
3.9701464768
  0
LINE
  5
408
100
AcDbEntity
  8
0
100
AcDbLine
 62
7
  6
CONTINUOUS
 10
4.0437194444
 20
3.9701464768
 11
4.0409681386
 21
3.9697689544
  0
LINE
  5
409
100
AcDbEntity
  8
0
100
AcDbLine
 62
7
  6
CONTINUOUS
 10
4.0409681386
 20
3.9697689544
 11
4.0400427019
 21
3.9693864755
  0
ENDSEC
  0
SECTION
  2
OBJECTS
  0
DICTIONARY
  5
C
100
AcDbDictionary
280
0
281
1
  3
ACAD_GROUP
350
D
  3
ACAD_MLINESTYLE
350
17
  3
ACAD_LAYOUT
350
1A
  3
ACAD_PLOTSETTINGS
350
19
  3
ACAD_PLOTSTYLENAME
350
E
  0
DICTIONARY
  5
D
102
{ACAD_REACTORS
330
C
102
}
100
AcDbDictionary
280
0
281
1
  0
ACDBDICTIONARYWDFLT
  5
E
102
{ACAD_REACTORS
330
C
102
}
100
AcDbDictionary
281
1
  3
Normal
350
F
100
AcDbDictionaryWithDefault
340
F
  0
DICTIONARY
  5
17
102
{ACAD_REACTORS
330
C
102
}
100
AcDbDictionary
280
0
281
1
  3
Standard
350
18
  0
DICTIONARY
  5
19
102
{ACAD_REACTORS
330
C
102
}
100
AcDbDictionary
281
1
  0
DICTIONARY
  5
1A
102
{ACAD_REACTORS
330
C
102
}
100
AcDbDictionary
281
1
  3
Model
350
40A
  3
Layout1
350
40B
  0
ACDBPLACEHOLDER
  5
F
102
{ACAD_REACTORS
330
E
102
}
  0
MLINESTYLE
  5
18
102
{ACAD_REACTORS
330
17
102
}
100
AcDbMlineStyle
  2
STANDARD
 70
0
  3

 62
256
 51
90.0
 52
90.0
 71
2
 49
0.5
 62
256
  6
BYLAYER
 49
-0.5
 62
256
  6
BYLAYER
  0
LAYOUT
  5
40A
102
{ACAD_REACTORS
330
1A
102
}
100
AcDbPlotSettings
  1

  2
none_device
  4

  6

 40
0.0
 41
0.0
 42
0.0
 43
0.0
 44
215.9
 45
279.4
 46
0.0
 47
0.0
 48
0.0
 49
0.0
140
0.0
141
0.0
142
1.0
143
1.0
 70
1024
 72
0
 73
0
 74
0
  7

 75
0
147
1.0
148
0.0
149
0.0
100
AcDbLayout
  1
Model
 70
0
 71
0
 10
0.0
 20
0.0
 11
8.5
 21
11.0
 12
0.0
 22
0.0
 32
0.0
 14
0.0
 24
0.0
 34
0.0
 15
0.0
 25
0.0
 35
0.0
146
0.0
 13
0.0
 23
0.0
 33
0.0
 16
1.0
 26
0.0
 36
0.0
 17
0.0
 27
1.0
 37
0.0
 76
0
330
228
345
0
346
0
  0
LAYOUT
  5
40B
102
{ACAD_REACTORS
330
1A
102
}
100
AcDbPlotSettings
  1

  2
none_device
  4

  6

 40
0.0
 41
0.0
 42
0.0
 43
0.0
 44
215.9
 45
279.4
 46
0.0
 47
0.0
 48
0.0
 49
0.0
140
0.0
141
0.0
142
1.0
143
1.0
 70
0
 72
0
 73
0
 74
0
  7

 75
0
147
1.0
148
0.0
149
0.0
100
AcDbLayout
  1
Layout1
 70
0
 71
1
 10
0.0
 20
0.0
 11
8.5
 21
11.0
 12
0.0
 22
0.0
 32
0.0
 14
0.0
 24
0.0
 34
0.0
 15
0.0
 25
0.0
 35
0.0
146
0.0
 13
0.0
 23
0.0
 33
0.0
 16
1.0
 26
0.0
 36
0.0
 17
0.0
 27
1.0
 37
0.0
 76
0
330
229
345
0
346
0
  0
ENDSEC
  0
EOF
