999
DXF file: C:\Prowork\plots\482x_right.dxf
999
Pro/ENGINEER 2018500 by Parametric Technology Corporation
  0
SECTION
  2
HEADER
  9
$ACADVER
  1
AC1032
  9
$DWGCODEPAGE
  3
ANSI_1252
  9
$EXTMAX
 10
8.5
 20
11.0
 30
0.0
  9
$EXTMIN
 10
0.0
 20
0.0
 30
0.0
  9
$LIMMIN
 10
0.0
 20
0.0
  9
$LIMMAX
 10
8.5
 20
11.0
  9
$VIEWCTR
 10
4.25
 20
5.5
  9
$VIEWSIZE
 40
11.0
  9
$CLAYER
  8
0
  9
$LTSCALE
 40
0.717037037
  9
$CELTYPE
  6
BYLAYER
  9
$DIMSCALE
 40
1.0
  9
$DIMASZ
 40
0.1
  9
$DIMEXO
 40
0.0625
  9
$DIMDLI
 40
0.4954074074
  9
$DIMEXE
 40
0.125
  9
$DIMCEN
 40
0.1173333333
  9
$DIMLFAC
 40
1.0
  9
$DIMBLK
  1
_FILLED
  9
$DIMALT
 70
1
  9
$DIMALTD
 70
2
  9
$DIMALTTD
 70
2
  9
$DIMALTF
 40
25.4
  9
$DIMTXT
 40
0.08
  9
$DIMTOL
 70
1
  9
$DIMLIM
 70
0
  9
$DIMTFAC
 40
1.0
  9
$DIMTP
 40
0.001
  9
$DIMTM
 40
0.001
  9
$DIMGAP
 40
0.09
  9
$DIMDSEP
 70
46
  9
$AUNITS
 70
0
  9
$PDMODE
 70
3
  9
$PDSIZE
 40
0.06
  9
$HANDSEED
  5
4F3
  9
$TILEMODE
 70
1
  9
$MEASUREMENT
 70
0
  9
$INSUNITS
 70
1
  0
ENDSEC
  0
SECTION
  2
CLASSES
  0
CLASS
  1
ACDBDICTIONARYWDFLT
  2
AcDbDictionaryWithDefault
  3
AutoCAD 2000
 90
0
 91
1
280
0
281
0
  0
CLASS
  1
ACDBPLACEHOLDER
  2
AcDbPlaceHolder
  3
AutoCAD 2000
 90
0
 91
1
280
0
281
0
  0
CLASS
  1
LAYOUT
  2
AcDbLayout
  3
AutoCAD 2000
 90
0
 91
0
280
0
281
0
  0
ENDSEC
  0
SECTION
  2
TABLES
  0
TABLE
  2
VPORT
  5
8
100
AcDbSymbolTable
 70
2
  0
VPORT
  5
1F4
100
AcDbSymbolTableRecord
100
AcDbViewportTableRecord
  2
*ACTIVE
 70
0
 10
0.0
 20
0.0
 11
1.0
 21
1.0
 12
4.25
 22
5.5
 13
0.0
 23
0.0
 14
1.0
 24
1.0
 15
0.0
 25
0.0
 16
0.0
 26
0.0
 36
1.0
 17
0.0
 27
0.0
 37
0.0
 40
11.0
 41
0.7727272727
 42
50.0
 43
0.0
 44
0.0
 50
0.0
 51
0.0
 71
0
 72
100
 73
1
 74
1
 75
0
 76
0
 77
0
 78
0
  0
ENDTAB
  0
TABLE
  2
LTYPE
  5
5
100
AcDbSymbolTable
 70
6
  0
LTYPE
  5
14
100
AcDbSymbolTableRecord
100
AcDbLinetypeTableRecord
  2
BYBLOCK
 70
0
  3

 72
65
 73
0
 40
0.0
  0
LTYPE
  5
15
100
AcDbSymbolTableRecord
100
AcDbLinetypeTableRecord
  2
BYLAYER
 70
0
  3

 72
65
 73
0
 40
0.0
  0
LTYPE
  5
16
100
AcDbSymbolTableRecord
100
AcDbLinetypeTableRecord
  2
CONTINUOUS
 70
64
  3
Solid line
 72
65
 73
0
 40
0.0
  0
LTYPE
  5
1F5
100
AcDbSymbolTableRecord
100
AcDbLinetypeTableRecord
  2
CENTER
 70
64
  3
____ _ ____ _ ____ _ ____ _ ____ _ ____ _ ____
 72
65
 73
4
 40
0.6
 49
0.375
 74
0
 49
-0.075
 74
0
 49
0.075
 74
0
 49
-0.075
 74
0
  0
LTYPE
  5
1F6
100
AcDbSymbolTableRecord
100
AcDbLinetypeTableRecord
  2
HIDDEN
 70
64
  3
- - - - - - - - - - - - - - - - - - - -
 72
65
 73
2
 40
0.2
 49
0.1
 74
0
 49
-0.1
 74
0
  0
LTYPE
  5
1F7
100
AcDbSymbolTableRecord
100
AcDbLinetypeTableRecord
  2
PHANTOM
 70
64
  3
_____ _ _ _____ _ _ _____ _ _ _____
 72
65
 73
6
 40
0.8
 49
0.45
 74
0
 49
-0.05
 74
0
 49
0.1
 74
0
 49
-0.05
 74
0
 49
0.1
 74
0
 49
-0.05
 74
0
  0
LTYPE
  5
1F8
100
AcDbSymbolTableRecord
100
AcDbLinetypeTableRecord
  2
DOT
 70
64
  3
. . . . . . . . . . . . . . . . . . . .
 72
65
 73
2
 40
0.2
 49
0.1
 74
0
 49
-0.1
 74
0
  0
LTYPE
  5
1F9
100
AcDbSymbolTableRecord
100
AcDbLinetypeTableRecord
  2
DASHED
 70
64
  3
- - - - - - - - - - - - - - - - - - - -
 72
65
 73
2
 40
0.2
 49
0.1
 74
0
 49
-0.1
 74
0
  0
ENDTAB
  0
TABLE
  2
LAYER
  5
2
100
AcDbSymbolTable
 70
36
  0
LAYER
  5
10
100
AcDbSymbolTableRecord
100
AcDbLayerTableRecord
  2
0
 70
0
 62
7
  6
CONTINUOUS
370
-3
390
F
  0
LAYER
  5
1FA
100
AcDbSymbolTableRecord
100
AcDbLayerTableRecord
  2
DEFAULT_1
 70
0
 62
7
  6
CENTER
370
-3
390
F
  0
LAYER
  5
1FB
100
AcDbSymbolTableRecord
100
AcDbLayerTableRecord
  2
DEFAULT_2
 70
0
 62
8
  6
HIDDEN
370
-3
390
F
  0
LAYER
  5
1FC
100
AcDbSymbolTableRecord
100
AcDbLayerTableRecord
  2
DEFAULT_3
 70
0
 62
7
  6
PHANTOM
370
-3
390
F
  0
LAYER
  5
1FD
100
AcDbSymbolTableRecord
100
AcDbLayerTableRecord
  2
403X
 70
0
 62
7
  6
CONTINUOUS
370
-3
390
F
  0
LAYER
  5
1FE
100
AcDbSymbolTableRecord
100
AcDbLayerTableRecord
  2
436
 70
0
 62
7
  6
CONTINUOUS
370
-3
390
F
  0
LAYER
  5
1FF
100
AcDbSymbolTableRecord
100
AcDbLayerTableRecord
  2
441
 70
0
 62
7
  6
CONTINUOUS
370
-3
390
F
  0
LAYER
  5
200
100
AcDbSymbolTableRecord
100
AcDbLayerTableRecord
  2
50350
 70
0
 62
7
  6
CONTINUOUS
370
-3
390
F
  0
LAYER
  5
201
100
AcDbSymbolTableRecord
100
AcDbLayerTableRecord
  2
50356
 70
0
 62
7
  6
CONTINUOUS
370
-3
390
F
  0
LAYER
  5
202
100
AcDbSymbolTableRecord
100
AcDbLayerTableRecord
  2
50359
 70
0
 62
7
  6
CONTINUOUS
370
-3
390
F
  0
LAYER
  5
203
100
AcDbSymbolTableRecord
100
AcDbLayerTableRecord
  2
50362
 70
0
 62
7
  6
CONTINUOUS
370
-3
390
F
  0
LAYER
  5
204
100
AcDbSymbolTableRecord
100
AcDbLayerTableRecord
  2
50392
 70
0
 62
7
  6
CONTINUOUS
370
-3
390
F
  0
LAYER
  5
205
100
AcDbSymbolTableRecord
100
AcDbLayerTableRecord
  2
50663
 70
0
 62
7
  6
CONTINUOUS
370
-3
390
F
  0
LAYER
  5
206
100
AcDbSymbolTableRecord
100
AcDbLayerTableRecord
  2
50664
 70
0
 62
7
  6
CONTINUOUS
370
-3
390
F
  0
LAYER
  5
207
100
AcDbSymbolTableRecord
100
AcDbLayerTableRecord
  2
50668
 70
0
 62
7
  6
CONTINUOUS
370
-3
390
F
  0
LAYER
  5
208
100
AcDbSymbolTableRecord
100
AcDbLayerTableRecord
  2
50675
 70
0
 62
7
  6
CONTINUOUS
370
-3
390
F
  0
LAYER
  5
209
100
AcDbSymbolTableRecord
100
AcDbLayerTableRecord
  2
50677
 70
0
 62
7
  6
CONTINUOUS
370
-3
390
F
  0
LAYER
  5
20A
100
AcDbSymbolTableRecord
100
AcDbLayerTableRecord
  2
50678
 70
0
 62
7
  6
CONTINUOUS
370
-3
390
F
  0
LAYER
  5
20B
100
AcDbSymbolTableRecord
100
AcDbLayerTableRecord
  2
50851
 70
0
 62
7
  6
CONTINUOUS
370
-3
390
F
  0
LAYER
  5
20C
100
AcDbSymbolTableRecord
100
AcDbLayerTableRecord
  2
6-403
 70
0
 62
7
  6
CONTINUOUS
370
-3
390
F
  0
LAYER
  5
20D
100
AcDbSymbolTableRecord
100
AcDbLayerTableRecord
  2
91203
 70
0
 62
7
  6
CONTINUOUS
370
-3
390
F
  0
LAYER
  5
20E
100
AcDbSymbolTableRecord
100
AcDbLayerTableRecord
  2
92000
 70
0
 62
7
  6
CONTINUOUS
370
-3
390
F
  0
LAYER
  5
20F
100
AcDbSymbolTableRecord
100
AcDbLayerTableRecord
  2
ALL_FEATURES_3
 70
0
 62
7
  6
CONTINUOUS
370
-3
390
F
  0
LAYER
  5
210
100
AcDbSymbolTableRecord
100
AcDbLayerTableRecord
  2
DEFAULT_COORDINATE_SYSTEM
 70
0
 62
7
  6
CONTINUOUS
370
-3
390
F
  0
LAYER
  5
211
100
AcDbSymbolTableRecord
100
AcDbLayerTableRecord
  2
DEFAULT_DATUM_AXES
 70
0
 62
7
  6
CONTINUOUS
370
-3
390
F
  0
LAYER
  5
212
100
AcDbSymbolTableRecord
100
AcDbLayerTableRecord
  2
DEFAULT_DATUM_PLANES
 70
0
 62
7
  6
CONTINUOUS
370
-3
390
F
  0
LAYER
  5
213
100
AcDbSymbolTableRecord
100
AcDbLayerTableRecord
  2
DEFAULT_SURFACES
 70
0
 62
7
  6
CONTINUOUS
370
-3
390
F
  0
LAYER
  5
214
100
AcDbSymbolTableRecord
100
AcDbLayerTableRecord
  2
INTF_50350
 70
0
 62
7
  6
CONTINUOUS
370
-3
390
F
  0
LAYER
  5
215
100
AcDbSymbolTableRecord
100
AcDbLayerTableRecord
  2
INTF_50356
 70
0
 62
7
  6
CONTINUOUS
370
-3
390
F
  0
LAYER
  5
216
100
AcDbSymbolTableRecord
100
AcDbLayerTableRecord
  2
INTF_50359
 70
0
 62
7
  6
CONTINUOUS
370
-3
390
F
  0
LAYER
  5
217
100
AcDbSymbolTableRecord
100
AcDbLayerTableRecord
  2
INTF_50362
 70
0
 62
7
  6
CONTINUOUS
370
-3
390
F
  0
LAYER
  5
218
100
AcDbSymbolTableRecord
100
AcDbLayerTableRecord
  2
INTF_50392
 70
0
 62
7
  6
CONTINUOUS
370
-3
390
F
  0
LAYER
  5
219
100
AcDbSymbolTableRecord
100
AcDbLayerTableRecord
  2
INTF_50663
 70
0
 62
7
  6
CONTINUOUS
370
-3
390
F
  0
LAYER
  5
21A
100
AcDbSymbolTableRecord
100
AcDbLayerTableRecord
  2
INTF_50664
 70
0
 62
7
  6
CONTINUOUS
370
-3
390
F
  0
LAYER
  5
21B
100
AcDbSymbolTableRecord
100
AcDbLayerTableRecord
  2
INTF_50668
 70
0
 62
7
  6
CONTINUOUS
370
-3
390
F
  0
LAYER
  5
21C
100
AcDbSymbolTableRecord
100
AcDbLayerTableRecord
  2
INTF_50675
 70
0
 62
7
  6
CONTINUOUS
370
-3
390
F
  0
LAYER
  5
21D
100
AcDbSymbolTableRecord
100
AcDbLayerTableRecord
  2
INTF_50677
 70
0
 62
7
  6
CONTINUOUS
370
-3
390
F
  0
LAYER
  5
21E
100
AcDbSymbolTableRecord
100
AcDbLayerTableRecord
  2
INTF_50678
 70
0
 62
7
  6
CONTINUOUS
370
-3
390
F
  0
LAYER
  5
21F
100
AcDbSymbolTableRecord
100
AcDbLayerTableRecord
  2
INTF_50851
 70
0
 62
7
  6
CONTINUOUS
370
-3
390
F
  0
LAYER
  5
220
100
AcDbSymbolTableRecord
100
AcDbLayerTableRecord
  2
INTF_91203
 70
0
 62
7
  6
CONTINUOUS
370
-3
390
F
  0
LAYER
  5
221
100
AcDbSymbolTableRecord
100
AcDbLayerTableRecord
  2
INTF_92000
 70
0
 62
7
  6
CONTINUOUS
370
-3
390
F
  0
LAYER
  5
222
100
AcDbSymbolTableRecord
100
AcDbLayerTableRecord
  2
INTF_BLANK
 70
0
 62
7
  6
CONTINUOUS
370
-3
390
F
  0
LAYER
  5
223
100
AcDbSymbolTableRecord
100
AcDbLayerTableRecord
  2
PLATED_SURFACE
 70
0
 62
7
  6
CONTINUOUS
370
-3
390
F
  0
LAYER
  5
224
100
AcDbSymbolTableRecord
100
AcDbLayerTableRecord
  2
PLATED_SURFACE_1
 70
0
 62
7
  6
CONTINUOUS
370
-3
390
F
  0
LAYER
  5
225
100
AcDbSymbolTableRecord
100
AcDbLayerTableRecord
  2
QUILT
 70
0
 62
7
  6
CONTINUOUS
370
-3
390
F
  0
LAYER
  5
226
100
AcDbSymbolTableRecord
100
AcDbLayerTableRecord
  2
WETTED_SURFACE
 70
0
 62
7
  6
CONTINUOUS
370
-3
390
F
  0
LAYER
  5
227
100
AcDbSymbolTableRecord
100
AcDbLayerTableRecord
  2
_BLACK_HOLE
 70
0
 62
7
  6
CONTINUOUS
370
-3
390
F
  0
ENDTAB
  0
TABLE
  2
STYLE
  5
3
100
AcDbSymbolTable
 70
1
  0
STYLE
  5
11
100
AcDbSymbolTableRecord
100
AcDbTextStyleTableRecord
  2
STANDARD
 70
0
 40
0.0
 41
0.8
 50
0.0
 71
0
 42
0.2
  3
txt
  4

  0
STYLE
  5
228
100
AcDbSymbolTableRecord
100
AcDbTextStyleTableRecord
  2
TEXTSTYLE_1
 70
0
 40
0.0
 41
0.8
 50
0.0
 71
0
 42
0.2
  3
gdt
  4

  0
ENDTAB
  0
TABLE
  2
VIEW
  5
6
100
AcDbSymbolTable
 70
0
  0
ENDTAB
  0
TABLE
  2
UCS
  5
7
100
AcDbSymbolTable
 70
0
  0
ENDTAB
  0
TABLE
  2
APPID
  5
9
100
AcDbSymbolTable
 70
1
  0
APPID
  5
229
100
AcDbSymbolTableRecord
100
AcDbRegAppTableRecord
  2
ACAD
 70
0
  0
ENDTAB
  0
TABLE
  2
BLOCK_RECORD
  5
1
100
AcDbSymbolTable
 70
0
  0
BLOCK_RECORD
  5
22A
100
AcDbSymbolTableRecord
100
AcDbBlockTableRecord
  2
*Model_Space
  0
BLOCK_RECORD
  5
22B
100
AcDbSymbolTableRecord
100
AcDbBlockTableRecord
  2
*Paper_Space
  0
BLOCK_RECORD
  5
22C
100
AcDbSymbolTableRecord
100
AcDbBlockTableRecord
  2
_FILLED
  0
ENDTAB
  0
TABLE
  2
DIMSTYLE
  5
A
100
AcDbSymbolTable
 70
1
100
AcDbDimStyleTable
 71
0
  0
DIMSTYLE
105
22D
100
AcDbSymbolTableRecord
100
AcDbDimStyleTableRecord
  2
STANDARD
 70
0
  3

  4

 40
1.0
 41
0.1
 42
0.0625
 43
0.38
 44
0.125
 45
0.0
 46
0.0
 47
0.001
 48
0.001
140
0.08
141
0.09
142
0.0
143
25.4
144
1.0
145
0.0
146
1.0
147
0.09
 71
1.0
 72
0.0
 73
1
 74
1
 75
0
 76
0
 77
0
 78
4
 79
1
170
1
171
2
172
0
173
0
174
0
175
0
176
0
177
0
178
0
270
2
179
3
271
3
272
3
273
2
274
2
275
0
280
0
281
0
282
0
283
1
284
4
285
0
286
0
287
3
288
0
340
11
278
46
341
22C
342
22C
343
22C
344
22C
  0
ENDTAB
  0
ENDSEC
  0
SECTION
  2
BLOCKS
  0
BLOCK
  5
20
100
AcDbEntity
  8
0
100
AcDbBlockBegin
  2
*Model_Space
 70
0
 10
0.0
 20
0.0
 30
0.0
  3
*Model_Space
  1

  0
ENDBLK
  5
21
100
AcDbEntity
  8
0
100
AcDbBlockEnd
  0
BLOCK
  5
1C
100
AcDbEntity
  8
0
100
AcDbBlockBegin
  2
*Paper_Space
 70
0
 10
0.0
 20
0.0
 30
0.0
  3
*Paper_Space
  1

  0
ENDBLK
  5
1D
100
AcDbEntity
  8
0
100
AcDbBlockEnd
  0
BLOCK
  5
22E
100
AcDbEntity
  8
0
100
AcDbBlockBegin
  2
_FILLED
 70
64
 10
0.0
 20
0.0
  3
_FILLED
  1

  0
SOLID
  5
22F
100
AcDbEntity
  8
0
  6
BYBLOCK
 62
0
100
AcDbTrace
 10
0.0
 20
0.0
 11
-1.0
 21
0.2
 12
-1.0
 22
-0.2
 13
-1.0
 23
-0.2
  0
ENDBLK
  5
230
100
AcDbEntity
  8
0
  6
BYBLOCK
 62
0
100
AcDbBlockEnd
  0
ENDSEC
  0
SECTION
  2
ENTITIES
  0
MTEXT
  5
231
100
AcDbEntity
  8
0
100
AcDbMText
 62
7
  6
CONTINUOUS
  7
STANDARD
 71
1
 72
1
 10
7.2903726708
 20
0.2039751553
 30
0.0
 11
1.0
 21
0.0
 31
0.0
 73
2
 44
0.9
  1
SCALE: .50
 40
0.08
 41
0.64
  0
LINE
  5
232
100
AcDbEntity
  8
0
100
AcDbLine
 62
7
  6
CONTINUOUS
 10
0.0
 20
0.0
 11
8.5
 21
0.0
  0
LINE
  5
233
100
AcDbEntity
  8
0
100
AcDbLine
 62
7
  6
CONTINUOUS
 10
0.0
 20
0.0
 11
0.0
 21
11.0
  0
LINE
  5
234
100
AcDbEntity
  8
0
100
AcDbLine
 62
7
  6
CONTINUOUS
 10
8.5
 20
0.0
 11
8.5
 21
11.0
  0
LINE
  5
235
100
AcDbEntity
  8
0
100
AcDbLine
 62
7
  6
CONTINUOUS
 10
0.0
 20
11.0
 11
8.5
 21
11.0
  0
LINE
  5
236
100
AcDbEntity
  8
0
100
AcDbLine
 62
7
  6
CONTINUOUS
 10
5.160128882
 20
0.2255551242
 11
5.1049871082
 21
0.2255551242
  0
LINE
  5
237
100
AcDbEntity
  8
0
100
AcDbLine
 62
7
  6
CONTINUOUS
 10
4.253878882
 20
0.5979643815
 11
3.972628882
 21
0.5979643815
  0
LINE
  5
238
100
AcDbEntity
  8
0
100
AcDbLine
 62
7
  6
CONTINUOUS
 10
3.3539034819
 20
0.6018318949
 11
3.2697835493
 21
0.6018318949
  0
LINE
  5
239
100
AcDbEntity
  8
0
100
AcDbLine
 62
9
  6
CONTINUOUS
 10
3.2683700871
 20
0.6051812598
 11
3.3553169441
 21
0.6051812598
  0
LINE
  5
23A
100
AcDbEntity
  8
0
100
AcDbLine
 62
7
  6
CONTINUOUS
 10
3.369628882
 20
0.6355551242
 11
3.382128882
 21
0.6355551242
  0
LINE
  5
23B
100
AcDbEntity
  8
0
100
AcDbLine
 62
7
  6
CONTINUOUS
 10
3.445128882
 20
0.6474301242
 11
3.4079695311
 21
0.6474301242
  0
LINE
  5
23C
100
AcDbEntity
  8
0
100
AcDbLine
 62
7
  6
CONTINUOUS
 10
3.3872881736
 20
0.6474301242
 11
3.3829724861
 21
0.6474301242
  0
LINE
  5
23D
100
AcDbEntity
  8
0
100
AcDbLine
 62
7
  6
CONTINUOUS
 10
3.907628882
 20
0.6474301242
 11
3.923537885
 21
0.6474301242
  0
LINE
  5
23E
100
AcDbEntity
  8
0
100
AcDbLine
 62
7
  6
CONTINUOUS
 10
3.9442201067
 20
0.6474301242
 11
3.9513219793
 21
0.6474301242
  0
LINE
  5
23F
100
AcDbEntity
  8
0
100
AcDbLine
 62
7
  6
CONTINUOUS
 10
3.495128882
 20
0.6505551242
 11
3.820128882
 21
0.6505551242
  0
LINE
  5
240
100
AcDbEntity
  8
0
100
AcDbLine
 62
7
  6
CONTINUOUS
 10
3.907628882
 20
0.6555551242
 11
3.820128882
 21
0.6555551242
  0
LINE
  5
241
100
AcDbEntity
  8
0
100
AcDbLine
 62
7
  6
CONTINUOUS
 10
3.3960684999
 20
0.6626340301
 11
3.3991934999
 21
0.6626340301
  0
LINE
  5
242
100
AcDbEntity
  8
0
100
AcDbLine
 62
7
  6
CONTINUOUS
 10
3.932318304
 20
0.6626347343
 11
3.935443304
 21
0.6626347343
  0
LINE
  5
243
100
AcDbEntity
  8
0
100
AcDbLine
 62
7
  6
CONTINUOUS
 10
3.9601107456
 20
0.6626603926
 11
3.9632357456
 21
0.6626603926
  0
LINE
  5
244
100
AcDbEntity
  8
0
100
AcDbLine
 62
7
  6
CONTINUOUS
 10
3.495128882
 20
0.6630551242
 11
3.445128882
 21
0.6630551242
  0
LINE
  5
245
100
AcDbEntity
  8
0
100
AcDbLine
 62
7
  6
CONTINUOUS
 10
3.4097906579
 20
0.6862235472
 11
3.4304671061
 21
0.6862235472
  0
LINE
  5
246
100
AcDbEntity
  8
0
100
AcDbLine
 62
7
  6
CONTINUOUS
 10
3.214628882
 20
0.6933051242
 11
3.227128882
 21
0.6933051242
  0
LINE
  5
247
100
AcDbEntity
  8
0
100
AcDbLine
 62
7
  6
CONTINUOUS
 10
3.421691382
 20
0.6985206056
 11
3.418566382
 21
0.6985206056
  0
LINE
  5
248
100
AcDbEntity
  8
0
100
AcDbLine
 62
9
  6
CONTINUOUS
 10
3.393566382
 20
0.6985285137
 11
3.396691382
 21
0.6985285137
  0
LINE
  5
249
100
AcDbEntity
  8
0
100
AcDbLine
 62
9
  6
CONTINUOUS
 10
3.3553169441
 20
0.7170428745
 11
3.2683700871
 21
0.7170428745
  0
LINE
  5
24A
100
AcDbEntity
  8
0
100
AcDbLine
 62
7
  6
CONTINUOUS
 10
4.253878882
 20
0.7242597528
 11
3.972628882
 21
0.7242597528
  0
LINE
  5
24B
100
AcDbEntity
  8
0
100
AcDbLine
 62
9
  6
CONTINUOUS
 10
3.956066382
 20
0.7360335753
 11
3.959191382
 21
0.7360335753
  0
LINE
  5
24C
100
AcDbEntity
  8
0
100
AcDbLine
 62
9
  6
CONTINUOUS
 10
3.2683700871
 20
0.7386935096
 11
3.3553169441
 21
0.7386935096
  0
LINE
  5
24D
100
AcDbEntity
  8
0
100
AcDbLine
 62
7
  6
CONTINUOUS
 10
3.2008060192
 20
0.7568051242
 11
3.214628882
 21
0.7568051242
  0
LINE
  5
24E
100
AcDbEntity
  8
0
100
AcDbLine
 62
7
  6
CONTINUOUS
 10
3.495128882
 20
0.7677124117
 11
3.820128882
 21
0.7677124117
  0
LINE
  5
24F
100
AcDbEntity
  8
0
100
AcDbLine
 62
7
  6
CONTINUOUS
 10
3.6387912394
 20
1.1397913139
 11
3.6805316425
 21
1.1408781185
  0
LINE
  5
250
100
AcDbEntity
  8
0
100
AcDbLine
 62
7
  6
CONTINUOUS
 10
3.6387912394
 20
1.1423963139
 11
3.6805316425
 21
1.1434831185
  0
LINE
  5
251
100
AcDbEntity
  8
0
100
AcDbLine
 62
7
  6
CONTINUOUS
 10
3.820128882
 20
0.9333978367
 11
3.495128882
 21
0.9333978367
  0
LINE
  5
252
100
AcDbEntity
  8
0
100
AcDbLine
 62
7
  6
CONTINUOUS
 10
3.2008060189
 20
0.9443051242
 11
3.214628882
 21
0.9443051242
  0
LINE
  5
253
100
AcDbEntity
  8
0
100
AcDbLine
 62
9
  6
CONTINUOUS
 10
3.3553169441
 20
0.9624167389
 11
3.2683700871
 21
0.9624167389
  0
LINE
  5
254
100
AcDbEntity
  8
0
100
AcDbLine
 62
7
  6
CONTINUOUS
 10
4.253878882
 20
0.9768504956
 11
3.972628882
 21
0.9768504956
  0
LINE
  5
255
100
AcDbEntity
  8
0
100
AcDbLine
 62
9
  6
CONTINUOUS
 10
3.2683700871
 20
0.984067374
 11
3.3553169441
 21
0.984067374
  0
LINE
  5
256
100
AcDbEntity
  8
0
100
AcDbLine
 62
7
  6
CONTINUOUS
 10
3.495128882
 20
1.0005551242
 11
3.820128882
 21
1.0005551242
  0
LINE
  5
257
100
AcDbEntity
  8
0
100
AcDbLine
 62
7
  6
CONTINUOUS
 10
3.227128882
 20
1.0078051242
 11
3.214628882
 21
1.0078051242
  0
LINE
  5
258
100
AcDbEntity
  8
0
100
AcDbLine
 62
7
  6
CONTINUOUS
 10
3.495128882
 20
1.0146478367
 11
3.5823040645
 21
1.0146478367
  0
LINE
  5
259
100
AcDbEntity
  8
0
100
AcDbLine
 62
7
  6
CONTINUOUS
 10
3.7329536994
 20
1.0146478367
 11
3.820128882
 21
1.0146478367
  0
LINE
  5
25A
100
AcDbEntity
  8
0
100
AcDbLine
 62
7
  6
CONTINUOUS
 10
3.445128882
 20
1.0380551242
 11
3.495128882
 21
1.0380551242
  0
LINE
  5
25B
100
AcDbEntity
  8
0
100
AcDbLine
 62
7
  6
CONTINUOUS
 10
3.4116918296
 20
1.0384661034
 11
3.4085668296
 21
1.0384661034
  0
LINE
  5
25C
100
AcDbEntity
  8
0
100
AcDbLine
 62
7
  6
CONTINUOUS
 10
3.3866943627
 20
1.038471013
 11
3.3835693627
 21
1.038471013
  0
LINE
  5
25D
100
AcDbEntity
  8
0
100
AcDbLine
 62
7
  6
CONTINUOUS
 10
3.9493403674
 20
1.0384730952
 11
3.9462150703
 21
1.0384730956
  0
LINE
  5
25E
100
AcDbEntity
  8
0
100
AcDbLine
 62
7
  6
CONTINUOUS
 10
3.9215397269
 20
1.0384759447
 11
3.9184147269
 21
1.0384759447
  0
LINE
  5
25F
100
AcDbEntity
  8
0
100
AcDbLine
 62
7
  6
CONTINUOUS
 10
3.820128882
 20
1.0455551242
 11
3.907628882
 21
1.0455551242
  0
LINE
  5
260
100
AcDbEntity
  8
0
100
AcDbLine
 62
7
  6
CONTINUOUS
 10
3.495128882
 20
1.0505551242
 11
3.5439958075
 21
1.0505551242
  0
LINE
  5
261
100
AcDbEntity
  8
0
100
AcDbLine
 62
7
  6
CONTINUOUS
 10
3.7712619565
 20
1.0505551242
 11
3.820128882
 21
1.0505551242
  0
LINE
  5
262
100
AcDbEntity
  8
0
100
AcDbLine
 62
7
  6
CONTINUOUS
 10
3.445128882
 20
1.0536801242
 11
3.4204758486
 21
1.0536801242
  0
LINE
  5
263
100
AcDbEntity
  8
0
100
AcDbLine
 62
7
  6
CONTINUOUS
 10
3.3997818982
 20
1.0536801242
 11
3.3954727667
 21
1.0536801242
  0
LINE
  5
264
100
AcDbEntity
  8
0
100
AcDbLine
 62
7
  6
CONTINUOUS
 10
3.907628882
 20
1.0536801242
 11
3.9096382023
 21
1.0536801242
  0
LINE
  5
265
100
AcDbEntity
  8
0
100
AcDbLine
 62
7
  6
CONTINUOUS
 10
3.9303198868
 20
1.0536801242
 11
3.9374364248
 21
1.0536801242
  0
LINE
  5
266
100
AcDbEntity
  8
0
100
AcDbLine
 62
7
  6
CONTINUOUS
 10
3.9581216586
 20
1.0536801242
 11
3.9652405791
 21
1.0536801242
  0
LINE
  5
267
100
AcDbEntity
  8
0
100
AcDbLine
 62
7
  6
CONTINUOUS
 10
3.369628882
 20
1.0655551242
 11
3.382128882
 21
1.0655551242
  0
LINE
  5
268
100
AcDbEntity
  8
0
100
AcDbLine
 62
9
  6
CONTINUOUS
 10
3.3553169441
 20
1.0959289886
 11
3.2683700871
 21
1.0959289886
  0
LINE
  5
269
100
AcDbEntity
  8
0
100
AcDbLine
 62
7
  6
CONTINUOUS
 10
3.3539034819
 20
1.0992783535
 11
3.2697835493
 21
1.0992783535
  0
LINE
  5
26A
100
AcDbEntity
  8
0
100
AcDbLine
 62
7
  6
CONTINUOUS
 10
4.253878882
 20
1.103145867
 11
3.972628882
 21
1.103145867
  0
LINE
  5
26B
100
AcDbEntity
  8
0
100
AcDbLine
 62
7
  6
CONTINUOUS
 10
3.7255196637
 20
1.1080551242
 11
3.5823040645
 21
1.1080551242
  0
LINE
  5
26C
100
AcDbEntity
  8
0
100
AcDbLine
 62
7
  6
CONTINUOUS
 10
3.813878882
 20
1.1465551242
 11
3.501378882
 21
1.1465551242
  0
LINE
  5
26D
100
AcDbEntity
  8
0
100
AcDbLine
 62
7
  6
CONTINUOUS
 10
3.813878882
 20
1.3560551242
 11
3.501378882
 21
1.3560551242
  0
LINE
  5
26E
100
AcDbEntity
  8
0
100
AcDbLine
 62
7
  6
CONTINUOUS
 10
5.160128882
 20
1.4755551242
 11
5.1049871082
 21
1.4755551242
  0
LINE
  5
26F
100
AcDbEntity
  8
0
100
AcDbLine
 62
7
  6
CONTINUOUS
 10
3.5171267744
 20
1.0823710961
 11
3.5298451933
 21
1.0750206604
  0
LINE
  5
270
100
AcDbEntity
  8
0
100
AcDbLine
 62
7
  6
CONTINUOUS
 10
3.5171216177
 20
1.1032042922
 11
3.5298327556
 21
1.0958587676
  0
LINE
  5
271
100
AcDbEntity
  8
0
100
AcDbLine
 62
7
  6
CONTINUOUS
 10
3.5171089552
 20
1.1240655653
 11
3.5298517126
 21
1.1167006927
  0
LINE
  5
272
100
AcDbEntity
  8
0
100
AcDbLine
 62
7
  6
CONTINUOUS
 10
3.5171114774
 20
1.1448859526
 11
3.5298329589
 21
1.1375344446
  0
LINE
  5
273
100
AcDbEntity
  8
0
100
AcDbLine
 62
7
  6
CONTINUOUS
 10
3.7981309755
 20
1.0757847621
 11
3.7854094969
 21
1.0831371405
  0
LINE
  5
274
100
AcDbEntity
  8
0
100
AcDbLine
 62
7
  6
CONTINUOUS
 10
3.7981342646
 20
1.0966123568
 11
3.7854035209
 21
1.1039704283
  0
LINE
  5
275
100
AcDbEntity
  8
0
100
AcDbLine
 62
7
  6
CONTINUOUS
 10
3.7981313169
 20
1.1174599787
 11
3.7854188917
 21
1.1248066015
  0
LINE
  5
276
100
AcDbEntity
  8
0
100
AcDbLine
 62
7
  6
CONTINUOUS
 10
3.7981433639
 20
1.1382870818
 11
3.7854279876
 21
1.1456348839
  0
LINE
  5
277
100
AcDbEntity
  8
0
100
AcDbLine
 62
7
  6
CONTINUOUS
 10
3.407967107
 20
0.6474301242
 11
3.4078344482
 21
0.6475430099
  0
LINE
  5
278
100
AcDbEntity
  8
0
100
AcDbLine
 62
7
  6
CONTINUOUS
 10
3.3991934999
 20
0.6626340301
 11
3.3990477644
 21
0.6627602647
  0
LINE
  5
279
100
AcDbEntity
  8
0
100
AcDbLine
 62
7
  6
CONTINUOUS
 10
3.9442172457
 20
0.6474301242
 11
3.9440518199
 21
0.6475720799
  0
LINE
  5
27A
100
AcDbEntity
  8
0
100
AcDbLine
 62
7
  6
CONTINUOUS
 10
3.3837148009
 20
1.0383452499
 11
3.3835693627
 21
1.038471013
  0
LINE
  5
27B
100
AcDbEntity
  8
0
100
AcDbLine
 62
7
  6
CONTINUOUS
 10
3.935443304
 20
0.6626347343
 11
3.9352625339
 21
0.6627912583
  0
LINE
  5
27C
100
AcDbEntity
  8
0
100
AcDbLine
 62
7
  6
CONTINUOUS
 10
3.3997906545
 20
1.0536801242
 11
3.3999269352
 21
1.0535609951
  0
LINE
  5
27D
100
AcDbEntity
  8
0
100
AcDbLine
 62
7
  6
CONTINUOUS
 10
3.9652407961
 20
1.0536801242
 11
3.965405083
 21
1.0535401143
  0
LINE
  5
27E
100
AcDbEntity
  8
0
100
AcDbLine
 62
7
  6
CONTINUOUS
 10
3.909640795
 20
1.0536801242
 11
3.9098061325
 21
1.0535383199
  0
LINE
  5
27F
100
AcDbEntity
  8
0
100
AcDbLine
 62
7
  6
CONTINUOUS
 10
3.9374407941
 20
1.0536801242
 11
3.9376069307
 21
1.0535369476
  0
LINE
  5
280
100
AcDbEntity
  8
0
100
AcDbLine
 62
7
  6
CONTINUOUS
 10
3.946396229
 20
1.0383162724
 11
3.9462150703
 21
1.0384730956
  0
LINE
  5
281
100
AcDbEntity
  8
0
100
AcDbLine
 62
7
  6
CONTINUOUS
 10
3.9185954147
 20
1.0383194845
 11
3.9184147269
 21
1.0384759447
  0
LINE
  5
282
100
AcDbEntity
  8
0
100
AcDbLine
 62
7
  6
CONTINUOUS
 10
3.4772069229
 20
1.1707270833
 11
3.501378882
 21
1.1465551242
  0
LINE
  5
283
100
AcDbEntity
  8
0
100
AcDbLine
 62
9
  6
CONTINUOUS
 10
3.9679671061
 20
0.7267604254
 11
3.959191382
 21
0.736024078
  0
LINE
  5
284
100
AcDbEntity
  8
0
100
AcDbLine
 62
7
  6
CONTINUOUS
 10
3.517003882
 20
1.0825049772
 11
3.5171267697
 21
1.0823663343
  0
LINE
  5
285
100
AcDbEntity
  8
0
100
AcDbLine
 62
7
  6
CONTINUOUS
 10
3.517003882
 20
1.1033399735
 11
3.5171216177
 21
1.103204272
  0
LINE
  5
286
100
AcDbEntity
  8
0
100
AcDbLine
 62
7
  6
CONTINUOUS
 10
3.5298329589
 20
1.1375344446
 11
3.5297061223
 21
1.1376807524
  0
LINE
  5
287
100
AcDbEntity
  8
0
100
AcDbLine
 62
7
  6
CONTINUOUS
 10
3.5298517126
 20
1.1167006927
 11
3.5297228575
 21
1.1168494212
  0
LINE
  5
288
100
AcDbEntity
  8
0
100
AcDbLine
 62
7
  6
CONTINUOUS
 10
3.5297164943
 20
1.0751695547
 11
3.5298451933
 21
1.0750206604
  0
LINE
  5
289
100
AcDbEntity
  8
0
100
AcDbLine
 62
7
  6
CONTINUOUS
 10
3.5297061134
 20
1.0960057323
 11
3.5298327556
 21
1.0958587676
  0
LINE
  5
28A
100
AcDbEntity
  8
0
100
AcDbLine
 62
9
  6
CONTINUOUS
 10
3.396691382
 20
0.6985285137
 11
3.4054671061
 21
0.686232095
  0
LINE
  5
28B
100
AcDbEntity
  8
0
100
AcDbLine
 62
7
  6
CONTINUOUS
 10
3.421691382
 20
0.6985206056
 11
3.4304671061
 21
0.6862235472
  0
LINE
  5
28C
100
AcDbEntity
  8
0
100
AcDbLine
 62
7
  6
CONTINUOUS
 10
3.813878882
 20
1.3560551242
 11
3.8380508411
 21
1.3318831651
  0
LINE
  5
28D
100
AcDbEntity
  8
0
100
AcDbLine
 62
7
  6
CONTINUOUS
 10
3.798253882
 20
1.0756527704
 11
3.7981309821
 21
1.075791421
  0
LINE
  5
28E
100
AcDbEntity
  8
0
100
AcDbLine
 62
7
  6
CONTINUOUS
 10
3.798253882
 20
1.0964877686
 11
3.7981342765
 21
1.0966245499
  0
LINE
  5
28F
100
AcDbEntity
  8
0
100
AcDbLine
 62
7
  6
CONTINUOUS
 10
3.7855538522
 20
1.1454897269
 11
3.7854279876
 21
1.1456348839
  0
LINE
  5
290
100
AcDbEntity
  8
0
100
AcDbLine
 62
7
  6
CONTINUOUS
 10
3.7854035209
 20
1.1039704283
 11
3.7855334925
 21
1.1038201768
  0
LINE
  5
291
100
AcDbEntity
  8
0
100
AcDbLine
 62
7
  6
CONTINUOUS
 10
3.7854094969
 20
1.0831371405
 11
3.785538595
 21
1.0829878065
  0
LINE
  5
292
100
AcDbEntity
  8
0
100
AcDbLine
 62
7
  6
CONTINUOUS
 10
3.7855450429
 20
1.1246605332
 11
3.7854188917
 21
1.1248066015
  0
LINE
  5
293
100
AcDbEntity
  8
0
100
AcDbLine
 62
7
  6
CONTINUOUS
 10
3.3990477644
 20
0.6627602647
 11
3.4065491278
 21
0.6497759557
  0
LINE
  5
294
100
AcDbEntity
  8
0
100
AcDbLine
 62
9
  6
CONTINUOUS
 10
3.1762542438
 20
0.5690165475
 11
3.1762559239
 21
0.5690134594
  0
LINE
  5
295
100
AcDbEntity
  8
0
100
AcDbLine
 62
9
  6
CONTINUOUS
 10
2.9830035201
 20
1.132093701
 11
2.9830018401
 21
1.132096789
  0
LINE
  5
296
100
AcDbEntity
  8
0
100
AcDbLine
 62
7
  6
CONTINUOUS
 10
3.7784301522
 20
10.5639525838
 11
3.7580776118
 21
10.5287009498
  0
LINE
  5
297
100
AcDbEntity
  8
0
100
AcDbLine
 62
7
  6
CONTINUOUS
 10
3.408713614
 20
1.0383390917
 11
3.4034216165
 21
1.0474985087
  0
LINE
  5
298
100
AcDbEntity
  8
0
100
AcDbLine
 62
7
  6
CONTINUOUS
 10
3.9352625339
 20
0.6627912583
 11
3.9405558566
 21
0.6536304612
  0
LINE
  5
299
100
AcDbEntity
  8
0
100
AcDbLine
 62
7
  6
CONTINUOUS
 10
3.9630550508
 20
0.6628165914
 11
3.9683483492
 21
0.6536570739
  0
LINE
  5
29A
100
AcDbEntity
  8
0
100
AcDbLine
 62
7
  6
CONTINUOUS
 10
3.268248215
 20
0.6051244299
 11
3.227128882
 21
0.6933051242
  0
LINE
  5
29B
100
AcDbEntity
  8
0
100
AcDbLine
 62
7
  6
CONTINUOUS
 10
3.369628882
 20
1.0655551242
 11
3.3554388162
 21
1.0959858185
  0
LINE
  5
29C
100
AcDbEntity
  8
0
100
AcDbLine
 62
7
  6
CONTINUOUS
 10
3.2697835493
 20
0.6018318949
 11
3.2683700871
 21
0.6051812598
  0
LINE
  5
29D
100
AcDbEntity
  8
0
100
AcDbLine
 62
7
  6
CONTINUOUS
 10
3.9185954147
 20
1.0383194845
 11
3.9110920454
 21
1.0513052911
  0
LINE
  5
29E
100
AcDbEntity
  8
0
100
AcDbLine
 62
7
  6
CONTINUOUS
 10
3.946396229
 20
1.0383162724
 11
3.9388928388
 21
1.0513018941
  0
LINE
  5
29F
100
AcDbEntity
  8
0
100
AcDbLine
 62
7
  6
CONTINUOUS
 10
3.972628882
 20
1.0410358823
 11
3.9666909663
 21
1.0513129239
  0
LINE
  5
2A0
100
AcDbEntity
  8
0
100
AcDbLine
 62
7
  6
CONTINUOUS
 10
3.3553169441
 20
1.0959289886
 11
3.3539034819
 21
1.0992783535
  0
LINE
  5
2A1
100
AcDbEntity
  8
0
100
AcDbLine
 62
7
  6
CONTINUOUS
 10
3.3545344194
 20
1.0977781972
 11
3.3543414217
 21
1.0982378292
  0
LINE
  5
2A2
100
AcDbEntity
  8
0
100
AcDbLine
 62
7
  6
CONTINUOUS
 10
3.3539198968
 20
1.0992375387
 11
3.3539034819
 21
1.0992783535
  0
LINE
  5
2A3
100
AcDbEntity
  8
0
100
AcDbLine
 62
7
  6
CONTINUOUS
 10
2.9448788902
 20
0.8504867268
 11
2.944878882
 21
0.8505561027
  0
LINE
  5
2A4
100
AcDbEntity
  8
0
100
AcDbLine
 62
7
  6
CONTINUOUS
 10
3.3903565882
 20
0.8251239142
 11
3.3895544913
 21
0.8629141084
  0
LINE
  5
2A5
100
AcDbEntity
  8
0
100
AcDbLine
 62
7
  6
CONTINUOUS
 10
3.3926794432
 20
0.8629163746
 11
3.3934815541
 21
0.8251255127
  0
LINE
  5
2A6
100
AcDbEntity
  8
0
100
AcDbLine
 62
7
  6
CONTINUOUS
 10
3.4146016538
 20
0.860689609
 11
3.4149983955
 21
0.8419622444
  0
LINE
  5
2A7
100
AcDbEntity
  8
0
100
AcDbLine
 62
7
  6
CONTINUOUS
 10
3.4181234411
 20
0.8419600958
 11
3.4177266974
 21
0.860687553
  0
LINE
  5
2A8
100
AcDbEntity
  8
0
100
AcDbLine
 62
7
  6
CONTINUOUS
 10
3.4270310013
 20
0.8346204775
 11
3.4263364617
 21
0.8698676713
  0
LINE
  5
2A9
100
AcDbEntity
  8
0
100
AcDbLine
 62
7
  6
CONTINUOUS
 10
3.214628882
 20
1.0078051242
 11
3.214628882
 21
0.6933051242
  0
LINE
  5
2AA
100
AcDbEntity
  8
0
100
AcDbLine
 62
7
  6
CONTINUOUS
 10
3.227128882
 20
0.6933051242
 11
3.227128882
 21
1.0078051242
  0
LINE
  5
2AB
100
AcDbEntity
  8
0
100
AcDbLine
 62
7
  6
CONTINUOUS
 10
3.369628882
 20
1.0655551242
 11
3.369628882
 21
0.6355551242
  0
LINE
  5
2AC
100
AcDbEntity
  8
0
100
AcDbLine
 62
7
  6
CONTINUOUS
 10
3.382128882
 20
1.0655215815
 11
3.382128882
 21
0.6355886669
  0
LINE
  5
2AD
100
AcDbEntity
  8
0
100
AcDbLine
 62
7
  6
CONTINUOUS
 10
3.445128882
 20
1.0536485779
 11
3.445128882
 21
0.6474616705
  0
LINE
  5
2AE
100
AcDbEntity
  8
0
100
AcDbLine
 62
7
  6
CONTINUOUS
 10
3.446378882
 20
10.7405551242
 11
3.446378882
 21
10.8030551242
  0
LINE
  5
2AF
100
AcDbEntity
  8
0
100
AcDbLine
 62
7
  6
CONTINUOUS
 10
3.457628882
 20
10.7405551242
 11
3.457628882
 21
10.7105551242
  0
LINE
  5
2B0
100
AcDbEntity
  8
0
100
AcDbLine
 62
7
  6
CONTINUOUS
 10
3.4772069229
 20
1.1707270833
 11
3.4772069229
 21
1.3318831651
  0
LINE
  5
2B1
100
AcDbEntity
  8
0
100
AcDbLine
 62
7
  6
CONTINUOUS
 10
3.495128882
 20
1.0505551242
 11
3.495128882
 21
0.6505551242
  0
LINE
  5
2B2
100
AcDbEntity
  8
0
100
AcDbLine
 62
7
  6
CONTINUOUS
 10
3.517003882
 20
1.1465551242
 11
3.517003882
 21
1.1450099726
  0
LINE
  5
2B3
100
AcDbEntity
  8
0
100
AcDbLine
 62
7
  6
CONTINUOUS
 10
3.517003882
 20
1.1277402758
 11
3.517003882
 21
1.1241749726
  0
LINE
  5
2B4
100
AcDbEntity
  8
0
100
AcDbLine
 62
7
  6
CONTINUOUS
 10
3.517003882
 20
1.0505551242
 11
3.517003882
 21
1.0652273113
  0
LINE
  5
2B5
100
AcDbEntity
  8
0
100
AcDbLine
 62
7
  6
CONTINUOUS
 10
3.517003882
 20
1.0825130919
 11
3.517003882
 21
1.086068886
  0
LINE
  5
2B6
100
AcDbEntity
  8
0
100
AcDbLine
 62
7
  6
CONTINUOUS
 10
3.517003882
 20
1.1033414541
 11
3.517003882
 21
1.1068928184
  0
LINE
  5
2B7
100
AcDbEntity
  8
0
100
AcDbLine
 62
7
  6
CONTINUOUS
 10
3.5297061223
 20
1.1376807524
 11
3.5297061223
 21
1.1350757524
  0
LINE
  5
2B8
100
AcDbEntity
  8
0
100
AcDbLine
 62
7
  6
CONTINUOUS
 10
3.5297061134
 20
1.0960057323
 11
3.5297061125
 21
1.0934003579
  0
LINE
  5
2B9
100
AcDbEntity
  8
0
100
AcDbLine
 62
7
  6
CONTINUOUS
 10
3.5297164943
 20
1.0751695547
 11
3.5297164943
 21
1.0725645547
  0
LINE
  5
2BA
100
AcDbEntity
  8
0
100
AcDbLine
 62
7
  6
CONTINUOUS
 10
3.5297228575
 20
1.1168494212
 11
3.5297228575
 21
1.1142444212
  0
LINE
  5
2BB
100
AcDbEntity
  8
0
100
AcDbLine
 62
7
  6
CONTINUOUS
 10
3.530128882
 20
10.7105551242
 11
3.530128882
 21
10.5889525838
  0
LINE
  5
2BC
100
AcDbEntity
  8
0
100
AcDbLine
 62
7
  6
CONTINUOUS
 10
3.563878882
 20
10.5037009498
 11
3.563878882
 21
1.3560551242
  0
LINE
  5
2BD
100
AcDbEntity
  8
0
100
AcDbLine
 62
7
  6
CONTINUOUS
 10
3.5674179024
 20
1.1707270833
 11
3.5674179024
 21
1.3318831651
  0
LINE
  5
2BE
100
AcDbEntity
  8
0
100
AcDbLine
 62
7
  6
CONTINUOUS
 10
3.5823040645
 20
1.1080551242
 11
3.5823040645
 21
1.1066742938
  0
LINE
  5
2BF
100
AcDbEntity
  8
0
100
AcDbLine
 62
7
  6
CONTINUOUS
 10
3.5823040645
 20
1.089404597
 11
3.5823040645
 21
1.0858392938
  0
LINE
  5
2C0
100
AcDbEntity
  8
0
100
AcDbLine
 62
7
  6
CONTINUOUS
 10
3.5823040645
 20
1.068569597
 11
3.5823040645
 21
1.0146478367
  0
LINE
  5
2C1
100
AcDbEntity
  8
0
100
AcDbLine
 62
7
  6
CONTINUOUS
 10
3.6100553271
 20
1.0999528474
 11
3.6100553271
 21
1.0973478474
  0
LINE
  5
2C2
100
AcDbEntity
  8
0
100
AcDbLine
 62
7
  6
CONTINUOUS
 10
3.6100553271
 20
1.0791178474
 11
3.6100553271
 21
1.0765128474
  0
LINE
  5
2C3
100
AcDbEntity
  8
0
100
AcDbLine
 62
7
  6
CONTINUOUS
 10
3.7052024369
 20
1.0790399011
 11
3.7052024369
 21
1.0816449011
  0
LINE
  5
2C4
100
AcDbEntity
  8
0
100
AcDbLine
 62
7
  6
CONTINUOUS
 10
3.7052024369
 20
1.0998749011
 11
3.7052024369
 21
1.1024799011
  0
LINE
  5
2C5
100
AcDbEntity
  8
0
100
AcDbLine
 62
7
  6
CONTINUOUS
 10
3.7329536994
 20
1.0146478367
 11
3.7329536994
 21
1.0723184546
  0
LINE
  5
2C6
100
AcDbEntity
  8
0
100
AcDbLine
 62
7
  6
CONTINUOUS
 10
3.7329536994
 20
1.0895881514
 11
3.7329536994
 21
1.0931534546
  0
LINE
  5
2C7
100
AcDbEntity
  8
0
100
AcDbLine
 62
7
  6
CONTINUOUS
 10
3.9162448255
 20
0.866407417
 11
3.9163489023
 21
0.8616397504
  0
LINE
  5
2C8
100
AcDbEntity
  8
0
100
AcDbLine
 62
7
  6
CONTINUOUS
 10
3.9655156657
 20
0.830003747
 11
3.9646986358
 21
0.867458029
  0
LINE
  5
2C9
100
AcDbEntity
  8
0
100
AcDbLine
 62
7
  6
CONTINUOUS
 10
3.7478398615
 20
1.1707270833
 11
3.7478398615
 21
1.3318831651
  0
LINE
  5
2CA
100
AcDbEntity
  8
0
100
AcDbLine
 62
7
  6
CONTINUOUS
 10
3.751378882
 20
1.3560551242
 11
3.751378882
 21
10.5037009498
  0
LINE
  5
2CB
100
AcDbEntity
  8
0
100
AcDbLine
 62
7
  6
CONTINUOUS
 10
3.785128882
 20
10.5889525838
 11
3.785128882
 21
10.7105551242
  0
LINE
  5
2CC
100
AcDbEntity
  8
0
100
AcDbLine
 62
7
  6
CONTINUOUS
 10
3.7855334925
 20
1.1038201768
 11
3.7855334925
 21
1.1064251768
  0
LINE
  5
2CD
100
AcDbEntity
  8
0
100
AcDbLine
 62
7
  6
CONTINUOUS
 10
3.785538595
 20
1.0829878065
 11
3.7855385948
 21
1.0855926262
  0
LINE
  5
2CE
100
AcDbEntity
  8
0
100
AcDbLine
 62
7
  6
CONTINUOUS
 10
3.7855450429
 20
1.1246605332
 11
3.7855450429
 21
1.1272655332
  0
LINE
  5
2CF
100
AcDbEntity
  8
0
100
AcDbLine
 62
7
  6
CONTINUOUS
 10
3.7972447234
 20
1.0716899726
 11
3.7972447234
 21
1.0544202758
  0
LINE
  5
2D0
100
AcDbEntity
  8
0
100
AcDbLine
 62
7
  6
CONTINUOUS
 10
3.798253882
 20
1.0505551242
 11
3.798253882
 21
1.0548149569
  0
LINE
  5
2D1
100
AcDbEntity
  8
0
100
AcDbLine
 62
7
  6
CONTINUOUS
 10
3.798253882
 20
1.0720901213
 11
3.798253882
 21
1.0756429748
  0
LINE
  5
2D2
100
AcDbEntity
  8
0
100
AcDbLine
 62
7
  6
CONTINUOUS
 10
3.798253882
 20
1.0929321339
 11
3.798253882
 21
1.0964748318
  0
LINE
  5
2D3
100
AcDbEntity
  8
0
100
AcDbLine
 62
7
  6
CONTINUOUS
 10
3.798253882
 20
1.1137574726
 11
3.798253882
 21
1.1173227758
  0
LINE
  5
2D4
100
AcDbEntity
  8
0
100
AcDbLine
 62
7
  6
CONTINUOUS
 10
3.798253882
 20
1.1345924726
 11
3.798253882
 21
1.1381577758
  0
LINE
  5
2D5
100
AcDbEntity
  8
0
100
AcDbLine
 62
7
  6
CONTINUOUS
 10
3.820128882
 20
0.6505551242
 11
3.820128882
 21
1.0505551242
  0
LINE
  5
2D6
100
AcDbEntity
  8
0
100
AcDbLine
 62
7
  6
CONTINUOUS
 10
3.8380508411
 20
1.1707270833
 11
3.8380508411
 21
1.3318831651
  0
LINE
  5
2D7
100
AcDbEntity
  8
0
100
AcDbLine
 62
7
  6
CONTINUOUS
 10
3.857628882
 20
10.7105551242
 11
3.857628882
 21
10.7405551242
  0
LINE
  5
2D8
100
AcDbEntity
  8
0
100
AcDbLine
 62
7
  6
CONTINUOUS
 10
3.868878882
 20
10.8030551242
 11
3.868878882
 21
10.7405551242
  0
LINE
  5
2D9
100
AcDbEntity
  8
0
100
AcDbLine
 62
7
  6
CONTINUOUS
 10
3.907628882
 20
1.0536624477
 11
3.907628882
 21
0.6474531843
  0
LINE
  5
2DA
100
AcDbEntity
  8
0
100
AcDbLine
 62
7
  6
CONTINUOUS
 10
3.972628882
 20
0.5979643815
 11
3.972628882
 21
1.103145867
  0
LINE
  5
2DB
100
AcDbEntity
  8
0
100
AcDbLine
 62
7
  6
CONTINUOUS
 10
4.253878882
 20
0.5979643815
 11
4.253878882
 21
1.103145867
  0
LINE
  5
2DC
100
AcDbEntity
  8
0
100
AcDbLine
 62
7
  6
CONTINUOUS
 10
4.878878882
 20
1.0817912882
 11
4.878878882
 21
0.6193189602
  0
LINE
  5
2DD
100
AcDbEntity
  8
0
100
AcDbLine
 62
9
  6
CONTINUOUS
 10
4.8890061096
 20
1.1158990983
 11
4.8890061096
 21
0.5852111501
  0
LINE
  5
2DE
100
AcDbEntity
  8
0
100
AcDbLine
 62
9
  6
CONTINUOUS
 10
5.0460700068
 20
0.2671978676
 11
5.0460700068
 21
1.4339123809
  0
LINE
  5
2DF
100
AcDbEntity
  8
0
100
AcDbLine
 62
9
  6
CONTINUOUS
 10
5.1049871082
 20
1.4755551242
 11
5.1049871082
 21
0.2255551242
  0
LINE
  5
2E0
100
AcDbEntity
  8
0
100
AcDbLine
 62
7
  6
CONTINUOUS
 10
5.160128882
 20
1.4755551242
 11
5.160128882
 21
0.2255551242
  0
LINE
  5
2E1
100
AcDbEntity
  8
0
100
AcDbLine
 62
7
  6
CONTINUOUS
 10
3.2691547681
 20
1.0977833186
 11
3.2697835493
 21
1.0992783535
  0
LINE
  5
2E2
100
AcDbEntity
  8
0
100
AcDbLine
 62
7
  6
CONTINUOUS
 10
3.2683700871
 20
1.0959289886
 11
3.2697835493
 21
1.0992783535
  0
LINE
  5
2E3
100
AcDbEntity
  8
0
100
AcDbLine
 62
7
  6
CONTINUOUS
 10
3.3539034819
 20
0.6018318949
 11
3.3539199728
 21
0.601872789
  0
LINE
  5
2E4
100
AcDbEntity
  8
0
100
AcDbLine
 62
7
  6
CONTINUOUS
 10
3.3539199728
 20
0.601872789
 11
3.3553169441
 21
0.6051812598
  0
LINE
  5
2E5
100
AcDbEntity
  8
0
100
AcDbLine
 62
7
  6
CONTINUOUS
 10
3.227128882
 20
1.0078051242
 11
3.268248215
 21
1.0959858185
  0
LINE
  5
2E6
100
AcDbEntity
  8
0
100
AcDbLine
 62
7
  6
CONTINUOUS
 10
3.3554388162
 20
0.6051244299
 11
3.369628882
 21
0.6355551242
  0
LINE
  5
2E7
100
AcDbEntity
  8
0
100
AcDbLine
 62
9
  6
CONTINUOUS
 10
3.1762559239
 20
1.132096789
 11
3.1762523169
 21
1.1320901597
  0
LINE
  5
2E8
100
AcDbEntity
  8
0
100
AcDbLine
 62
9
  6
CONTINUOUS
 10
2.9830018401
 20
0.5690134594
 11
2.983005447
 21
0.5690200887
  0
LINE
  5
2E9
100
AcDbEntity
  8
0
100
AcDbLine
 62
7
  6
CONTINUOUS
 10
3.395343522
 20
1.0535681144
 11
3.3865482239
 21
1.0383444412
  0
LINE
  5
2EA
100
AcDbEntity
  8
0
100
AcDbLine
 62
7
  6
CONTINUOUS
 10
3.4203403858
 20
1.0535624484
 11
3.4115449579
 21
1.0383389904
  0
LINE
  5
2EB
100
AcDbEntity
  8
0
100
AcDbLine
 62
7
  6
CONTINUOUS
 10
3.387426321
 20
0.6475492985
 11
3.39621348
 21
0.6627593927
  0
LINE
  5
2EC
100
AcDbEntity
  8
0
100
AcDbLine
 62
7
  6
CONTINUOUS
 10
3.9301498549
 20
1.0535331767
 11
3.9213598104
 21
1.0383203746
  0
LINE
  5
2ED
100
AcDbEntity
  8
0
100
AcDbLine
 62
7
  6
CONTINUOUS
 10
3.9579512952
 20
1.053532561
 11
3.949159397
 21
1.0383168328
  0
LINE
  5
2EE
100
AcDbEntity
  8
0
100
AcDbLine
 62
7
  6
CONTINUOUS
 10
3.5571801522
 20
10.5287009498
 11
3.5368276118
 21
10.5639525838
  0
LINE
  5
2EF
100
AcDbEntity
  8
0
100
AcDbLine
 62
7
  6
CONTINUOUS
 10
3.9237080675
 20
0.647577256
 11
3.9324983453
 21
0.6627904187
  0
LINE
  5
2F0
100
AcDbEntity
  8
0
100
AcDbLine
 62
7
  6
CONTINUOUS
 10
3.9514787884
 20
0.6475663684
 11
3.9602923698
 21
0.6628176636
  0
LINE
  5
2F1
100
AcDbEntity
  8
0
100
AcDbLine
 62
9
  6
CONTINUOUS
 10
3.3847906579
 20
0.686232095
 11
3.393566382
 21
0.6985285137
  0
LINE
  5
2F2
100
AcDbEntity
  8
0
100
AcDbLine
 62
7
  6
CONTINUOUS
 10
3.4097906579
 20
0.6862235472
 11
3.418566382
 21
0.6985206056
  0
LINE
  5
2F3
100
AcDbEntity
  8
0
100
AcDbLine
 62
7
  6
CONTINUOUS
 10
3.517003882
 20
1.086070275
 11
3.5171155456
 21
1.0862024303
  0
LINE
  5
2F4
100
AcDbEntity
  8
0
100
AcDbLine
 62
7
  6
CONTINUOUS
 10
3.517003882
 20
1.0652352714
 11
3.5171169486
 21
1.065368258
  0
LINE
  5
2F5
100
AcDbEntity
  8
0
100
AcDbLine
 62
7
  6
CONTINUOUS
 10
3.517003882
 20
1.1277402758
 11
3.5171200085
 21
1.1278750457
  0
LINE
  5
2F6
100
AcDbEntity
  8
0
100
AcDbLine
 62
7
  6
CONTINUOUS
 10
3.5297061223
 20
1.1350757524
 11
3.5298311397
 21
1.1352204414
  0
LINE
  5
2F7
100
AcDbEntity
  8
0
100
AcDbLine
 62
7
  6
CONTINUOUS
 10
3.5298460724
 20
1.0727142117
 11
3.5297164943
 21
1.0725645547
  0
LINE
  5
2F8
100
AcDbEntity
  8
0
100
AcDbLine
 62
7
  6
CONTINUOUS
 10
3.5298342486
 20
1.0935482434
 11
3.5297061125
 21
1.0934003579
  0
LINE
  5
2F9
100
AcDbEntity
  8
0
100
AcDbLine
 62
7
  6
CONTINUOUS
 10
3.517003882
 20
1.1069052689
 11
3.517131184
 21
1.1070463825
  0
LINE
  5
2FA
100
AcDbEntity
  8
0
100
AcDbLine
 62
7
  6
CONTINUOUS
 10
3.501378882
 20
1.3560551242
 11
3.4772069229
 21
1.3318831651
  0
LINE
  5
2FB
100
AcDbEntity
  8
0
100
AcDbLine
 62
7
  6
CONTINUOUS
 10
3.798253882
 20
1.1345924726
 11
3.7981482081
 21
1.1344639119
  0
LINE
  5
2FC
100
AcDbEntity
  8
0
100
AcDbLine
 62
7
  6
CONTINUOUS
 10
3.798253882
 20
1.092922478
 11
3.7981396763
 21
1.0927888221
  0
LINE
  5
2FD
100
AcDbEntity
  8
0
100
AcDbLine
 62
7
  6
CONTINUOUS
 10
3.7855334925
 20
1.1064251768
 11
3.7854035088
 21
1.1062749148
  0
LINE
  5
2FE
100
AcDbEntity
  8
0
100
AcDbLine
 62
7
  6
CONTINUOUS
 10
3.7854171192
 20
1.1271179274
 11
3.7855450429
 21
1.1272655332
  0
LINE
  5
2FF
100
AcDbEntity
  8
0
100
AcDbLine
 62
7
  6
CONTINUOUS
 10
3.7855385948
 20
1.0855926262
 11
3.7854087948
 21
1.0854428635
  0
LINE
  5
300
100
AcDbEntity
  8
0
100
AcDbLine
 62
7
  6
CONTINUOUS
 10
3.798253882
 20
1.1137574726
 11
3.7981344493
 21
1.1136207974
  0
LINE
  5
301
100
AcDbEntity
  8
0
100
AcDbLine
 62
7
  6
CONTINUOUS
 10
3.8380508411
 20
1.1707270833
 11
3.813878882
 21
1.1465551242
  0
LINE
  5
302
100
AcDbEntity
  8
0
100
AcDbLine
 62
9
  6
CONTINUOUS
 10
3.956066382
 20
0.736024078
 11
3.9472906579
 21
0.7267604254
  0
LINE
  5
303
100
AcDbEntity
  8
0
100
AcDbLine
 62
7
  6
CONTINUOUS
 10
3.9303172456
 20
1.0536801242
 11
3.9301489365
 21
1.0535331775
  0
LINE
  5
304
100
AcDbEntity
  8
0
100
AcDbLine
 62
7
  6
CONTINUOUS
 10
3.4204671094
 20
1.0536801242
 11
3.420331666
 21
1.0535624543
  0
LINE
  5
305
100
AcDbEntity
  8
0
100
AcDbLine
 62
7
  6
CONTINUOUS
 10
3.3865482239
 20
1.0383444412
 11
3.3866943627
 21
1.038471013
  0
LINE
  5
306
100
AcDbEntity
  8
0
100
AcDbLine
 62
7
  6
CONTINUOUS
 10
3.4116918296
 20
1.0384661034
 11
3.4115449579
 21
1.0383389904
  0
LINE
  5
307
100
AcDbEntity
  8
0
100
AcDbLine
 62
7
  6
CONTINUOUS
 10
3.3960684999
 20
0.6626340301
 11
3.39621348
 21
0.6627593927
  0
LINE
  5
308
100
AcDbEntity
  8
0
100
AcDbLine
 62
7
  6
CONTINUOUS
 10
3.3954671082
 20
1.0536801242
 11
3.3953349672
 21
1.0535681199
  0
LINE
  5
309
100
AcDbEntity
  8
0
100
AcDbLine
 62
7
  6
CONTINUOUS
 10
3.9235407948
 20
0.6474301242
 11
3.9237092095
 21
0.6475772551
  0
LINE
  5
30A
100
AcDbEntity
  8
0
100
AcDbLine
 62
7
  6
CONTINUOUS
 10
3.9602923698
 20
0.6628176636
 11
3.9601107456
 21
0.6626603926
  0
LINE
  5
30B
100
AcDbEntity
  8
0
100
AcDbLine
 62
7
  6
CONTINUOUS
 10
3.9215397269
 20
1.0384759447
 11
3.9213598104
 21
1.0383203746
  0
LINE
  5
30C
100
AcDbEntity
  8
0
100
AcDbLine
 62
7
  6
CONTINUOUS
 10
3.9493403674
 20
1.0384730952
 11
3.949159397
 21
1.0383168328
  0
LINE
  5
30D
100
AcDbEntity
  8
0
100
AcDbLine
 62
7
  6
CONTINUOUS
 10
3.5298311397
 20
1.1352204414
 11
3.5189742217
 21
1.1289464346
  0
LINE
  5
30E
100
AcDbEntity
  8
0
100
AcDbLine
 62
7
  6
CONTINUOUS
 10
3.5298501627
 20
1.1143918053
 11
3.5189620929
 21
1.1080988683
  0
LINE
  5
30F
100
AcDbEntity
  8
0
100
AcDbLine
 62
7
  6
CONTINUOUS
 10
3.5298342486
 20
1.0935482434
 11
3.518969053
 21
1.0872693138
  0
LINE
  5
310
100
AcDbEntity
  8
0
100
AcDbLine
 62
7
  6
CONTINUOUS
 10
3.5298460724
 20
1.0727142117
 11
3.5189761824
 21
1.0664319933
  0
LINE
  5
311
100
AcDbEntity
  8
0
100
AcDbLine
 62
7
  6
CONTINUOUS
 10
3.9513407873
 20
0.6474301242
 11
3.9515028469
 21
0.6475663492
  0
LINE
  5
312
100
AcDbEntity
  8
0
100
AcDbLine
 62
7
  6
CONTINUOUS
 10
3.7854171192
 20
1.1271179274
 11
3.7962240829
 21
1.1333635206
  0
LINE
  5
313
100
AcDbEntity
  8
0
100
AcDbLine
 62
7
  6
CONTINUOUS
 10
3.7854035088
 20
1.1062749148
 11
3.7962247679
 21
1.112529429
  0
LINE
  5
314
100
AcDbEntity
  8
0
100
AcDbLine
 62
7
  6
CONTINUOUS
 10
3.7854087948
 20
1.0854428635
 11
3.7962249463
 21
1.0916941672
  0
LINE
  5
315
100
AcDbEntity
  8
0
100
AcDbLine
 62
9
  6
CONTINUOUS
 10
3.563878882
 20
10.5037009498
 11
3.751378882
 21
10.5037009498
  0
LINE
  5
316
100
AcDbEntity
  8
0
100
AcDbLine
 62
9
  6
CONTINUOUS
 10
3.5368276118
 20
10.5639525838
 11
3.7784301522
 21
10.5639525838
  0
LINE
  5
317
100
AcDbEntity
  8
0
100
AcDbLine
 62
9
  6
CONTINUOUS
 10
3.785128882
 20
10.5889525838
 11
3.530128882
 21
10.5889525838
  0
LINE
  5
318
100
AcDbEntity
  8
0
100
AcDbLine
 62
7
  6
CONTINUOUS
 10
3.457628882
 20
10.7105551242
 11
3.857628882
 21
10.7105551242
  0
LINE
  5
319
100
AcDbEntity
  8
0
100
AcDbLine
 62
7
  6
CONTINUOUS
 10
3.868878882
 20
10.7405551242
 11
3.446378882
 21
10.7405551242
  0
LINE
  5
31A
100
AcDbEntity
  8
0
100
AcDbLine
 62
7
  6
CONTINUOUS
 10
3.868878882
 20
10.8030551242
 11
3.446378882
 21
10.8030551242
  0
LINE
  5
31B
100
AcDbEntity
  8
0
100
AcDbLine
 62
9
  6
CONTINUOUS
 10
3.7580776118
 20
10.5287009498
 11
3.5571801522
 21
10.5287009498
  0
ARC
  5
31C
100
AcDbEntity
  8
0
100
AcDbCircle
 62
7
  6
CONTINUOUS
 10
-26.7136654986
 20
0.2850364434
 40
30.1456754068
100
AcDbArc
 50
1.1116176001
 51
1.2836875244
  0
ARC
  5
31D
100
AcDbEntity
  8
0
100
AcDbCircle
 62
7
  6
CONTINUOUS
 10
-26.2071630583
 20
0.2968110337
 40
29.6140425764
100
AcDbArc
 50
1.1087906643
 51
1.2839495947
  0
ARC
  5
31E
100
AcDbEntity
  8
0
100
AcDbCircle
 62
7
  6
CONTINUOUS
 10
-23.5185112894
 20
0.3512138464
 40
26.9291699321
100
AcDbArc
 50
1.1035642185
 51
1.296173191
  0
ARC
  5
31F
100
AcDbEntity
  8
0
100
AcDbCircle
 62
7
  6
CONTINUOUS
 10
-19.9691997642
 20
0.3598586619
 40
23.9392734714
100
AcDbArc
 50
1.2594732135
 51
1.433441062
  0
ARC
  5
320
100
AcDbEntity
  8
0
100
AcDbCircle
 62
7
  6
CONTINUOUS
 10
-18.4763291065
 20
0.3961207761
 40
22.4530885523
100
AcDbArc
 50
1.2502960277
 51
1.4357734988
  0
ARC
  5
321
100
AcDbEntity
  8
0
100
AcDbCircle
 62
7
  6
CONTINUOUS
 10
-17.6801209149
 20
0.4128101648
 40
21.6217905748
100
AcDbArc
 50
1.2541381876
 51
1.4683928208
  0
ARC
  5
322
100
AcDbEntity
  8
0
100
AcDbCircle
 62
7
  6
CONTINUOUS
 10
-16.9606880699
 20
0.4459100758
 40
20.382635472
100
AcDbArc
 50
1.1660238645
 51
1.4582723033
  0
ARC
  5
323
100
AcDbEntity
  8
0
100
AcDbCircle
 62
7
  6
CONTINUOUS
 10
-16.963091395
 20
0.445926678
 40
20.3819136069
100
AcDbArc
 50
1.1660242679
 51
1.4582805582
  0
ARC
  5
324
100
AcDbEntity
  8
0
100
AcDbCircle
 62
7
  6
CONTINUOUS
 10
-15.8706851452
 20
0.4713408011
 40
19.2642196964
100
AcDbArc
 50
1.1647003328
 51
1.4751370051
  0
ARC
  5
325
100
AcDbEntity
  8
0
100
AcDbCircle
 62
7
  6
CONTINUOUS
 10
-15.8662421235
 20
0.4713707355
 40
19.2629013366
100
AcDbArc
 50
1.1646977426
 51
1.4751592507
  0
ARC
  5
326
100
AcDbEntity
  8
0
100
AcDbCircle
 62
7
  6
CONTINUOUS
 10
-15.0398610782
 20
0.4753814781
 40
18.987916195
100
AcDbArc
 50
1.239278195
 51
1.4832528134
  0
ARC
  5
327
100
AcDbEntity
  8
0
100
AcDbCircle
 62
7
  6
CONTINUOUS
 10
-4.0805789121
 20
0.7510992421
 40
7.9973894958
100
AcDbArc
 50
1.3032148625
 51
1.7488070188
  0
ARC
  5
328
100
AcDbEntity
  8
0
100
AcDbCircle
 62
7
  6
CONTINUOUS
 10
-3.2721370401
 20
0.7758796296
 40
7.2370272567
100
AcDbArc
 50
1.5123239217
 51
1.6363132552
  0
ARC
  5
329
100
AcDbEntity
  8
0
100
AcDbCircle
 62
7
  6
CONTINUOUS
 10
-3.7210215514
 20
0.7988559267
 40
7.1222930471
100
AcDbArc
 50
1.4261882498
 51
1.5437427441
  0
ARC
  5
32A
100
AcDbEntity
  8
0
100
AcDbCircle
 62
7
  6
CONTINUOUS
 10
-3.6641911586
 20
0.7996582658
 40
7.0904526906
100
AcDbArc
 50
1.4261085684
 51
1.5441909543
  0
ARC
  5
32B
100
AcDbEntity
  8
0
100
AcDbCircle
 62
7
  6
CONTINUOUS
 10
-3.2298668088
 20
0.8114172205
 40
6.635300444
100
AcDbArc
 50
1.4222695408
 51
1.5484609203
  0
ARC
  5
32C
100
AcDbEntity
  8
0
100
AcDbCircle
 62
7
  6
CONTINUOUS
 10
-2.5636681175
 20
0.7947545742
 40
6.5354210749
100
AcDbArc
 50
1.5970462556
 51
1.7749562868
  0
ARC
  5
32D
100
AcDbEntity
  8
0
100
AcDbCircle
 62
7
  6
CONTINUOUS
 10
-2.8986331659
 20
0.796576039
 40
6.3162150947
100
AcDbArc
 50
1.5245966606
 51
1.6544040878
  0
ARC
  5
32E
100
AcDbEntity
  8
0
100
AcDbCircle
 62
7
  6
CONTINUOUS
 10
-2.5231498488
 20
0.8070821266
 40
5.9374612962
100
AcDbArc
 50
1.5204673491
 51
1.6585542658
  0
ARC
  5
32F
100
AcDbEntity
  8
0
100
AcDbCircle
 62
7
  6
CONTINUOUS
 10
-2.5081968609
 20
0.808162746
 40
5.89749351
100
AcDbArc
 50
1.5458862633
 51
1.6839532344
  0
ARC
  5
330
100
AcDbEntity
  8
0
100
AcDbCircle
 62
7
  6
CONTINUOUS
 10
-2.1440027995
 20
0.8183425236
 40
5.5362812547
100
AcDbArc
 50
1.5414170156
 51
1.6884916891
  0
ARC
  5
331
100
AcDbEntity
  8
0
100
AcDbCircle
 62
7
  6
CONTINUOUS
 10
-1.4589038433
 20
0.8595532294
 40
4.8593611914
100
AcDbArc
 50
1.5468847735
 51
1.7042529452
  0
ARC
  5
332
100
AcDbEntity
  8
0
100
AcDbCircle
 62
7
  6
CONTINUOUS
 10
-1.4336040459
 20
0.8595259383
 40
4.8590623384
100
AcDbArc
 50
1.5473018861
 51
1.7046797421
  0
ARC
  5
333
100
AcDbEntity
  8
0
100
AcDbCircle
 62
7
  6
CONTINUOUS
 10
-0.8671999595
 20
0.8549891135
 40
4.2839422638
100
AcDbArc
 50
1.6578861348
 51
1.8322458936
  0
ARC
  5
334
100
AcDbEntity
  8
0
100
AcDbCircle
 62
7
  6
CONTINUOUS
 10
-0.5834278987
 20
0.8637299215
 40
3.9969124381
100
AcDbArc
 50
1.6516401844
 51
1.8385195466
  0
ARC
  5
335
100
AcDbEntity
  8
0
100
AcDbCircle
 62
7
  6
CONTINUOUS
 10
-0.5747321214
 20
0.8647443797
 40
3.9632010607
100
AcDbArc
 50
1.6877145254
 51
1.8740230832
  0
ARC
  5
336
100
AcDbEntity
  8
0
100
AcDbCircle
 62
7
  6
CONTINUOUS
 10
-0.2988672488
 20
0.8732245426
 40
3.6903297722
100
AcDbArc
 50
1.6808778441
 51
1.8809603971
  0
ARC
  5
337
100
AcDbEntity
  8
0
100
AcDbCircle
 62
7
  6
CONTINUOUS
 10
3.6320595717
 20
-0.2333762924
 40
1.5
100
AcDbArc
 50
19.4944839556
 51
33.074218907
  0
ARC
  5
338
100
AcDbEntity
  8
0
100
AcDbCircle
 62
7
  6
CONTINUOUS
 10
5.1049871082
 20
0.2880551242
 40
0.0625
100
AcDbArc
 50
199.4944839556
 51
270.0
  0
ARC
  5
339
100
AcDbEntity
  8
0
100
AcDbCircle
 62
7
  6
CONTINUOUS
 10
3.2991665768
 20
0.7450335912
 40
0.3511446377
100
AcDbArc
 50
166.1379776137
 51
166.93304254
  0
ARC
  5
33A
100
AcDbEntity
  8
0
100
AcDbCircle
 62
7
  6
CONTINUOUS
 10
2.8965393219
 20
0.7379599114
 40
0.3127856331
100
AcDbArc
 50
14.6374243856
 51
16.3257195045
  0
ARC
  5
33B
100
AcDbEntity
  8
0
100
AcDbCircle
 62
7
  6
CONTINUOUS
 10
3.239196257
 20
0.724125778
 40
0.2871412404
100
AcDbArc
 50
160.1682901971
 51
161.6397348209
  0
ARC
  5
33C
100
AcDbEntity
  8
0
100
AcDbCircle
 62
7
  6
CONTINUOUS
 10
2.9532052342
 20
0.7529256744
 40
0.2541770332
100
AcDbArc
 50
13.0328453874
 51
14.6012485803
  0
ARC
  5
33D
100
AcDbEntity
  8
0
100
AcDbCircle
 62
7
  6
CONTINUOUS
 10
3.2035128525
 20
0.7358761603
 40
0.2495730626
100
AcDbArc
 50
161.6195958536
 51
163.2386157293
  0
ARC
  5
33E
100
AcDbEntity
  8
0
100
AcDbCircle
 62
7
  6
CONTINUOUS
 10
2.9849358027
 20
0.7604148113
 40
0.2215749865
100
AcDbArc
 50
12.5451840287
 51
12.9964686499
  0
ARC
  5
33F
100
AcDbEntity
  8
0
100
AcDbCircle
 62
7
  6
CONTINUOUS
 10
3.1612931279
 20
0.6346554634
 40
0.2107911923
100
AcDbArc
 50
22.6489578484
 51
23.0073028177
  0
ARC
  5
340
100
AcDbEntity
  8
0
100
AcDbCircle
 62
7
  6
CONTINUOUS
 10
3.166175518
 20
0.6366901772
 40
0.205501789
100
AcDbArc
 50
22.130183874
 51
22.649607687
  0
ARC
  5
341
100
AcDbEntity
  8
0
100
AcDbCircle
 62
7
  6
CONTINUOUS
 10
3.1721949926
 20
0.6830111389
 40
0.1989752226
100
AcDbArc
 50
336.9736997834
 51
339.9180053463
  0
ARC
  5
342
100
AcDbEntity
  8
0
100
AcDbCircle
 62
7
  6
CONTINUOUS
 10
3.1807353924
 20
0.6425130124
 40
0.1898210242
100
AcDbArc
 50
20.0312744568
 51
22.1576560353
  0
ARC
  5
343
100
AcDbEntity
  8
0
100
AcDbCircle
 62
7
  6
CONTINUOUS
 10
3.1989567153
 20
0.6731019606
 40
0.1704381337
100
AcDbArc
 50
339.9575705494
 51
343.2982538103
  0
ARC
  5
344
100
AcDbEntity
  8
0
100
AcDbCircle
 62
7
  6
CONTINUOUS
 10
3.2008925223
 20
0.6497516043
 40
0.1684038591
100
AcDbArc
 50
17.1765425985
 51
20.0665845621
  0
ARC
  5
345
100
AcDbEntity
  8
0
100
AcDbCircle
 62
7
  6
CONTINUOUS
 10
3.2105488422
 20
0.6527776993
 40
0.1582845653
100
AcDbArc
 50
16.6395665609
 51
17.1622608554
  0
ARC
  5
346
100
AcDbEntity
  8
0
100
AcDbCircle
 62
7
  6
CONTINUOUS
 10
3.223561667
 20
0.6565036403
 40
0.1447498126
100
AcDbArc
 50
12.8704637558
 51
16.7014366168
  0
ARC
  5
347
100
AcDbEntity
  8
0
100
AcDbCircle
 62
7
  6
CONTINUOUS
 10
3.2433956945
 20
0.6617351608
 40
0.1245086693
100
AcDbArc
 50
351.2226364688
 51
355.4802291398
  0
ARC
  5
348
100
AcDbEntity
  8
0
100
AcDbCircle
 62
7
  6
CONTINUOUS
 10
3.2513674637
 20
0.6611120505
 40
0.1165125879
100
AcDbArc
 50
355.4767733147
 51
4.5221057579
  0
ARC
  5
349
100
AcDbEntity
  8
0
100
AcDbCircle
 62
7
  6
CONTINUOUS
 10
3.079628882
 20
0.5164471701
 40
0.11
100
AcDbArc
 50
151.4532700444
 51
28.5467299556
  0
ARC
  5
34A
100
AcDbEntity
  8
0
100
AcDbCircle
 62
7
  6
CONTINUOUS
 10
3.0321131243
 20
0.7684973355
 40
0.0744031564
100
AcDbArc
 50
179.9742779589
 51
182.1812498505
  0
ARC
  5
34B
100
AcDbEntity
  8
0
100
AcDbCircle
 62
7
  6
CONTINUOUS
 10
0.6782303777
 20
0.8957208165
 40
3.2919507834
100
AcDbArc
 50
1.7661906251
 51
1.9943865117
  0
ARC
  5
34C
100
AcDbEntity
  8
0
100
AcDbCircle
 62
7
  6
CONTINUOUS
 10
1.0014536142
 20
0.9068578889
 40
2.9129707104
100
AcDbArc
 50
1.7371206269
 51
2.1851560242
  0
ARC
  5
34D
100
AcDbEntity
  8
0
100
AcDbCircle
 62
7
  6
CONTINUOUS
 10
0.6219732749
 20
0.9023619697
 40
2.7940157549
100
AcDbArc
 50
1.8376823436
 51
2.0760782108
  0
ARC
  5
34E
100
AcDbEntity
  8
0
100
AcDbCircle
 62
7
  6
CONTINUOUS
 10
1.0249981943
 20
0.917382448
 40
2.3626044439
100
AcDbArc
 50
1.9504650082
 51
2.1439299573
  0
ARC
  5
34F
100
AcDbEntity
  8
0
100
AcDbCircle
 62
7
  6
CONTINUOUS
 10
1.0296823637
 20
0.9173191478
 40
2.3610487369
100
AcDbArc
 50
1.8697056042
 51
2.1469548548
  0
ARC
  5
350
100
AcDbEntity
  8
0
100
AcDbCircle
 62
7
  6
CONTINUOUS
 10
1.9582543104
 20
0.9406926445
 40
2.0111371847
100
AcDbArc
 50
1.9830555519
 51
2.3124578142
  0
ARC
  5
351
100
AcDbEntity
  8
0
100
AcDbCircle
 62
7
  6
CONTINUOUS
 10
1.8363952009
 20
0.947739048
 40
1.5506397742
100
AcDbArc
 50
2.1446295903
 51
2.5088805891
  0
ARC
  5
352
100
AcDbEntity
  8
0
100
AcDbCircle
 62
7
  6
CONTINUOUS
 10
3.2773998601
 20
0.8505530441
 40
0.3325209782
100
AcDbArc
 50
178.5008434875
 51
181.502171116
  0
ARC
  5
353
100
AcDbEntity
  8
0
100
AcDbCircle
 62
7
  6
CONTINUOUS
 10
3.2763785763
 20
0.850488657
 40
0.331498251
100
AcDbArc
 50
181.4949572409
 51
187.4918510291
  0
ARC
  5
354
100
AcDbEntity
  8
0
100
AcDbCircle
 62
7
  6
CONTINUOUS
 10
3.2753120409
 20
0.8507095369
 40
0.330429795
100
AcDbArc
 50
169.5181728575
 51
178.5184983677
  0
ARC
  5
355
100
AcDbEntity
  8
0
100
AcDbCircle
 62
7
  6
CONTINUOUS
 10
3.2737269224
 20
0.8501414255
 40
0.3288239594
100
AcDbArc
 50
187.4921069975
 51
190.4876472102
  0
ARC
  5
356
100
AcDbEntity
  8
0
100
AcDbCircle
 62
7
  6
CONTINUOUS
 10
3.2722771659
 20
0.8498729109
 40
0.3273495463
100
AcDbArc
 50
190.487622866
 51
191.982943521
  0
ARC
  5
357
100
AcDbEntity
  8
0
100
AcDbCircle
 62
7
  6
CONTINUOUS
 10
3.2722771642
 20
0.8512373379
 40
0.3273495446
100
AcDbArc
 50
168.0170545721
 51
169.5123754641
  0
ARC
  5
358
100
AcDbEntity
  8
0
100
AcDbCircle
 62
7
  6
CONTINUOUS
 10
2.8924958748
 20
0.8485718568
 40
0.3216815614
100
AcDbArc
 50
343.3648917316
 51
344.987504409
  0
ARC
  5
359
100
AcDbEntity
  8
0
100
AcDbCircle
 62
7
  6
CONTINUOUS
 10
2.8924958781
 20
0.8525383926
 40
0.321681558
100
AcDbArc
 50
15.0124955908
 51
16.6351119198
  0
ARC
  5
35A
100
AcDbEntity
  8
0
100
AcDbCircle
 62
7
  6
CONTINUOUS
 10
2.9676758086
 20
0.9446223784
 40
0.2392758854
100
AcDbArc
 50
345.3490794676
 51
347.432060338
  0
ARC
  5
35B
100
AcDbEntity
  8
0
100
AcDbCircle
 62
9
  6
CONTINUOUS
 10
3.1206040418
 20
0.9338850371
 40
0.1321428172
100
AcDbArc
 50
301.7699387042
 51
302.5654769834
  0
ARC
  5
35C
100
AcDbEntity
  8
0
100
AcDbCircle
 62
9
  6
CONTINUOUS
 10
3.1263789815
 20
0.9248413174
 40
0.1214125426
100
AcDbArc
 50
302.5659086486
 51
303.9225507067
  0
ARC
  5
35D
100
AcDbEntity
  8
0
100
AcDbCircle
 62
9
  6
CONTINUOUS
 10
3.134071116
 20
0.9133701133
 40
0.1076010598
100
AcDbArc
 50
303.9326028532
 51
305.603263704
  0
ARC
  5
35E
100
AcDbEntity
  8
0
100
AcDbCircle
 62
7
  6
CONTINUOUS
 10
3.2877345821
 20
0.8485862206
 40
0.0948400412
100
AcDbArc
 50
163.6858439699
 51
165.4419836472
  0
ARC
  5
35F
100
AcDbEntity
  8
0
100
AcDbCircle
 62
7
  6
CONTINUOUS
 10
3.2877067689
 20
0.8525159021
 40
0.0948110399
100
AcDbArc
 50
194.558123624
 51
196.314116699
  0
ARC
  5
360
100
AcDbEntity
  8
0
100
AcDbCircle
 62
7
  6
CONTINUOUS
 10
3.2847560719
 20
0.8493527489
 40
0.0917644858
100
AcDbArc
 50
165.4377621757
 51
169.00855518
  0
ARC
  5
361
100
AcDbEntity
  8
0
100
AcDbCircle
 62
7
  6
CONTINUOUS
 10
3.2818515501
 20
0.851115378
 40
0.0887918512
100
AcDbArc
 50
187.3330624447
 51
194.6331195
  0
ARC
  5
362
100
AcDbEntity
  8
0
100
AcDbCircle
 62
7
  6
CONTINUOUS
 10
3.2809532887
 20
0.8501230764
 40
0.0878845951
100
AcDbArc
 50
169.0288622607
 51
172.6768986353
  0
ARC
  5
363
100
AcDbEntity
  8
0
100
AcDbCircle
 62
7
  6
CONTINUOUS
 10
2.8739039543
 20
0.8505550307
 40
0.0869853728
100
AcDbArc
 50
355.3377375155
 51
4.6648796168
  0
ARC
  5
364
100
AcDbEntity
  8
0
100
AcDbCircle
 62
7
  6
CONTINUOUS
 10
3.2786306447
 20
0.8506732575
 40
0.0855408632
100
AcDbArc
 50
185.4731339715
 51
187.3147112244
  0
ARC
  5
365
100
AcDbEntity
  8
0
100
AcDbCircle
 62
7
  6
CONTINUOUS
 10
3.2780739251
 20
0.8505021005
 40
0.0849804064
100
AcDbArc
 50
172.6829098049
 51
178.1762181645
  0
ARC
  5
366
100
AcDbEntity
  8
0
100
AcDbCircle
 62
7
  6
CONTINUOUS
 10
3.2774902956
 20
0.8505690554
 40
0.0843957744
100
AcDbArc
 50
180.0094578062
 51
185.476554486
  0
ARC
  5
367
100
AcDbEntity
  8
0
100
AcDbCircle
 62
7
  6
CONTINUOUS
 10
3.2768769515
 20
0.8505527169
 40
0.0837824292
100
AcDbArc
 50
178.1847639905
 51
179.9983537224
  0
ARC
  5
368
100
AcDbEntity
  8
0
100
AcDbCircle
 62
7
  6
CONTINUOUS
 10
2.3437192599
 20
0.958147667
 40
1.5697255001
100
AcDbArc
 50
2.1824791199
 51
2.5286199379
  0
ARC
  5
369
100
AcDbEntity
  8
0
100
AcDbCircle
 62
7
  6
CONTINUOUS
 10
1.976129228
 20
0.9532898284
 40
1.4139187788
100
AcDbArc
 50
2.1271388349
 51
2.5265987219
  0
ARC
  5
36A
100
AcDbEntity
  8
0
100
AcDbCircle
 62
7
  6
CONTINUOUS
 10
2.7499162822
 20
0.9731483588
 40
1.2188104462
100
AcDbArc
 50
2.2895886698
 51
2.7552837457
  0
ARC
  5
36B
100
AcDbEntity
  8
0
100
AcDbCircle
 62
7
  6
CONTINUOUS
 10
2.9817443752
 20
0.986734668
 40
0.9310605016
100
AcDbArc
 50
2.5033580787
 51
3.002700336
  0
ARC
  5
36C
100
AcDbEntity
  8
0
100
AcDbCircle
 62
7
  6
CONTINUOUS
 10
3.2946966046
 20
0.9549716633
 40
0.3465401106
100
AcDbArc
 50
193.0476686375
 51
193.86170552
  0
ARC
  5
36D
100
AcDbEntity
  8
0
100
AcDbCircle
 62
7
  6
CONTINUOUS
 10
2.8867439116
 20
0.9659876675
 40
0.3229836272
100
AcDbArc
 50
343.679711974
 51
344.449277912
  0
ARC
  5
36E
100
AcDbEntity
  8
0
100
AcDbCircle
 62
7
  6
CONTINUOUS
 10
2.919530704
 20
0.956921111
 40
0.2889663846
100
AcDbArc
 50
344.4383342251
 51
345.4042942116
  0
ARC
  5
36F
100
AcDbEntity
  8
0
100
AcDbCircle
 62
7
  6
CONTINUOUS
 10
3.2361089209
 20
0.9758296689
 40
0.2838452329
100
AcDbArc
 50
197.6291799975
 51
199.8239078968
  0
ARC
  5
370
100
AcDbEntity
  8
0
100
AcDbCircle
 62
7
  6
CONTINUOUS
 10
3.1871150841
 20
0.9601266168
 40
0.2323965981
100
AcDbArc
 50
195.0851390223
 51
197.5977359875
  0
ARC
  5
371
100
AcDbEntity
  8
0
100
AcDbCircle
 62
7
  6
CONTINUOUS
 10
3.1770755826
 20
1.0200269712
 40
0.1937294485
100
AcDbArc
 50
20.0417861243
 51
23.0661676536
  0
ARC
  5
372
100
AcDbEntity
  8
0
100
AcDbCircle
 62
7
  6
CONTINUOUS
 10
3.202877969
 20
1.0293105894
 40
0.1663080772
100
AcDbArc
 50
16.6595925081
 51
20.0835369705
  0
ARC
  5
373
100
AcDbEntity
  8
0
100
AcDbCircle
 62
7
  6
CONTINUOUS
 10
3.223561667
 20
1.0353897545
 40
0.1447498126
100
AcDbArc
 50
12.8704637556
 51
16.7014366167
  0
ARC
  5
374
100
AcDbEntity
  8
0
100
AcDbCircle
 62
7
  6
CONTINUOUS
 10
3.2364782294
 20
1.0383048896
 40
0.1315084294
100
AcDbArc
 50
8.7771857965
 51
12.8858160484
  0
ARC
  5
375
100
AcDbEntity
  8
0
100
AcDbCircle
 62
7
  6
CONTINUOUS
 10
3.2411481305
 20
1.0408889458
 40
0.1267703688
100
AcDbArc
 50
349.205116783
 51
355.4396772823
  0
ARC
  5
376
100
AcDbEntity
  8
0
100
AcDbCircle
 62
7
  6
CONTINUOUS
 10
3.2446276022
 20
1.0395186905
 40
0.1232692832
100
AcDbArc
 50
4.497278752
 51
8.7976117461
  0
ARC
  5
377
100
AcDbEntity
  8
0
100
AcDbCircle
 62
7
  6
CONTINUOUS
 10
3.2513674637
 20
1.0399981646
 40
0.1165125879
100
AcDbArc
 50
355.4767733147
 51
4.5221057577
  0
ARC
  5
378
100
AcDbEntity
  8
0
100
AcDbCircle
 62
7
  6
CONTINUOUS
 10
4.941378882
 20
0.6193189602
 40
0.0625
100
AcDbArc
 50
180.0
 51
213.0742189069
  0
ARC
  5
379
100
AcDbEntity
  8
0
100
AcDbCircle
 62
7
  6
CONTINUOUS
 10
6.596283996
 20
0.8113115533
 40
3.179719611
100
AcDbArc
 50
181.82096778
 51
181.9490083741
  0
ARC
  5
37A
100
AcDbEntity
  8
0
100
AcDbCircle
 62
7
  6
CONTINUOUS
 10
6.5641979929
 20
0.8110103313
 40
3.1695041247
100
AcDbArc
 50
181.8184119425
 51
181.9479448511
  0
ARC
  5
37B
100
AcDbEntity
  8
0
100
AcDbCircle
 62
7
  6
CONTINUOUS
 10
6.1388279123
 20
0.7960951997
 40
2.7188876589
100
AcDbArc
 50
181.8088969278
 51
182.0564792102
  0
ARC
  5
37C
100
AcDbEntity
  8
0
100
AcDbCircle
 62
7
  6
CONTINUOUS
 10
6.0870193439
 20
0.795361286
 40
2.6951926938
100
AcDbArc
 50
181.8056894695
 51
182.0587672014
  0
ARC
  5
37D
100
AcDbEntity
  8
0
100
AcDbCircle
 62
7
  6
CONTINUOUS
 10
3.6790811437
 20
0.8084034221
 40
0.2970748126
100
AcDbArc
 50
103.4355616135
 51
104.0406853544
  0
ARC
  5
37E
100
AcDbEntity
  8
0
100
AcDbCircle
 62
7
  6
CONTINUOUS
 10
3.654072365
 20
0.8321520702
 40
0.2725615498
100
AcDbArc
 50
78.5364099818
 51
79.1877736828
  0
ARC
  5
37F
100
AcDbEntity
  8
0
100
AcDbCircle
 62
7
  6
CONTINUOUS
 10
12.7471372616
 20
0.9723244155
 40
8.8310586734
100
AcDbArc
 50
181.3258996502
 51
181.7349968573
  0
ARC
  5
380
100
AcDbEntity
  8
0
100
AcDbCircle
 62
7
  6
CONTINUOUS
 10
9.9645438374
 20
0.911622023
 40
6.5713412235
100
AcDbArc
 50
181.5109155978
 51
181.6382611167
  0
ARC
  5
381
100
AcDbEntity
  8
0
100
AcDbCircle
 62
7
  6
CONTINUOUS
 10
9.8864536185
 20
0.9089012176
 40
6.4713391701
100
AcDbArc
 50
181.5153179262
 51
181.6426643259
  0
ARC
  5
382
100
AcDbEntity
  8
0
100
AcDbCircle
 62
7
  6
CONTINUOUS
 10
9.5835368656
 20
0.9012345391
 40
6.193316757
100
AcDbArc
 50
181.5070316806
 51
181.6421487994
  0
ARC
  5
383
100
AcDbEntity
  8
0
100
AcDbCircle
 62
7
  6
CONTINUOUS
 10
9.5263798059
 20
0.8988894063
 40
6.1080026303
100
AcDbArc
 50
181.5115367265
 51
181.6464557575
  0
ARC
  5
384
100
AcDbEntity
  8
0
100
AcDbCircle
 62
7
  6
CONTINUOUS
 10
9.0347148594
 20
0.8625770706
 40
5.0685676764
100
AcDbArc
 50
181.566221087
 51
181.7075966282
  0
ARC
  5
385
100
AcDbEntity
  8
0
100
AcDbCircle
 62
7
  6
CONTINUOUS
 10
8.3657859308
 20
0.8465139392
 40
4.9835737095
100
AcDbArc
 50
181.4704318169
 51
181.8431647056
  0
ARC
  5
386
100
AcDbEntity
  8
0
100
AcDbCircle
 62
7
  6
CONTINUOUS
 10
7.9411224962
 20
0.8335075828
 40
4.533724828
100
AcDbArc
 50
181.4519399878
 51
181.8616565787
  0
ARC
  5
387
100
AcDbEntity
  8
0
100
AcDbCircle
 62
7
  6
CONTINUOUS
 10
7.9029196676
 20
0.8522674378
 40
4.4869969038
100
AcDbArc
 50
181.6458493173
 51
181.8134958262
  0
ARC
  5
388
100
AcDbEntity
  8
0
100
AcDbCircle
 62
7
  6
CONTINUOUS
 10
7.8507047972
 20
0.8302950027
 40
4.4225849716
100
AcDbArc
 50
181.4466553601
 51
181.8668147922
  0
ARC
  5
389
100
AcDbEntity
  8
0
100
AcDbCircle
 62
7
  6
CONTINUOUS
 10
7.6079773013
 20
0.8441134389
 40
4.2169316559
100
AcDbArc
 50
181.6355716932
 51
181.8165936976
  0
ARC
  5
38A
100
AcDbEntity
  8
0
100
AcDbCircle
 62
7
  6
CONTINUOUS
 10
7.6191531946
 20
0.8436039746
 40
4.1999749804
100
AcDbArc
 50
181.6401266574
 51
181.8192266978
  0
ARC
  5
38B
100
AcDbEntity
  8
0
100
AcDbCircle
 62
7
  6
CONTINUOUS
 10
7.1505930075
 20
0.8107683776
 40
3.7471962095
100
AcDbArc
 50
181.4087907035
 51
181.9046794487
  0
ARC
  5
38C
100
AcDbEntity
  8
0
100
AcDbCircle
 62
7
  6
CONTINUOUS
 10
3.6320595717
 20
1.9344865408
 40
1.5
100
AcDbArc
 50
326.925781093
 51
340.5055160444
  0
ARC
  5
38D
100
AcDbEntity
  8
0
100
AcDbCircle
 62
7
  6
CONTINUOUS
 10
3.7234817411
 20
2.3352355695
 40
1.2001181897
100
AcDbArc
 50
272.2883308131
 51
272.6713973582
  0
ARC
  5
38E
100
AcDbEntity
  8
0
100
AcDbCircle
 62
7
  6
CONTINUOUS
 10
3.6283357482
 20
1.4224050974
 40
0.3290298149
100
AcDbArc
 50
283.5100653947
 51
287.1794300733
  0
ARC
  5
38F
100
AcDbEntity
  8
0
100
AcDbCircle
 62
7
  6
CONTINUOUS
 10
3.6602168982
 20
1.3628964828
 40
0.2676855219
100
AcDbArc
 50
258.53626837
 51
259.1994975032
  0
ARC
  5
390
100
AcDbEntity
  8
0
100
AcDbCircle
 62
7
  6
CONTINUOUS
 10
3.1721949926
 20
1.061897253
 40
0.1989752226
100
AcDbArc
 50
336.9736997834
 51
339.9180053463
  0
ARC
  5
391
100
AcDbEntity
  8
0
100
AcDbCircle
 62
7
  6
CONTINUOUS
 10
3.4466115689
 20
1.0599694409
 40
0.1937295785
100
AcDbArc
 50
200.0418022622
 51
203.0661671663
  0
ARC
  5
392
100
AcDbEntity
  8
0
100
AcDbCircle
 62
7
  6
CONTINUOUS
 10
3.1989567153
 20
1.0519880747
 40
0.1704381337
100
AcDbArc
 50
339.9575705495
 51
343.2982538104
  0
ARC
  5
393
100
AcDbEntity
  8
0
100
AcDbCircle
 62
7
  6
CONTINUOUS
 10
3.5833047148
 20
1.2260785386
 40
0.1498377804
100
AcDbArc
 50
132.303700058
 51
135.0792682483
  0
ARC
  5
394
100
AcDbEntity
  8
0
100
AcDbCircle
 62
7
  6
CONTINUOUS
 10
3.079628882
 20
1.1846630783
 40
0.11
100
AcDbArc
 50
331.4532700444
 51
208.5467299556
  0
ARC
  5
395
100
AcDbEntity
  8
0
100
AcDbCircle
 62
7
  6
CONTINUOUS
 10
4.941378882
 20
1.0817912882
 40
0.0625
100
AcDbArc
 50
146.9257810931
 51
180.0
  0
ARC
  5
396
100
AcDbEntity
  8
0
100
AcDbCircle
 62
7
  6
CONTINUOUS
 10
5.1049871082
 20
1.4130551242
 40
0.0625
100
AcDbArc
 50
90.0
 51
160.5055160444
  0
ARC
  5
397
100
AcDbEntity
  8
0
100
AcDbCircle
 62
7
  6
CONTINUOUS
 10
3.522664386
 20
1.1883987611
 40
0.0418639834
100
AcDbArc
 50
257.8007400445
 51
263.0863597041
  0
ARC
  5
398
100
AcDbEntity
  8
0
100
AcDbCircle
 62
7
  6
CONTINUOUS
 10
3.5223446422
 20
1.18590243
 40
0.039347319
100
AcDbArc
 50
263.1110088613
 51
269.9530688087
  0
ARC
  5
399
100
AcDbEntity
  8
0
100
AcDbCircle
 62
7
  6
CONTINUOUS
 10
27.6083087864
 20
1.2950546057
 40
24.2063365283
100
AcDbArc
 50
181.0899184347
 51
181.3348578799
  0
ARC
  5
39A
100
AcDbEntity
  8
0
100
AcDbCircle
 62
7
  6
CONTINUOUS
 10
27.9351301451
 20
1.3429919106
 40
23.9751032354
100
AcDbArc
 50
181.2260343404
 51
181.4360775086
  0
ARC
  5
39B
100
AcDbEntity
  8
0
100
AcDbCircle
 62
7
  6
CONTINUOUS
 10
27.0886572438
 20
1.2827185192
 40
23.6658688472
100
AcDbArc
 50
181.0849236544
 51
181.3354428467
  0
ARC
  5
39C
100
AcDbEntity
  8
0
100
AcDbCircle
 62
7
  6
CONTINUOUS
 10
24.4872877535
 20
1.271015579
 40
21.0766568875
100
AcDbArc
 50
181.16643942
 51
181.4497497537
  0
ARC
  5
39D
100
AcDbEntity
  8
0
100
AcDbCircle
 62
7
  6
CONTINUOUS
 10
24.4897737444
 20
1.2710007931
 40
21.076017708
100
AcDbArc
 50
181.1664404379
 51
181.4497554589
  0
ARC
  5
39E
100
AcDbEntity
  8
0
100
AcDbCircle
 62
7
  6
CONTINUOUS
 10
23.0498694423
 20
1.1978272425
 40
19.6511935399
100
AcDbArc
 50
181.0590398884
 51
181.3607394707
  0
ARC
  5
39F
100
AcDbEntity
  8
0
100
AcDbCircle
 62
7
  6
CONTINUOUS
 10
21.448688421
 20
1.1990695119
 40
18.0590788559
100
AcDbArc
 50
181.1864915416
 51
181.4618676647
  0
ARC
  5
3A0
100
AcDbEntity
  8
0
100
AcDbCircle
 62
7
  6
CONTINUOUS
 10
21.4452315418
 20
1.1990616718
 40
18.0587468844
100
AcDbArc
 50
181.1864935486
 51
181.4618705546
  0
ARC
  5
3A1
100
AcDbEntity
  8
0
100
AcDbCircle
 62
7
  6
CONTINUOUS
 10
3.580128882
 20
10.5889525838
 40
0.05
100
AcDbArc
 50
180.0
 51
210.0000002616
  0
ARC
  5
3A2
100
AcDbEntity
  8
0
100
AcDbCircle
 62
7
  6
CONTINUOUS
 10
3.735128882
 20
10.5889525838
 40
0.05
100
AcDbArc
 50
329.999999717
 51
360.0
  0
ARC
  5
3A3
100
AcDbEntity
  8
0
100
AcDbCircle
 62
7
  6
CONTINUOUS
 10
3.801378882
 20
10.5037009498
 40
0.05
100
AcDbArc
 50
149.999999461
 51
180.0
  0
ARC
  5
3A4
100
AcDbEntity
  8
0
100
AcDbCircle
 62
7
  6
CONTINUOUS
 10
3.513878882
 20
10.5037009498
 40
0.05
100
AcDbArc
 50
0.0
 51
30.0000005463
  0
SPLINE
  5
3A5
100
AcDbEntity
  8
0
100
AcDbSpline
 62
7
  6
CONTINUOUS
 70
0
 71
3
 72
9
 73
5
 74
0
 42
0.0000001
 43
0.0000001
 44
0.0000000001
 40
0.0
 40
0.0
 40
0.0
 40
0.0
 40
0.2596816162
 40
1.0
 40
1.0
 40
1.0
 40
1.0
 10
2.9627268342
 20
0.8996444534
 30
0.0
 10
2.9623201004
 20
0.90116096
 30
0.0
 10
2.9608211507
 20
0.9070182344
 30
0.0
 10
2.9596147349
 20
0.9129537819
 30
0.0
 10
2.9589476316
 20
0.9173799517
 30
0.0
  0
SPLINE
  5
3A6
100
AcDbEntity
  8
0
100
AcDbSpline
 62
7
  6
CONTINUOUS
 70
0
 71
3
 72
11
 73
7
 74
0
 42
0.0000001
 43
0.0000001
 44
0.0000000001
 40
0.0
 40
0.0
 40
0.0
 40
0.0
 40
0.2814162855
 40
0.542562802
 40
0.7820749592
 40
1.0
 40
1.0
 40
1.0
 40
1.0
 10
2.9589476316
 20
0.9173799517
 30
0.0
 10
2.9585543834
 20
0.9199891176
 30
0.0
 10
2.9579469201
 20
0.9250442636
 30
0.0
 10
2.9576052256
 20
0.9323773309
 30
0.0
 10
2.9578939285
 20
0.9391183316
 30
0.0
 10
2.9585209889
 20
0.9433724138
 30
0.0
 10
2.9589481126
 20
0.945370597
 30
0.0
  0
LINE
  5
3A7
100
AcDbEntity
  8
0
100
AcDbLine
 62
7
  6
CONTINUOUS
 10
2.9589481126
 20
0.945370597
 11
2.9599628259
 21
0.949247307
  0
SPLINE
  5
3A8
100
AcDbEntity
  8
0
100
AcDbSpline
 62
7
  6
CONTINUOUS
 70
0
 71
3
 72
13
 73
9
 74
0
 42
0.0000001
 43
0.0000001
 44
0.0000000001
 40
0.0
 40
0.0
 40
0.0
 40
0.0
 40
0.2479944488
 40
0.373748723
 40
0.5000002351
 40
0.6262517214
 40
0.7520058518
 40
1.0
 40
1.0
 40
1.0
 40
1.0
 10
2.969084458
 20
0.8215409103
 30
0.0
 10
2.9707435011
 20
0.8261471125
 30
0.0
 10
2.9727262773
 20
0.8332985785
 30
0.0
 10
2.974102436
 20
0.8430841252
 30
0.0
 10
2.9744444631
 20
0.8505550111
 30
0.0
 10
2.9741024687
 20
0.858025895
 30
0.0
 10
2.9727263698
 20
0.8678114414
 30
0.0
 10
2.9707435869
 20
0.8749628993
 30
0.0
 10
2.9690845434
 20
0.8795690951
 30
0.0
  0
SPLINE
  5
3A9
100
AcDbEntity
  8
0
100
AcDbSpline
 62
7
  6
CONTINUOUS
 70
0
 71
3
 72
11
 73
7
 74
0
 42
0.0000001
 43
0.0000001
 44
0.0000000001
 40
0.0
 40
0.0
 40
0.0
 40
0.0
 40
0.296976865
 40
0.5658924157
 40
0.8010392895
 40
1.0
 40
1.0
 40
1.0
 40
1.0
 10
3.2012206902
 20
0.8085429953
 30
0.0
 10
3.2021600421
 20
0.8043209394
 30
0.0
 10
3.2037081058
 20
0.7962178692
 30
0.0
 10
3.2049464097
 20
0.7845984975
 30
0.0
 10
3.2049056718
 20
0.7743365812
 30
0.0
 10
3.2039467418
 20
0.7680469751
 30
0.0
 10
3.2031981385
 20
0.765247598
 30
0.0
  0
SPLINE
  5
3AA
100
AcDbEntity
  8
0
100
AcDbSpline
 62
7
  6
CONTINUOUS
 70
0
 71
3
 72
9
 73
5
 74
0
 42
0.0000001
 43
0.0000001
 44
0.0000000001
 40
0.0
 40
0.0
 40
0.0
 40
0.0
 40
0.4721193944
 40
1.0
 40
1.0
 40
1.0
 40
1.0
 10
2.9577099754
 20
0.7685307376
 30
0.0
 10
2.9577099754
 20
0.7727720961
 30
0.0
 10
2.9584138355
 20
0.7817580634
 30
0.0
 10
2.960092025
 20
0.7905969989
 30
0.0
 10
2.9611618839
 20
0.7952170414
 30
0.0
  0
SPLINE
  5
3AB
100
AcDbEntity
  8
0
100
AcDbSpline
 62
7
  6
CONTINUOUS
 70
0
 71
3
 72
9
 73
5
 74
0
 42
0.0000001
 43
0.0000001
 44
0.0000000001
 40
0.0
 40
0.0
 40
0.0
 40
0.0
 40
0.2445687362
 40
1.0
 40
1.0
 40
1.0
 40
1.0
 10
2.9611618839
 20
0.7952170414
 30
0.0
 10
2.9614024198
 20
0.7962557637
 30
0.0
 10
2.9624246129
 20
0.800493939
 30
0.0
 10
2.963593932
 20
0.8046960834
 30
0.0
 10
2.9645431313
 20
0.8078496686
 30
0.0
  0
SPLINE
  5
3AC
100
AcDbEntity
  8
0
100
AcDbSpline
 62
7
  6
CONTINUOUS
 70
0
 71
3
 72
9
 73
5
 74
0
 42
0.0000001
 43
0.0000001
 44
0.0000000001
 40
0.0
 40
0.0
 40
0.0
 40
0.0
 40
0.2534302297
 40
1.0
 40
1.0
 40
1.0
 40
1.0
 10
3.2007142064
 20
0.7564822971
 30
0.0
 10
3.1991673048
 20
0.7513052332
 30
0.0
 10
3.1925484675
 20
0.7310355966
 30
0.0
 10
3.1838623399
 20
0.71143386
 30
0.0
 10
3.1762559239
 20
0.697451791
 30
0.0
  0
SPLINE
  5
3AD
100
AcDbEntity
  8
0
100
AcDbSpline
 62
7
  6
CONTINUOUS
 70
0
 71
3
 72
12
 73
8
 74
0
 42
0.0000001
 43
0.0000001
 44
0.0000000001
 40
0.0
 40
0.0
 40
0.0
 40
0.0
 40
0.2732510034
 40
0.5369751376
 40
0.7831258636
 40
0.8961067501
 40
1.0
 40
1.0
 40
1.0
 40
1.0
 10
2.998378882
 20
0.6332326252
 30
0.0
 10
2.998378882
 20
0.639304424
 30
0.0
 10
2.9976279496
 20
0.6512479085
 30
0.0
 10
2.9944778398
 20
0.6684026568
 30
0.0
 10
2.9902801741
 20
0.6816336541
 30
0.0
 10
2.9862633228
 20
0.6911110335
 30
0.0
 10
2.984107234
 20
0.6954256992
 30
0.0
 10
2.9830012293
 20
0.6974520867
 30
0.0
  0
SPLINE
  5
3AE
100
AcDbEntity
  8
0
100
AcDbSpline
 62
7
  6
CONTINUOUS
 70
0
 71
3
 72
12
 73
8
 74
0
 42
0.0000001
 43
0.0000001
 44
0.0000000001
 40
0.0
 40
0.0
 40
0.0
 40
0.0
 40
0.2167733977
 40
0.337077816
 40
0.463141337
 40
0.7269709814
 40
1.0
 40
1.0
 40
1.0
 40
1.0
 10
3.1762624882
 20
0.6974534543
 30
0.0
 10
3.1739576014
 20
0.6932234354
 30
0.0
 10
3.170830657
 20
0.6863874926
 30
0.0
 10
3.1674087167
 20
0.6766769958
 30
0.0
 10
3.1642943167
 20
0.6657676952
 30
0.0
 10
3.161620989
 20
0.6512411977
 30
0.0
 10
3.160878882
 20
0.6392999728
 30
0.0
 10
3.160878882
 20
0.6332326252
 30
0.0
  0
SPLINE
  5
3AF
100
AcDbEntity
  8
0
100
AcDbSpline
 62
7
  6
CONTINUOUS
 70
0
 71
3
 72
9
 73
5
 74
0
 42
0.0000001
 43
0.0000001
 44
0.0000000001
 40
0.0
 40
0.0
 40
0.0
 40
0.0
 40
0.2466432248
 40
1.0
 40
1.0
 40
1.0
 40
1.0
 10
2.9830018401
 20
0.697451791
 30
0.0
 10
2.980678391
 20
0.7017227412
 30
0.0
 10
2.9716896812
 20
0.7192711213
 30
0.0
 10
2.9644292494
 20
0.7376987042
 30
0.0
 10
2.9599622815
 20
0.7518617772
 30
0.0
  0
SPLINE
  5
3B0
100
AcDbEntity
  8
0
100
AcDbSpline
 62
7
  6
CONTINUOUS
 70
0
 71
3
 72
9
 73
5
 74
0
 42
0.0000001
 43
0.0000001
 44
0.0000000001
 40
0.0
 40
0.0
 40
0.0
 40
0.0
 40
0.471527154
 40
1.0
 40
1.0
 40
1.0
 40
1.0
 10
2.9599621054
 20
0.751862044
 30
0.0
 10
2.9592997297
 20
0.7539617977
 30
0.0
 10
2.9582739444
 20
0.7585373807
 30
0.0
 10
2.9578581814
 20
0.7631996413
 30
0.0
 10
2.9577638785
 20
0.7656654921
 30
0.0
  0
SPLINE
  5
3B1
100
AcDbEntity
  8
0
100
AcDbSpline
 62
7
  6
CONTINUOUS
 70
0
 71
3
 72
9
 73
5
 74
0
 42
0.0000001
 43
0.0000001
 44
0.0000000001
 40
0.0
 40
0.0
 40
0.0
 40
0.0
 40
0.2466432246
 40
1.0
 40
1.0
 40
1.0
 40
1.0
 10
2.9830018401
 20
1.0036584575
 30
0.0
 10
2.980678391
 20
0.9993875072
 30
0.0
 10
2.9716896812
 20
0.9818391271
 30
0.0
 10
2.9644292494
 20
0.9634115442
 30
0.0
 10
2.9599622815
 20
0.9492484713
 30
0.0
  0
SPLINE
  5
3B2
100
AcDbEntity
  8
0
100
AcDbSpline
 62
7
  6
CONTINUOUS
 70
0
 71
3
 72
12
 73
8
 74
0
 42
0.0000001
 43
0.0000001
 44
0.0000000001
 40
0.0
 40
0.0
 40
0.0
 40
0.0
 40
0.2732510034
 40
0.5369751376
 40
0.7831258636
 40
0.8961067501
 40
1.0
 40
1.0
 40
1.0
 40
1.0
 10
3.160878882
 20
1.0678776232
 30
0.0
 10
3.160878882
 20
1.0618058244
 30
0.0
 10
3.1616298143
 20
1.0498623399
 30
0.0
 10
3.1647799241
 20
1.0327075917
 30
0.0
 10
3.1689775898
 20
1.0194765944
 30
0.0
 10
3.1729944412
 20
1.009999215
 30
0.0
 10
3.1751505299
 20
1.0056845493
 30
0.0
 10
3.1762565347
 20
1.0036581618
 30
0.0
  0
SPLINE
  5
3B3
100
AcDbEntity
  8
0
100
AcDbSpline
 62
7
  6
CONTINUOUS
 70
0
 71
3
 72
12
 73
8
 74
0
 42
0.0000001
 43
0.0000001
 44
0.0000000001
 40
0.0
 40
0.0
 40
0.0
 40
0.0
 40
0.2167733977
 40
0.337077816
 40
0.463141337
 40
0.7269709814
 40
1.0
 40
1.0
 40
1.0
 40
1.0
 10
2.9829952757
 20
1.0036567941
 30
0.0
 10
2.9853001625
 20
1.007886813
 30
0.0
 10
2.988427107
 20
1.0147227558
 30
0.0
 10
2.9918490472
 20
1.0244332526
 30
0.0
 10
2.9949634472
 20
1.0353425532
 30
0.0
 10
2.997636775
 20
1.0498690507
 30
0.0
 10
2.998378882
 20
1.0618102757
 30
0.0
 10
2.998378882
 20
1.0678776232
 30
0.0
  0
SPLINE
  5
3B4
100
AcDbEntity
  8
0
100
AcDbSpline
 62
7
  6
CONTINUOUS
 70
0
 71
3
 72
9
 73
5
 74
0
 42
0.0000001
 43
0.0000001
 44
0.0000000001
 40
0.0
 40
0.0
 40
0.0
 40
0.0
 40
0.253430229
 40
1.0
 40
1.0
 40
1.0
 40
1.0
 10
3.2007142005
 20
0.9446279709
 30
0.0
 10
3.1991672991
 20
0.949805033
 30
0.0
 10
3.1925484628
 20
0.9700746628
 30
0.0
 10
3.1838623375
 20
0.9896763929
 30
0.0
 10
3.1762559239
 20
1.0036584575
 30
0.0
  0
SPLINE
  5
3B5
100
AcDbEntity
  8
0
100
AcDbSpline
 62
7
  6
CONTINUOUS
 70
0
 71
3
 72
11
 73
7
 74
0
 42
0.0000001
 43
0.0000001
 44
0.0000000001
 40
0.0
 40
0.0
 40
0.0
 40
0.0
 40
0.1989553581
 40
0.4341022393
 40
0.7030210937
 40
1.0
 40
1.0
 40
1.0
 40
1.0
 10
3.2031981454
 20
0.9358626501
 30
0.0
 10
3.2039469187
 20
0.9330626528
 30
0.0
 10
3.2049059391
 20
0.9267715245
 30
0.0
 10
3.2049462583
 20
0.9165070788
 30
0.0
 10
3.2037070195
 20
0.9048848021
 30
0.0
 10
3.2021581364
 20
0.8967797205
 30
0.0
 10
3.2012183263
 20
0.8925566337
 30
0.0
  0
SPLINE
  5
3B6
100
AcDbEntity
  8
0
100
AcDbSpline
 62
7
  6
CONTINUOUS
 70
0
 71
3
 72
12
 73
8
 74
0
 42
0.0000001
 43
0.0000001
 44
0.0000000001
 40
0.0
 40
0.0
 40
0.0
 40
0.0
 40
0.2732510034
 40
0.5369751376
 40
0.7831258636
 40
0.8961067501
 40
1.0
 40
1.0
 40
1.0
 40
1.0
 10
3.160878882
 20
0.6332326252
 30
0.0
 10
3.160878882
 20
0.6271608264
 30
0.0
 10
3.1616298143
 20
0.6152173419
 30
0.0
 10
3.1647799241
 20
0.5980625936
 30
0.0
 10
3.1689775898
 20
0.5848315963
 30
0.0
 10
3.1729944412
 20
0.5753542169
 30
0.0
 10
3.1751505299
 20
0.5710395512
 30
0.0
 10
3.1762565347
 20
0.5690131637
 30
0.0
  0
SPLINE
  5
3B7
100
AcDbEntity
  8
0
100
AcDbSpline
 62
7
  6
CONTINUOUS
 70
0
 71
3
 72
12
 73
8
 74
0
 42
0.0000001
 43
0.0000001
 44
0.0000000001
 40
0.0
 40
0.0
 40
0.0
 40
0.0
 40
0.2167733977
 40
0.337077816
 40
0.463141337
 40
0.7269709814
 40
1.0
 40
1.0
 40
1.0
 40
1.0
 10
2.9829952757
 20
0.5690117961
 30
0.0
 10
2.9853001625
 20
0.573241815
 30
0.0
 10
2.988427107
 20
0.5800777578
 30
0.0
 10
2.9918490472
 20
0.5897882546
 30
0.0
 10
2.9949634472
 20
0.6006975552
 30
0.0
 10
2.997636775
 20
0.6152240527
 30
0.0
 10
2.998378882
 20
0.6271652776
 30
0.0
 10
2.998378882
 20
0.6332326252
 30
0.0
  0
SPLINE
  5
3B8
100
AcDbEntity
  8
0
100
AcDbSpline
 62
7
  6
CONTINUOUS
 70
0
 71
3
 72
12
 73
8
 74
0
 42
0.0000001
 43
0.0000001
 44
0.0000000001
 40
0.0
 40
0.0
 40
0.0
 40
0.0
 40
0.2732510034
 40
0.5369751376
 40
0.7831258636
 40
0.8961067501
 40
1.0
 40
1.0
 40
1.0
 40
1.0
 10
2.998378882
 20
1.0678776232
 30
0.0
 10
2.998378882
 20
1.0739494221
 30
0.0
 10
2.9976279496
 20
1.0858929066
 30
0.0
 10
2.9944778398
 20
1.1030476548
 30
0.0
 10
2.9902801741
 20
1.1162786521
 30
0.0
 10
2.9862633228
 20
1.1257560315
 30
0.0
 10
2.984107234
 20
1.1300706972
 30
0.0
 10
2.9830012293
 20
1.1320970847
 30
0.0
  0
SPLINE
  5
3B9
100
AcDbEntity
  8
0
100
AcDbSpline
 62
7
  6
CONTINUOUS
 70
0
 71
3
 72
12
 73
8
 74
0
 42
0.0000001
 43
0.0000001
 44
0.0000000001
 40
0.0
 40
0.0
 40
0.0
 40
0.0
 40
0.2167733977
 40
0.337077816
 40
0.463141337
 40
0.7269709814
 40
1.0
 40
1.0
 40
1.0
 40
1.0
 10
3.1762624882
 20
1.1320984524
 30
0.0
 10
3.1739576014
 20
1.1278684335
 30
0.0
 10
3.170830657
 20
1.1210324907
 30
0.0
 10
3.1674087167
 20
1.1113219939
 30
0.0
 10
3.1642943167
 20
1.1004126933
 30
0.0
 10
3.161620989
 20
1.0858861958
 30
0.0
 10
3.160878882
 20
1.0739449708
 30
0.0
 10
3.160878882
 20
1.0678776232
 30
0.0
  0
SPLINE
  5
3BA
100
AcDbEntity
  8
0
100
AcDbSpline
 62
7
  6
CONTINUOUS
 70
0
 71
3
 72
9
 73
5
 74
0
 42
0.0000001
 43
0.0000001
 44
0.0000000001
 40
0.0
 40
0.0
 40
0.0
 40
0.0
 40
0.5463289591
 40
1.0
 40
1.0
 40
1.0
 40
1.0
 10
2.9534248134
 20
0.7757740777
 30
0.0
 10
2.953809883
 20
0.7741189199
 30
0.0
 10
2.9547126575
 20
0.7711280138
 30
0.0
 10
2.9561766786
 20
0.7683480488
 30
0.0
 10
2.9570015194
 20
0.767203071
 30
0.0
  0
SPLINE
  5
3BB
100
AcDbEntity
  8
0
100
AcDbSpline
 62
7
  6
CONTINUOUS
 70
0
 71
3
 72
9
 73
5
 74
0
 42
0.0000001
 43
0.0000001
 44
0.0000000001
 40
0.0
 40
0.0
 40
0.0
 40
0.0
 40
0.5549541387
 40
1.0
 40
1.0
 40
1.0
 40
1.0
 10
2.953425071
 20
0.9253358225
 30
0.0
 10
2.9538684436
 20
0.9272467235
 30
0.0
 10
2.9549309719
 20
0.9306399414
 30
0.0
 10
2.9567636107
 20
0.9337289439
 30
0.0
 10
2.9577991816
 20
0.9349131803
 30
0.0
  0
SPLINE
  5
3BC
100
AcDbEntity
  8
0
100
AcDbSpline
 62
7
  6
CONTINUOUS
 70
0
 71
3
 72
11
 73
7
 74
0
 42
0.0000001
 43
0.0000001
 44
0.0000000001
 40
0.0
 40
0.0
 40
0.0
 40
0.0
 40
0.2499856936
 40
0.5000051258
 40
0.7500306931
 40
1.0
 40
1.0
 40
1.0
 40
1.0
 10
3.657628882
 20
1.3560551242
 30
0.0
 10
3.6497790829
 20
1.3560551242
 30
0.0
 10
3.6340552744
 20
1.3548500319
 30
0.0
 10
3.6110016836
 20
1.3497292258
 30
0.0
 10
3.5887330341
 20
1.3419323913
 30
0.0
 10
3.5744385159
 20
1.3353934718
 30
0.0
 10
3.5674179024
 20
1.3318831651
 30
0.0
  0
SPLINE
  5
3BD
100
AcDbEntity
  8
0
100
AcDbSpline
 62
7
  6
CONTINUOUS
 70
0
 71
3
 72
11
 73
7
 74
0
 42
0.0000001
 43
0.0000001
 44
0.0000000001
 40
0.0
 40
0.0
 40
0.0
 40
0.0
 40
0.2499693062
 40
0.4999948737
 40
0.750014306
 40
1.0
 40
1.0
 40
1.0
 40
1.0
 10
3.7478398615
 20
1.3318831651
 30
0.0
 10
3.7408192481
 20
1.3353934718
 30
0.0
 10
3.72652473
 20
1.3419323915
 30
0.0
 10
3.7042560807
 20
1.3497292267
 30
0.0
 10
3.6812024897
 20
1.3548500327
 30
0.0
 10
3.6654786811
 20
1.3560551242
 30
0.0
 10
3.657628882
 20
1.3560551242
 30
0.0
  0
SPLINE
  5
3BE
100
AcDbEntity
  8
0
100
AcDbSpline
 62
7
  6
CONTINUOUS
 70
0
 71
3
 72
11
 73
7
 74
0
 42
0.0000001
 43
0.0000001
 44
0.0000000001
 40
0.0
 40
0.0
 40
0.0
 40
0.0
 40
0.2499779971
 40
0.5000017311
 40
0.7500157635
 40
1.0
 40
1.0
 40
1.0
 40
1.0
 10
3.5674179024
 20
1.1707270833
 30
0.0
 10
3.574438761
 20
1.167216654
 30
0.0
 10
3.5887334205
 20
1.1606774871
 30
0.0
 10
3.6110022655
 20
1.1528811011
 30
0.0
 10
3.6340554979
 20
1.1477599374
 30
0.0
 10
3.6497791275
 20
1.1465551242
 30
0.0
 10
3.657628882
 20
1.1465551242
 30
0.0
  0
SPLINE
  5
3BF
100
AcDbEntity
  8
0
100
AcDbSpline
 62
7
  6
CONTINUOUS
 70
0
 71
3
 72
13
 73
9
 74
0
 42
0.0000001
 43
0.0000001
 44
0.0000000001
 40
0.0
 40
0.0
 40
0.0
 40
0.0
 40
0.1124795346
 40
0.2268901333
 40
0.4661277413
 40
0.5927975435
 40
0.7241782476
 40
1.0
 40
1.0
 40
1.0
 40
1.0
 10
3.5223124126
 20
1.1465551242
 30
0.0
 10
3.5242794528
 20
1.1465551242
 30
0.0
 10
3.5282531607
 20
1.1468643961
 30
0.0
 10
3.5362269512
 20
1.1486678939
 30
0.0
 10
3.5439585267
 20
1.1521764354
 30
0.0
 10
3.5512947484
 20
1.1568523758
 30
0.0
 10
3.5587567182
 20
1.1624788915
 30
0.0
 10
3.5640071262
 20
1.1673163071
 30
0.0
 10
3.5674179024
 20
1.1707270833
 30
0.0
  0
SPLINE
  5
3C0
100
AcDbEntity
  8
0
100
AcDbSpline
 62
7
  6
CONTINUOUS
 70
0
 71
3
 72
11
 73
7
 74
0
 42
0.0000001
 43
0.0000001
 44
0.0000000001
 40
0.0
 40
0.0
 40
0.0
 40
0.0
 40
0.2299012224
 40
0.4703284445
 40
0.7268334279
 40
1.0
 40
1.0
 40
1.0
 40
1.0
 10
3.5223124126
 20
1.3560551242
 30
0.0
 10
3.5188495899
 20
1.3560551242
 30
0.0
 10
3.5117380767
 20
1.3550746608
 30
0.0
 10
3.5014952154
 20
1.3509926466
 30
0.0
 10
3.491649986
 20
1.3447726979
 30
0.0
 10
3.4854992223
 20
1.3396645424
 30
0.0
 10
3.4824548569
 20
1.3368967078
 30
0.0
  0
SPLINE
  5
3C1
100
AcDbEntity
  8
0
100
AcDbSpline
 62
7
  6
CONTINUOUS
 70
0
 71
3
 72
13
 73
9
 74
0
 42
0.0000001
 43
0.0000001
 44
0.0000000001
 40
0.0
 40
0.0
 40
0.0
 40
0.0
 40
0.2758120617
 40
0.4071931146
 40
0.5338662632
 40
0.7731083271
 40
0.8875205497
 40
1.0
 40
1.0
 40
1.0
 40
1.0
 10
3.5674179024
 20
1.3318831651
 30
0.0
 10
3.5640072479
 20
1.3352938197
 30
0.0
 10
3.5587569289
 20
1.3401310858
 30
0.0
 10
3.5512950829
 20
1.3457575687
 30
0.0
 10
3.5439588883
 20
1.3504338243
 30
0.0
 10
3.5362270344
 20
1.3539421687
 30
0.0
 10
3.5282531808
 20
1.3557457616
 30
0.0
 10
3.5242794502
 20
1.3560551242
 30
0.0
 10
3.5223124126
 20
1.3560551242
 30
0.0
  0
SPLINE
  5
3C2
100
AcDbEntity
  8
0
100
AcDbSpline
 62
7
  6
CONTINUOUS
 70
0
 71
3
 72
13
 73
9
 74
0
 42
0.0000001
 43
0.0000001
 44
0.0000000001
 40
0.0
 40
0.0
 40
0.0
 40
0.0
 40
0.1124794503
 40
0.2268916733
 40
0.4661337366
 40
0.5928068842
 40
0.7241879368
 40
1.0
 40
1.0
 40
1.0
 40
1.0
 10
3.7929453513
 20
1.3560551242
 30
0.0
 10
3.7909783137
 20
1.3560551242
 30
0.0
 10
3.7870045831
 20
1.3557457616
 30
0.0
 10
3.7790307296
 20
1.3539421684
 30
0.0
 10
3.7712988758
 20
1.3504338242
 30
0.0
 10
3.7639626811
 20
1.3457575688
 30
0.0
 10
3.756500835
 20
1.3401310859
 30
0.0
 10
3.7512505161
 20
1.3352938197
 30
0.0
 10
3.7478398615
 20
1.3318831651
 30
0.0
  0
SPLINE
  5
3C3
100
AcDbEntity
  8
0
100
AcDbSpline
 62
7
  6
CONTINUOUS
 70
0
 71
3
 72
11
 73
7
 74
0
 42
0.0000001
 43
0.0000001
 44
0.0000000001
 40
0.0
 40
0.0
 40
0.0
 40
0.0
 40
0.2499842863
 40
0.4999983299
 40
0.7500220061
 40
1.0
 40
1.0
 40
1.0
 40
1.0
 10
3.657628882
 20
1.1465551242
 30
0.0
 10
3.665478638
 20
1.1465551242
 30
0.0
 10
3.681202269
 20
1.1477599415
 30
0.0
 10
3.7042555034
 20
1.1528810972
 30
0.0
 10
3.7265243444
 20
1.1606774906
 30
0.0
 10
3.740819003
 20
1.1672166541
 30
0.0
 10
3.7478398615
 20
1.1707270833
 30
0.0
  0
SPLINE
  5
3C4
100
AcDbEntity
  8
0
100
AcDbSpline
 62
7
  6
CONTINUOUS
 70
0
 71
3
 72
13
 73
9
 74
0
 42
0.0000001
 43
0.0000001
 44
0.0000000001
 40
0.0
 40
0.0
 40
0.0
 40
0.0
 40
0.2758217587
 40
0.4072024719
 40
0.5338722984
 40
0.7731099119
 40
0.8875204765
 40
1.0
 40
1.0
 40
1.0
 40
1.0
 10
3.7478398615
 20
1.1707270833
 30
0.0
 10
3.7512506379
 20
1.167316307
 30
0.0
 10
3.7565010455
 20
1.1624788906
 30
0.0
 10
3.7639630163
 20
1.1568523748
 30
0.0
 10
3.7712992406
 20
1.1521764373
 30
0.0
 10
3.7790308138
 20
1.1486678912
 30
0.0
 10
3.7870046042
 20
1.1468643945
 30
0.0
 10
3.7909783114
 20
1.1465551242
 30
0.0
 10
3.7929453513
 20
1.1465551242
 30
0.0
  0
SPLINE
  5
3C5
100
AcDbEntity
  8
0
100
AcDbSpline
 62
7
  6
CONTINUOUS
 70
0
 71
3
 72
9
 73
5
 74
0
 42
0.0000001
 43
0.0000001
 44
0.0000000001
 40
0.0
 40
0.0
 40
0.0
 40
0.0
 40
0.2483492304
 40
1.0
 40
1.0
 40
1.0
 40
1.0
 10
3.7929453513
 20
1.1465551242
 30
0.0
 10
3.7937345292
 20
1.1465551242
 30
0.0
 10
3.7969118156
 20
1.1466533459
 30
0.0
 10
3.8000742154
 20
1.147141441
 30
0.0
 10
3.8023969377
 20
1.1476981908
 30
0.0
  0
LINE
  5
3C6
100
AcDbEntity
  8
0
100
AcDbLine
 62
7
  6
CONTINUOUS
 10
3.8023969377
 20
1.1476981908
 11
3.8072368259
 21
1.1491479609
  0
LINE
  5
3C7
100
AcDbEntity
  8
0
100
AcDbLine
 62
7
  6
CONTINUOUS
 10
3.8072368259
 20
1.1491479609
 11
3.8121440226
 21
1.1512036567
  0
SPLINE
  5
3C8
100
AcDbEntity
  8
0
100
AcDbSpline
 62
7
  6
CONTINUOUS
 70
0
 71
3
 72
9
 73
5
 74
0
 42
0.0000001
 43
0.0000001
 44
0.0000000001
 40
0.0
 40
0.0
 40
0.0
 40
0.0
 40
0.4832654194
 40
1.0
 40
1.0
 40
1.0
 40
1.0
 10
3.8121440226
 20
1.1512036567
 30
0.0
 10
3.8157971861
 20
1.152948099
 30
0.0
 10
3.8229855715
 20
1.1573443291
 30
0.0
 10
3.8294624353
 20
1.1626844055
 30
0.0
 10
3.8326691307
 20
1.1655920561
 30
0.0
  0
LINE
  5
3C9
100
AcDbEntity
  8
0
100
AcDbLine
 62
7
  6
CONTINUOUS
 10
3.8326691307
 20
1.1655920561
 11
3.8380508411
 21
1.1707270833
  0
SPLINE
  5
3CA
100
AcDbEntity
  8
0
100
AcDbSpline
 62
7
  6
CONTINUOUS
 70
0
 71
3
 72
9
 73
5
 74
0
 42
0.0000001
 43
0.0000001
 44
0.0000000001
 40
0.0
 40
0.0
 40
0.0
 40
0.0
 40
0.2527600888
 40
1.0
 40
1.0
 40
1.0
 40
1.0
 10
3.2683700871
 20
1.0959289886
 30
0.0
 10
3.2677063016
 20
1.0943657141
 30
0.0
 10
3.265154313
 20
1.0881500374
 30
0.0
 10
3.2629200231
 20
1.0818010339
 30
0.0
 10
3.2614823057
 20
1.0769903708
 30
0.0
  0
SPLINE
  5
3CB
100
AcDbEntity
  8
0
100
AcDbSpline
 62
7
  6
CONTINUOUS
 70
0
 71
3
 72
13
 73
9
 74
0
 42
0.0000001
 43
0.0000001
 44
0.0000000001
 40
0.0
 40
0.0
 40
0.0
 40
0.0
 40
0.1263042166
 40
0.2510350002
 40
0.3747043429
 40
0.4979660567
 40
0.7459660522
 40
1.0
 40
1.0
 40
1.0
 40
1.0
 10
3.2614823057
 20
1.0769903708
 30
0.0
 10
3.2604576017
 20
1.0735616679
 30
0.0
 10
3.2586538537
 20
1.0666737543
 30
0.0
 10
3.2567776016
 20
1.0562130957
 30
0.0
 10
3.2557909972
 20
1.0457153345
 30
0.0
 10
3.2557340517
 20
1.0316755459
 30
0.0
 10
3.2580661028
 20
1.014018754
 30
0.0
 10
3.2621494706
 20
1.0003397215
 30
0.0
 10
3.264613704
 20
0.9935772217
 30
0.0
  0
SPLINE
  5
3CC
100
AcDbEntity
  8
0
100
AcDbSpline
 62
7
  6
CONTINUOUS
 70
0
 71
3
 72
12
 73
8
 74
0
 42
0.0000001
 43
0.0000001
 44
0.0000000001
 40
0.0
 40
0.0
 40
0.0
 40
0.0
 40
0.0864729935
 40
0.1867532346
 40
0.4249541063
 40
0.7025198943
 40
1.0
 40
1.0
 40
1.0
 40
1.0
 10
3.2683700871
 20
0.984067374
 30
0.0
 10
3.2686168518
 20
0.9834862209
 30
0.0
 10
3.2690398717
 20
0.9821842106
 30
0.0
 10
3.2696484581
 20
0.9791371917
 30
0.0
 10
3.2698962347
 20
0.9746251748
 30
0.0
 10
3.2695060666
 20
0.9686918017
 30
0.0
 10
3.2688211659
 20
0.964541401
 30
0.0
 10
3.2683700871
 20
0.9624167389
 30
0.0
  0
SPLINE
  5
3CD
100
AcDbEntity
  8
0
100
AcDbSpline
 62
7
  6
CONTINUOUS
 70
0
 71
3
 72
11
 73
7
 74
0
 42
0.0000001
 43
0.0000001
 44
0.0000000001
 40
0.0
 40
0.0
 40
0.0
 40
0.0
 40
0.2500038621
 40
0.4999999918
 40
0.7499961239
 40
1.0
 40
1.0
 40
1.0
 40
1.0
 10
3.2683700871
 20
0.9624167389
 30
0.0
 10
3.2644683725
 20
0.9440389619
 30
0.0
 10
3.2581156031
 20
0.9069418421
 30
0.0
 10
3.2546526862
 20
0.8505551259
 30
0.0
 10
3.2581156013
 20
0.7941684084
 30
0.0
 10
3.2644683722
 20
0.7570712875
 30
0.0
 10
3.2683700871
 20
0.7386935096
 30
0.0
  0
SPLINE
  5
3CE
100
AcDbEntity
  8
0
100
AcDbSpline
 62
7
  6
CONTINUOUS
 70
0
 71
3
 72
12
 73
8
 74
0
 42
0.0000001
 43
0.0000001
 44
0.0000000001
 40
0.0
 40
0.0
 40
0.0
 40
0.0
 40
0.2974823823
 40
0.5750499819
 40
0.8132489986
 40
0.9135277602
 40
1.0
 40
1.0
 40
1.0
 40
1.0
 10
3.2683700871
 20
0.7386935096
 30
0.0
 10
3.2688211693
 20
0.7365688312
 30
0.0
 10
3.2695060863
 20
0.7324184028
 30
0.0
 10
3.2698962376
 20
0.7264850104
 30
0.0
 10
3.2696484397
 20
0.7219730076
 30
0.0
 10
3.2690398665
 20
0.7189260167
 30
0.0
 10
3.2686168497
 20
0.7176240225
 30
0.0
 10
3.2683700871
 20
0.7170428745
 30
0.0
  0
SPLINE
  5
3CF
100
AcDbEntity
  8
0
100
AcDbSpline
 62
7
  6
CONTINUOUS
 70
0
 71
3
 72
9
 73
5
 74
0
 42
0.0000001
 43
0.0000001
 44
0.0000000001
 40
0.0
 40
0.0
 40
0.0
 40
0.0
 40
0.2527069851
 40
1.0
 40
1.0
 40
1.0
 40
1.0
 10
3.2683700871
 20
0.7170428745
 30
0.0
 10
3.2677187265
 20
0.7155088617
 30
0.0
 10
3.2652126132
 20
0.7094087999
 30
0.0
 10
3.2630120938
 20
0.7031805209
 30
0.0
 10
3.2615896687
 20
0.6984619461
 30
0.0
  0
SPLINE
  5
3D0
100
AcDbEntity
  8
0
100
AcDbSpline
 62
7
  6
CONTINUOUS
 70
0
 71
3
 72
11
 73
7
 74
0
 42
0.0000001
 43
0.0000001
 44
0.0000000001
 40
0.0
 40
0.0
 40
0.0
 40
0.0
 40
0.2521639698
 40
0.5000794695
 40
0.7479495672
 40
1.0
 40
1.0
 40
1.0
 40
1.0
 10
3.2615896687
 20
0.6984619461
 30
0.0
 10
3.2597599464
 20
0.6923922545
 30
0.0
 10
3.2568649081
 20
0.6801119727
 30
0.0
 10
3.255297204
 20
0.6612957234
 30
0.0
 10
3.256806369
 20
0.6424773753
 30
0.0
 10
3.2596674031
 20
0.6301928654
 30
0.0
 10
3.2614818045
 20
0.6241215554
 30
0.0
  0
SPLINE
  5
3D1
100
AcDbEntity
  8
0
100
AcDbSpline
 62
7
  6
CONTINUOUS
 70
0
 71
3
 72
9
 73
5
 74
0
 42
0.0000001
 43
0.0000001
 44
0.0000000001
 40
0.0
 40
0.0
 40
0.0
 40
0.0
 40
0.2473504587
 40
1.0
 40
1.0
 40
1.0
 40
1.0
 10
3.2614818045
 20
0.6241215554
 30
0.0
 10
3.2619577517
 20
0.6225289514
 30
0.0
 10
3.2639844037
 20
0.6161210217
 30
0.0
 10
3.2663932958
 20
0.609836781
 30
0.0
 10
3.2683700871
 20
0.6051812598
 30
0.0
  0
SPLINE
  5
3D2
100
AcDbEntity
  8
0
100
AcDbSpline
 62
7
  6
CONTINUOUS
 70
0
 71
3
 72
9
 73
5
 74
0
 42
0.0000001
 43
0.0000001
 44
0.0000000001
 40
0.0
 40
0.0
 40
0.0
 40
0.0
 40
0.2523151354
 40
1.0
 40
1.0
 40
1.0
 40
1.0
 10
3.3622047009
 20
0.6241197946
 30
0.0
 10
3.3626647206
 20
0.6256590367
 30
0.0
 10
3.3643944707
 20
0.6317867489
 30
0.0
 10
3.3657206688
 20
0.6380307481
 30
0.0
 10
3.3664462112
 20
0.6427357113
 30
0.0
  0
SPLINE
  5
3D3
100
AcDbEntity
  8
0
100
AcDbSpline
 62
7
  6
CONTINUOUS
 70
0
 71
3
 72
9
 73
5
 74
0
 42
0.0000001
 43
0.0000001
 44
0.0000000001
 40
0.0
 40
0.0
 40
0.0
 40
0.0
 40
0.2486176175
 40
1.0
 40
1.0
 40
1.0
 40
1.0
 10
3.3675173466
 20
0.6702983362
 30
0.0
 10
3.3673962719
 20
0.6718412532
 30
0.0
 10
3.3667897461
 20
0.6780375135
 30
0.0
 10
3.365715016
 20
0.6841860433
 30
0.0
 10
3.3646748072
 20
0.6887463126
 30
0.0
  0
SPLINE
  5
3D4
100
AcDbEntity
  8
0
100
AcDbSpline
 62
7
  6
CONTINUOUS
 70
0
 71
3
 72
12
 73
8
 74
0
 42
0.0000001
 43
0.0000001
 44
0.0000000001
 40
0.0
 40
0.0
 40
0.0
 40
0.0
 40
0.0864728354
 40
0.1867528229
 40
0.4249534851
 40
0.7025195076
 40
1.0
 40
1.0
 40
1.0
 40
1.0
 10
3.3553169441
 20
0.7170428745
 30
0.0
 10
3.3550701798
 20
0.7176240265
 30
0.0
 10
3.3546471642
 20
0.7189260352
 30
0.0
 10
3.3540385906
 20
0.7219730515
 30
0.0
 10
3.3537907938
 20
0.7264850637
 30
0.0
 10
3.3541809457
 20
0.7324184427
 30
0.0
 10
3.3548658648
 20
0.7365688447
 30
0.0
 10
3.3553169441
 20
0.7386935096
 30
0.0
  0
SPLINE
  5
3D5
100
AcDbEntity
  8
0
100
AcDbSpline
 62
7
  6
CONTINUOUS
 70
0
 71
3
 72
11
 73
7
 74
0
 42
0.0000001
 43
0.0000001
 44
0.0000000001
 40
0.0
 40
0.0
 40
0.0
 40
0.0
 40
0.2500038614
 40
0.499999991
 40
0.7499961232
 40
1.0
 40
1.0
 40
1.0
 40
1.0
 10
3.3553169441
 20
0.7386935096
 30
0.0
 10
3.3592186588
 20
0.7570712865
 30
0.0
 10
3.3655714286
 20
0.7941684062
 30
0.0
 10
3.369034345
 20
0.8505551224
 30
0.0
 10
3.3655714296
 20
0.9069418399
 30
0.0
 10
3.359218659
 20
0.9440389609
 30
0.0
 10
3.3553169441
 20
0.9624167389
 30
0.0
  0
SPLINE
  5
3D6
100
AcDbEntity
  8
0
100
AcDbSpline
 62
7
  6
CONTINUOUS
 70
0
 71
3
 72
12
 73
8
 74
0
 42
0.0000001
 43
0.0000001
 44
0.0000000001
 40
0.0
 40
0.0
 40
0.0
 40
0.0
 40
0.2974819977
 40
0.5750493611
 40
0.813248585
 40
0.9135276012
 40
1.0
 40
1.0
 40
1.0
 40
1.0
 10
3.3553169441
 20
0.9624167389
 30
0.0
 10
3.3548658624
 20
0.9645414146
 30
0.0
 10
3.3541809639
 20
0.9686918416
 30
0.0
 10
3.3537907964
 20
0.9746252281
 30
0.0
 10
3.3540385741
 20
0.9791372355
 30
0.0
 10
3.3546471601
 20
0.9821842291
 30
0.0
 10
3.3550701811
 20
0.9834862249
 30
0.0
 10
3.3553169441
 20
0.984067374
 30
0.0
  0
SPLINE
  5
3D7
100
AcDbEntity
  8
0
100
AcDbSpline
 62
7
  6
CONTINUOUS
 70
0
 71
3
 72
9
 73
5
 74
0
 42
0.0000001
 43
0.0000001
 44
0.0000000001
 40
0.0
 40
0.0
 40
0.0
 40
0.0
 40
0.2518123113
 40
1.0
 40
1.0
 40
1.0
 40
1.0
 10
3.3622047009
 20
1.0030059087
 30
0.0
 10
3.362554724
 20
1.0041770983
 30
0.0
 10
3.3638904089
 20
1.0088440894
 30
0.0
 10
3.364996496
 20
1.0135777052
 30
0.0
 10
3.3656751685
 20
1.0171456682
 30
0.0
  0
SPLINE
  5
3D8
100
AcDbEntity
  8
0
100
AcDbSpline
 62
9
  6
CONTINUOUS
 70
0
 71
3
 72
9
 73
5
 74
0
 42
0.0000001
 43
0.0000001
 44
0.0000000001
 40
0.0
 40
0.0
 40
0.0
 40
0.0
 40
0.5083249787
 40
1.0
 40
1.0
 40
1.0
 40
1.0
 10
3.1762560975
 20
0.6974517437
 30
0.0
 10
3.1784743816
 20
0.7015279198
 30
0.0
 10
3.1819393555
 20
0.7100818276
 30
0.0
 10
3.1831585522
 20
0.7192462502
 30
0.0
 10
3.1831585522
 20
0.7237349356
 30
0.0
  0
SPLINE
  5
3D9
100
AcDbEntity
  8
0
100
AcDbSpline
 62
9
  6
CONTINUOUS
 70
0
 71
3
 72
9
 73
5
 74
0
 42
0.0000001
 43
0.0000001
 44
0.0000000001
 40
0.0
 40
0.0
 40
0.0
 40
0.0
 40
0.5083249787
 40
1.0
 40
1.0
 40
1.0
 40
1.0
 10
2.9830016665
 20
1.0036585047
 30
0.0
 10
2.9807833824
 20
0.9995823287
 30
0.0
 10
2.9773184085
 20
0.9910284208
 30
0.0
 10
2.9760992118
 20
0.9818639982
 30
0.0
 10
2.9760992118
 20
0.9773753128
 30
0.0
  0
SPLINE
  5
3DA
100
AcDbEntity
  8
0
100
AcDbSpline
 62
9
  6
CONTINUOUS
 70
0
 71
3
 72
12
 73
8
 74
0
 42
0.0000001
 43
0.0000001
 44
0.0000000001
 40
0.0
 40
0.0
 40
0.0
 40
0.0
 40
0.2882087012
 40
0.5557155484
 40
0.6791257995
 40
0.7944998836
 40
1.0
 40
1.0
 40
1.0
 40
1.0
 10
3.1149352681
 20
0.7925530915
 30
0.0
 10
3.1225579935
 20
0.7941062085
 30
0.0
 10
3.1371034813
 20
0.7978922257
 30
0.0
 10
3.154375488
 20
0.8040887826
 30
0.0
 10
3.1669621188
 20
0.8094194224
 30
0.0
 10
3.1778281483
 20
0.8144943182
 30
0.0
 10
3.1854628684
 20
0.818620645
 30
0.0
 10
3.1901785315
 20
0.8215413033
 30
0.0
  0
SPLINE
  5
3DB
100
AcDbEntity
  8
0
100
AcDbSpline
 62
9
  6
CONTINUOUS
 70
0
 71
3
 72
19
 73
15
 74
0
 42
0.0000001
 43
0.0000001
 44
0.0000000001
 40
0.0
 40
0.0
 40
0.0
 40
0.0
 40
0.053364167
 40
0.1095209182
 40
0.1687293653
 40
0.2309082415
 40
0.3624770358
 40
0.5000029776
 40
0.6375283838
 40
0.769095698
 40
0.8312735999
 40
0.8904809889
 40
0.9466367192
 40
1.0
 40
1.0
 40
1.0
 40
1.0
 10
2.9830048262
 20
0.5690202575
 30
0.0
 10
2.9849113663
 20
0.5725265059
 30
0.0
 10
2.9895340257
 20
0.5793524869
 30
0.0
 10
2.99831296
 20
0.5884885909
 30
0.0
 10
3.0089124469
 20
0.5965672408
 30
0.0
 10
3.0254286797
 20
0.605892792
 30
0.0
 10
3.049167987
 20
0.6138259487
 30
0.0
 10
3.0796315414
 20
0.6170112183
 30
0.0
 10
3.1100948728
 20
0.613824858
 30
0.0
 10
3.1338336615
 20
0.6058908267
 30
0.0
 10
3.1503492492
 20
0.5965646615
 30
0.0
 10
3.1609481512
 20
0.5884856164
 30
0.0
 10
3.1697264257
 20
0.5793491824
 30
0.0
 10
3.1743485849
 20
0.572523031
 30
0.0
 10
3.1762548634
 20
0.5690167159
 30
0.0
  0
SPLINE
  5
3DC
100
AcDbEntity
  8
0
100
AcDbSpline
 62
9
  6
CONTINUOUS
 70
0
 71
3
 72
19
 73
15
 74
0
 42
0.0000001
 43
0.0000001
 44
0.0000000001
 40
0.0
 40
0.0
 40
0.0
 40
0.0
 40
0.053364167
 40
0.1095209182
 40
0.1687293653
 40
0.2309082415
 40
0.3624770358
 40
0.5000029776
 40
0.6375283838
 40
0.769095698
 40
0.8312735999
 40
0.8904809889
 40
0.9466367192
 40
1.0
 40
1.0
 40
1.0
 40
1.0
 10
3.1762529378
 20
1.1320899909
 30
0.0
 10
3.1743463977
 20
1.1285837425
 30
0.0
 10
3.1697237382
 20
1.1217577615
 30
0.0
 10
3.160944804
 20
1.1126216576
 30
0.0
 10
3.150345317
 20
1.1045430077
 30
0.0
 10
3.1338290843
 20
1.0952174564
 30
0.0
 10
3.1100897769
 20
1.0872842997
 30
0.0
 10
3.0796262226
 20
1.0840990301
 30
0.0
 10
3.0491628912
 20
1.0872853905
 30
0.0
 10
3.0254241025
 20
1.0952194218
 30
0.0
 10
3.0089085148
 20
1.1045455869
 30
0.0
 10
2.9983096127
 20
1.1126246321
 30
0.0
 10
2.9895313383
 20
1.1217610661
 30
0.0
 10
2.9849091791
 20
1.1285872174
 30
0.0
 10
2.9830029006
 20
1.1320935325
 30
0.0
  0
SPLINE
  5
3DD
100
AcDbEntity
  8
0
100
AcDbSpline
 62
9
  6
CONTINUOUS
 70
0
 71
3
 72
9
 73
5
 74
0
 42
0.0000001
 43
0.0000001
 44
0.0000000001
 40
0.0
 40
0.0
 40
0.0
 40
0.0
 40
0.4916750213
 40
1.0
 40
1.0
 40
1.0
 40
1.0
 10
2.9760992118
 20
0.7237349356
 30
0.0
 10
2.9760992118
 20
0.7192462502
 30
0.0
 10
2.9773184085
 20
0.7100818276
 30
0.0
 10
2.9807833824
 20
0.7015279198
 30
0.0
 10
2.9830016665
 20
0.6974517437
 30
0.0
  0
SPLINE
  5
3DE
100
AcDbEntity
  8
0
100
AcDbSpline
 62
9
  6
CONTINUOUS
 70
0
 71
3
 72
11
 73
7
 74
0
 42
0.0000001
 43
0.0000001
 44
0.0000000001
 40
0.0
 40
0.0
 40
0.0
 40
0.0
 40
0.2056035479
 40
0.4442013443
 40
0.7116780468
 40
1.0
 40
1.0
 40
1.0
 40
1.0
 10
2.9690844723
 20
0.8215409578
 30
0.0
 10
2.9738032343
 20
0.818621215
 30
0.0
 10
2.984364462
 20
0.8129022347
 30
0.0
 10
3.0019568604
 20
0.8051563751
 30
0.0
 10
3.0221542758
 20
0.7979059289
 30
0.0
 10
3.0366976459
 20
0.7941066169
 30
0.0
 10
3.0443224892
 20
0.7925530696
 30
0.0
  0
SPLINE
  5
3DF
100
AcDbEntity
  8
0
100
AcDbSpline
 62
9
  6
CONTINUOUS
 70
0
 71
3
 72
15
 73
11
 74
0
 42
0.0000001
 43
0.0000001
 44
0.0000000001
 40
0.0
 40
0.0
 40
0.0
 40
0.0
 40
0.0919656855
 40
0.1924638709
 40
0.3020072835
 40
0.4209748068
 40
0.5498544703
 40
0.6893216939
 40
0.8396083154
 40
1.0
 40
1.0
 40
1.0
 40
1.0
 10
2.9690845119
 20
0.8795691904
 30
0.0
 10
2.9711667228
 20
0.8809211448
 30
0.0
 10
2.9756430258
 20
0.8835686443
 30
0.0
 10
2.9828903784
 20
0.8873082577
 30
0.0
 10
2.9909396062
 20
0.8910657936
 30
0.0
 10
2.9997881196
 20
0.8949142036
 30
0.0
 10
3.0095332704
 20
0.8987121253
 30
0.0
 10
3.0202539993
 20
0.9023020977
 30
0.0
 10
3.0319525845
 20
0.9056027098
 30
0.0
 10
3.0401019945
 20
0.9075903846
 30
0.0
 10
3.0443224351
 20
0.908557265
 30
0.0
  0
SPLINE
  5
3E0
100
AcDbEntity
  8
0
100
AcDbSpline
 62
9
  6
CONTINUOUS
 70
0
 71
3
 72
9
 73
5
 74
0
 42
0.0000001
 43
0.0000001
 44
0.0000000001
 40
0.0
 40
0.0
 40
0.0
 40
0.0
 40
0.4916750213
 40
1.0
 40
1.0
 40
1.0
 40
1.0
 10
3.1831585522
 20
0.9773753128
 30
0.0
 10
3.1831585522
 20
0.9818639982
 30
0.0
 10
3.1819393555
 20
0.9910284208
 30
0.0
 10
3.1784743816
 20
0.9995823287
 30
0.0
 10
3.1762560975
 20
1.0036585047
 30
0.0
  0
LINE
  5
3E1
100
AcDbEntity
  8
0
100
AcDbLine
 62
9
  6
CONTINUOUS
 10
3.1967132504
 20
0.8752271409
 11
3.1901901162
 21
0.8796092545
  0
LINE
  5
3E2
100
AcDbEntity
  8
0
100
AcDbLine
 62
9
  6
CONTINUOUS
 10
3.1901901162
 20
0.8796092545
 11
3.1804300421
 21
0.8851178067
  0
SPLINE
  5
3E3
100
AcDbEntity
  8
0
100
AcDbSpline
 62
9
  6
CONTINUOUS
 70
0
 71
3
 72
14
 73
10
 74
0
 42
0.0000001
 43
0.0000001
 44
0.0000000001
 40
0.0
 40
0.0
 40
0.0
 40
0.0
 40
0.2039697055
 40
0.316827012
 40
0.4372096741
 40
0.5654752726
 40
0.7020829237
 40
0.8471090084
 40
1.0
 40
1.0
 40
1.0
 40
1.0
 10
3.1804300421
 20
0.8851178067
 30
0.0
 10
3.1762264751
 20
0.8873158361
 30
0.0
 10
3.1695833449
 20
0.8905162187
 30
0.0
 10
3.160247744
 20
0.8945466818
 30
0.0
 10
3.1524366867
 20
0.8976601291
 30
0.0
 10
3.1440022018
 20
0.9006885376
 30
0.0
 10
3.1349056637
 20
0.9035480889
 30
0.0
 10
3.1251507591
 20
0.9061947012
 30
0.0
 10
3.1184068911
 20
0.907788521
 30
0.0
 10
3.1149353289
 20
0.908557265
 30
0.0
  0
SPLINE
  5
3E4
100
AcDbEntity
  8
0
100
AcDbSpline
 62
9
  6
CONTINUOUS
 70
0
 71
3
 72
11
 73
7
 74
0
 42
0.0000001
 43
0.0000001
 44
0.0000000001
 40
0.0
 40
0.0
 40
0.0
 40
0.0
 40
0.2069228094
 40
0.4335497481
 40
0.6947545826
 40
1.0
 40
1.0
 40
1.0
 40
1.0
 10
2.9448788821
 20
0.8505548099
 30
0.0
 10
2.9448797684
 20
0.8487610381
 30
0.0
 10
2.9455146468
 20
0.8449833075
 30
0.0
 10
2.9482146972
 20
0.8395305373
 30
0.0
 10
2.9525501513
 20
0.8341457968
 30
0.0
 10
2.9561996984
 20
0.8308365733
 30
0.0
 10
2.9582488331
 20
0.8291623723
 30
0.0
  0
SPLINE
  5
3E5
100
AcDbEntity
  8
0
100
AcDbSpline
 62
9
  6
CONTINUOUS
 70
0
 71
3
 72
11
 73
7
 74
0
 42
0.0000001
 43
0.0000001
 44
0.0000000001
 40
0.0
 40
0.0
 40
0.0
 40
0.0
 40
0.23978231
 40
0.4950629524
 40
0.7530760696
 40
1.0
 40
1.0
 40
1.0
 40
1.0
 10
3.0443224367
 20
0.7925529877
 30
0.0
 10
3.0456654488
 20
0.8017559941
 30
0.0
 10
3.0476688196
 20
0.8208731068
 30
0.0
 10
3.0487361705
 20
0.850085796
 30
0.0
 10
3.0477219046
 20
0.8795777379
 30
0.0
 10
3.0457054341
 20
0.8990801493
 30
0.0
 10
3.0443224193
 20
0.9085572554
 30
0.0
  0
SPLINE
  5
3E6
100
AcDbEntity
  8
0
100
AcDbSpline
 62
9
  6
CONTINUOUS
 70
0
 71
3
 72
17
 73
13
 74
0
 42
0.0000001
 43
0.0000001
 44
0.0000000001
 40
0.0
 40
0.0
 40
0.0
 40
0.0
 40
0.1179822822
 40
0.2399130477
 40
0.3673950119
 40
0.4332438373
 40
0.4999987819
 40
0.5667517807
 40
0.6326016066
 40
0.7600864495
 40
0.8820179502
 40
1.0
 40
1.0
 40
1.0
 40
1.0
 10
3.0443224351
 20
0.908557265
 30
0.0
 10
3.0468202432
 20
0.910210676
 30
0.0
 10
3.0520078549
 20
0.9134157756
 30
0.0
 10
3.0603885894
 20
0.9175543296
 30
0.0
 10
3.0680428003
 20
0.9200409637
 30
0.0
 10
3.0745640633
 20
0.9211517074
 30
0.0
 10
3.0796287631
 20
0.9214313498
 30
0.0
 10
3.0846935126
 20
0.9211518549
 30
0.0
 10
3.0912147627
 20
0.9200407676
 30
0.0
 10
3.0988692162
 20
0.9175546289
 30
0.0
 10
3.1072501457
 20
0.9134161623
 30
0.0
 10
3.1124375363
 20
0.9102106888
 30
0.0
 10
3.1149353289
 20
0.908557265
 30
0.0
  0
SPLINE
  5
3E7
100
AcDbEntity
  8
0
100
AcDbSpline
 62
9
  6
CONTINUOUS
 70
0
 71
3
 72
11
 73
7
 74
0
 42
0.0000001
 43
0.0000001
 44
0.0000000001
 40
0.0
 40
0.0
 40
0.0
 40
0.0
 40
0.2469239305
 40
0.5049370475
 40
0.7602176899
 40
1.0
 40
1.0
 40
1.0
 40
1.0
 10
3.1149353452
 20
0.908557255
 30
0.0
 10
3.1135523304
 20
0.8990801489
 30
0.0
 10
3.1115358599
 20
0.8795777376
 30
0.0
 10
3.1105215939
 20
0.850085796
 30
0.0
 10
3.1115889447
 20
0.820873107
 30
0.0
 10
3.1135923153
 20
0.8017559943
 30
0.0
 10
3.1149353273
 20
0.792552988
 30
0.0
  0
SPLINE
  5
3E8
100
AcDbEntity
  8
0
100
AcDbSpline
 62
9
  6
CONTINUOUS
 70
0
 71
3
 72
15
 73
11
 74
0
 42
0.0000001
 43
0.0000001
 44
0.0000000001
 40
0.0
 40
0.0
 40
0.0
 40
0.0
 40
0.1324579572
 40
0.259715684
 40
0.3816944923
 40
0.5000014126
 40
0.6183078596
 40
0.7402856675
 40
0.8675424491
 40
1.0
 40
1.0
 40
1.0
 40
1.0
 10
3.1149349156
 20
0.7925535301
 30
0.0
 10
3.1121323925
 20
0.7906998834
 30
0.0
 10
3.1064890057
 20
0.7872795149
 30
0.0
 10
3.0976949136
 20
0.7831704982
 30
0.0
 10
3.0887360037
 20
0.7804494597
 30
0.0
 10
3.0796287803
 20
0.7794328261
 30
0.0
 10
3.0705215813
 20
0.7804494585
 30
0.0
 10
3.0615627372
 20
0.7831705058
 30
0.0
 10
3.0527687155
 20
0.7872795312
 30
0.0
 10
3.0471253653
 20
0.7906998921
 30
0.0
 10
3.0443228492
 20
0.7925535305
 30
0.0
  0
SPLINE
  5
3E9
100
AcDbEntity
  8
0
100
AcDbSpline
 62
9
  6
CONTINUOUS
 70
0
 71
3
 72
15
 73
11
 74
0
 42
0.0000001
 43
0.0000001
 44
0.0000000001
 40
0.0
 40
0.0
 40
0.0
 40
0.0
 40
0.1076262827
 40
0.2179316821
 40
0.3326463575
 40
0.4532034637
 40
0.5804276743
 40
0.714460023
 40
0.8548212059
 40
1.0
 40
1.0
 40
1.0
 40
1.0
 10
3.1831585522
 20
0.7237349356
 30
0.0
 10
3.1831585522
 20
0.7274674386
 30
0.0
 10
3.1823204585
 20
0.7350480939
 30
0.0
 10
3.1786545795
 20
0.7460687307
 30
0.0
 10
3.1726443975
 20
0.756523005
 30
0.0
 10
3.1644879346
 20
0.7661690593
 30
0.0
 10
3.1543742668
 20
0.774796199
 30
0.0
 10
3.1425445705
 20
0.7822330877
 30
0.0
 10
3.1292739102
 20
0.788291205
 30
0.0
 10
3.1198122598
 20
0.7913019519
 30
0.0
 10
3.1149353289
 20
0.7925529835
 30
0.0
  0
SPLINE
  5
3EA
100
AcDbEntity
  8
0
100
AcDbSpline
 62
9
  6
CONTINUOUS
 70
0
 71
3
 72
15
 73
11
 74
0
 42
0.0000001
 43
0.0000001
 44
0.0000000001
 40
0.0
 40
0.0
 40
0.0
 40
0.0
 40
0.1451787941
 40
0.285539977
 40
0.4195723257
 40
0.5467965363
 40
0.6673536425
 40
0.7820683179
 40
0.8923737173
 40
1.0
 40
1.0
 40
1.0
 40
1.0
 10
3.0443224351
 20
0.7925529835
 30
0.0
 10
3.0394455042
 20
0.7913019519
 30
0.0
 10
3.0299838538
 20
0.788291205
 30
0.0
 10
3.0167131935
 20
0.7822330877
 30
0.0
 10
3.0048834972
 20
0.774796199
 30
0.0
 10
2.9947698294
 20
0.7661690593
 30
0.0
 10
2.9866133665
 20
0.756523005
 30
0.0
 10
2.9806031845
 20
0.7460687307
 30
0.0
 10
2.9769373054
 20
0.7350480939
 30
0.0
 10
2.9760992118
 20
0.7274674386
 30
0.0
 10
2.9760992118
 20
0.7237349356
 30
0.0
  0
SPLINE
  5
3EB
100
AcDbEntity
  8
0
100
AcDbSpline
 62
9
  6
CONTINUOUS
 70
0
 71
3
 72
15
 73
11
 74
0
 42
0.0000001
 43
0.0000001
 44
0.0000000001
 40
0.0
 40
0.0
 40
0.0
 40
0.0
 40
0.1076262827
 40
0.2179316821
 40
0.3326463575
 40
0.4532034637
 40
0.5804276743
 40
0.714460023
 40
0.8548212059
 40
1.0
 40
1.0
 40
1.0
 40
1.0
 10
2.9760992118
 20
0.9773753128
 30
0.0
 10
2.9760992118
 20
0.9736428099
 30
0.0
 10
2.9769373054
 20
0.9660621546
 30
0.0
 10
2.9806031845
 20
0.9550415178
 30
0.0
 10
2.9866133665
 20
0.9445872435
 30
0.0
 10
2.9947698294
 20
0.9349411892
 30
0.0
 10
3.0048834972
 20
0.9263140495
 30
0.0
 10
3.0167131935
 20
0.9188771608
 30
0.0
 10
3.0299838538
 20
0.9128190434
 30
0.0
 10
3.0394455042
 20
0.9098082965
 30
0.0
 10
3.0443224351
 20
0.908557265
 30
0.0
  0
SPLINE
  5
3EC
100
AcDbEntity
  8
0
100
AcDbSpline
 62
9
  6
CONTINUOUS
 70
0
 71
3
 72
15
 73
11
 74
0
 42
0.0000001
 43
0.0000001
 44
0.0000000001
 40
0.0
 40
0.0
 40
0.0
 40
0.0
 40
0.1451787941
 40
0.285539977
 40
0.4195723257
 40
0.5467965363
 40
0.6673536425
 40
0.7820683179
 40
0.8923737173
 40
1.0
 40
1.0
 40
1.0
 40
1.0
 10
3.1149353289
 20
0.908557265
 30
0.0
 10
3.1198122598
 20
0.9098082965
 30
0.0
 10
3.1292739102
 20
0.9128190434
 30
0.0
 10
3.1425445705
 20
0.9188771608
 30
0.0
 10
3.1543742668
 20
0.9263140495
 30
0.0
 10
3.1644879346
 20
0.9349411892
 30
0.0
 10
3.1726443975
 20
0.9445872435
 30
0.0
 10
3.1786545795
 20
0.9550415178
 30
0.0
 10
3.1823204585
 20
0.9660621546
 30
0.0
 10
3.1831585522
 20
0.9736428099
 30
0.0
 10
3.1831585522
 20
0.9773753128
 30
0.0
  0
SPLINE
  5
3ED
100
AcDbEntity
  8
0
100
AcDbSpline
 62
7
  6
CONTINUOUS
 70
0
 71
3
 72
9
 73
5
 74
0
 42
0.0000001
 43
0.0000001
 44
0.0000000001
 40
0.0
 40
0.0
 40
0.0
 40
0.0
 40
0.2472166921
 40
1.0
 40
1.0
 40
1.0
 40
1.0
 10
2.9582488512
 20
0.8291624267
 30
0.0
 10
2.9585354697
 20
0.8303243505
 30
0.0
 10
2.9596044145
 20
0.8350460397
 30
0.0
 10
2.9603048054
 20
0.8398526254
 30
0.0
 10
2.9606015045
 20
0.8434846803
 30
0.0
  0
SPLINE
  5
3EE
100
AcDbEntity
  8
0
100
AcDbSpline
 62
7
  6
CONTINUOUS
 70
0
 71
3
 72
9
 73
5
 74
0
 42
0.0000001
 43
0.0000001
 44
0.0000000001
 40
0.0
 40
0.0
 40
0.0
 40
0.0
 40
0.2524573138
 40
1.0
 40
1.0
 40
1.0
 40
1.0
 10
2.9606011815
 20
0.8576293413
 30
0.0
 10
2.9605016488
 20
0.8588471189
 30
0.0
 10
2.9600045697
 20
0.8636620116
 30
0.0
 10
2.9591153299
 20
0.8684352114
 30
0.0
 10
2.9582488423
 20
0.8719478621
 30
0.0
  0
SPLINE
  5
3EF
100
AcDbEntity
  8
0
100
AcDbSpline
 62
7
  6
CONTINUOUS
 70
0
 71
3
 72
9
 73
5
 74
0
 42
0.0000001
 43
0.0000001
 44
0.0000000001
 40
0.0
 40
0.0
 40
0.0
 40
0.0
 40
0.5188121803
 40
1.0
 40
1.0
 40
1.0
 40
1.0
 10
2.9571032676
 20
0.8767362039
 30
0.0
 10
2.9561541611
 20
0.8808366399
 30
0.0
 10
2.9544763573
 20
0.888776665
 30
0.0
 10
2.9532590051
 20
0.8968052298
 30
0.0
 10
2.9528356902
 20
0.9006858284
 30
0.0
  0
SPLINE
  5
3F0
100
AcDbEntity
  8
0
100
AcDbSpline
 62
7
  6
CONTINUOUS
 70
0
 71
3
 72
11
 73
7
 74
0
 42
0.0000001
 43
0.0000001
 44
0.0000000001
 40
0.0
 40
0.0
 40
0.0
 40
0.0
 40
0.2898575131
 40
0.5543350328
 40
0.7913331809
 40
1.0
 40
1.0
 40
1.0
 40
1.0
 10
2.9528356902
 20
0.9006858284
 30
0.0
 10
2.9525762665
 20
0.9030640087
 30
0.0
 10
2.9521949779
 20
0.907626113
 30
0.0
 10
2.9520755047
 20
0.9141621203
 30
0.0
 10
2.9524454016
 20
0.9200182406
 30
0.0
 10
2.9530358226
 20
0.9236581929
 30
0.0
 10
2.953425071
 20
0.9253358225
 30
0.0
  0
SPLINE
  5
3F1
100
AcDbEntity
  8
0
100
AcDbSpline
 62
7
  6
CONTINUOUS
 70
0
 71
3
 72
9
 73
5
 74
0
 42
0.0000001
 43
0.0000001
 44
0.0000000001
 40
0.0
 40
0.0
 40
0.0
 40
0.0
 40
0.5360146427
 40
1.0
 40
1.0
 40
1.0
 40
1.0
 10
2.9521410057
 20
0.7886832809
 30
0.0
 10
2.9521410057
 20
0.7863617289
 30
0.0
 10
2.9523179167
 20
0.7820274983
 30
0.0
 10
2.9529694483
 20
0.7777313892
 30
0.0
 10
2.9534248134
 20
0.7757740777
 30
0.0
  0
SPLINE
  5
3F2
100
AcDbEntity
  8
0
100
AcDbSpline
 62
7
  6
CONTINUOUS
 70
0
 71
3
 72
10
 73
6
 74
0
 42
0.0000001
 43
0.0000001
 44
0.0000000001
 40
0.0
 40
0.0
 40
0.0
 40
0.0
 40
0.2683020066
 40
0.5251057792
 40
1.0
 40
1.0
 40
1.0
 40
1.0
 10
3.4772069229
 20
1.1707270833
 30
0.0
 10
3.4796007575
 20
1.1683332487
 30
0.0
 10
3.484428255
 20
1.1637802261
 30
0.0
 10
3.4942613038
 20
1.1558835805
 30
0.0
 10
3.5023831121
 20
1.151173521
 30
0.0
 10
3.5080223353
 20
1.1491474586
 30
0.0
  0
LINE
  5
3F3
100
AcDbEntity
  8
0
100
AcDbLine
 62
7
  6
CONTINUOUS
 10
3.5080223353
 20
1.1491474586
 11
3.5138180167
 21
1.147480124
  0
SPLINE
  5
3F4
100
AcDbEntity
  8
0
100
AcDbSpline
 62
7
  6
CONTINUOUS
 70
0
 71
3
 72
9
 73
5
 74
0
 42
0.0000001
 43
0.0000001
 44
0.0000000001
 40
0.0
 40
0.0
 40
0.0
 40
0.0
 40
0.5244300446
 40
1.0
 40
1.0
 40
1.0
 40
1.0
 10
2.9571142974
 20
0.8244237337
 30
0.0
 10
2.9559874429
 20
0.8195624589
 30
0.0
 10
2.9540507835
 20
0.810241347
 30
0.0
 10
2.9527923152
 20
0.8007937096
 30
0.0
 10
2.9524477894
 20
0.796281598
 30
0.0
  0
LINE
  5
3F5
100
AcDbEntity
  8
0
100
AcDbLine
 62
7
  6
CONTINUOUS
 10
2.9524477894
 20
0.796281598
 11
2.9521410057
 21
0.7886832809
  0
SPLINE
  5
3F6
100
AcDbEntity
  8
0
100
AcDbSpline
 62
7
  6
CONTINUOUS
 70
0
 71
3
 72
13
 73
9
 74
0
 42
0.0000001
 43
0.0000001
 44
0.0000000001
 40
0.0
 40
0.0
 40
0.0
 40
0.0
 40
0.2758120617
 40
0.4071931146
 40
0.5338662632
 40
0.7731083271
 40
0.8875205497
 40
1.0
 40
1.0
 40
1.0
 40
1.0
 10
3.8380508411
 20
1.3318831651
 30
0.0
 10
3.8346401866
 20
1.3352938197
 30
0.0
 10
3.8293898676
 20
1.3401310858
 30
0.0
 10
3.8219280216
 20
1.3457575687
 30
0.0
 10
3.8145918269
 20
1.3504338243
 30
0.0
 10
3.8068599731
 20
1.3539421687
 30
0.0
 10
3.7988861195
 20
1.3557457616
 30
0.0
 10
3.7949123889
 20
1.3560551242
 30
0.0
 10
3.7929453513
 20
1.3560551242
 30
0.0
  0
SPLINE
  5
3F7
100
AcDbEntity
  8
0
100
AcDbSpline
 62
9
  6
CONTINUOUS
 70
0
 71
3
 72
13
 73
9
 74
0
 42
0.0000001
 43
0.0000001
 44
0.0000000001
 40
0.0
 40
0.0
 40
0.0
 40
0.0
 40
0.1024596071
 40
0.2064181291
 40
0.3153723554
 40
0.4319139875
 40
0.6927667606
 40
1.0
 40
1.0
 40
1.0
 40
1.0
 10
2.944878882
 20
0.8505551182
 30
0.0
 10
2.9448788821
 20
0.8514443253
 30
0.0
 10
2.9450192324
 20
0.8532391014
 30
0.0
 10
2.9456615698
 20
0.8559100502
 30
0.0
 10
2.9467263046
 20
0.85857297
 30
0.0
 10
2.9487726078
 20
0.8622753872
 30
0.0
 10
2.9525268062
 20
0.8669355322
 30
0.0
 10
2.9562001135
 20
0.8702411953
 30
0.0
 10
2.9582488905
 20
0.8719476468
 30
0.0
  0
SPLINE
  5
3F8
100
AcDbEntity
  8
0
100
AcDbSpline
 62
7
  6
CONTINUOUS
 70
0
 71
3
 72
13
 73
9
 74
0
 42
0.0000001
 43
0.0000001
 44
0.0000000001
 40
0.0
 40
0.0
 40
0.0
 40
0.0
 40
0.044067608
 40
0.1107136515
 40
0.2005171089
 40
0.3136897362
 40
0.6103731833
 40
1.0
 40
1.0
 40
1.0
 40
1.0
 10
3.4115449444
 20
1.0383477206
 30
0.0
 10
3.411491945
 20
1.0382557991
 30
0.0
 10
3.4114020012
 20
1.0380020753
 30
0.0
 10
3.4112867036
 20
1.0375339389
 30
0.0
 10
3.4111701549
 20
1.0368945805
 30
0.0
 10
3.4109966473
 20
1.0357041654
 30
0.0
 10
3.4107912973
 20
1.0337894724
 30
0.0
 10
3.4106532644
 20
1.0321427802
 30
0.0
 10
3.4105814333
 20
1.0312073895
 30
0.0
  0
SPLINE
  5
3F9
100
AcDbEntity
  8
0
100
AcDbSpline
 62
7
  6
CONTINUOUS
 70
0
 71
3
 72
20
 73
16
 74
0
 42
0.0000001
 43
0.0000001
 44
0.0000000001
 40
0.0
 40
0.0
 40
0.0
 40
0.0
 40
0.2265663737
 40
0.4261766514
 40
0.5975590141
 40
0.7396349316
 40
0.7993495006
 40
0.8513406778
 40
0.8955238009
 40
0.9318704698
 40
0.9603658709
 40
0.981021906
 40
0.9939424887
 40
0.9976730222
 40
1.0
 40
1.0
 40
1.0
 40
1.0
 10
3.4018463164
 20
0.7029407888
 30
0.0
 10
3.4017417563
 20
0.6998846724
 30
0.0
 10
3.4015354872
 20
0.6941363651
 30
0.0
 10
3.4012080778
 20
0.6860778785
 30
0.0
 10
3.4008818066
 20
0.6791607691
 30
0.0
 10
3.4005982757
 20
0.6741320121
 30
0.0
 10
3.4003655069
 20
0.6707146461
 30
0.0
 10
3.4002016053
 20
0.6686170542
 30
0.0
 10
3.4000383441
 20
0.6668357026
 30
0.0
 10
3.3998761865
 20
0.6653734625
 30
0.0
 10
3.3997161599
 20
0.6642293719
 30
0.0
 10
3.3995600593
 20
0.6634081738
 30
0.0
 10
3.399420586
 20
0.6629186419
 30
0.0
 10
3.3992985935
 20
0.6626941588
 30
0.0
 10
3.3992248599
 20
0.6626414536
 30
0.0
 10
3.39919349
 20
0.662639937
 30
0.0
  0
SPLINE
  5
3FA
100
AcDbEntity
  8
0
100
AcDbSpline
 62
7
  6
CONTINUOUS
 70
0
 71
3
 72
16
 73
12
 74
0
 42
0.0000001
 43
0.0000001
 44
0.0000000001
 40
0.0
 40
0.0
 40
0.0
 40
0.0
 40
0.0137051649
 40
0.0337584638
 40
0.0935031119
 40
0.1797509631
 40
0.2923769335
 40
0.4310659342
 40
0.5954727531
 40
0.7852390971
 40
1.0
 40
1.0
 40
1.0
 40
1.0
 10
3.4203316758
 20
1.0535593418
 30
0.0
 10
3.4202897906
 20
1.0534868042
 30
0.0
 10
3.420216324
 20
1.0532921734
 30
0.0
 10
3.4200709519
 20
1.0527398787
 30
0.0
 10
3.4199069255
 20
1.0517362314
 30
0.0
 10
3.4197175819
 20
1.0501675678
 30
0.0
 10
3.4195273128
 20
1.04811278
 30
0.0
 10
3.4193344169
 20
1.0455793977
 30
0.0
 10
3.4191408453
 20
1.042573299
 30
0.0
 10
3.4189465356
 20
1.0391015593
 30
0.0
 10
3.4188242363
 20
1.0366322136
 30
0.0
 10
3.4187624187
 20
1.0353211139
 30
0.0
  0
SPLINE
  5
3FB
100
AcDbEntity
  8
0
100
AcDbSpline
 62
7
  6
CONTINUOUS
 70
0
 71
3
 72
17
 73
13
 74
0
 42
0.0000001
 43
0.0000001
 44
0.0000000001
 40
0.0
 40
0.0
 40
0.0
 40
0.0
 40
0.0132018491
 40
0.0328424664
 40
0.05910137
 40
0.0920222718
 40
0.1778444312
 40
0.2901972477
 40
0.4288774949
 40
0.5936539013
 40
0.7842396728
 40
1.0
 40
1.0
 40
1.0
 40
1.0
 10
3.4078345782
 20
0.6475447711
 30
0.0
 10
3.4077902388
 20
0.6476196729
 30
0.0
 10
3.407713552
 20
0.6478243557
 30
0.0
 10
3.407615347
 20
0.6482009903
 30
0.0
 10
3.4075160164
 20
0.6487116273
 30
0.0
 10
3.4073686497
 20
0.6496561841
 30
0.0
 10
3.4071936478
 20
0.6511703146
 30
0.0
 10
3.4069938272
 20
0.6533822461
 30
0.0
 10
3.4067929905
 20
0.6561165115
 30
0.0
 10
3.4065911643
 20
0.6593675786
 30
0.0
 10
3.4063893191
 20
0.6631276993
 30
0.0
 10
3.4062622287
 20
0.6658037969
 30
0.0
 10
3.4061979011
 20
0.6672248819
 30
0.0
  0
LINE
  5
3FC
100
AcDbEntity
  8
0
100
AcDbLine
 62
7
  6
CONTINUOUS
 10
3.4061979011
 20
0.6672248819
 11
3.4054671061
 21
0.6862235472
  0
SPLINE
  5
3FD
100
AcDbEntity
  8
0
100
AcDbSpline
 62
7
  6
CONTINUOUS
 70
0
 71
3
 72
14
 73
10
 74
0
 42
0.0000001
 43
0.0000001
 44
0.0000000001
 40
0.0
 40
0.0
 40
0.0
 40
0.0
 40
0.039755108
 40
0.1035149414
 40
0.1917473699
 40
0.3045315502
 40
0.4418349062
 40
0.6035811453
 40
1.0
 40
1.0
 40
1.0
 40
1.0
 10
3.3990477656
 20
0.6627593023
 30
0.0
 10
3.398979719
 20
0.6628741464
 30
0.0
 10
3.3988721383
 20
0.66320963
 30
0.0
 10
3.3987329281
 20
0.663836306
 30
0.0
 10
3.3985930147
 20
0.6647156796
 30
0.0
 10
3.398450064
 20
0.6658423388
 30
0.0
 10
3.3983065053
 20
0.6672179619
 30
0.0
 10
3.3980997341
 20
0.6695440206
 30
0.0
 10
3.3979670255
 20
0.6714137048
 30
0.0
 10
3.3978802292
 20
0.6727419678
 30
0.0
  0
LINE
  5
3FE
100
AcDbEntity
  8
0
100
AcDbLine
 62
7
  6
CONTINUOUS
 10
3.3978802292
 20
0.6727419678
 11
3.396691382
 21
0.6985285137
  0
SPLINE
  5
3FF
100
AcDbEntity
  8
0
100
AcDbSpline
 62
7
  6
CONTINUOUS
 70
0
 71
3
 72
13
 73
9
 74
0
 42
0.0000001
 43
0.0000001
 44
0.0000000001
 40
0.0
 40
0.0
 40
0.0
 40
0.0
 40
0.0455761499
 40
0.1132232762
 40
0.2035724235
 40
0.3168759373
 40
0.6126356101
 40
1.0
 40
1.0
 40
1.0
 40
1.0
 10
3.3953349701
 20
1.0535649893
 30
0.0
 10
3.3952909421
 20
1.0534905995
 30
0.0
 10
3.3952146765
 20
1.0532877094
 30
0.0
 10
3.3951169772
 20
1.0529146002
 30
0.0
 10
3.3950181528
 20
1.052409081
 30
0.0
 10
3.3948715588
 20
1.051473308
 30
0.0
 10
3.3946977017
 20
1.0499722261
 30
0.0
 10
3.3945807777
 20
1.0486818704
 30
0.0
 10
3.3945199932
 20
1.0479496902
 30
0.0
  0
SPLINE
  5
400
100
AcDbEntity
  8
0
100
AcDbSpline
 62
7
  6
CONTINUOUS
 70
0
 71
3
 72
12
 73
8
 74
0
 42
0.0000001
 43
0.0000001
 44
0.0000000001
 40
0.0
 40
0.0
 40
0.0
 40
0.0
 40
0.0462263782
 40
0.1143691411
 40
0.3184072571
 40
0.6138004472
 40
1.0
 40
1.0
 40
1.0
 40
1.0
 10
3.3999269257
 20
1.0535578872
 30
0.0
 10
3.399970503
 20
1.0534819527
 30
0.0
 10
3.4000464036
 20
1.0532771035
 30
0.0
 10
3.4001968101
 20
1.0526935716
 30
0.0
 10
3.4003660388
 20
1.0516297162
 30
0.0
 10
3.4005617386
 20
1.0499644819
 30
0.0
 10
3.4006772944
 20
1.0486783678
 30
0.0
 10
3.4007378109
 20
1.0479494348
 30
0.0
  0
LINE
  5
401
100
AcDbEntity
  8
0
100
AcDbLine
 62
7
  6
CONTINUOUS
 10
3.4007378109
 20
1.0479494348
 11
3.401495365
 21
1.0353206948
  0
LINE
  5
402
100
AcDbEntity
  8
0
100
AcDbLine
 62
7
  6
CONTINUOUS
 10
3.401495365
 20
1.0353206948
 11
3.4030106019
 21
0.9907193057
  0
LINE
  5
403
100
AcDbEntity
  8
0
100
AcDbLine
 62
7
  6
CONTINUOUS
 10
3.4033894189
 20
0.9761102683
 11
3.4037680711
 21
0.9603667585
  0
LINE
  5
404
100
AcDbEntity
  8
0
100
AcDbLine
 62
7
  6
CONTINUOUS
 10
3.4056637116
 20
0.8698599175
 11
3.4060406579
 21
0.8505551242
  0
SPLINE
  5
405
100
AcDbEntity
  8
0
100
AcDbSpline
 62
7
  6
CONTINUOUS
 70
0
 71
3
 72
14
 73
10
 74
0
 42
0.0000001
 43
0.0000001
 44
0.0000000001
 40
0.0
 40
0.0
 40
0.0
 40
0.0
 40
0.0409335086
 40
0.1055272703
 40
0.1943680487
 40
0.3075277422
 40
0.4448667491
 40
0.6061990227
 40
1.0
 40
1.0
 40
1.0
 40
1.0
 10
3.4087136123
 20
1.0383466064
 30
0.0
 10
3.4087781009
 20
1.0382341946
 30
0.0
 10
3.4088823488
 20
1.0379125927
 30
0.0
 10
3.4090166803
 20
1.0373135309
 30
0.0
 10
3.4091518497
 20
1.0364792432
 30
0.0
 10
3.4092896197
 20
1.0354139895
 30
0.0
 10
3.409428034
 20
1.0341172915
 30
0.0
 10
3.409626998
 20
1.031933957
 30
0.0
 10
3.4097551017
 20
1.0301809015
 30
0.0
 10
3.409838882
 20
1.0289369375
 30
0.0
  0
SPLINE
  5
406
100
AcDbEntity
  8
0
100
AcDbSpline
 62
7
  6
CONTINUOUS
 70
0
 71
3
 72
10
 73
6
 74
0
 42
0.0000001
 43
0.0000001
 44
0.0000000001
 40
0.0
 40
0.0
 40
0.0
 40
0.0
 40
0.1832770912
 40
0.4127206184
 40
1.0
 40
1.0
 40
1.0
 40
1.0
 10
3.409838882
 20
1.0289369375
 30
0.0
 10
3.4099908194
 20
1.0266809803
 30
0.0
 10
3.4102790088
 20
1.0215972144
 30
0.0
 10
3.4108438069
 20
1.0092731909
 30
0.0
 10
3.4111941224
 20
0.9992031695
 30
0.0
 10
3.4114269978
 20
0.9919617166
 30
0.0
  0
LINE
  5
407
100
AcDbEntity
  8
0
100
AcDbLine
 62
7
  6
CONTINUOUS
 10
3.418403882
 20
0.7031691196
 11
3.418566382
 21
0.6985289295
  0
SPLINE
  5
408
100
AcDbEntity
  8
0
100
AcDbSpline
 62
7
  6
CONTINUOUS
 70
0
 71
3
 72
14
 73
10
 74
0
 42
0.0000001
 43
0.0000001
 44
0.0000000001
 40
0.0
 40
0.0
 40
0.0
 40
0.0
 40
0.0419840597
 40
0.1074446469
 40
0.1967692452
 40
0.3099949566
 40
0.4470526024
 40
0.607830187
 40
1.0
 40
1.0
 40
1.0
 40
1.0
 10
3.971844068
 20
0.6475858238
 30
0.0
 10
3.9717721784
 20
0.6477152857
 30
0.0
 10
3.9716549245
 20
0.6480799378
 30
0.0
 10
3.9715037386
 20
0.6487558748
 30
0.0
 10
3.9713513939
 20
0.6496899708
 30
0.0
 10
3.9711963175
 20
0.6508775156
 30
0.0
 10
3.9710405902
 20
0.6523191941
 30
0.0
 10
3.9708169532
 20
0.6547426346
 30
0.0
 10
3.9706730167
 20
0.6566878126
 30
0.0
 10
3.9705789881
 20
0.6580678418
 30
0.0
  0
LINE
  5
409
100
AcDbEntity
  8
0
100
AcDbLine
 62
7
  6
CONTINUOUS
 10
3.9705789881
 20
0.6580678418
 11
3.9701444439
 21
0.6653717033
  0
SPLINE
  5
40A
100
AcDbEntity
  8
0
100
AcDbSpline
 62
7
  6
CONTINUOUS
 70
0
 71
3
 72
9
 73
5
 74
0
 42
0.0000001
 43
0.0000001
 44
0.0000000001
 40
0.0
 40
0.0
 40
0.0
 40
0.0
 40
0.4307683189
 40
1.0
 40
1.0
 40
1.0
 40
1.0
 10
3.9701444439
 20
0.6653717033
 30
0.0
 10
3.9697939362
 20
0.6719965451
 30
0.0
 10
3.9691616578
 20
0.6873849363
 30
0.0
 10
3.9686594619
 20
0.7027773465
 30
0.0
 10
3.9683980427
 20
0.7115399799
 30
0.0
  0
LINE
  5
40B
100
AcDbEntity
  8
0
100
AcDbLine
 62
7
  6
CONTINUOUS
 10
3.9680407867
 20
0.724041405
 11
3.9679671061
 21
0.7267537891
  0
SPLINE
  5
40C
100
AcDbEntity
  8
0
100
AcDbSpline
 62
7
  6
CONTINUOUS
 70
0
 71
3
 72
13
 73
9
 74
0
 42
0.0000001
 43
0.0000001
 44
0.0000000001
 40
0.0
 40
0.0
 40
0.0
 40
0.0
 40
0.0444561598
 40
0.111666904
 40
0.2020267909
 40
0.3155855371
 40
0.6119967817
 40
1.0
 40
1.0
 40
1.0
 40
1.0
 10
3.9630550449
 20
0.6628227132
 30
0.0
 10
3.9629875107
 20
0.6629449408
 30
0.0
 10
3.9628734381
 20
0.6632800401
 30
0.0
 10
3.9627268373
 20
0.6638965902
 30
0.0
 10
3.9625786957
 20
0.6647361396
 30
0.0
 10
3.9623584037
 20
0.6662921246
 30
0.0
 10
3.9620971393
 20
0.6687858556
 30
0.0
 10
3.9619213602
 20
0.6709284802
 30
0.0
 10
3.9618300254
 20
0.6721438345
 30
0.0
  0
SPLINE
  5
40D
100
AcDbEntity
  8
0
100
AcDbSpline
 62
7
  6
CONTINUOUS
 70
0
 71
3
 72
11
 73
7
 74
0
 42
0.0000001
 43
0.0000001
 44
0.0000000001
 40
0.0
 40
0.0
 40
0.0
 40
0.0
 40
0.1679166108
 40
0.3940571199
 40
0.6739452499
 40
1.0
 40
1.0
 40
1.0
 40
1.0
 10
3.9618300254
 20
0.6721438345
 30
0.0
 10
3.9615617952
 20
0.6757130616
 30
0.0
 10
3.9610797025
 20
0.684099792
 30
0.0
 10
3.9604427727
 20
0.6984513686
 30
0.0
 10
3.9598013717
 20
0.7161765822
 30
0.0
 10
3.9593975773
 20
0.729086488
 30
0.0
 10
3.959191382
 20
0.7360335753
 30
0.0
  0
SPLINE
  5
40E
100
AcDbEntity
  8
0
100
AcDbSpline
 62
7
  6
CONTINUOUS
 70
0
 71
3
 72
13
 73
9
 74
0
 42
0.0000001
 43
0.0000001
 44
0.0000000001
 40
0.0
 40
0.0
 40
0.0
 40
0.0
 40
0.045550617
 40
0.1133310694
 40
0.2038502752
 40
0.3172642038
 40
0.6128665509
 40
1.0
 40
1.0
 40
1.0
 40
1.0
 10
3.3962134509
 20
0.6627716643
 30
0.0
 10
3.3962634017
 20
0.662859966
 30
0.0
 10
3.3963493896
 20
0.6630996381
 30
0.0
 10
3.3964597454
 20
0.6635395332
 30
0.0
 10
3.3965713375
 20
0.6641349115
 30
0.0
 10
3.3967368998
 20
0.6652350515
 30
0.0
 10
3.3969335401
 20
0.666997924
 30
0.0
 10
3.397065673
 20
0.6685127568
 30
0.0
 10
3.3971343229
 20
0.6693722474
 30
0.0
  0
SPLINE
  5
40F
100
AcDbEntity
  8
0
100
AcDbSpline
 62
7
  6
CONTINUOUS
 70
0
 71
3
 72
14
 73
10
 74
0
 42
0.0000001
 43
0.0000001
 44
0.0000000001
 40
0.0
 40
0.0
 40
0.0
 40
0.0
 40
0.041632896
 40
0.1066019342
 40
0.1954410051
 40
0.3083200683
 40
0.4452984016
 40
0.606365245
 40
1.0
 40
1.0
 40
1.0
 40
1.0
 10
3.3874267707
 20
0.6475534434
 30
0.0
 10
3.3874840463
 20
0.6476538089
 30
0.0
 10
3.3875777849
 20
0.6479379571
 30
0.0
 10
3.3876984103
 20
0.6484657013
 30
0.0
 10
3.3878200245
 20
0.6491968103
 30
0.0
 10
3.3879437979
 20
0.650128559
 30
0.0
 10
3.3880681181
 20
0.651262515
 30
0.0
 10
3.3882467352
 20
0.6531740572
 30
0.0
 10
3.3883615973
 20
0.6547095759
 30
0.0
 10
3.3884367294
 20
0.6557995818
 30
0.0
  0
LINE
  5
410
100
AcDbEntity
  8
0
100
AcDbLine
 62
7
  6
CONTINUOUS
 10
3.3884367294
 20
0.6557995818
 11
3.3891658344
 21
0.6695735147
  0
SPLINE
  5
411
100
AcDbEntity
  8
0
100
AcDbSpline
 62
7
  6
CONTINUOUS
 70
0
 71
3
 72
15
 73
11
 74
0
 42
0.0000001
 43
0.0000001
 44
0.0000000001
 40
0.0
 40
0.0
 40
0.0
 40
0.0
 40
0.0235067359
 40
0.0447622352
 40
0.0732193972
 40
0.1524987095
 40
0.2620229483
 40
0.4017472035
 40
0.5714831691
 40
1.0
 40
1.0
 40
1.0
 40
1.0
 10
3.3866944296
 20
1.0384740806
 30
0.0
 10
3.3867601287
 20
1.0384731786
 30
0.0
 10
3.3868491488
 20
1.0383440791
 30
0.0
 10
3.3869243942
 20
1.0381657914
 30
0.0
 10
3.3870347379
 20
1.03781622
 30
0.0
 10
3.3871578798
 20
1.0372247045
 30
0.0
 10
3.3873015247
 20
1.0363158255
 30
0.0
 10
3.3874449815
 20
1.0351539983
 30
0.0
 10
3.3876553342
 20
1.0331015923
 30
0.0
 10
3.3877867297
 20
1.0314344547
 30
0.0
 10
3.3878730981
 20
1.0302397942
 30
0.0
  0
LINE
  5
412
100
AcDbEntity
  8
0
100
AcDbLine
 62
7
  6
CONTINUOUS
 10
3.3878730981
 20
1.0302397942
 11
3.3886734859
 21
1.0156198589
  0
LINE
  5
413
100
AcDbEntity
  8
0
100
AcDbLine
 62
7
  6
CONTINUOUS
 10
3.3958886721
 20
0.7237529331
 11
3.3961253685
 21
0.7157346382
  0
LINE
  5
414
100
AcDbEntity
  8
0
100
AcDbLine
 62
7
  6
CONTINUOUS
 10
3.3961253685
 20
0.7157346382
 11
3.3962899831
 21
0.7104357915
  0
LINE
  5
415
100
AcDbEntity
  8
0
100
AcDbLine
 62
7
  6
CONTINUOUS
 10
3.3965254552
 20
0.703274125
 11
3.396691382
 21
0.6985377431
  0
LINE
  5
416
100
AcDbEntity
  8
0
100
AcDbLine
 62
7
  6
CONTINUOUS
 10
3.3864023515
 20
1.0379728023
 11
3.3865483009
 21
1.0383494925
  0
SPLINE
  5
417
100
AcDbEntity
  8
0
100
AcDbSpline
 62
7
  6
CONTINUOUS
 70
0
 71
3
 72
12
 73
8
 74
0
 42
0.0000001
 43
0.0000001
 44
0.0000000001
 40
0.0
 40
0.0
 40
0.0
 40
0.0
 40
0.0475048696
 40
0.1166788887
 40
0.3218076464
 40
0.6164059572
 40
1.0
 40
1.0
 40
1.0
 40
1.0
 10
3.9098060997
 20
1.0535386094
 30
0.0
 10
3.9098561027
 20
1.0534528909
 30
0.0
 10
3.9099442446
 20
1.0532234951
 30
0.0
 10
3.9101182739
 20
1.0525745523
 30
0.0
 10
3.910314984
 20
1.0513999769
 30
0.0
 10
3.9105423276
 20
1.0495694505
 30
0.0
 10
3.9106768156
 20
1.0481586777
 30
0.0
 10
3.910747123
 20
1.047360447
 30
0.0
  0
LINE
  5
418
100
AcDbEntity
  8
0
100
AcDbLine
 62
7
  6
CONTINUOUS
 10
3.910747123
 20
1.047360447
 11
3.9115265932
 21
1.0355064302
  0
LINE
  5
419
100
AcDbEntity
  8
0
100
AcDbLine
 62
7
  6
CONTINUOUS
 10
3.914741937
 20
0.9329873026
 11
3.9150344965
 21
0.9205459787
  0
LINE
  5
41A
100
AcDbEntity
  8
0
100
AcDbLine
 62
7
  6
CONTINUOUS
 10
3.9150344965
 20
0.9205459787
 11
3.9154242786
 21
0.9035017974
  0
LINE
  5
41B
100
AcDbEntity
  8
0
100
AcDbLine
 62
7
  6
CONTINUOUS
 10
3.9154242786
 20
0.9035017974
 11
3.9158136878
 21
0.8860483014
  0
SPLINE
  5
41C
100
AcDbEntity
  8
0
100
AcDbSpline
 62
7
  6
CONTINUOUS
 70
0
 71
3
 72
13
 73
9
 74
0
 42
0.0000001
 43
0.0000001
 44
0.0000000001
 40
0.0
 40
0.0
 40
0.0
 40
0.0
 40
0.4053577137
 40
0.7058733482
 40
0.8170221661
 40
0.9023977485
 40
0.962673146
 40
1.0
 40
1.0
 40
1.0
 40
1.0
 10
3.9365172243
 20
1.0492708468
 30
0.0
 10
3.9365808714
 20
1.0498763734
 30
0.0
 10
3.9367025474
 20
1.0509294486
 30
0.0
 10
3.9368864374
 20
1.0521441247
 30
0.0
 10
3.937042467
 20
1.0528737289
 30
0.0
 10
3.9371468666
 20
1.0532468995
 30
0.0
 10
3.9372473612
 20
1.0535001868
 30
0.0
 10
3.9373326308
 20
1.0536281031
 30
0.0
 10
3.9373798711
 20
1.0536582991
 30
0.0
  0
SPLINE
  5
41D
100
AcDbEntity
  8
0
100
AcDbSpline
 62
7
  6
CONTINUOUS
 70
0
 71
3
 72
13
 73
9
 74
0
 42
0.0000001
 43
0.0000001
 44
0.0000000001
 40
0.0
 40
0.0
 40
0.0
 40
0.0
 40
0.0446442464
 40
0.1118493406
 40
0.2021740506
 40
0.3156938207
 40
0.6120396807
 40
1.0
 40
1.0
 40
1.0
 40
1.0
 10
3.9376069361
 20
1.0535362112
 30
0.0
 10
3.937665316
 20
1.0534360374
 30
0.0
 10
3.9377650388
 20
1.0531601993
 30
0.0
 10
3.9378926834
 20
1.052651607
 30
0.0
 10
3.9380217386
 20
1.051958847
 30
0.0
 10
3.9382135172
 20
1.0506741398
 30
0.0
 10
3.9384410371
 20
1.0486139272
 30
0.0
 10
3.9385941475
 20
1.0468433751
 30
0.0
 10
3.9386737325
 20
1.0458389655
 30
0.0
  0
LINE
  5
41E
100
AcDbEntity
  8
0
100
AcDbLine
 62
7
  6
CONTINUOUS
 10
3.9386737325
 20
1.0458389655
 11
3.9395366667
 21
1.031317977
  0
SPLINE
  5
41F
100
AcDbEntity
  8
0
100
AcDbSpline
 62
7
  6
CONTINUOUS
 70
0
 71
3
 72
10
 73
6
 74
0
 42
0.0000001
 43
0.0000001
 44
0.0000000001
 40
0.0
 40
0.0
 40
0.0
 40
0.0
 40
0.1955865974
 40
0.4300818213
 40
1.0
 40
1.0
 40
1.0
 40
1.0
 10
3.9395366667
 20
1.031317977
 30
0.0
 10
3.9397372489
 20
1.0271192234
 30
0.0
 10
3.9401235414
 20
1.0178838417
 30
0.0
 10
3.940877593
 20
0.9964050334
 30
0.0
 10
3.9413657399
 20
0.9791233105
 30
0.0
 10
3.9416929046
 20
0.9668790142
 30
0.0
  0
SPLINE
  5
420
100
AcDbEntity
  8
0
100
AcDbSpline
 62
7
  6
CONTINUOUS
 70
0
 71
3
 72
14
 73
10
 74
0
 42
0.0000001
 43
0.0000001
 44
0.0000000001
 40
0.0
 40
0.0
 40
0.0
 40
0.0
 40
0.024846939
 40
0.0753340696
 40
0.1548520068
 40
0.2640990869
 40
0.4033094293
 40
0.5725650251
 40
1.0
 40
1.0
 40
1.0
 40
1.0
 10
3.5297483709
 20
1.1168494598
 30
0.0
 10
3.5297531357
 20
1.1169131355
 30
0.0
 10
3.5299421373
 20
1.1170456181
 30
0.0
 10
3.5303011727
 20
1.117158456
 30
0.0
 10
3.5309113686
 20
1.1173014575
 30
0.0
 10
3.5317389459
 20
1.1174357515
 30
0.0
 10
3.5328050413
 20
1.1175766558
 30
0.0
 10
3.5346846071
 20
1.1177791979
 30
0.0
 10
3.5362133261
 20
1.117906575
 30
0.0
 10
3.5373086008
 20
1.1179901525
 30
0.0
  0
SPLINE
  5
421
100
AcDbEntity
  8
0
100
AcDbSpline
 62
7
  6
CONTINUOUS
 70
0
 71
3
 72
28
 73
24
 74
0
 42
0.0000001
 43
0.0000001
 44
0.0000000001
 40
0.0
 40
0.0
 40
0.0
 40
0.0
 40
0.0366482513
 40
0.0862012959
 40
0.1472003502
 40
0.2179295945
 40
0.296344017
 40
0.3802069986
 40
0.4671053559
 40
0.5545424293
 40
0.6399740325
 40
0.7209023004
 40
0.7951039849
 40
0.8604663217
 40
0.8892121198
 40
0.9150100719
 40
0.9376528691
 40
0.9570269276
 40
0.973034682
 40
0.9855806188
 40
0.9945834504
 40
0.9977405868
 40
1.0
 40
1.0
 40
1.0
 40
1.0
 10
3.5373086008
 20
1.1179901525
 30
0.0
 10
3.5403301052
 20
1.1182207153
 30
0.0
 10
3.547446696
 20
1.1186316232
 30
0.0
 10
3.5596059282
 20
1.1191736247
 30
0.0
 10
3.5745854954
 20
1.1197212837
 30
0.0
 10
3.5919525673
 20
1.1202724836
 30
0.0
 10
3.6112109877
 20
1.120825514
 30
0.0
 10
3.631806803
 20
1.1213804234
 30
0.0
 10
3.6531489037
 20
1.1219361089
 30
0.0
 10
3.6746207671
 20
1.1224910839
 30
0.0
 10
3.6955988387
 20
1.1230454759
 30
0.0
 10
3.7154821302
 20
1.1236002434
 30
0.0
 10
3.733705331
 20
1.1241533272
 30
0.0
 10
3.7476141013
 20
1.1246288662
 30
0.0
 10
3.7575210217
 20
1.1250178151
 30
0.0
 10
3.7638971869
 20
1.1252963811
 30
0.0
 10
3.7694976704
 20
1.1255745915
 30
0.0
 10
3.7742874521
 20
1.125851947
 30
0.0
 10
3.7782412257
 20
1.1261262183
 30
0.0
 10
3.78133438
 20
1.1263988365
 30
0.0
 10
3.7833648992
 20
1.1266356879
 30
0.0
 10
3.7845391097
 20
1.126842116
 30
0.0
 10
3.7849757252
 20
1.1269464942
 30
0.0
 10
3.7851531777
 20
1.1270049136
 30
0.0
  0
SPLINE
  5
422
100
AcDbEntity
  8
0
100
AcDbSpline
 62
7
  6
CONTINUOUS
 70
0
 71
3
 72
15
 73
11
 74
0
 42
0.0000001
 43
0.0000001
 44
0.0000000001
 40
0.0
 40
0.0
 40
0.0
 40
0.0
 40
0.0228842668
 40
0.0730394532
 40
0.1532954455
 40
0.2637393168
 40
0.4040671292
 40
0.5738630426
 40
0.7726674166
 40
1.0
 40
1.0
 40
1.0
 40
1.0
 10
3.7855482738
 20
1.1272655596
 30
0.0
 10
3.7855471505
 20
1.1273400442
 30
0.0
 10
3.7852945638
 20
1.1274923989
 30
0.0
 10
3.7848501149
 20
1.1276123959
 30
0.0
 10
3.7840616888
 20
1.1277754478
 30
0.0
 10
3.783003072
 20
1.1279252
 30
0.0
 10
3.7816398898
 20
1.1280842313
 30
0.0
 10
3.7799918105
 20
1.1282416692
 30
0.0
 10
3.7780580172
 20
1.1284007567
 30
0.0
 10
3.7766745089
 20
1.1285002822
 30
0.0
 10
3.7759362137
 20
1.1285507104
 30
0.0
  0
LINE
  5
423
100
AcDbEntity
  8
0
100
AcDbLine
 62
7
  6
CONTINUOUS
 10
3.5303803362
 20
1.1373437356
 11
3.5298567857
 21
1.1375344649
  0
SPLINE
  5
424
100
AcDbEntity
  8
0
100
AcDbSpline
 62
7
  6
CONTINUOUS
 70
0
 71
3
 72
13
 73
9
 74
0
 42
0.0000001
 43
0.0000001
 44
0.0000000001
 40
0.0
 40
0.0
 40
0.0
 40
0.0
 40
0.0456472829
 40
0.1134546502
 40
0.2039740428
 40
0.317376346
 40
0.6129357866
 40
1.0
 40
1.0
 40
1.0
 40
1.0
 10
3.9515027883
 20
0.6475678486
 30
0.0
 10
3.9515575368
 20
0.6476603711
 30
0.0
 10
3.9516521776
 20
0.6479129389
 30
0.0
 10
3.9517734656
 20
0.6483772112
 30
0.0
 10
3.9518961611
 20
0.6490059768
 30
0.0
 10
3.9520781252
 20
0.6501681385
 30
0.0
 10
3.9522942677
 20
0.6520311168
 30
0.0
 10
3.9524394963
 20
0.6536322279
 30
0.0
 10
3.9525149523
 20
0.6545407027
 30
0.0
  0
LINE
  5
425
100
AcDbEntity
  8
0
100
AcDbLine
 62
7
  6
CONTINUOUS
 10
3.9642690098
 20
1.0488003633
 11
3.9647044454
 21
1.0521861361
  0
LINE
  5
426
100
AcDbEntity
  8
0
100
AcDbLine
 62
7
  6
CONTINUOUS
 10
3.9647044454
 20
1.0521861361
 11
3.9651398127
 21
1.053624423
  0
SPLINE
  5
427
100
AcDbEntity
  8
0
100
AcDbSpline
 62
7
  6
CONTINUOUS
 70
0
 71
3
 72
12
 73
8
 74
0
 42
0.0000001
 43
0.0000001
 44
0.0000000001
 40
0.0
 40
0.0
 40
0.0
 40
0.0
 40
0.0331624469
 40
0.0874714219
 40
0.2770136414
 40
0.5807017906
 40
1.0
 40
1.0
 40
1.0
 40
1.0
 10
3.5297415014
 20
1.1376807632
 30
0.0
 10
3.529743518
 20
1.1377149148
 30
0.0
 10
3.5298046725
 20
1.1377946089
 30
0.0
 10
3.5300573186
 20
1.1379246905
 30
0.0
 10
3.5306085562
 20
1.1380747812
 30
0.0
 10
3.5315324853
 20
1.138242069
 30
0.0
 10
3.5322729166
 20
1.1383407593
 30
0.0
 10
3.5327023228
 20
1.1383928679
 30
0.0
  0
LINE
  5
428
100
AcDbEntity
  8
0
100
AcDbLine
 62
7
  6
CONTINUOUS
 10
3.5327023228
 20
1.1383928679
 11
3.5364319876
 21
1.1387554107
  0
LINE
  5
429
100
AcDbEntity
  8
0
100
AcDbLine
 62
7
  6
CONTINUOUS
 10
3.5364319876
 20
1.1387554107
 11
3.5481121411
 21
1.1394775503
  0
SPLINE
  5
42A
100
AcDbEntity
  8
0
100
AcDbSpline
 62
7
  6
CONTINUOUS
 70
0
 71
3
 72
11
 73
7
 74
0
 42
0.0000001
 43
0.0000001
 44
0.0000000001
 40
0.0
 40
0.0
 40
0.0
 40
0.0
 40
0.1883807331
 40
0.4257010473
 40
0.7005268073
 40
1.0
 40
1.0
 40
1.0
 40
1.0
 10
3.5481121411
 20
1.1394775503
 30
0.0
 10
3.5538020882
 20
1.1397630718
 30
0.0
 10
3.5666661341
 20
1.1402865037
 30
0.0
 10
3.5878401628
 20
1.1409891551
 30
0.0
 10
3.6123754429
 20
1.1416967328
 30
0.0
 10
3.6297375288
 20
1.1421589677
 30
0.0
 10
3.6387912394
 20
1.1423963139
 30
0.0
  0
SPLINE
  5
42B
100
AcDbEntity
  8
0
100
AcDbSpline
 62
7
  6
CONTINUOUS
 70
0
 71
3
 72
11
 73
7
 74
0
 42
0.0000001
 43
0.0000001
 44
0.0000000001
 40
0.0
 40
0.0
 40
0.0
 40
0.0
 40
0.3028363624
 40
0.5788829989
 40
0.8153312393
 40
1.0
 40
1.0
 40
1.0
 40
1.0
 10
3.6805316425
 20
1.1434831185
 30
0.0
 10
3.6894645413
 20
1.1437184257
 30
0.0
 10
3.7065398692
 20
1.1441771212
 30
0.0
 10
3.7305881503
 20
1.1448824878
 30
0.0
 10
3.7511479724
 20
1.1455800718
 30
0.0
 10
3.7635636746
 20
1.1461027511
 30
0.0
 10
3.7690052076
 20
1.1463906942
 30
0.0
  0
LINE
  5
42C
100
AcDbEntity
  8
0
100
AcDbLine
 62
7
  6
CONTINUOUS
 10
3.965405162
 20
1.0535396159
 11
3.9660100008
 21
1.050611003
  0
LINE
  5
42D
100
AcDbEntity
  8
0
100
AcDbLine
 62
7
  6
CONTINUOUS
 10
3.9660100008
 20
1.050611003
 11
3.9664451487
 21
1.0461900335
  0
LINE
  5
42E
100
AcDbEntity
  8
0
100
AcDbLine
 62
7
  6
CONTINUOUS
 10
3.9664451487
 20
1.0461900335
 11
3.9673177321
 21
1.0317368705
  0
LINE
  5
42F
100
AcDbEntity
  8
0
100
AcDbLine
 62
7
  6
CONTINUOUS
 10
3.9692142936
 20
0.9768974538
 11
3.9694929046
 21
0.9668790142
  0
SPLINE
  5
430
100
AcDbEntity
  8
0
100
AcDbSpline
 62
7
  6
CONTINUOUS
 70
0
 71
3
 72
13
 73
9
 74
0
 42
0.0000001
 43
0.0000001
 44
0.0000000001
 40
0.0
 40
0.0
 40
0.0
 40
0.0
 40
0.0414825127
 40
0.1064981914
 40
0.1954943311
 40
0.3085533789
 40
0.6066955429
 40
1.0
 40
1.0
 40
1.0
 40
1.0
 10
3.5171098203
 20
1.1240515535
 30
0.0
 10
3.517201559
 20
1.1239973756
 30
0.0
 10
3.5174633747
 20
1.1239078383
 30
0.0
 10
3.517950579
 20
1.1237910513
 30
0.0
 10
3.518627012
 20
1.1236719886
 30
0.0
 10
3.5198989301
 20
1.12349269
 30
0.0
 10
3.5219551397
 20
1.1232811974
 30
0.0
 10
3.52372549
 20
1.1231417441
 30
0.0
 10
3.5247330284
 20
1.1230691705
 30
0.0
  0
SPLINE
  5
431
100
AcDbEntity
  8
0
100
AcDbSpline
 62
7
  6
CONTINUOUS
 70
0
 71
3
 72
13
 73
9
 74
0
 42
0.0000001
 43
0.0000001
 44
0.0000000001
 40
0.0
 40
0.0
 40
0.0
 40
0.0
 40
0.0429610172
 40
0.1090111577
 40
0.1986077047
 40
0.3118392959
 40
0.6090435075
 40
1.0
 40
1.0
 40
1.0
 40
1.0
 10
3.7981468375
 20
1.1344679845
 30
0.0
 10
3.7980621511
 20
1.1344182624
 30
0.0
 10
3.7978245851
 20
1.134334676
 30
0.0
 10
3.7973845402
 20
1.1342263029
 30
0.0
 10
3.796779188
 20
1.1341158247
 30
0.0
 10
3.7956484052
 20
1.1339498874
 30
0.0
 10
3.7938265612
 20
1.1337519784
 30
0.0
 10
3.7922591365
 20
1.1336192642
 30
0.0
 10
3.791368103
 20
1.133550486
 30
0.0
  0
LINE
  5
432
100
AcDbEntity
  8
0
100
AcDbLine
 62
7
  6
CONTINUOUS
 10
3.791368103
 20
1.133550486
 11
3.7794087216
 21
1.1328547231
  0
SPLINE
  5
433
100
AcDbEntity
  8
0
100
AcDbSpline
 62
7
  6
CONTINUOUS
 70
0
 71
3
 72
16
 73
12
 74
0
 42
0.0000001
 43
0.0000001
 44
0.0000000001
 40
0.0
 40
0.0
 40
0.0
 40
0.0
 40
0.041970313
 40
0.0917892566
 40
0.2113669413
 40
0.4246675231
 40
0.6494284668
 40
0.7553375518
 40
0.851451594
 40
0.9340580536
 40
1.0
 40
1.0
 40
1.0
 40
1.0
 10
3.7794087216
 20
1.1328547231
 30
0.0
 10
3.7760035083
 20
1.132694714
 30
0.0
 10
3.7685543479
 20
1.1323864116
 30
0.0
 10
3.7513970377
 20
1.1317811211
 30
0.0
 10
3.7203257979
 20
1.1308836829
 30
0.0
 10
3.6750457232
 20
1.1297864208
 30
0.0
 10
3.630874471
 20
1.1287615337
 30
0.0
 10
3.596220447
 20
1.1278952722
 30
0.0
 10
3.5731104926
 20
1.1272614582
 30
0.0
 10
3.5532482038
 20
1.1266300034
 30
0.0
 10
3.5411912978
 20
1.126163893
 30
0.0
 10
3.5358411651
 20
1.1259126731
 30
0.0
  0
SPLINE
  5
434
100
AcDbEntity
  8
0
100
AcDbSpline
 62
7
  6
CONTINUOUS
 70
0
 71
3
 72
10
 73
6
 74
0
 42
0.0000001
 43
0.0000001
 44
0.0000000001
 40
0.0
 40
0.0
 40
0.0
 40
0.0
 40
0.6020568847
 40
0.8273086732
 40
1.0
 40
1.0
 40
1.0
 40
1.0
 10
3.5358411651
 20
1.1259126731
 30
0.0
 10
3.5326747839
 20
1.1257639931
 30
0.0
 10
3.5283241578
 20
1.1255418433
 30
0.0
 10
3.5230726479
 20
1.1251627814
 30
0.0
 10
3.5209861431
 20
1.1249677768
 30
0.0
 10
3.5200829163
 20
1.1248634539
 30
0.0
  0
LINE
  5
435
100
AcDbEntity
  8
0
100
AcDbLine
 62
7
  6
CONTINUOUS
 10
3.5200829163
 20
1.1248634539
 11
3.5177799813
 21
1.1245134439
  0
LINE
  5
436
100
AcDbEntity
  8
0
100
AcDbLine
 62
7
  6
CONTINUOUS
 10
3.5177799813
 20
1.1245134439
 11
3.517003882
 21
1.1241749726
  0
LINE
  5
437
100
AcDbEntity
  8
0
100
AcDbLine
 62
7
  6
CONTINUOUS
 10
3.3835401616
 20
0.7311544912
 11
3.3838533081
 21
0.7186301575
  0
LINE
  5
438
100
AcDbEntity
  8
0
100
AcDbLine
 62
7
  6
CONTINUOUS
 10
3.3847906579
 20
0.6862235472
 11
3.3855182598
 21
0.6672187857
  0
LINE
  5
439
100
AcDbEntity
  8
0
100
AcDbLine
 62
7
  6
CONTINUOUS
 10
3.3855182598
 20
0.6672187857
 11
3.3862499419
 21
0.6543478284
  0
LINE
  5
43A
100
AcDbEntity
  8
0
100
AcDbLine
 62
7
  6
CONTINUOUS
 10
3.3862499419
 20
0.6543478284
 11
3.3869783663
 21
0.6480554563
  0
LINE
  5
43B
100
AcDbEntity
  8
0
100
AcDbLine
 62
7
  6
CONTINUOUS
 10
3.3869783663
 20
0.6480554563
 11
3.3872904784
 21
0.6474333313
  0
SPLINE
  5
43C
100
AcDbEntity
  8
0
100
AcDbSpline
 62
7
  6
CONTINUOUS
 70
0
 71
3
 72
11
 73
7
 74
0
 42
0.0000001
 43
0.0000001
 44
0.0000000001
 40
0.0
 40
0.0
 40
0.0
 40
0.0
 40
0.3717400309
 40
0.6624706589
 40
0.871612619
 40
1.0
 40
1.0
 40
1.0
 40
1.0
 10
3.3839139068
 20
0.6531568017
 30
0.0
 10
3.3838569373
 20
0.6524707967
 30
0.0
 10
3.383746455
 20
0.6512493701
 30
0.0
 10
3.3835658799
 20
0.6496439922
 30
0.0
 10
3.3833842613
 20
0.6484970714
 30
0.0
 10
3.3832471425
 20
0.6478822857
 30
0.0
 10
3.3831563387
 20
0.6476625698
 30
0.0
  0
SPLINE
  5
43D
100
AcDbEntity
  8
0
100
AcDbSpline
 62
7
  6
CONTINUOUS
 70
0
 71
3
 72
11
 73
7
 74
0
 42
0.0000001
 43
0.0000001
 44
0.0000000001
 40
0.0
 40
0.0
 40
0.0
 40
0.0
 40
0.3717444731
 40
0.6624765431
 40
0.8716169608
 40
1.0
 40
1.0
 40
1.0
 40
1.0
 10
3.3988438786
 20
1.0479537251
 30
0.0
 10
3.3989008483
 20
1.0486397105
 30
0.0
 10
3.3990113309
 20
1.0498610982
 30
0.0
 10
3.3991919055
 20
1.0514664191
 30
0.0
 10
3.3993735227
 20
1.0526132835
 30
0.0
 10
3.3995106382
 20
1.0532280342
 30
0.0
 10
3.3996014432
 20
1.0534477305
 30
0.0
  0
LINE
  5
43E
100
AcDbEntity
  8
0
100
AcDbLine
 62
7
  6
CONTINUOUS
 10
3.4017171061
 20
0.8505551242
 11
3.4013344357
 21
0.8698676314
  0
LINE
  5
43F
100
AcDbEntity
  8
0
100
AcDbLine
 62
7
  6
CONTINUOUS
 10
3.3994441888
 20
0.9603809517
 11
3.3990651383
 21
0.9761234641
  0
LINE
  5
440
100
AcDbEntity
  8
0
100
AcDbLine
 62
7
  6
CONTINUOUS
 10
3.3983078354
 20
1.0040727656
 11
3.3971714813
 21
1.0353277336
  0
LINE
  5
441
100
AcDbEntity
  8
0
100
AcDbLine
 62
7
  6
CONTINUOUS
 10
3.3971714813
 20
1.0353277336
 11
3.3964139067
 21
1.0479534467
  0
SPLINE
  5
442
100
AcDbEntity
  8
0
100
AcDbSpline
 62
7
  6
CONTINUOUS
 70
0
 71
3
 72
11
 73
7
 74
0
 42
0.0000001
 43
0.0000001
 44
0.0000000001
 40
0.0
 40
0.0
 40
0.0
 40
0.0
 40
0.3717400302
 40
0.6624706575
 40
0.8716126178
 40
1.0
 40
1.0
 40
1.0
 40
1.0
 10
3.3964139067
 20
1.0479534467
 30
0.0
 10
3.3963569372
 20
1.0486394517
 30
0.0
 10
3.396246455
 20
1.0498608783
 30
0.0
 10
3.3960658799
 20
1.0514662562
 30
0.0
 10
3.3958842613
 20
1.052613177
 30
0.0
 10
3.3957471425
 20
1.0532279627
 30
0.0
 10
3.3956563386
 20
1.0534476786
 30
0.0
  0
SPLINE
  5
443
100
AcDbEntity
  8
0
100
AcDbSpline
 62
7
  6
CONTINUOUS
 70
0
 71
3
 72
13
 73
9
 74
0
 42
0.0000001
 43
0.0000001
 44
0.0000000001
 40
0.0
 40
0.0
 40
0.0
 40
0.0
 40
0.0431829648
 40
0.1093762366
 40
0.1990502969
 40
0.3123002326
 40
0.6093770292
 40
1.0
 40
1.0
 40
1.0
 40
1.0
 10
3.5171128643
 20
1.144882602
 30
0.0
 10
3.5171979271
 20
1.1448325797
 30
0.0
 10
3.5174361357
 20
1.1447485032
 30
0.0
 10
3.5178770527
 20
1.1446399734
 30
0.0
 10
3.5184828019
 20
1.1445297037
 30
0.0
 10
3.5196132778
 20
1.1443645923
 30
0.0
 10
3.5214336895
 20
1.1441681738
 30
0.0
 10
3.5229996407
 20
1.1440363784
 30
0.0
 10
3.523889661
 20
1.143967986
 30
0.0
  0
LINE
  5
444
100
AcDbEntity
  8
0
100
AcDbLine
 62
7
  6
CONTINUOUS
 10
3.4244441888
 20
0.9603809517
 11
3.4240652836
 21
0.9761234674
  0
SPLINE
  5
445
100
AcDbEntity
  8
0
100
AcDbSpline
 62
7
  6
CONTINUOUS
 70
0
 71
3
 72
11
 73
7
 74
0
 42
0.0000001
 43
0.0000001
 44
0.0000000001
 40
0.0
 40
0.0
 40
0.0
 40
0.0
 40
0.3349037916
 40
0.6157607302
 40
0.8384631647
 40
1.0
 40
1.0
 40
1.0
 40
1.0
 10
3.4233078354
 20
1.0040727656
 30
0.0
 10
3.4231612442
 20
1.0089740872
 30
0.0
 10
3.4228748243
 20
1.0179852398
 30
0.0
 10
3.4224143544
 20
1.0302532189
 30
0.0
 10
3.4219576654
 20
1.0399804887
 30
0.0
 10
3.4216096554
 20
1.04559641
 30
0.0
 10
3.4214139113
 20
1.0479534469
 30
0.0
  0
SPLINE
  5
446
100
AcDbEntity
  8
0
100
AcDbSpline
 62
7
  6
CONTINUOUS
 70
0
 71
3
 72
11
 73
7
 74
0
 42
0.0000001
 43
0.0000001
 44
0.0000000001
 40
0.0
 40
0.0
 40
0.0
 40
0.0
 40
0.371740109
 40
0.6624707871
 40
0.8716127303
 40
1.0
 40
1.0
 40
1.0
 40
1.0
 10
3.4214139113
 20
1.0479534469
 30
0.0
 10
3.4213569409
 20
1.0486394519
 30
0.0
 10
3.4212464567
 20
1.0498608785
 30
0.0
 10
3.4210658795
 20
1.0514662561
 30
0.0
 10
3.4208842616
 20
1.0526131767
 30
0.0
 10
3.4207471445
 20
1.0532279623
 30
0.0
 10
3.4206563419
 20
1.0534476785
 30
0.0
  0
SPLINE
  5
447
100
AcDbEntity
  8
0
100
AcDbSpline
 62
7
  6
CONTINUOUS
 70
0
 71
3
 72
20
 73
16
 74
0
 42
0.0000001
 43
0.0000001
 44
0.0000000001
 40
0.0
 40
0.0
 40
0.0
 40
0.0
 40
0.2274177317
 40
0.4274891509
 40
0.5988958628
 40
0.7406071387
 40
0.8001153563
 40
0.8519522984
 40
0.8960419655
 40
0.9323142212
 40
0.9607114757
 40
0.9812288491
 40
0.9885786891
 40
0.9940496488
 40
1.0
 40
1.0
 40
1.0
 40
1.0
 10
3.4141550545
 20
1.0035793031
 30
0.0
 10
3.4140580587
 20
1.0062367402
 30
0.0
 10
3.4138665936
 20
1.0112317412
 30
0.0
 10
3.4135626696
 20
1.0182281045
 30
0.0
 10
3.4132598169
 20
1.0242212658
 30
0.0
 10
3.4129962501
 20
1.0285705482
 30
0.0
 10
3.4127799286
 20
1.0315217102
 30
0.0
 10
3.4126277982
 20
1.0333327958
 30
0.0
 10
3.4124760534
 20
1.0348714735
 30
0.0
 10
3.4123262558
 20
1.0361337237
 30
0.0
 10
3.4121761528
 20
1.0371206809
 30
0.0
 10
3.412047561
 20
1.0377620363
 30
0.0
 10
3.4119321514
 20
1.0381417014
 30
0.0
 10
3.4118541649
 20
1.0383329389
 30
0.0
 10
3.411761399
 20
1.0384745382
 30
0.0
 10
3.4116918219
 20
1.038474818
 30
0.0
  0
LINE
  5
448
100
AcDbEntity
  8
0
100
AcDbLine
 62
7
  6
CONTINUOUS
 10
3.4060406579
 20
0.8505551242
 11
3.4063518002
 21
0.8346133392
  0
LINE
  5
449
100
AcDbEntity
  8
0
100
AcDbLine
 62
7
  6
CONTINUOUS
 10
3.4085413331
 20
0.7311545008
 11
3.4088533082
 21
0.7186301535
  0
LINE
  5
44A
100
AcDbEntity
  8
0
100
AcDbLine
 62
7
  6
CONTINUOUS
 10
3.5200829151
 20
1.1457016562
 11
3.5177799809
 21
1.1453531803
  0
LINE
  5
44B
100
AcDbEntity
  8
0
100
AcDbLine
 62
7
  6
CONTINUOUS
 10
3.5177799809
 20
1.1453531803
 11
3.517003882
 21
1.1450099726
  0
LINE
  5
44C
100
AcDbEntity
  8
0
100
AcDbLine
 62
7
  6
CONTINUOUS
 10
3.429529465
 20
0.7186414649
 11
3.4292164302
 21
0.7311673569
  0
LINE
  5
44D
100
AcDbEntity
  8
0
100
AcDbLine
 62
7
  6
CONTINUOUS
 10
3.404529465
 20
0.7186414649
 11
3.4042176052
 21
0.7311673721
  0
LINE
  5
44E
100
AcDbEntity
  8
0
100
AcDbLine
 62
7
  6
CONTINUOUS
 10
3.4020327061
 20
0.8346205111
 11
3.4017171061
 21
0.8505551242
  0
SPLINE
  5
44F
100
AcDbEntity
  8
0
100
AcDbSpline
 62
7
  6
CONTINUOUS
 70
0
 71
3
 72
20
 73
16
 74
0
 42
0.0000001
 43
0.0000001
 44
0.0000000001
 40
0.0
 40
0.0
 40
0.0
 40
0.0
 40
0.2269373887
 40
0.4271668254
 40
0.599171836
 40
0.7414435353
 40
0.8010251619
 40
0.8528185872
 40
0.8967885482
 40
0.9329055257
 40
0.9611522316
 40
0.9815427132
 40
0.9888257535
 40
0.9942199759
 40
1.0
 40
1.0
 40
1.0
 40
1.0
 10
3.393566382
 20
0.6985285137
 30
0.0
 10
3.3936646812
 20
0.6958012967
 30
0.0
 10
3.3938590352
 20
0.6906681519
 30
0.0
 10
3.3941677764
 20
0.6834695118
 30
0.0
 10
3.394475553
 20
0.6772900285
 30
0.0
 10
3.3947431199
 20
0.6728021174
 30
0.0
 10
3.3949632018
 20
0.6697598078
 30
0.0
 10
3.3951177754
 20
0.6678981962
 30
0.0
 10
3.3952719762
 20
0.6663194471
 30
0.0
 10
3.3954240392
 20
0.6650263027
 30
0.0
 10
3.3955767793
 20
0.6640161815
 30
0.0
 10
3.3957067098
 20
0.6633606872
 30
0.0
 10
3.3958245838
 20
0.6629729018
 30
0.0
 10
3.3959021025
 20
0.6627801356
 30
0.0
 10
3.3959990646
 20
0.6626365825
 30
0.0
 10
3.39606849
 20
0.6626399389
 30
0.0
  0
LINE
  5
450
100
AcDbEntity
  8
0
100
AcDbLine
 62
7
  6
CONTINUOUS
 10
3.3863492022
 20
0.9943491454
 11
3.3862964078
 21
0.9959408014
  0
LINE
  5
451
100
AcDbEntity
  8
0
100
AcDbLine
 62
7
  6
CONTINUOUS
 10
3.3862964078
 20
0.9959408014
 11
3.3862338062
 21
0.9977947811
  0
SPLINE
  5
452
100
AcDbEntity
  8
0
100
AcDbSpline
 62
7
  6
CONTINUOUS
 70
0
 71
3
 72
13
 73
9
 74
0
 42
0.0000001
 43
0.0000001
 44
0.0000000001
 40
0.0
 40
0.0
 40
0.0
 40
0.0
 40
0.3713897611
 40
0.6634536055
 40
0.778914808
 40
0.8736431111
 40
0.9473989559
 40
1.0
 40
1.0
 40
1.0
 40
1.0
 10
3.3855486074
 20
1.0156171176
 30
0.0
 10
3.3854277183
 20
1.0183462826
 30
0.0
 10
3.3851944124
 20
1.0232209057
 30
0.0
 10
3.3848529634
 20
1.0289405921
 30
0.0
 10
3.3845676816
 20
1.0326240363
 30
0.0
 10
3.3843727319
 20
1.0347038188
 30
0.0
 10
3.3841795589
 20
1.0363184546
 30
0.0
 10
3.3840317974
 20
1.037237127
 30
0.0
 10
3.3839483311
 20
1.0376149359
 30
0.0
  0
LINE
  5
453
100
AcDbEntity
  8
0
100
AcDbLine
 62
7
  6
CONTINUOUS
 10
3.3839483311
 20
1.0376149359
 11
3.3837148474
 21
1.0383464832
  0
SPLINE
  5
454
100
AcDbEntity
  8
0
100
AcDbSpline
 62
7
  6
CONTINUOUS
 70
0
 71
3
 72
14
 73
10
 74
0
 42
0.0000001
 43
0.0000001
 44
0.0000000001
 40
0.0
 40
0.0
 40
0.0
 40
0.0
 40
0.0245865567
 40
0.0753136964
 40
0.1553265787
 40
0.2650790182
 40
0.4045755345
 40
0.5736875902
 40
1.0
 40
1.0
 40
1.0
 40
1.0
 10
3.9601107511
 20
0.662653499
 30
0.0
 10
3.9600316451
 20
0.6626584531
 30
0.0
 10
3.9598678717
 20
0.6629000602
 30
0.0
 10
3.9597304909
 20
0.6633507182
 30
0.0
 10
3.9595539291
 20
0.6641222308
 30
0.0
 10
3.9593887541
 20
0.665164526
 30
0.0
 10
3.9592150482
 20
0.6665045724
 30
0.0
 10
3.9589653655
 20
0.6688595563
 30
0.0
 10
3.9588080167
 20
0.6707733727
 30
0.0
 10
3.9587050254
 20
0.6721438345
 30
0.0
  0
SPLINE
  5
455
100
AcDbEntity
  8
0
100
AcDbSpline
 62
7
  6
CONTINUOUS
 70
0
 71
3
 72
11
 73
7
 74
0
 42
0.0000001
 43
0.0000001
 44
0.0000000001
 40
0.0
 40
0.0
 40
0.0
 40
0.0
 40
0.1679166108
 40
0.3940571199
 40
0.6739452499
 40
1.0
 40
1.0
 40
1.0
 40
1.0
 10
3.9587050254
 20
0.6721438345
 30
0.0
 10
3.9584367952
 20
0.6757130616
 30
0.0
 10
3.9579547025
 20
0.684099792
 30
0.0
 10
3.9573177727
 20
0.6984513686
 30
0.0
 10
3.9566763717
 20
0.7161765822
 30
0.0
 10
3.9562725773
 20
0.729086488
 30
0.0
 10
3.956066382
 20
0.7360335753
 30
0.0
  0
LINE
  5
456
100
AcDbEntity
  8
0
100
AcDbLine
 62
7
  6
CONTINUOUS
 10
3.9604460461
 20
0.66317401
 11
3.9602923795
 21
0.6628012299
  0
SPLINE
  5
457
100
AcDbEntity
  8
0
100
AcDbSpline
 62
7
  6
CONTINUOUS
 70
0
 71
3
 72
13
 73
9
 74
0
 42
0.0000001
 43
0.0000001
 44
0.0000000001
 40
0.0
 40
0.0
 40
0.0
 40
0.0
 40
0.0434001184
 40
0.1096691262
 40
0.1993168104
 40
0.3125085596
 40
0.609646324
 40
1.0
 40
1.0
 40
1.0
 40
1.0
 10
3.5171369066
 20
1.1070467032
 30
0.0
 10
3.5172331622
 20
1.1070999565
 30
0.0
 10
3.5174992691
 20
1.1071891189
 30
0.0
 10
3.5179905288
 20
1.1073036536
 30
0.0
 10
3.5186634828
 20
1.1074193136
 30
0.0
 10
3.5199188443
 20
1.1075918136
 30
0.0
 10
3.5219386953
 20
1.1077957899
 30
0.0
 10
3.5236758036
 20
1.1079329933
 30
0.0
 10
3.5246626356
 20
1.1080044453
 30
0.0
  0
LINE
  5
458
100
AcDbEntity
  8
0
100
AcDbLine
 62
7
  6
CONTINUOUS
 10
3.5246626356
 20
1.1080044453
 11
3.5375710699
 21
1.108721318
  0
SPLINE
  5
459
100
AcDbEntity
  8
0
100
AcDbSpline
 62
7
  6
CONTINUOUS
 70
0
 71
3
 72
10
 73
6
 74
0
 42
0.0000001
 43
0.0000001
 44
0.0000000001
 40
0.0
 40
0.0
 40
0.0
 40
0.0
 40
0.1953530912
 40
0.431343707
 40
1.0
 40
1.0
 40
1.0
 40
1.0
 10
3.5375710699
 20
1.108721318
 30
0.0
 10
3.5420356532
 20
1.1089235333
 30
0.0
 10
3.5518963292
 20
1.1093079237
 30
0.0
 10
3.5747615306
 20
1.1100546987
 30
0.0
 10
3.5931634175
 20
1.1105421632
 30
0.0
 10
3.60616859
 20
1.1108717138
 30
0.0
  0
LINE
  5
45A
100
AcDbEntity
  8
0
100
AcDbLine
 62
7
  6
CONTINUOUS
 10
3.60616859
 20
1.1108717138
 11
3.6205870133
 21
1.1112301286
  0
LINE
  5
45B
100
AcDbEntity
  8
0
100
AcDbLine
 62
7
  6
CONTINUOUS
 10
3.6205870133
 20
1.1112301286
 11
3.6505448886
 21
1.1119469117
  0
LINE
  5
45C
100
AcDbEntity
  8
0
100
AcDbLine
 62
7
  6
CONTINUOUS
 10
3.6505448886
 20
1.1119469117
 11
3.7100406739
 21
1.113380607
  0
SPLINE
  5
45D
100
AcDbEntity
  8
0
100
AcDbSpline
 62
7
  6
CONTINUOUS
 70
0
 71
3
 72
10
 73
6
 74
0
 42
0.0000001
 43
0.0000001
 44
0.0000000001
 40
0.0
 40
0.0
 40
0.0
 40
0.0
 40
0.5696839769
 40
0.805492595
 40
1.0
 40
1.0
 40
1.0
 40
1.0
 10
3.7100406739
 20
1.113380607
 30
0.0
 10
3.7229894625
 20
1.1137097574
 30
0.0
 10
3.7412977271
 20
1.1141965979
 30
0.0
 10
3.7640226537
 20
1.1149426367
 30
0.0
 10
3.7737993454
 20
1.1153289978
 30
0.0
 10
3.7782172105
 20
1.1155322399
 30
0.0
  0
SPLINE
  5
45E
100
AcDbEntity
  8
0
100
AcDbSpline
 62
7
  6
CONTINUOUS
 70
0
 71
3
 72
10
 73
6
 74
0
 42
0.0000001
 43
0.0000001
 44
0.0000000001
 40
0.0
 40
0.0
 40
0.0
 40
0.0
 40
0.6018294133
 40
0.8271950497
 40
1.0
 40
1.0
 40
1.0
 40
1.0
 10
3.7782172105
 20
1.1155322399
 30
0.0
 10
3.7815824589
 20
1.1156870567
 30
0.0
 10
3.7862073878
 20
1.1159186987
 30
0.0
 10
3.7917918726
 20
1.1163025816
 30
0.0
 10
3.7940125908
 20
1.1164966313
 30
0.0
 10
3.7949742272
 20
1.1166011075
 30
0.0
  0
LINE
  5
45F
100
AcDbEntity
  8
0
100
AcDbLine
 62
7
  6
CONTINUOUS
 10
3.7949742272
 20
1.1166011075
 11
3.7974267695
 21
1.1169570469
  0
LINE
  5
460
100
AcDbEntity
  8
0
100
AcDbLine
 62
7
  6
CONTINUOUS
 10
3.7974267695
 20
1.1169570469
 11
3.798253882
 21
1.1173227758
  0
SPLINE
  5
461
100
AcDbEntity
  8
0
100
AcDbSpline
 62
7
  6
CONTINUOUS
 70
0
 71
3
 72
13
 73
9
 74
0
 42
0.0000001
 43
0.0000001
 44
0.0000000001
 40
0.0
 40
0.0
 40
0.0
 40
0.0
 40
0.0443536913
 40
0.1112273579
 40
0.2011803438
 40
0.314419122
 40
0.6110153758
 40
1.0
 40
1.0
 40
1.0
 40
1.0
 10
3.5298845491
 20
1.1143918415
 30
0.0
 10
3.5299812399
 20
1.1144463851
 30
0.0
 10
3.5302464816
 20
1.1145391282
 30
0.0
 10
3.5307350888
 20
1.1146581038
 30
0.0
 10
3.5314009635
 20
1.1147783476
 30
0.0
 10
3.5326389569
 20
1.1149572446
 30
0.0
 10
3.534627803
 20
1.1151688253
 30
0.0
 10
3.5363378231
 20
1.115311075
 30
0.0
 10
3.5373086008
 20
1.1153851525
 30
0.0
  0
SPLINE
  5
462
100
AcDbEntity
  8
0
100
AcDbSpline
 62
7
  6
CONTINUOUS
 70
0
 71
3
 72
11
 73
7
 74
0
 42
0.0000001
 43
0.0000001
 44
0.0000000001
 40
0.0
 40
0.0
 40
0.0
 40
0.0
 40
0.1642319008
 40
0.3916366565
 40
0.6736265542
 40
1.0
 40
1.0
 40
1.0
 40
1.0
 10
3.5373086008
 20
1.1153851525
 30
0.0
 10
3.5408208734
 20
1.1156531644
 30
0.0
 10
3.5492090498
 20
1.1161184002
 30
0.0
 10
3.5636439809
 20
1.1167305867
 30
0.0
 10
3.5815593233
 20
1.1173488216
 30
0.0
 10
3.5946017334
 20
1.1177407931
 30
0.0
 10
3.6015989584
 20
1.1179425272
 30
0.0
  0
LINE
  5
463
100
AcDbEntity
  8
0
100
AcDbLine
 62
7
  6
CONTINUOUS
 10
3.6015989584
 20
1.1179425272
 11
3.61446651
 21
1.1183046873
  0
LINE
  5
464
100
AcDbEntity
  8
0
100
AcDbLine
 62
7
  6
CONTINUOUS
 10
3.61446651
 20
1.1183046873
 11
3.6364640451
 21
1.1188951468
  0
SPLINE
  5
465
100
AcDbEntity
  8
0
100
AcDbSpline
 62
7
  6
CONTINUOUS
 70
0
 71
3
 72
23
 73
19
 74
0
 42
0.0000001
 43
0.0000001
 44
0.0000000001
 40
0.0
 40
0.0
 40
0.0
 40
0.0
 40
0.1800392091
 40
0.3584161116
 40
0.5271280989
 40
0.6055763104
 40
0.6789524141
 40
0.7464357288
 40
0.8072515298
 40
0.8606303895
 40
0.9059288558
 40
0.9427949024
 40
0.9579698902
 40
0.9709226736
 40
0.9816199485
 40
0.9900379996
 40
0.9961614255
 40
1.0
 40
1.0
 40
1.0
 40
1.0
 10
3.6364640451
 20
1.1188951468
 30
0.0
 10
3.6454061572
 20
1.1191303709
 30
0.0
 10
3.6632080353
 20
1.1195903726
 30
0.0
 10
3.6893894004
 20
1.1202718904
 30
0.0
 10
3.7105241444
 20
1.1208529865
 30
0.0
 10
3.7264428677
 20
1.1213269682
 30
0.0
 10
3.7373336212
 20
1.1216732295
 30
0.0
 10
3.7473478672
 20
1.1220187072
 30
0.0
 10
3.7563679415
 20
1.1223631497
 30
0.0
 10
3.7642849577
 20
1.1227062066
 30
0.0
 10
3.7710107213
 20
1.1230487495
 30
0.0
 10
3.7758380481
 20
1.1233471771
 30
0.0
 10
3.7790578273
 20
1.1235935984
 30
0.0
 10
3.7809794141
 20
1.1237652674
 30
0.0
 10
3.7825631913
 20
1.1239363538
 30
0.0
 10
3.7838073041
 20
1.1241035654
 30
0.0
 10
3.7847032647
 20
1.124270475
 30
0.0
 10
3.7851862115
 20
1.1243979926
 30
0.0
 10
3.7853585381
 20
1.1244797066
 30
0.0
  0
LINE
  5
466
100
AcDbEntity
  8
0
100
AcDbLine
 62
7
  6
CONTINUOUS
 10
3.5305849023
 20
1.1346893718
 11
3.5297415014
 21
1.1350757632
  0
SPLINE
  5
467
100
AcDbEntity
  8
0
100
AcDbSpline
 62
7
  6
CONTINUOUS
 70
0
 71
3
 72
13
 73
9
 74
0
 42
0.0000001
 43
0.0000001
 44
0.0000000001
 40
0.0
 40
0.0
 40
0.0
 40
0.0
 40
0.044652422
 40
0.1118654075
 40
0.2021279546
 40
0.315551827
 40
0.6117773267
 40
1.0
 40
1.0
 40
1.0
 40
1.0
 10
3.7981297605
 20
1.1174656797
 30
0.0
 10
3.7980414106
 20
1.1175162213
 30
0.0
 10
3.7977984844
 20
1.1176015981
 30
0.0
 10
3.7973513716
 20
1.1177102009
 30
0.0
 10
3.7967428859
 20
1.1178191868
 30
0.0
 10
3.7956148697
 20
1.1179802898
 30
0.0
 10
3.7938054523
 20
1.1181702479
 30
0.0
 10
3.7922505398
 20
1.1182981012
 30
0.0
 10
3.791368103
 20
1.1183647625
 30
0.0
  0
SPLINE
  5
468
100
AcDbEntity
  8
0
100
AcDbSpline
 62
7
  6
CONTINUOUS
 70
0
 71
3
 72
10
 73
6
 74
0
 42
0.0000001
 43
0.0000001
 44
0.0000000001
 40
0.0
 40
0.0
 40
0.0
 40
0.0
 40
0.1130953335
 40
0.3064347641
 40
1.0
 40
1.0
 40
1.0
 40
1.0
 10
3.9184146911
 20
1.0384747399
 30
0.0
 10
3.9183696907
 20
1.0384744036
 30
0.0
 10
3.9182612078
 20
1.0383886767
 30
0.0
 10
3.9180929873
 20
1.0380325925
 30
0.0
 10
3.9180051309
 20
1.0376846409
 30
0.0
 10
3.9179454111
 20
1.0374152036
 30
0.0
  0
SPLINE
  5
469
100
AcDbEntity
  8
0
100
AcDbSpline
 62
7
  6
CONTINUOUS
 70
0
 71
3
 72
13
 73
9
 74
0
 42
0.0000001
 43
0.0000001
 44
0.0000000001
 40
0.0
 40
0.0
 40
0.0
 40
0.0
 40
0.0440646075
 40
0.1108567372
 40
0.2008703386
 40
0.3142152128
 40
0.6107826841
 40
1.0
 40
1.0
 40
1.0
 40
1.0
 10
3.5171214956
 20
1.1278776374
 30
0.0
 10
3.5172083927
 20
1.1279282328
 30
0.0
 10
3.517449347
 20
1.1280134402
 30
0.0
 10
3.517893912
 20
1.1281221856
 30
0.0
 10
3.518501287
 20
1.1282316642
 30
0.0
 10
3.5196303709
 20
1.1283941009
 30
0.0
 10
3.5214444649
 20
1.1285860202
 30
0.0
 10
3.5230040301
 20
1.1287150592
 30
0.0
 10
3.523889661
 20
1.1287822625
 30
0.0
  0
LINE
  5
46A
100
AcDbEntity
  8
0
100
AcDbLine
 62
7
  6
CONTINUOUS
 10
3.523889661
 20
1.1287822625
 11
3.5358490457
 21
1.1294759936
  0
SPLINE
  5
46B
100
AcDbEntity
  8
0
100
AcDbSpline
 62
7
  6
CONTINUOUS
 70
0
 71
3
 72
15
 73
11
 74
0
 42
0.0000001
 43
0.0000001
 44
0.0000000001
 40
0.0
 40
0.0
 40
0.0
 40
0.0
 40
0.0894218741
 40
0.2051257108
 40
0.3400130807
 40
0.4857913924
 40
0.6334846282
 40
0.7740120126
 40
0.8987403261
 40
1.0
 40
1.0
 40
1.0
 40
1.0
 10
3.5358490457
 20
1.1294759936
 30
0.0
 10
3.5428651986
 20
1.1298075692
 30
0.0
 10
3.5589672995
 20
1.1303997669
 30
0.0
 10
3.5856632576
 20
1.1311870276
 30
0.0
 10
3.6167875743
 20
1.1319816785
 30
0.0
 10
3.6504251617
 20
1.1327807528
 30
0.0
 10
3.6845058845
 20
1.1335804618
 30
0.0
 10
3.7169327935
 20
1.1343773126
 30
0.0
 10
3.7457112495
 20
1.135169022
 30
0.0
 10
3.7634529679
 20
1.1357556933
 30
0.0
 10
3.7714004082
 20
1.1360744167
 30
0.0
  0
SPLINE
  5
46C
100
AcDbEntity
  8
0
100
AcDbSpline
 62
7
  6
CONTINUOUS
 70
0
 71
3
 72
10
 73
6
 74
0
 42
0.0000001
 43
0.0000001
 44
0.0000000001
 40
0.0
 40
0.0
 40
0.0
 40
0.0
 40
0.6020812705
 40
0.8273286625
 40
1.0
 40
1.0
 40
1.0
 40
1.0
 10
3.7794165962
 20
1.1364215885
 30
0.0
 10
3.7825829506
 20
1.1365709026
 30
0.0
 10
3.7869334261
 20
1.136794198
 30
0.0
 10
3.7921849599
 20
1.1371696163
 30
0.0
 10
3.7942715788
 20
1.1373609582
 30
0.0
 10
3.7951748494
 20
1.1374636582
 30
0.0
  0
LINE
  5
46D
100
AcDbEntity
  8
0
100
AcDbLine
 62
7
  6
CONTINUOUS
 10
3.7951748494
 20
1.1374636582
 11
3.7974777832
 21
1.1378109683
  0
LINE
  5
46E
100
AcDbEntity
  8
0
100
AcDbLine
 62
7
  6
CONTINUOUS
 10
3.7974777832
 20
1.1378109683
 11
3.798253882
 21
1.1381577758
  0
LINE
  5
46F
100
AcDbEntity
  8
0
100
AcDbLine
 62
7
  6
CONTINUOUS
 10
3.5298709408
 20
1.1352204281
 11
3.5327023228
 21
1.1357878679
  0
LINE
  5
470
100
AcDbEntity
  8
0
100
AcDbLine
 62
7
  6
CONTINUOUS
 10
3.5327023228
 20
1.1357878679
 11
3.5364319876
 21
1.1361504107
  0
LINE
  5
471
100
AcDbEntity
  8
0
100
AcDbLine
 62
7
  6
CONTINUOUS
 10
3.5364319876
 20
1.1361504107
 11
3.5481121411
 21
1.1368725503
  0
SPLINE
  5
472
100
AcDbEntity
  8
0
100
AcDbSpline
 62
7
  6
CONTINUOUS
 70
0
 71
3
 72
11
 73
7
 74
0
 42
0.0000001
 43
0.0000001
 44
0.0000000001
 40
0.0
 40
0.0
 40
0.0
 40
0.0
 40
0.1883807331
 40
0.4257010473
 40
0.7005268073
 40
1.0
 40
1.0
 40
1.0
 40
1.0
 10
3.5481121411
 20
1.1368725503
 30
0.0
 10
3.5538020882
 20
1.1371580718
 30
0.0
 10
3.5666661341
 20
1.1376815037
 30
0.0
 10
3.5878401628
 20
1.1383841551
 30
0.0
 10
3.6123754429
 20
1.1390917328
 30
0.0
 10
3.6297375288
 20
1.1395539677
 30
0.0
 10
3.6387912394
 20
1.1397913139
 30
0.0
  0
SPLINE
  5
473
100
AcDbEntity
  8
0
100
AcDbSpline
 62
7
  6
CONTINUOUS
 70
0
 71
3
 72
11
 73
7
 74
0
 42
0.0000001
 43
0.0000001
 44
0.0000000001
 40
0.0
 40
0.0
 40
0.0
 40
0.0
 40
0.3028363624
 40
0.5788829989
 40
0.8153312393
 40
1.0
 40
1.0
 40
1.0
 40
1.0
 10
3.6805316425
 20
1.1408781185
 30
0.0
 10
3.6894645413
 20
1.1411134257
 30
0.0
 10
3.7065398692
 20
1.1415721212
 30
0.0
 10
3.7305881503
 20
1.1422774878
 30
0.0
 10
3.7511479724
 20
1.1429750718
 30
0.0
 10
3.7635636746
 20
1.1434977511
 30
0.0
 10
3.7690052076
 20
1.1437856942
 30
0.0
  0
SPLINE
  5
474
100
AcDbEntity
  8
0
100
AcDbSpline
 62
7
  6
CONTINUOUS
 70
0
 71
3
 72
14
 73
10
 74
0
 42
0.0000001
 43
0.0000001
 44
0.0000000001
 40
0.0
 40
0.0
 40
0.0
 40
0.0
 40
0.3815191718
 40
0.5403233238
 40
0.677268643
 40
0.791966811
 40
0.8841199074
 40
0.9534953262
 40
1.0
 40
1.0
 40
1.0
 40
1.0
 10
3.7690052076
 20
1.1437856942
 30
0.0
 10
3.7710682814
 20
1.1438948634
 30
0.0
 10
3.7739895467
 20
1.1440617647
 30
0.0
 10
3.7776481127
 20
1.1443174983
 30
0.0
 10
3.7798636109
 20
1.144496607
 30
0.0
 10
3.781716671
 20
1.1446750237
 30
0.0
 10
3.7832026992
 20
1.1448507807
 30
0.0
 10
3.7843150637
 20
1.1450252121
 30
0.0
 10
3.7849303285
 20
1.1451592897
 30
0.0
 10
3.7851690988
 20
1.1452393246
 30
0.0
  0
LINE
  5
475
100
AcDbEntity
  8
0
100
AcDbLine
 62
7
  6
CONTINUOUS
 10
3.7851690988
 20
1.1452393246
 11
3.7855489532
 21
1.1454897426
  0
SPLINE
  5
476
100
AcDbEntity
  8
0
100
AcDbSpline
 62
7
  6
CONTINUOUS
 70
0
 71
3
 72
15
 73
11
 74
0
 42
0.0000001
 43
0.0000001
 44
0.0000000001
 40
0.0
 40
0.0
 40
0.0
 40
0.0
 40
0.0254589882
 40
0.0471496347
 40
0.0758469513
 40
0.1551444306
 40
0.26422706
 40
0.4032781507
 40
0.5723055574
 40
1.0
 40
1.0
 40
1.0
 40
1.0
 10
3.9323183032
 20
0.6626336286
 30
0.0
 10
3.9322535453
 20
0.6626324612
 30
0.0
 10
3.9321559272
 20
0.6627418652
 30
0.0
 10
3.9320744489
 20
0.6629079437
 30
0.0
 10
3.9319573808
 20
0.6632210648
 30
0.0
 10
3.9318262724
 20
0.6637559177
 30
0.0
 10
3.9316735582
 20
0.6645760526
 30
0.0
 10
3.9315210704
 20
0.6656261281
 30
0.0
 10
3.9312974134
 20
0.6674848286
 30
0.0
 10
3.9311580156
 20
0.6689967015
 30
0.0
 10
3.9310664509
 20
0.6700809098
 30
0.0
  0
LINE
  5
477
100
AcDbEntity
  8
0
100
AcDbLine
 62
7
  6
CONTINUOUS
 10
3.9310664509
 20
0.6700809098
 11
3.9301946313
 21
0.6838346584
  0
LINE
  5
478
100
AcDbEntity
  8
0
100
AcDbLine
 62
7
  6
CONTINUOUS
 10
3.9301946313
 20
0.6838346584
 11
3.9293226012
 21
0.7040438098
  0
SPLINE
  5
479
100
AcDbEntity
  8
0
100
AcDbSpline
 62
7
  6
CONTINUOUS
 70
0
 71
3
 72
9
 73
5
 74
0
 42
0.0000001
 43
0.0000001
 44
0.0000000001
 40
0.0
 40
0.0
 40
0.0
 40
0.0
 40
0.4531901949
 40
1.0
 40
1.0
 40
1.0
 40
1.0
 10
3.9293226012
 20
0.7040438098
 30
0.0
 10
3.9289073412
 20
0.7150917426
 30
0.0
 10
3.9281349124
 20
0.7394751899
 30
0.0
 10
3.9274819808
 20
0.7638617956
 30
0.0
 10
3.9271409141
 20
0.7771970523
 30
0.0
  0
LINE
  5
47A
100
AcDbEntity
  8
0
100
AcDbLine
 62
7
  6
CONTINUOUS
 10
3.9271409141
 20
0.7771970523
 11
3.9236438168
 21
0.9218890632
  0
LINE
  5
47B
100
AcDbEntity
  8
0
100
AcDbLine
 62
7
  6
CONTINUOUS
 10
3.9236438168
 20
0.9218890632
 11
3.9232061016
 21
0.9387124565
  0
LINE
  5
47C
100
AcDbEntity
  8
0
100
AcDbLine
 62
7
  6
CONTINUOUS
 10
3.9232061016
 20
0.9387124565
 11
3.9214541725
 21
0.9958941866
  0
SPLINE
  5
47D
100
AcDbEntity
  8
0
100
AcDbSpline
 62
7
  6
CONTINUOUS
 70
0
 71
3
 72
10
 73
6
 74
0
 42
0.0000001
 43
0.0000001
 44
0.0000000001
 40
0.0
 40
0.0
 40
0.0
 40
0.0
 40
0.5933405899
 40
0.8210995182
 40
1.0
 40
1.0
 40
1.0
 40
1.0
 10
3.9214541725
 20
0.9958941866
 30
0.0
 10
3.9211988891
 20
1.0027650168
 30
0.0
 10
3.9208168043
 20
1.0122726128
 30
0.0
 10
3.920189805
 20
1.0238436348
 30
0.0
 10
3.9198704345
 20
1.0285455135
 30
0.0
 10
3.9197005742
 20
1.0306116237
 30
0.0
  0
SPLINE
  5
47E
100
AcDbEntity
  8
0
100
AcDbSpline
 62
7
  6
CONTINUOUS
 70
0
 71
3
 72
10
 73
6
 74
0
 42
0.0000001
 43
0.0000001
 44
0.0000000001
 40
0.0
 40
0.0
 40
0.0
 40
0.0
 40
0.6264249965
 40
0.8448724306
 40
1.0
 40
1.0
 40
1.0
 40
1.0
 10
3.9197005742
 20
1.0306116237
 30
0.0
 10
3.9195786285
 20
1.0320949211
 30
0.0
 10
3.9193995521
 20
1.0340954314
 30
0.0
 10
3.9190773266
 20
1.0364492023
 30
0.0
 10
3.9189147995
 20
1.0373231227
 30
0.0
 10
3.9188231592
 20
1.0376801104
 30
0.0
  0
LINE
  5
47F
100
AcDbEntity
  8
0
100
AcDbLine
 62
7
  6
CONTINUOUS
 10
3.9188231592
 20
1.0376801104
 11
3.9185953738
 21
1.0383198893
  0
LINE
  5
480
100
AcDbEntity
  8
0
100
AcDbLine
 62
7
  6
CONTINUOUS
 10
3.7854295144
 20
1.1456348793
 11
3.7842595037
 21
1.1459593894
  0
LINE
  5
481
100
AcDbEntity
  8
0
100
AcDbLine
 62
7
  6
CONTINUOUS
 10
3.9327111699
 20
0.6633844766
 11
3.9324983432
 21
0.6627933976
  0
SPLINE
  5
482
100
AcDbEntity
  8
0
100
AcDbSpline
 62
7
  6
CONTINUOUS
 70
0
 71
3
 72
13
 73
9
 74
0
 42
0.0000001
 43
0.0000001
 44
0.0000000001
 40
0.0
 40
0.0
 40
0.0
 40
0.0
 40
0.0440337767
 40
0.1106923395
 40
0.2005274149
 40
0.3137277203
 40
0.6104083442
 40
1.0
 40
1.0
 40
1.0
 40
1.0
 10
3.9301488869
 20
1.0535300118
 30
0.0
 10
3.9300875357
 20
1.0534227633
 30
0.0
 10
3.9299836121
 20
1.0531268583
 30
0.0
 10
3.9298503384
 20
1.0525810211
 30
0.0
 10
3.9297156368
 20
1.0518355387
 30
0.0
 10
3.9295150827
 20
1.0504478862
 30
0.0
 10
3.9292776708
 20
1.0482164256
 30
0.0
 10
3.9291181053
 20
1.0462974427
 30
0.0
 10
3.9290350603
 20
1.0452074281
 30
0.0
  0
SPLINE
  5
483
100
AcDbEntity
  8
0
100
AcDbSpline
 62
7
  6
CONTINUOUS
 70
0
 71
3
 72
13
 73
9
 74
0
 42
0.0000001
 43
0.0000001
 44
0.0000000001
 40
0.0
 40
0.0
 40
0.0
 40
0.0
 40
0.0435023544
 40
0.1099072969
 40
0.1996988555
 40
0.3129793506
 40
0.6098722094
 40
1.0
 40
1.0
 40
1.0
 40
1.0
 10
3.7981419411
 20
1.1382890243
 30
0.0
 10
3.7980562718
 20
1.1383393611
 30
0.0
 10
3.7978171025
 20
1.1384239892
 30
0.0
 10
3.7973748948
 20
1.1385326673
 30
0.0
 10
3.7967685646
 20
1.1386426434
 30
0.0
 10
3.7956385619
 20
1.1388066796
 30
0.0
 10
3.7938203285
 20
1.13900122
 30
0.0
 10
3.7922565971
 20
1.1391318608
 30
0.0
 10
3.791368103
 20
1.1391997625
 30
0.0
  0
SPLINE
  5
484
100
AcDbEntity
  8
0
100
AcDbSpline
 62
7
  6
CONTINUOUS
 70
0
 71
3
 72
13
 73
9
 74
0
 42
0.0000001
 43
0.0000001
 44
0.0000000001
 40
0.0
 40
0.0
 40
0.0
 40
0.0
 40
0.0443211271
 40
0.1112561067
 40
0.2013108193
 40
0.3146184634
 40
0.6109809092
 40
1.0
 40
1.0
 40
1.0
 40
1.0
 10
3.9440518134
 20
0.647573158
 30
0.0
 10
3.9439917881
 20
0.647676688
 30
0.0
 10
3.9438898826
 20
0.6479624335
 30
0.0
 10
3.9437592212
 20
0.6484892663
 30
0.0
 10
3.9436271252
 20
0.6492078495
 30
0.0
 10
3.9434306386
 20
0.6505426844
 30
0.0
 10
3.9431976242
 20
0.6526873844
 30
0.0
 10
3.9430411276
 20
0.6545313389
 30
0.0
 10
3.9429597716
 20
0.6555785831
 30
0.0
  0
LINE
  5
485
100
AcDbEntity
  8
0
100
AcDbLine
 62
7
  6
CONTINUOUS
 10
3.9429597716
 20
0.6555785831
 11
3.9420971406
 21
0.6703097948
  0
SPLINE
  5
486
100
AcDbEntity
  8
0
100
AcDbSpline
 62
7
  6
CONTINUOUS
 70
0
 71
3
 72
12
 73
8
 74
0
 42
0.0000001
 43
0.0000001
 44
0.0000000001
 40
0.0
 40
0.0
 40
0.0
 40
0.0
 40
0.0789652553
 40
0.1768671137
 40
0.4192543568
 40
0.7030146282
 40
1.0
 40
1.0
 40
1.0
 40
1.0
 10
3.9420971406
 20
0.6703097948
 30
0.0
 10
3.941828977
 20
0.675984083
 30
0.0
 10
3.9413239627
 20
0.6886978576
 30
0.0
 10
3.9403437285
 20
0.718842416
 30
0.0
 10
3.9391916851
 20
0.7637210341
 30
0.0
 10
3.9378604892
 20
0.822920731
 30
0.0
 10
3.9369634195
 20
0.8646889401
 30
0.0
 10
3.936490136
 20
0.8860483014
 30
0.0
  0
SPLINE
  5
487
100
AcDbEntity
  8
0
100
AcDbSpline
 62
7
  6
CONTINUOUS
 70
0
 71
3
 72
13
 73
9
 74
0
 42
0.0000001
 43
0.0000001
 44
0.0000000001
 40
0.0
 40
0.0
 40
0.0
 40
0.0
 40
0.0464965644
 40
0.1149500336
 40
0.2058824898
 40
0.3194495033
 40
0.6145429842
 40
1.0
 40
1.0
 40
1.0
 40
1.0
 10
3.9352625259
 20
0.6627878194
 30
0.0
 10
3.9352050033
 20
0.6628868923
 30
0.0
 10
3.9351048664
 20
0.6631544542
 30
0.0
 10
3.9349763757
 20
0.6636446861
 30
0.0
 10
3.9348464117
 20
0.6643051817
 30
0.0
 10
3.934654016
 20
0.6655209612
 30
0.0
 10
3.9344252632
 20
0.6674648596
 30
0.0
 10
3.9342713727
 20
0.669134564
 30
0.0
 10
3.9341914509
 20
0.6700809098
 30
0.0
  0
LINE
  5
488
100
AcDbEntity
  8
0
100
AcDbLine
 62
7
  6
CONTINUOUS
 10
3.9341914509
 20
0.6700809098
 11
3.9333196313
 21
0.6838346584
  0
SPLINE
  5
489
100
AcDbEntity
  8
0
100
AcDbSpline
 62
7
  6
CONTINUOUS
 70
0
 71
3
 72
10
 73
6
 74
0
 42
0.0000001
 43
0.0000001
 44
0.0000000001
 40
0.0
 40
0.0
 40
0.0
 40
0.0
 40
0.1860554306
 40
0.4195591135
 40
1.0
 40
1.0
 40
1.0
 40
1.0
 10
3.9333196313
 20
0.6838346584
 30
0.0
 10
3.9330243599
 20
0.6896205251
 30
0.0
 10
3.9324736147
 20
0.702673545
 30
0.0
 10
3.9314073732
 20
0.733793353
 30
0.0
 10
3.9307280235
 20
0.7591291859
 30
0.0
 10
3.9302659141
 20
0.7771970523
 30
0.0
  0
LINE
  5
48A
100
AcDbEntity
  8
0
100
AcDbLine
 62
7
  6
CONTINUOUS
 10
3.9302659141
 20
0.7771970523
 11
3.9267688168
 21
0.9218890632
  0
LINE
  5
48B
100
AcDbEntity
  8
0
100
AcDbLine
 62
7
  6
CONTINUOUS
 10
3.9267688168
 20
0.9218890632
 11
3.9263311016
 21
0.9387124565
  0
LINE
  5
48C
100
AcDbEntity
  8
0
100
AcDbLine
 62
7
  6
CONTINUOUS
 10
3.9263311016
 20
0.9387124565
 11
3.9245791725
 21
0.9958941866
  0
SPLINE
  5
48D
100
AcDbEntity
  8
0
100
AcDbSpline
 62
7
  6
CONTINUOUS
 70
0
 71
3
 72
10
 73
6
 74
0
 42
0.0000001
 43
0.0000001
 44
0.0000000001
 40
0.0
 40
0.0
 40
0.0
 40
0.0
 40
0.5933405899
 40
0.8210995182
 40
1.0
 40
1.0
 40
1.0
 40
1.0
 10
3.9245791725
 20
0.9958941866
 30
0.0
 10
3.9243238891
 20
1.0027650168
 30
0.0
 10
3.9239418043
 20
1.0122726128
 30
0.0
 10
3.923314805
 20
1.0238436348
 30
0.0
 10
3.9229954345
 20
1.0285455135
 30
0.0
 10
3.9228255742
 20
1.0306116237
 30
0.0
  0
SPLINE
  5
48E
100
AcDbEntity
  8
0
100
AcDbSpline
 62
7
  6
CONTINUOUS
 70
0
 71
3
 72
15
 73
11
 74
0
 42
0.0000001
 43
0.0000001
 44
0.0000000001
 40
0.0
 40
0.0
 40
0.0
 40
0.0
 40
0.4283104965
 40
0.5976061547
 40
0.7366970586
 40
0.845657675
 40
0.9247503334
 40
0.9533312897
 40
0.9748971383
 40
1.0
 40
1.0
 40
1.0
 40
1.0
 10
3.9228255742
 20
1.0306116237
 30
0.0
 10
3.9227314216
 20
1.031756857
 30
0.0
 10
3.9225882768
 20
1.0333539412
 30
0.0
 10
3.92235869
 20
1.0353173227
 30
0.0
 10
3.9222020619
 20
1.0364257672
 30
0.0
 10
3.9220451904
 20
1.0372907042
 30
0.0
 10
3.9219105051
 20
1.0378542105
 30
0.0
 10
3.9217902373
 20
1.038184451
 30
0.0
 10
3.9217067262
 20
1.0383587032
 30
0.0
 10
3.9216070367
 20
1.0384752433
 30
0.0
 10
3.9215396911
 20
1.0384747399
 30
0.0
  0
SPLINE
  5
48F
100
AcDbEntity
  8
0
100
AcDbSpline
 62
7
  6
CONTINUOUS
 70
0
 71
3
 72
12
 73
8
 74
0
 42
0.0000001
 43
0.0000001
 44
0.0000000001
 40
0.0
 40
0.0
 40
0.0
 40
0.0
 40
0.0488975159
 40
0.1189433377
 40
0.3244811111
 40
0.6183602289
 40
1.0
 40
1.0
 40
1.0
 40
1.0
 10
3.9491593553
 20
1.0383138615
 30
0.0
 10
3.9491085599
 20
1.0382255029
 30
0.0
 10
3.9490178962
 20
1.0379927988
 30
0.0
 10
3.9488389939
 20
1.0373407961
 30
0.0
 10
3.9486356711
 20
1.0361689529
 30
0.0
 10
3.9484017889
 20
1.0343480476
 30
0.0
 10
3.9482630481
 20
1.032946478
 30
0.0
 10
3.9481905731
 20
1.0321543225
 30
0.0
  0
SPLINE
  5
490
100
AcDbEntity
  8
0
100
AcDbSpline
 62
7
  6
CONTINUOUS
 70
0
 71
3
 72
10
 73
6
 74
0
 42
0.0000001
 43
0.0000001
 44
0.0000000001
 40
0.0
 40
0.0
 40
0.0
 40
0.0
 40
0.6991385002
 40
0.8917526027
 40
1.0
 40
1.0
 40
1.0
 40
1.0
 10
3.9446850508
 20
0.6485675178
 30
0.0
 10
3.9446255664
 20
0.6482788914
 30
0.0
 10
3.9445368948
 20
0.6479060461
 30
0.0
 10
3.9443729109
 20
0.6475256673
 30
0.0
 10
3.9442628713
 20
0.6474300581
 30
0.0
 10
3.9442172443
 20
0.6474301692
 30
0.0
  0
LINE
  5
491
100
AcDbEntity
  8
0
100
AcDbLine
 62
7
  6
CONTINUOUS
 10
3.5302481864
 20
1.1165486488
 11
3.5298648606
 21
1.1167007157
  0
SPLINE
  5
492
100
AcDbEntity
  8
0
100
AcDbSpline
 62
7
  6
CONTINUOUS
 70
0
 71
3
 72
13
 73
9
 74
0
 42
0.0000001
 43
0.0000001
 44
0.0000000001
 40
0.0
 40
0.0
 40
0.0
 40
0.0
 40
0.0426867568
 40
0.1085152548
 40
0.1980585156
 40
0.3114534742
 40
0.609168714
 40
1.0
 40
1.0
 40
1.0
 40
1.0
 10
3.7981294957
 20
1.0757914535
 30
0.0
 10
3.7980330748
 20
1.0758459988
 30
0.0
 10
3.7977633003
 20
1.0759365275
 30
0.0
 10
3.7972635551
 20
1.0760527939
 30
0.0
 10
3.7965751766
 20
1.0761701004
 30
0.0
 10
3.7952878863
 20
1.0763451129
 30
0.0
 10
3.7932163328
 20
1.0765521471
 30
0.0
 10
3.7914349273
 20
1.0766915687
 30
0.0
 10
3.7904232474
 20
1.0767641284
 30
0.0
  0
SPLINE
  5
493
100
AcDbEntity
  8
0
100
AcDbSpline
 62
7
  6
CONTINUOUS
 70
0
 71
3
 72
16
 73
12
 74
0
 42
0.0000001
 43
0.0000001
 44
0.0000000001
 40
0.0
 40
0.0
 40
0.0
 40
0.0
 40
0.0221934143
 40
0.043067025
 40
0.0712687949
 40
0.1502371275
 40
0.2596188455
 40
0.3994572523
 40
0.5696797553
 40
0.7700691645
 40
1.0
 40
1.0
 40
1.0
 40
1.0
 10
3.7855388573
 20
1.0829878058
 30
0.0
 10
3.7855422187
 20
1.0829140866
 30
0.0
 10
3.7853863299
 20
1.0828133575
 30
0.0
 10
3.7851805747
 20
1.0827321993
 30
0.0
 10
3.7847642022
 20
1.0826087816
 30
0.0
 10
3.784062041
 20
1.0824726111
 30
0.0
 10
3.7829798271
 20
1.0823126066
 30
0.0
 10
3.7815950638
 20
1.0821532929
 30
0.0
 10
3.7799050461
 20
1.0819918046
 30
0.0
 10
3.7779147937
 20
1.0818301221
 30
0.0
 10
3.7764874705
 20
1.0817287539
 30
0.0
 10
3.7757246498
 20
1.081677389
 30
0.0
  0
SPLINE
  5
494
100
AcDbEntity
  8
0
100
AcDbSpline
 62
7
  6
CONTINUOUS
 70
0
 71
3
 72
11
 73
7
 74
0
 42
0.0000001
 43
0.0000001
 44
0.0000000001
 40
0.0
 40
0.0
 40
0.0
 40
0.0
 40
0.1709087474
 40
0.4006791288
 40
0.6810040094
 40
1.0
 40
1.0
 40
1.0
 40
1.0
 10
3.7757246498
 20
1.081677389
 30
0.0
 10
3.7717127391
 20
1.0814072454
 30
0.0
 10
3.7622972279
 20
1.0809282657
 30
0.0
 10
3.7462877508
 20
1.0802950247
 30
0.0
 10
3.7267918353
 20
1.0796574498
 30
0.0
 10
3.712697436
 20
1.0792494856
 30
0.0
 10
3.7051952969
 20
1.0790399011
 30
0.0
  0
SPLINE
  5
495
100
AcDbEntity
  8
0
100
AcDbSpline
 62
7
  6
CONTINUOUS
 70
0
 71
3
 72
13
 73
9
 74
0
 42
0.0000001
 43
0.0000001
 44
0.0000000001
 40
0.0
 40
0.0
 40
0.0
 40
0.0
 40
0.0419802724
 40
0.107274285
 40
0.1964871494
 40
0.3097675345
 40
0.6079026758
 40
1.0
 40
1.0
 40
1.0
 40
1.0
 10
3.7981381623
 20
1.0927888232
 30
0.0
 10
3.7980440752
 20
1.0927336199
 30
0.0
 10
3.7977771731
 20
1.0926426648
 30
0.0
 10
3.7972812166
 20
1.0925258855
 30
0.0
 10
3.7965945206
 20
1.0924080414
 30
0.0
 10
3.795305811
 20
1.0922318759
 30
0.0
 10
3.7932275511
 20
1.092023637
 30
0.0
 10
3.7914395152
 20
1.0918835811
 30
0.0
 10
3.7904232568
 20
1.0918107061
 30
0.0
  0
LINE
  5
496
100
AcDbEntity
  8
0
100
AcDbLine
 62
7
  6
CONTINUOUS
 10
3.7904232568
 20
1.0918107061
 11
3.7791913322
 21
1.0911762082
  0
LINE
  5
497
100
AcDbEntity
  8
0
100
AcDbLine
 62
7
  6
CONTINUOUS
 10
3.7791913322
 20
1.0911762082
 11
3.7329536994
 21
1.0895881514
  0
SPLINE
  5
498
100
AcDbEntity
  8
0
100
AcDbSpline
 62
7
  6
CONTINUOUS
 70
0
 71
3
 72
14
 73
10
 74
0
 42
0.0000001
 43
0.0000001
 44
0.0000000001
 40
0.0
 40
0.0
 40
0.0
 40
0.0
 40
0.040519874
 40
0.1048380677
 40
0.1934288272
 40
0.3063816179
 40
0.4436730736
 40
0.6052338885
 40
1.0
 40
1.0
 40
1.0
 40
1.0
 10
3.785414607
 20
1.0854428448
 30
0.0
 10
3.7853007082
 20
1.0853758976
 30
0.0
 10
3.7849715401
 20
1.0852686234
 30
0.0
 10
3.7843579363
 20
1.0851301892
 30
0.0
 10
3.7835010899
 20
1.0849908601
 30
0.0
 10
3.782405755
 20
1.0848487348
 30
0.0
 10
3.781070435
 20
1.0847059856
 30
0.0
 10
3.7788181924
 20
1.0845008082
 30
0.0
 10
3.7770088943
 20
1.0843688642
 30
0.0
 10
3.7757246498
 20
1.084282389
 30
0.0
  0
SPLINE
  5
499
100
AcDbEntity
  8
0
100
AcDbSpline
 62
7
  6
CONTINUOUS
 70
0
 71
3
 72
11
 73
7
 74
0
 42
0.0000001
 43
0.0000001
 44
0.0000000001
 40
0.0
 40
0.0
 40
0.0
 40
0.0
 40
0.1709087474
 40
0.4006791288
 40
0.6810040094
 40
1.0
 40
1.0
 40
1.0
 40
1.0
 10
3.7757246498
 20
1.084282389
 30
0.0
 10
3.7717127391
 20
1.0840122454
 30
0.0
 10
3.7622972279
 20
1.0835332657
 30
0.0
 10
3.7462877508
 20
1.0829000247
 30
0.0
 10
3.7267918353
 20
1.0822624498
 30
0.0
 10
3.712697436
 20
1.0818544856
 30
0.0
 10
3.7051952969
 20
1.0816449011
 30
0.0
  0
SPLINE
  5
49A
100
AcDbEntity
  8
0
100
AcDbSpline
 62
7
  6
CONTINUOUS
 70
0
 71
3
 72
13
 73
9
 74
0
 42
0.0000001
 43
0.0000001
 44
0.0000000001
 40
0.0
 40
0.0
 40
0.0
 40
0.0
 40
0.0424221847
 40
0.1080507789
 40
0.1974705635
 40
0.3108228049
 40
0.6086952632
 40
1.0
 40
1.0
 40
1.0
 40
1.0
 10
3.7981327792
 20
1.0966245793
 30
0.0
 10
3.7980372254
 20
1.0966793674
 30
0.0
 10
3.7977685257
 20
1.0967700528
 30
0.0
 10
3.7972701911
 20
1.0968865082
 30
0.0
 10
3.7965824383
 20
1.0970040163
 30
0.0
 10
3.7952946098
 20
1.0971794649
 30
0.0
 10
3.7932205403
 20
1.0973869606
 30
0.0
 10
3.7914366476
 20
1.0975266236
 30
0.0
 10
3.7904232516
 20
1.0975993015
 30
0.0
  0
SPLINE
  5
49B
100
AcDbEntity
  8
0
100
AcDbSpline
 62
7
  6
CONTINUOUS
 70
0
 71
3
 72
16
 73
12
 74
0
 42
0.0000001
 43
0.0000001
 44
0.0000000001
 40
0.0
 40
0.0
 40
0.0
 40
0.0
 40
0.0225503013
 40
0.0436229267
 40
0.0719903979
 40
0.1511718539
 40
0.2606104021
 40
0.4003640886
 40
0.570378554
 40
0.7704581531
 40
1.0
 40
1.0
 40
1.0
 40
1.0
 10
3.7855334934
 20
1.1038201784
 30
0.0
 10
3.7855335724
 20
1.1037447954
 30
0.0
 10
3.7853743035
 20
1.1036469494
 30
0.0
 10
3.7851647359
 20
1.1035643672
 30
0.0
 10
3.7847440484
 20
1.1034415157
 30
0.0
 10
3.7840365315
 20
1.1033045513
 30
0.0
 10
3.7829478777
 20
1.1031443793
 30
0.0
 10
3.7815564501
 20
1.1029845665
 30
0.0
 10
3.7798593857
 20
1.1028227557
 30
0.0
 10
3.7778614945
 20
1.1026607919
 30
0.0
 10
3.7764288609
 20
1.1025592944
 30
0.0
 10
3.7756632546
 20
1.1025078712
 30
0.0
  0
SPLINE
  5
49C
100
AcDbEntity
  8
0
100
AcDbSpline
 62
7
  6
CONTINUOUS
 70
0
 71
3
 72
11
 73
7
 74
0
 42
0.0000001
 43
0.0000001
 44
0.0000000001
 40
0.0
 40
0.0
 40
0.0
 40
0.0
 40
0.1749205588
 40
0.4045917952
 40
0.6823635396
 40
1.0
 40
1.0
 40
1.0
 40
1.0
 10
3.7756632546
 20
1.1025078712
 30
0.0
 10
3.7722330238
 20
1.102277474
 30
0.0
 10
3.7642914355
 20
1.1018591015
 30
0.0
 10
3.7508915046
 20
1.1013035972
 30
0.0
 10
3.7346846142
 20
1.1007430731
 30
0.0
 10
3.7229876312
 20
1.1003870563
 30
0.0
 10
3.7167473425
 20
1.1002045904
 30
0.0
  0
LINE
  5
49D
100
AcDbEntity
  8
0
100
AcDbLine
 62
7
  6
CONTINUOUS
 10
3.7167473425
 20
1.1002045904
 11
3.7052004863
 21
1.0998749011
  0
SPLINE
  5
49E
100
AcDbEntity
  8
0
100
AcDbSpline
 62
7
  6
CONTINUOUS
 70
0
 71
3
 72
14
 73
10
 74
0
 42
0.0000001
 43
0.0000001
 44
0.0000000001
 40
0.0
 40
0.0
 40
0.0
 40
0.0
 40
0.0397234608
 40
0.1035794968
 40
0.1919644479
 40
0.3049149698
 40
0.4423647656
 40
0.6042066215
 40
1.0
 40
1.0
 40
1.0
 40
1.0
 10
3.7981332196
 20
1.1136208512
 30
0.0
 10
3.7980167585
 20
1.1135547972
 30
0.0
 10
3.7976787554
 20
1.1134510293
 30
0.0
 10
3.7970478167
 20
1.1133161165
 30
0.0
 10
3.7961629998
 20
1.1131805894
 30
0.0
 10
3.7950298702
 20
1.1130419549
 30
0.0
 10
3.7936471563
 20
1.1129027689
 30
0.0
 10
3.7913129279
 20
1.1127026213
 30
0.0
 10
3.7894376289
 20
1.1125741367
 30
0.0
 10
3.7881062509
 20
1.1124899815
 30
0.0
  0
LINE
  5
49F
100
AcDbEntity
  8
0
100
AcDbLine
 62
7
  6
CONTINUOUS
 10
3.7881062509
 20
1.1124899815
 11
3.7757714742
 21
1.1118564717
  0
SPLINE
  5
4A0
100
AcDbEntity
  8
0
100
AcDbSpline
 62
7
  6
CONTINUOUS
 70
0
 71
3
 72
11
 73
7
 74
0
 42
0.0000001
 43
0.0000001
 44
0.0000000001
 40
0.0
 40
0.0
 40
0.0
 40
0.0
 40
0.1898385973
 40
0.4334823262
 40
0.7110793607
 40
1.0
 40
1.0
 40
1.0
 40
1.0
 10
3.7757714742
 20
1.1118564717
 30
0.0
 10
3.7669806704
 20
1.1114743839
 30
0.0
 10
3.746899327
 20
1.1107978528
 30
0.0
 10
3.7139529245
 20
1.1098959925
 30
0.0
 10
3.6764124859
 20
1.108987566
 30
0.0
 10
3.6501613272
 20
1.1083739816
 30
0.0
 10
3.6367735234
 20
1.1080551242
 30
0.0
  0
SPLINE
  5
4A1
100
AcDbEntity
  8
0
100
AcDbSpline
 62
7
  6
CONTINUOUS
 70
0
 71
3
 72
13
 73
9
 74
0
 42
0.0000001
 43
0.0000001
 44
0.0000000001
 40
0.0
 40
0.0
 40
0.0
 40
0.0
 40
0.045773458
 40
0.1136429988
 40
0.2041884241
 40
0.317626948
 40
0.6134230531
 40
1.0
 40
1.0
 40
1.0
 40
1.0
 10
3.785415004
 20
1.1062748626
 30
0.0
 10
3.785329483
 20
1.1062255579
 30
0.0
 10
3.785097408
 20
1.1061402323
 30
0.0
 10
3.7846713341
 20
1.1060308095
 30
0.0
 10
3.7840950088
 20
1.1059201457
 30
0.0
 10
3.7830297778
 20
1.1057560187
 30
0.0
 10
3.7813239661
 20
1.1055614473
 30
0.0
 10
3.7798582164
 20
1.1054303545
 30
0.0
 10
3.779027313
 20
1.1053621569
 30
0.0
  0
SPLINE
  5
4A2
100
AcDbEntity
  8
0
100
AcDbSpline
 62
7
  6
CONTINUOUS
 70
0
 71
3
 72
12
 73
8
 74
0
 42
0.0000001
 43
0.0000001
 44
0.0000000001
 40
0.0
 40
0.0
 40
0.0
 40
0.0
 40
0.0716456062
 40
0.1603869513
 40
0.3860321832
 40
0.6692284548
 40
1.0
 40
1.0
 40
1.0
 40
1.0
 10
3.779027313
 20
1.1053621569
 30
0.0
 10
3.7775690759
 20
1.1052424701
 30
0.0
 10
3.7743014036
 20
1.1050144412
 30
0.0
 10
3.7664305443
 20
1.1045663837
 30
0.0
 10
3.7542379263
 20
1.104034635
 30
0.0
 10
3.7371022931
 20
1.1034237387
 30
0.0
 10
3.7245697266
 20
1.1030393871
 30
0.0
 10
3.717817652
 20
1.1028409724
 30
0.0
  0
LINE
  5
4A3
100
AcDbEntity
  8
0
100
AcDbLine
 62
7
  6
CONTINUOUS
 10
3.717817652
 20
1.1028409724
 11
3.7052004863
 21
1.1024799011
  0
SPLINE
  5
4A4
100
AcDbEntity
  8
0
100
AcDbSpline
 62
7
  6
CONTINUOUS
 70
0
 71
3
 72
14
 73
10
 74
0
 42
0.0000001
 43
0.0000001
 44
0.0000000001
 40
0.0
 40
0.0
 40
0.0
 40
0.0
 40
0.0410195719
 40
0.1058862002
 40
0.1949590616
 40
0.3082299814
 40
0.4455825791
 40
0.6068569637
 40
1.0
 40
1.0
 40
1.0
 40
1.0
 10
3.5298373975
 20
1.0958587995
 30
0.0
 10
3.5299555046
 20
1.0957915066
 30
0.0
 10
3.5302938155
 20
1.0956836062
 30
0.0
 10
3.5309230329
 20
1.0955441465
 30
0.0
 10
3.5317985408
 20
1.095403793
 30
0.0
 10
3.5329148453
 20
1.0952606278
 30
0.0
 10
3.5342724272
 20
1.095116839
 30
0.0
 10
3.5365555195
 20
1.0949103049
 30
0.0
 10
3.5383881153
 20
1.0947772071
 30
0.0
 10
3.5396880115
 20
1.0946900525
 30
0.0
  0
SPLINE
  5
4A5
100
AcDbEntity
  8
0
100
AcDbSpline
 62
7
  6
CONTINUOUS
 70
0
 71
3
 72
13
 73
9
 74
0
 42
0.0000001
 43
0.0000001
 44
0.0000000001
 40
0.0
 40
0.0
 40
0.0
 40
0.0
 40
0.0422715849
 40
0.107785912
 40
0.1971347909
 40
0.3104621424
 40
0.6084239494
 40
1.0
 40
1.0
 40
1.0
 40
1.0
 10
3.5171231186
 20
1.1032042975
 30
0.0
 10
3.517218169
 20
1.1031493578
 30
0.0
 10
3.517486251
 20
1.1030585607
 30
0.0
 10
3.5179837736
 20
1.1029419783
 30
0.0
 10
3.5186711668
 20
1.1028243525
 30
0.0
 10
3.519959303
 20
1.1026486821
 30
0.0
 10
3.5220348171
 20
1.1024409844
 30
0.0
 10
3.523820134
 20
1.1023012054
 30
0.0
 10
3.5248345132
 20
1.1022284594
 30
0.0
  0
SPLINE
  5
4A6
100
AcDbEntity
  8
0
100
AcDbSpline
 62
7
  6
CONTINUOUS
 70
0
 71
3
 72
16
 73
12
 74
0
 42
0.0000001
 43
0.0000001
 44
0.0000000001
 40
0.0
 40
0.0
 40
0.0
 40
0.0
 40
0.0091249065
 40
0.0236153066
 40
0.0736414586
 40
0.1534566173
 40
0.2633404952
 40
0.4032001289
 40
0.5728344739
 40
0.7719459108
 40
1.0
 40
1.0
 40
1.0
 40
1.0
 10
3.5297061043
 20
1.0934003578
 30
0.0
 10
3.5297071559
 20
1.0933695231
 30
0.0
 10
3.5297570676
 20
1.0932964696
 30
0.0
 10
3.5299742557
 20
1.0931752362
 30
0.0
 10
3.5304477151
 20
1.0930370717
 30
0.0
 10
3.5312416111
 20
1.0928822455
 30
0.0
 10
3.5323457703
 20
1.0927236151
 30
0.0
 10
3.5337543511
 20
1.0925628249
 30
0.0
 10
3.5354665941
 20
1.0924009586
 30
0.0
 10
3.5374779056
 20
1.0922384641
 30
0.0
 10
3.5389186544
 20
1.0921366359
 30
0.0
 10
3.5396880115
 20
1.0920850525
 30
0.0
  0
SPLINE
  5
4A7
100
AcDbEntity
  8
0
100
AcDbSpline
 62
7
  6
CONTINUOUS
 70
0
 71
3
 72
13
 73
9
 74
0
 42
0.0000001
 43
0.0000001
 44
0.0000000001
 40
0.0
 40
0.0
 40
0.0
 40
0.0
 40
0.0417690307
 40
0.1069026867
 40
0.1960161828
 40
0.3092618473
 40
0.6075225466
 40
1.0
 40
1.0
 40
1.0
 40
1.0
 10
3.5171170664
 20
1.0862023778
 30
0.0
 10
3.5172104414
 20
1.0862577884
 30
0.0
 10
3.5174764812
 20
1.0863488851
 30
0.0
 10
3.517971289
 20
1.0864658321
 30
0.0
 10
3.5186574741
 20
1.0865838428
 30
0.0
 10
3.5199465985
 20
1.0867603469
 30
0.0
 10
3.5220268616
 20
1.0869689204
 30
0.0
 10
3.5238168778
 20
1.0871091549
 30
0.0
 10
3.5248345059
 20
1.0871821234
 30
0.0
  0
LINE
  5
4A8
100
AcDbEntity
  8
0
100
AcDbLine
 62
7
  6
CONTINUOUS
 10
3.5248345059
 20
1.0871821234
 11
3.5360664352
 21
1.0878163524
  0
LINE
  5
4A9
100
AcDbEntity
  8
0
100
AcDbLine
 62
7
  6
CONTINUOUS
 10
3.5360664352
 20
1.0878163524
 11
3.5823040645
 21
1.089404597
  0
SPLINE
  5
4AA
100
AcDbEntity
  8
0
100
AcDbSpline
 62
7
  6
CONTINUOUS
 70
0
 71
3
 72
14
 73
10
 74
0
 42
0.0000001
 43
0.0000001
 44
0.0000000001
 40
0.0
 40
0.0
 40
0.0
 40
0.0
 40
0.0412924588
 40
0.1062940801
 40
0.195386966
 40
0.308598064
 40
0.4458486006
 40
0.6070169328
 40
1.0
 40
1.0
 40
1.0
 40
1.0
 10
3.5298533087
 20
1.0750206544
 30
0.0
 10
3.5299731943
 20
1.0749535893
 30
0.0
 10
3.5303140971
 20
1.0748454782
 30
0.0
 10
3.5309474208
 20
1.0747058258
 30
0.0
 10
3.5318266402
 20
1.0745652341
 30
0.0
 10
3.5329468873
 20
1.0744219168
 30
0.0
 10
3.5343088886
 20
1.0742779801
 30
0.0
 10
3.5365996941
 20
1.0740712701
 30
0.0
 10
3.5384385637
 20
1.0739381218
 30
0.0
 10
3.5397430035
 20
1.0738509265
 30
0.0
  0
SPLINE
  5
4AB
100
AcDbEntity
  8
0
100
AcDbSpline
 62
7
  6
CONTINUOUS
 70
0
 71
3
 72
13
 73
9
 74
0
 42
0.0000001
 43
0.0000001
 44
0.0000000001
 40
0.0
 40
0.0
 40
0.0
 40
0.0
 40
0.0426859318
 40
0.1085137665
 40
0.1980565851
 40
0.3114513545
 40
0.6091670655
 40
1.0
 40
1.0
 40
1.0
 40
1.0
 10
3.5171282558
 20
1.0823663074
 30
0.0
 10
3.5172246734
 20
1.08231176
 30
0.0
 10
3.5174944439
 20
1.0822212283
 30
0.0
 10
3.5179941842
 20
1.0821049593
 30
0.0
 10
3.5186825607
 20
1.0819876519
 30
0.0
 10
3.5199698533
 20
1.0818126409
 30
0.0
 10
3.5220414166
 20
1.081605612
 30
0.0
 10
3.5238228313
 20
1.081466192
 30
0.0
 10
3.5248345174
 20
1.0813936318
 30
0.0
  0
LINE
  5
4AC
100
AcDbEntity
  8
0
100
AcDbLine
 62
7
  6
CONTINUOUS
 10
3.9679671061
 20
0.7267537891
 11
3.9675573132
 21
0.742136106
  0
LINE
  5
4AD
100
AcDbEntity
  8
0
100
AcDbLine
 62
7
  6
CONTINUOUS
 10
3.9647004532
 20
0.8674575828
 11
3.964290136
 21
0.8860483014
  0
LINE
  5
4AE
100
AcDbEntity
  8
0
100
AcDbLine
 62
7
  6
CONTINUOUS
 10
3.9694929046
 20
0.9668790142
 11
3.9697100813
 21
0.9587132733
  0
SPLINE
  5
4AF
100
AcDbEntity
  8
0
100
AcDbSpline
 62
7
  6
CONTINUOUS
 70
0
 71
3
 72
16
 73
12
 74
0
 42
0.0000001
 43
0.0000001
 44
0.0000000001
 40
0.0
 40
0.0
 40
0.0
 40
0.0
 40
0.0091637103
 40
0.0237013038
 40
0.0737440519
 40
0.1534857988
 40
0.2632545439
 40
0.4030095686
 40
0.5726027884
 40
0.7717791982
 40
1.0
 40
1.0
 40
1.0
 40
1.0
 10
3.5297162836
 20
1.072564555
 30
0.0
 10
3.5297178619
 20
1.0725334758
 30
0.0
 10
3.5297688472
 20
1.0724605664
 30
0.0
 10
3.5299873201
 20
1.072338914
 30
0.0
 10
3.5304629597
 20
1.0722004091
 30
0.0
 10
3.5312597099
 20
1.07204505
 30
0.0
 10
3.5323677458
 20
1.0718859978
 30
0.0
 10
3.5337816101
 20
1.0717247717
 30
0.0
 10
3.5355010893
 20
1.0715625062
 30
0.0
 10
3.5375218625
 20
1.0713996491
 30
0.0
 10
3.5389697106
 20
1.0712976173
 30
0.0
 10
3.5397430035
 20
1.0712459265
 30
0.0
  0
LINE
  5
4B0
100
AcDbEntity
  8
0
100
AcDbLine
 62
7
  6
CONTINUOUS
 10
3.962582139
 20
0.9587153008
 11
3.9623693528
 21
0.9668790142
  0
SPLINE
  5
4B1
100
AcDbEntity
  8
0
100
AcDbSpline
 62
7
  6
CONTINUOUS
 70
0
 71
3
 72
16
 73
12
 74
0
 42
0.0000001
 43
0.0000001
 44
0.0000000001
 40
0.0
 40
0.0
 40
0.0
 40
0.0
 40
0.0134687823
 40
0.0333806474
 40
0.0931458105
 40
0.1796838272
 40
0.2926753483
 40
0.4316902862
 40
0.5962695201
 40
0.7859301292
 40
1.0
 40
1.0
 40
1.0
 40
1.0
 10
3.517118466
 20
1.0653682466
 30
0.0
 10
3.5171921265
 20
1.065411682
 30
0.0
 10
3.5173921854
 20
1.0654872511
 30
0.0
 10
3.5179638016
 20
1.0656369922
 30
0.0
 10
3.5190079804
 20
1.0658051973
 30
0.0
 10
3.5206420259
 20
1.0659999225
 30
0.0
 10
3.5227830569
 20
1.0661955824
 30
0.0
 10
3.5254204353
 20
1.0663939469
 30
0.0
 10
3.5285458818
 20
1.0665928624
 30
0.0
 10
3.5321485746
 20
1.0667922195
 30
0.0
 10
3.5347087937
 20
1.0669178555
 30
0.0
 10
3.5360664339
 20
1.0669814191
 30
0.0
  0
LINE
  5
4B2
100
AcDbEntity
  8
0
100
AcDbLine
 62
7
  6
CONTINUOUS
 10
3.5360664339
 20
1.0669814191
 11
3.5823040645
 21
1.068569597
  0
SPLINE
  5
4B3
100
AcDbEntity
  8
0
100
AcDbSpline
 62
7
  6
CONTINUOUS
 70
0
 71
3
 72
9
 73
5
 74
0
 42
0.0000001
 43
0.0000001
 44
0.0000000001
 40
0.0
 40
0.0
 40
0.0
 40
0.0
 40
0.5620582625
 40
1.0
 40
1.0
 40
1.0
 40
1.0
 10
3.9619390867
 20
0.9825341865
 30
0.0
 10
3.9616771197
 20
0.9916777083
 30
0.0
 10
3.961175718
 20
1.0079445769
 30
0.0
 10
3.9605520803
 20
1.0242077485
 30
0.0
 10
3.9602122516
 20
1.0313269693
 30
0.0
  0
LINE
  5
4B4
100
AcDbEntity
  8
0
100
AcDbLine
 62
7
  6
CONTINUOUS
 10
3.9602122516
 20
1.0313269693
 11
3.9593499467
 21
1.0458440861
  0
SPLINE
  5
4B5
100
AcDbEntity
  8
0
100
AcDbSpline
 62
7
  6
CONTINUOUS
 70
0
 71
3
 72
11
 73
7
 74
0
 42
0.0000001
 43
0.0000001
 44
0.0000000001
 40
0.0
 40
0.0
 40
0.0
 40
0.0
 40
0.3477492589
 40
0.630689789
 40
0.8482235918
 40
1.0
 40
1.0
 40
1.0
 40
1.0
 10
3.9593499467
 20
1.0458440861
 30
0.0
 10
3.9592841571
 20
1.0466741816
 30
0.0
 10
3.9591558639
 20
1.0481789283
 30
0.0
 10
3.9589462109
 20
1.0501995958
 30
0.0
 10
3.958738362
 20
1.0517473128
 30
0.0
 10
3.9585788952
 20
1.0526187085
 30
0.0
 10
3.9584872196
 20
1.0529703902
 30
0.0
  0
LINE
  5
4B6
100
AcDbEntity
  8
0
100
AcDbLine
 62
7
  6
CONTINUOUS
 10
3.9584872196
 20
1.0529703902
 11
3.9581172111
 21
1.0536780236
  0
SPLINE
  5
4B7
100
AcDbEntity
  8
0
100
AcDbSpline
 62
7
  6
CONTINUOUS
 70
0
 71
3
 72
9
 73
5
 74
0
 42
0.0000001
 43
0.0000001
 44
0.0000000001
 40
0.0
 40
0.0
 40
0.0
 40
0.0
 40
0.5257715426
 40
1.0
 40
1.0
 40
1.0
 40
1.0
 10
3.9436136878
 20
0.8860483014
 30
0.0
 10
3.9442258267
 20
0.8581300481
 30
0.0
 10
3.9453675879
 20
0.8050300456
 30
0.0
 10
3.9466029924
 20
0.7519317889
 30
0.0
 10
3.9472906579
 20
0.7267537891
 30
0.0
  0
SPLINE
  5
4B8
100
AcDbEntity
  8
0
100
AcDbSpline
 62
7
  6
CONTINUOUS
 70
0
 71
3
 72
10
 73
6
 74
0
 42
0.0000001
 43
0.0000001
 44
0.0000000001
 40
0.0
 40
0.0
 40
0.0
 40
0.0
 40
0.5778298585
 40
0.8103801201
 40
1.0
 40
1.0
 40
1.0
 40
1.0
 10
3.9472906579
 20
0.7267537891
 30
0.0
 10
3.9476220682
 20
0.7149264301
 30
0.0
 10
3.9481061254
 20
0.6983394253
 30
0.0
 10
3.9488681241
 20
0.6778769032
 30
0.0
 10
3.9492609346
 20
0.6692409944
 30
0.0
 10
3.9494668456
 20
0.6653636844
 30
0.0
  0
LINE
  5
4B9
100
AcDbEntity
  8
0
100
AcDbLine
 62
7
  6
CONTINUOUS
 10
3.9494668456
 20
0.6653636844
 11
3.9503385808
 21
0.6526268489
  0
SPLINE
  5
4BA
100
AcDbEntity
  8
0
100
AcDbSpline
 62
7
  6
CONTINUOUS
 70
0
 71
3
 72
12
 73
8
 74
0
 42
0.0000001
 43
0.0000001
 44
0.0000000001
 40
0.0
 40
0.0
 40
0.0
 40
0.0
 40
0.3875726481
 40
0.6832340793
 40
0.8867740008
 40
0.9543579883
 40
1.0
 40
1.0
 40
1.0
 40
1.0
 10
3.9503385808
 20
0.6526268489
 30
0.0
 10
3.9504034747
 20
0.6519581897
 30
0.0
 10
3.9505273434
 20
0.6507798673
 30
0.0
 10
3.9507373807
 20
0.6492580863
 30
0.0
 10
3.9509189102
 20
0.6482894815
 30
0.0
 10
3.9510803143
 20
0.6477653308
 30
0.0
 10
3.95116232
 20
0.6475842225
 30
0.0
 10
3.9512089462
 20
0.6475203086
 30
0.0
  0
SPLINE
  5
4BB
100
AcDbEntity
  8
0
100
AcDbSpline
 62
7
  6
CONTINUOUS
 70
0
 71
3
 72
25
 73
21
 74
0
 42
0.0000001
 43
0.0000001
 44
0.0000000001
 40
0.0
 40
0.0
 40
0.0
 40
0.0
 40
0.144621845
 40
0.3061223496
 40
0.4728288862
 40
0.5544138003
 40
0.6328335964
 40
0.7066841022
 40
0.7746198559
 40
0.8354451479
 40
0.888031247
 40
0.9109462299
 40
0.9314706889
 40
0.9495014528
 40
0.9649550828
 40
0.9777776867
 40
0.9879193459
 40
0.9953342512
 40
0.9980092948
 40
1.0
 40
1.0
 40
1.0
 40
1.0
 10
3.956066382
 20
0.736024078
 30
0.0
 10
3.9556339788
 20
0.7505818549
 30
0.0
 10
3.9548145872
 20
0.7813992477
 30
0.0
 10
3.9536690451
 20
0.8290018666
 30
0.0
 10
3.9527063441
 20
0.870258895
 30
0.0
 10
3.9519152524
 20
0.9031509641
 30
0.0
 10
3.9513265888
 20
0.9266940892
 30
0.0
 10
3.950738855
 20
0.9488622445
 30
0.0
 10
3.9501520137
 20
0.9692579036
 30
0.0
 10
3.9495672997
 20
0.987511209
 30
0.0
 10
3.9490619553
 20
1.0012308054
 30
0.0
 10
3.9486492108
 20
1.010892313
 30
0.0
 10
3.9483546277
 20
1.0170757053
 30
0.0
 10
3.948060917
 20
1.0225068205
 30
0.0
 10
3.9477679492
 20
1.027160997
 30
0.0
 10
3.9474777153
 20
1.0310192771
 30
0.0
 10
3.947189351
 20
1.034064896
 30
0.0
 10
3.9469378429
 20
1.0360880011
 30
0.0
 10
3.9467211332
 20
1.0372852342
 30
0.0
 10
3.9466112313
 20
1.0377428519
 30
0.0
 10
3.9465515764
 20
1.0379342453
 30
0.0
  0
LINE
  5
4BC
100
AcDbEntity
  8
0
100
AcDbLine
 62
7
  6
CONTINUOUS
 10
3.9465515764
 20
1.0379342453
 11
3.9463961885
 21
1.0383172405
  0
SPLINE
  5
4BD
100
AcDbEntity
  8
0
100
AcDbSpline
 62
7
  6
CONTINUOUS
 70
0
 71
3
 72
31
 73
27
 74
0
 42
0.0000001
 43
0.0000001
 44
0.0000000001
 40
0.0
 40
0.0
 40
0.0
 40
0.0
 40
0.1497879692
 40
0.2321014388
 40
0.3171829019
 40
0.4034525553
 40
0.4892607756
 40
0.5729216758
 40
0.652822438
 40
0.7274161014
 40
0.7952654279
 40
0.826253271
 40
0.8550687962
 40
0.8815750677
 40
0.905656213
 40
0.9271972617
 40
0.9460836798
 40
0.9622194037
 40
0.975543449
 40
0.986000475
 40
0.9935398574
 40
0.9962052492
 40
0.9981404825
 40
0.9988409944
 40
0.9993714327
 40
1.0
 40
1.0
 40
1.0
 40
1.0
 10
3.959191382
 20
0.736024078
 30
0.0
 10
3.9587425621
 20
0.751134557
 30
0.0
 10
3.9581223952
 20
0.774550963
 30
0.0
 10
3.957333702
 20
0.8065524773
 30
0.0
 10
3.9567242832
 20
0.8321459748
 30
0.0
 10
3.9561145428
 20
0.8580922596
 30
0.0
 10
3.9555049281
 20
0.8838951413
 30
0.0
 10
3.9548954733
 20
0.909055073
 30
0.0
 10
3.9542867485
 20
0.9330828682
 30
0.0
 10
3.9536789085
 20
0.9555143831
 30
0.0
 10
3.9531591093
 20
0.9730099656
 30
0.0
 10
3.9527377975
 20
0.9858862559
 30
0.0
 10
3.9524315885
 20
0.9945915637
 30
0.0
 10
3.9521256086
 20
1.0025993668
 30
0.0
 10
3.9518201008
 20
1.009872441
 30
0.0
 10
3.9515152145
 20
1.0163757715
 30
0.0
 10
3.9512113371
 20
1.0220762966
 30
0.0
 10
3.9509081258
 20
1.0269462139
 30
0.0
 10
3.9506083505
 20
1.030963763
 30
0.0
 10
3.950309686
 20
1.0341108856
 30
0.0
 10
3.9500513954
 20
1.0361805663
 30
0.0
 10
3.9498245198
 20
1.0373862053
 30
0.0
 10
3.9496952598
 20
1.0379040188
 30
0.0
 10
3.94958019
 20
1.0382064423
 30
0.0
 10
3.9494995028
 20
1.0383677535
 30
0.0
 10
3.9494037555
 20
1.0384726496
 30
0.0
 10
3.9493403208
 20
1.0384720797
 30
0.0
  0
LINE
  5
4BE
100
AcDbEntity
  8
0
100
AcDbLine
 62
7
  6
CONTINUOUS
 10
3.9158136878
 20
0.8860483014
 11
3.9162448255
 21
0.866407417
  0
LINE
  5
4BF
100
AcDbEntity
  8
0
100
AcDbLine
 62
7
  6
CONTINUOUS
 10
3.9163489023
 20
0.8616397504
 11
3.9179706329
 21
0.7882329073
  0
LINE
  5
4C0
100
AcDbEntity
  8
0
100
AcDbLine
 62
7
  6
CONTINUOUS
 10
3.9179706329
 20
0.7882329073
 11
3.9184430889
 21
0.7679803493
  0
LINE
  5
4C1
100
AcDbEntity
  8
0
100
AcDbLine
 62
7
  6
CONTINUOUS
 10
3.9201271587
 20
0.7049483943
 11
3.9214210961
 21
0.6703011819
  0
LINE
  5
4C2
100
AcDbEntity
  8
0
100
AcDbLine
 62
7
  6
CONTINUOUS
 10
3.9214210961
 20
0.6703011819
 11
3.9222837306
 21
0.6555733426
  0
SPLINE
  5
4C3
100
AcDbEntity
  8
0
100
AcDbSpline
 62
7
  6
CONTINUOUS
 70
0
 71
3
 72
10
 73
6
 74
0
 42
0.0000001
 43
0.0000001
 44
0.0000000001
 40
0.0
 40
0.0
 40
0.0
 40
0.0
 40
0.6270370482
 40
0.8453394101
 40
1.0
 40
1.0
 40
1.0
 40
1.0
 10
3.9222837306
 20
0.6555733426
 30
0.0
 10
3.9224033805
 20
0.6540336577
 30
0.0
 10
3.9225793427
 20
0.6519579706
 30
0.0
 10
3.9228963413
 20
0.6495157214
 30
0.0
 10
3.9230559853
 20
0.6486098281
 30
0.0
 10
3.9231463616
 20
0.6482397919
 30
0.0
  0
LINE
  5
4C4
100
AcDbEntity
  8
0
100
AcDbLine
 62
7
  6
CONTINUOUS
 10
3.9231463616
 20
0.6482397919
 11
3.9235407934
 21
0.6474301702
  0
SPLINE
  5
4C5
100
AcDbEntity
  8
0
100
AcDbSpline
 62
7
  6
CONTINUOUS
 70
0
 71
3
 72
10
 73
6
 74
0
 42
0.0000001
 43
0.0000001
 44
0.0000000001
 40
0.0
 40
0.0
 40
0.0
 40
0.0
 40
0.5685795111
 40
0.8033601326
 40
1.0
 40
1.0
 40
1.0
 40
1.0
 10
3.9345693528
 20
0.9668790142
 30
0.0
 10
3.9342510253
 20
0.9789840316
 30
0.0
 10
3.9337652557
 20
0.9960867273
 30
0.0
 10
3.9330178691
 20
1.0173709542
 30
0.0
 10
3.9326373448
 20
1.0265512932
 30
0.0
 10
3.9324401882
 20
1.0307345459
 30
0.0
  0
LINE
  5
4C6
100
AcDbEntity
  8
0
100
AcDbLine
 62
7
  6
CONTINUOUS
 10
3.9324401882
 20
1.0307345459
 11
3.9315893879
 21
1.0453395888
  0
SPLINE
  5
4C7
100
AcDbEntity
  8
0
100
AcDbSpline
 62
7
  6
CONTINUOUS
 70
0
 71
3
 72
10
 73
6
 74
0
 42
0.0000001
 43
0.0000001
 44
0.0000000001
 40
0.0
 40
0.0
 40
0.0
 40
0.0
 40
0.6222040014
 40
0.8418913201
 40
1.0
 40
1.0
 40
1.0
 40
1.0
 10
3.9315893879
 20
1.0453395888
 30
0.0
 10
3.9314705587
 20
1.0468856026
 30
0.0
 10
3.9312950255
 20
1.0489772876
 30
0.0
 10
3.9309833325
 20
1.0514497115
 30
0.0
 10
3.9308259431
 20
1.0523790355
 30
0.0
 10
3.9307378335
 20
1.0527630751
 30
0.0
  0
LINE
  5
4C8
100
AcDbEntity
  8
0
100
AcDbLine
 62
7
  6
CONTINUOUS
 10
3.9307378335
 20
1.0527630751
 11
3.930317191
 21
1.0536777318
  0
LINE
  5
4C9
100
AcDbEntity
  8
0
100
AcDbLine
 62
7
  6
CONTINUOUS
 10
3.7329536994
 20
1.0723184546
 11
3.7791995511
 21
1.0739060308
  0
LINE
  5
4CA
100
AcDbEntity
  8
0
100
AcDbLine
 62
7
  6
CONTINUOUS
 10
3.7791995511
 20
1.0739060308
 11
3.7942420976
 21
1.074859174
  0
SPLINE
  5
4CB
100
AcDbEntity
  8
0
100
AcDbSpline
 62
7
  6
CONTINUOUS
 70
0
 71
3
 72
11
 73
7
 74
0
 42
0.0000001
 43
0.0000001
 44
0.0000000001
 40
0.0
 40
0.0
 40
0.0
 40
0.0
 40
0.3706614154
 40
0.6609122429
 40
0.8702819062
 40
1.0
 40
1.0
 40
1.0
 40
1.0
 10
3.7942420976
 20
1.074859174
 30
0.0
 10
3.7947228887
 20
1.0749069404
 30
0.0
 10
3.7955791319
 20
1.0749995109
 30
0.0
 10
3.7967047262
 20
1.0751512532
 30
0.0
 10
3.7975089579
 20
1.075303113
 30
0.0
 10
3.7979401358
 20
1.0754192306
 30
0.0
 10
3.7980916999
 20
1.0754941908
 30
0.0
  0
LINE
  5
4CC
100
AcDbEntity
  8
0
100
AcDbLine
 62
7
  6
CONTINUOUS
 10
3.7936985471
 20
1.0729344384
 11
3.7964254295
 21
1.0726227895
  0
LINE
  5
4CD
100
AcDbEntity
  8
0
100
AcDbLine
 62
7
  6
CONTINUOUS
 10
3.7848733937
 20
1.0833222915
 11
3.7854020582
 21
1.0831371565
  0
LINE
  5
4CE
100
AcDbEntity
  8
0
100
AcDbLine
 62
7
  6
CONTINUOUS
 10
3.7329536994
 20
1.0931534546
 11
3.779199538
 21
1.0947416412
  0
LINE
  5
4CF
100
AcDbEntity
  8
0
100
AcDbLine
 62
7
  6
CONTINUOUS
 10
3.779199538
 20
1.0947416412
 11
3.7942421013
 21
1.0956940228
  0
SPLINE
  5
4D0
100
AcDbEntity
  8
0
100
AcDbSpline
 62
7
  6
CONTINUOUS
 70
0
 71
3
 72
11
 73
7
 74
0
 42
0.0000001
 43
0.0000001
 44
0.0000000001
 40
0.0
 40
0.0
 40
0.0
 40
0.0
 40
0.3706614342
 40
0.6609128354
 40
0.8702826967
 40
1.0
 40
1.0
 40
1.0
 40
1.0
 10
3.7942421013
 20
1.0956940228
 30
0.0
 10
3.7947228924
 20
1.0957418131
 30
0.0
 10
3.7955791355
 20
1.0958344341
 30
0.0
 10
3.7967047259
 20
1.0959862515
 30
0.0
 10
3.7975089554
 20
1.0961381454
 30
0.0
 10
3.7979401321
 20
1.0962542662
 30
0.0
 10
3.7980916979
 20
1.0963292223
 30
0.0
  0
SPLINE
  5
4D1
100
AcDbEntity
  8
0
100
AcDbSpline
 62
7
  6
CONTINUOUS
 70
0
 71
3
 72
11
 73
7
 74
0
 42
0.0000001
 43
0.0000001
 44
0.0000000001
 40
0.0
 40
0.0
 40
0.0
 40
0.0
 40
0.3706619851
 40
0.6609140862
 40
0.8702839497
 40
1.0
 40
1.0
 40
1.0
 40
1.0
 10
3.7942421036
 20
1.0937163359
 30
0.0
 10
3.7947228947
 20
1.0936685273
 30
0.0
 10
3.7955791375
 20
1.0935758678
 30
0.0
 10
3.7967047245
 20
1.0934239966
 30
0.0
 10
3.7975089521
 20
1.0932720847
 30
0.0
 10
3.7979401279
 20
1.0931559698
 30
0.0
 10
3.798091696
 20
1.0930810208
 30
0.0
  0
LINE
  5
4D2
100
AcDbEntity
  8
0
100
AcDbLine
 62
7
  6
CONTINUOUS
 10
3.7849061948
 20
1.1041482152
 11
3.7854022634
 21
1.1039700598
  0
LINE
  5
4D3
100
AcDbEntity
  8
0
100
AcDbLine
 62
7
  6
CONTINUOUS
 10
3.7847281615
 20
1.1067991791
 11
3.7855446753
 21
1.1064251347
  0
LINE
  5
4D4
100
AcDbEntity
  8
0
100
AcDbLine
 62
7
  6
CONTINUOUS
 10
3.5823040645
 20
1.1066742938
 11
3.5360582085
 21
1.105086922
  0
LINE
  5
4D5
100
AcDbEntity
  8
0
100
AcDbLine
 62
7
  6
CONTINUOUS
 10
3.5360582085
 20
1.105086922
 11
3.5210156673
 21
1.1041335092
  0
SPLINE
  5
4D6
100
AcDbEntity
  8
0
100
AcDbSpline
 62
7
  6
CONTINUOUS
 70
0
 71
3
 72
11
 73
7
 74
0
 42
0.0000001
 43
0.0000001
 44
0.0000000001
 40
0.0
 40
0.0
 40
0.0
 40
0.0
 40
0.3706625297
 40
0.6609136916
 40
0.8702829704
 40
1.0
 40
1.0
 40
1.0
 40
1.0
 10
3.5210156673
 20
1.1041335092
 30
0.0
 10
3.5205348764
 20
1.1040857512
 30
0.0
 10
3.5196786336
 20
1.1039931993
 30
0.0
 10
3.518553039
 20
1.1038414913
 30
0.0
 10
3.5177488077
 20
1.1036896601
 30
0.0
 10
3.5173176292
 20
1.1035735607
 30
0.0
 10
3.5171660641
 20
1.1034986074
 30
0.0
  0
LINE
  5
4D7
100
AcDbEntity
  8
0
100
AcDbLine
 62
7
  6
CONTINUOUS
 10
3.5200615313
 20
1.1062116998
 11
3.5177181261
 21
1.1065709232
  0
LINE
  5
4D8
100
AcDbEntity
  8
0
100
AcDbLine
 62
7
  6
CONTINUOUS
 10
3.5177181261
 20
1.1065709232
 11
3.5170085296
 21
1.1069055942
  0
LINE
  5
4D9
100
AcDbEntity
  8
0
100
AcDbLine
 62
7
  6
CONTINUOUS
 10
3.610063223
 20
1.0999528474
 11
3.5985314532
 21
1.0996237484
  0
SPLINE
  5
4DA
100
AcDbEntity
  8
0
100
AcDbSpline
 62
7
  6
CONTINUOUS
 70
0
 71
3
 72
21
 73
17
 74
0
 42
0.0000001
 43
0.0000001
 44
0.0000000001
 40
0.0
 40
0.0
 40
0.0
 40
0.0
 40
0.2157881125
 40
0.4116191373
 40
0.5836266478
 40
0.6597828109
 40
0.7289002242
 40
0.7906878231
 40
0.8448894829
 40
0.8912510785
 40
0.9295228704
 40
0.9595224043
 40
0.9811710901
 40
0.9944571003
 40
0.9980602374
 40
1.0
 40
1.0
 40
1.0
 40
1.0
 10
3.5985314532
 20
1.0996237484
 30
0.0
 10
3.5935678367
 20
1.0994786704
 30
0.0
 10
3.5840999208
 20
1.0991928223
 30
0.0
 10
3.5706768196
 20
1.0987472589
 30
0.0
 10
3.5604667165
 20
1.0983636762
 30
0.0
 10
3.5531720698
 20
1.0980514665
 30
0.0
 10
3.5484124405
 20
1.0978270804
 30
0.0
 10
3.5441585732
 20
1.0976030013
 30
0.0
 10
3.540429319
 20
1.0973796739
 30
0.0
 10
3.5372417122
 20
1.0971570477
 30
0.0
 10
3.5346140067
 20
1.0969371105
 30
0.0
 10
3.5325531179
 20
1.0967172643
 30
0.0
 10
3.5310800057
 20
1.0965101365
 30
0.0
 10
3.5302003947
 20
1.0963135391
 30
0.0
 10
3.5298068735
 20
1.0961591766
 30
0.0
 10
3.5297047677
 20
1.0960503505
 30
0.0
 10
3.5297060924
 20
1.0960057322
 30
0.0
  0
LINE
  5
4DB
100
AcDbEntity
  8
0
100
AcDbLine
 62
7
  6
CONTINUOUS
 10
3.610063223
 20
1.0973478474
 11
3.5985314532
 21
1.0970187484
  0
SPLINE
  5
4DC
100
AcDbEntity
  8
0
100
AcDbSpline
 62
7
  6
CONTINUOUS
 70
0
 71
3
 72
17
 73
13
 74
0
 42
0.0000001
 43
0.0000001
 44
0.0000000001
 40
0.0
 40
0.0
 40
0.0
 40
0.0
 40
0.1990515565
 40
0.38177605
 40
0.5450625698
 40
0.68666168
 40
0.8044890337
 40
0.8968845751
 40
0.9330654928
 40
0.9623516183
 40
0.9846738743
 40
1.0
 40
1.0
 40
1.0
 40
1.0
 10
3.5985314532
 20
1.0970187484
 30
0.0
 10
3.5940009622
 20
1.0968863299
 30
0.0
 10
3.5853118129
 20
1.096624646
 30
0.0
 10
3.5729073029
 20
1.0962184431
 30
0.0
 10
3.5618117444
 20
1.095813195
 30
0.0
 10
3.5521948333
 20
1.0954106981
 30
0.0
 10
3.5441938267
 20
1.0950099174
 30
0.0
 10
3.5385936149
 20
1.0946601874
 30
0.0
 10
3.5350110825
 20
1.0943666337
 30
0.0
 10
3.5330216452
 20
1.0941671491
 30
0.0
 10
3.5315107451
 20
1.093969379
 30
0.0
 10
3.5306653559
 20
1.0938175508
 30
0.0
 10
3.5303278241
 20
1.0937289077
 30
0.0
  0
LINE
  5
4DD
100
AcDbEntity
  8
0
100
AcDbLine
 62
7
  6
CONTINUOUS
 10
3.5303278241
 20
1.0937289077
 11
3.5298296483
 21
1.0935482167
  0
LINE
  5
4DE
100
AcDbEntity
  8
0
100
AcDbLine
 62
7
  6
CONTINUOUS
 10
3.5823040645
 20
1.0858392938
 11
3.536058212
 21
1.0842518416
  0
LINE
  5
4DF
100
AcDbEntity
  8
0
100
AcDbLine
 62
7
  6
CONTINUOUS
 10
3.536058212
 20
1.0842518416
 11
3.5210156674
 21
1.0832985422
  0
SPLINE
  5
4E0
100
AcDbEntity
  8
0
100
AcDbSpline
 62
7
  6
CONTINUOUS
 70
0
 71
3
 72
11
 73
7
 74
0
 42
0.0000001
 43
0.0000001
 44
0.0000000001
 40
0.0
 40
0.0
 40
0.0
 40
0.0
 40
0.3706615307
 40
0.6609122981
 40
0.8702818874
 40
1.0
 40
1.0
 40
1.0
 40
1.0
 10
3.5210156674
 20
1.0832985422
 30
0.0
 10
3.5205348763
 20
1.0832507807
 30
0.0
 10
3.5196786331
 20
1.0831582207
 30
0.0
 10
3.5185530379
 20
1.0830064946
 30
0.0
 10
3.5177488059
 20
1.0828546435
 30
0.0
 10
3.5173176276
 20
1.0827385283
 30
0.0
 10
3.5171660637
 20
1.0826635682
 30
0.0
  0
SPLINE
  5
4E1
100
AcDbEntity
  8
0
100
AcDbSpline
 62
7
  6
CONTINUOUS
 70
0
 71
3
 72
11
 73
7
 74
0
 42
0.0000001
 43
0.0000001
 44
0.0000000001
 40
0.0
 40
0.0
 40
0.0
 40
0.0
 40
0.3706629915
 40
0.6609151811
 40
0.870284621
 40
1.0
 40
1.0
 40
1.0
 40
1.0
 10
3.5210156621
 20
1.0852765281
 30
0.0
 10
3.5205348712
 20
1.0853243203
 30
0.0
 10
3.5196786289
 20
1.0854169441
 30
0.0
 10
3.5185530403
 20
1.0855687561
 30
0.0
 10
3.5177488123
 20
1.0857206292
 30
0.0
 10
3.5173176355
 20
1.0858367266
 30
0.0
 10
3.5171660673
 20
1.0859116708
 30
0.0
  0
SPLINE
  5
4E2
100
AcDbEntity
  8
0
100
AcDbSpline
 62
7
  6
CONTINUOUS
 70
0
 71
3
 72
23
 73
19
 74
0
 42
0.0000001
 43
0.0000001
 44
0.0000000001
 40
0.0
 40
0.0
 40
0.0
 40
0.0
 40
0.2118739657
 40
0.4065871454
 40
0.5789061551
 40
0.6555402002
 40
0.7253096225
 40
0.787840754
 40
0.8428085057
 40
0.8899016909
 40
0.9288118696
 40
0.9592736025
 40
0.9811921545
 40
0.9889450039
 40
0.9945761245
 40
0.9966138013
 40
0.9981564999
 40
1.0
 40
1.0
 40
1.0
 40
1.0
 10
3.6100633134
 20
1.0791178474
 30
0.0
 10
3.6043756446
 20
1.0789589691
 30
0.0
 10
3.5934612118
 20
1.0786456029
 30
0.0
 10
3.5779222087
 20
1.0781603956
 30
0.0
 10
3.5660148066
 20
1.0777422995
 30
0.0
 10
3.5574622512
 20
1.0774019173
 30
0.0
 10
3.5518566254
 20
1.0771571016
 30
0.0
 10
3.5468334461
 20
1.0769126225
 30
0.0
 10
3.5424199901
 20
1.0766689465
 30
0.0
 10
3.5386419488
 20
1.0764260912
 30
0.0
 10
3.5355233205
 20
1.0761861922
 30
0.0
 10
3.5330832406
 20
1.0759467718
 30
0.0
 10
3.5314811977
 20
1.0757394689
 30
0.0
 10
3.5305495873
 20
1.0755575802
 30
0.0
 10
3.5301494274
 20
1.0754541546
 30
0.0
 10
3.5299166822
 20
1.0753617445
 30
0.0
 10
3.5297922156
 20
1.0752972368
 30
0.0
 10
3.5297137727
 20
1.0752189986
 30
0.0
 10
3.5297162836
 20
1.075169555
 30
0.0
  0
SPLINE
  5
4E3
100
AcDbEntity
  8
0
100
AcDbSpline
 62
7
  6
CONTINUOUS
 70
0
 71
3
 72
18
 73
14
 74
0
 42
0.0000001
 43
0.0000001
 44
0.0000000001
 40
0.0
 40
0.0
 40
0.0
 40
0.0
 40
0.1967360542
 40
0.379286298
 40
0.5434218817
 40
0.6861867574
 40
0.8051922247
 40
0.8551086031
 40
0.8983090755
 40
0.9345532603
 40
0.9636276312
 40
0.9854483505
 40
1.0
 40
1.0
 40
1.0
 40
1.0
 10
3.6100633134
 20
1.0765128474
 30
0.0
 10
3.6048281891
 20
1.0763666104
 30
0.0
 10
3.5947356219
 20
1.0760774143
 30
0.0
 10
3.5802764658
 20
1.0756308604
 30
0.0
 10
3.5672547452
 20
1.0751849457
 30
0.0
 10
3.5559256748
 20
1.0747409678
 30
0.0
 10
3.5476372725
 20
1.0743554709
 30
0.0
 10
3.5419994412
 20
1.0740377618
 30
0.0
 10
3.5385629339
 20
1.0738146683
 30
0.0
 10
3.5356827441
 20
1.0735926401
 30
0.0
 10
3.5333727881
 20
1.073373872
 30
0.0
 10
3.5316448134
 20
1.073156401
 30
0.0
 10
3.5306887258
 20
1.0729896673
 30
0.0
 10
3.5303145829
 20
1.0728893094
 30
0.0
  0
LINE
  5
4E4
100
AcDbEntity
  8
0
100
AcDbLine
 62
7
  6
CONTINUOUS
 10
3.5303145829
 20
1.0728893094
 11
3.5298395293
 21
1.0727142209
  0
SPLINE
  5
4E5
100
AcDbEntity
  8
0
100
AcDbSpline
 62
7
  6
CONTINUOUS
 70
0
 71
3
 72
11
 73
7
 74
0
 42
0.0000001
 43
0.0000001
 44
0.0000000001
 40
0.0
 40
0.0
 40
0.0
 40
0.0
 40
0.3706621896
 40
0.6609144146
 40
0.87028423
 40
1.0
 40
1.0
 40
1.0
 40
1.0
 10
3.5210156596
 20
1.0644414074
 30
0.0
 10
3.5205348686
 20
1.0644892172
 30
0.0
 10
3.519678626
 20
1.064581879
 30
0.0
 10
3.5185530395
 20
1.0647337524
 30
0.0
 10
3.5177488123
 20
1.0648856629
 30
0.0
 10
3.5173176365
 20
1.0650017751
 30
0.0
 10
3.5171660682
 20
1.0650767224
 30
0.0
  0
SPLINE
  5
4E6
100
AcDbEntity
  8
0
100
AcDbSpline
 62
7
  6
CONTINUOUS
 70
0
 71
3
 72
8
 73
4
 74
0
 42
0.0000001
 43
0.0000001
 44
0.0000000001
 40
0.0
 40
0.0
 40
0.0
 40
0.0
 40
1.0
 40
1.0
 40
1.0
 40
1.0
 10
3.6100553271
 20
1.0765128474
 30
0.0
 10
3.6006975334
 20
1.0742739717
 30
0.0
 10
3.5914445036
 20
1.0715751319
 30
0.0
 10
3.5823040645
 20
1.068569597
 30
0.0
  0
SPLINE
  5
4E7
100
AcDbEntity
  8
0
100
AcDbSpline
 62
7
  6
CONTINUOUS
 70
0
 71
3
 72
9
 73
5
 74
0
 42
0.0000001
 43
0.0000001
 44
0.0000000001
 40
0.0
 40
0.0
 40
0.0
 40
0.0
 40
0.5000048955
 40
1.0
 40
1.0
 40
1.0
 40
1.0
 10
3.5823040645
 20
1.0858392938
 30
0.0
 10
3.5868772059
 20
1.0845176832
 30
0.0
 10
3.5960742137
 20
1.0820452336
 30
0.0
 10
3.6053797714
 20
1.0800114741
 30
0.0
 10
3.6100553271
 20
1.0791178474
 30
0.0
  0
SPLINE
  5
4E8
100
AcDbEntity
  8
0
100
AcDbSpline
 62
7
  6
CONTINUOUS
 70
0
 71
3
 72
8
 73
4
 74
0
 42
0.0000001
 43
0.0000001
 44
0.0000000001
 40
0.0
 40
0.0
 40
0.0
 40
0.0
 40
1.0
 40
1.0
 40
1.0
 40
1.0
 10
3.6070075753
 20
1.0966027368
 30
0.0
 10
3.5986868089
 20
1.0945221313
 30
0.0
 10
3.5904520125
 20
1.0920832192
 30
0.0
 10
3.5823040645
 20
1.089404597
 30
0.0
  0
SPLINE
  5
4E9
100
AcDbEntity
  8
0
100
AcDbSpline
 62
7
  6
CONTINUOUS
 70
0
 71
3
 72
8
 73
4
 74
0
 42
0.0000001
 43
0.0000001
 44
0.0000000001
 40
0.0
 40
0.0
 40
0.0
 40
0.0
 40
1.0
 40
1.0
 40
1.0
 40
1.0
 10
3.5823040645
 20
1.1066742938
 30
0.0
 10
3.59045673
 20
1.1043188648
 30
0.0
 10
3.598698179
 20
1.1022374456
 30
0.0
 10
3.6070150432
 20
1.1005510974
 30
0.0
  0
SPLINE
  5
4EA
100
AcDbEntity
  8
0
100
AcDbSpline
 62
7
  6
CONTINUOUS
 70
0
 71
3
 72
8
 73
4
 74
0
 42
0.0000001
 43
0.0000001
 44
0.0000000001
 40
0.0
 40
0.0
 40
0.0
 40
0.0
 40
1.0
 40
1.0
 40
1.0
 40
1.0
 10
3.7329536994
 20
1.0931534546
 30
0.0
 10
3.7248023379
 20
1.0955133761
 30
0.0
 10
3.7165595046
 20
1.0975899291
 30
0.0
 10
3.7082426585
 20
1.0992763441
 30
0.0
  0
SPLINE
  5
4EB
100
AcDbEntity
  8
0
100
AcDbSpline
 62
7
  6
CONTINUOUS
 70
0
 71
3
 72
8
 73
4
 74
0
 42
0.0000001
 43
0.0000001
 44
0.0000000001
 40
0.0
 40
0.0
 40
0.0
 40
0.0
 40
1.0
 40
1.0
 40
1.0
 40
1.0
 10
3.7052024369
 20
1.0816449011
 30
0.0
 10
3.7145601273
 20
1.0838842083
 30
0.0
 10
3.7238135014
 20
1.0865818837
 30
0.0
 10
3.7329536994
 20
1.0895881514
 30
0.0
  0
SPLINE
  5
4EC
100
AcDbEntity
  8
0
100
AcDbSpline
 62
7
  6
CONTINUOUS
 70
0
 71
3
 72
9
 73
5
 74
0
 42
0.0000001
 43
0.0000001
 44
0.0000000001
 40
0.0
 40
0.0
 40
0.0
 40
0.0
 40
0.5000049762
 40
1.0
 40
1.0
 40
1.0
 40
1.0
 10
3.7329536994
 20
1.0723184546
 30
0.0
 10
3.728380668
 20
1.0736404482
 30
0.0
 10
3.7191835063
 20
1.0761123953
 30
0.0
 10
3.7098779523
 20
1.0781460683
 30
0.0
 10
3.7052024369
 20
1.0790399011
 30
0.0
  0
ELLIPSE
  5
4ED
100
AcDbEntity
  8
0
100
AcDbEllipse
 62
7
  6
CONTINUOUS
 10
3.657628882
 20
1.1333978367
 30
0.0
 11
0.140625
 21
-0.0
 31
0.0
 40
1.0
 41
-1.8289398803
 42
-1.236554459
  0
ELLIPSE
  5
4EE
100
AcDbEntity
  8
0
100
AcDbEllipse
 62
7
  6
CONTINUOUS
 10
3.657628882
 20
1.1333978367
 30
0.0
 11
-0.0
 21
0.140625
 31
0.0
 40
1.0
 41
-3.4758345214
 42
-3.3997362071
  0
ELLIPSE
  5
4EF
100
AcDbEntity
  8
0
100
AcDbEllipse
 62
7
  6
CONTINUOUS
 10
3.657628882
 20
1.1333978367
 30
0.0
 11
0.0
 21
0.140625
 31
0.0
 40
1.0
 41
-2.5763234696
 42
-2.2007455562
  0
ELLIPSE
  5
4F0
100
AcDbEntity
  8
0
100
AcDbEllipse
 62
7
  6
CONTINUOUS
 10
3.657628882
 20
1.1333978367
 30
0.0
 11
0.0
 21
0.140625
 31
0.0
 40
1.0
 41
-4.082439751
 42
-3.7068618376
  0
ENDSEC
  0
SECTION
  2
OBJECTS
  0
DICTIONARY
  5
C
100
AcDbDictionary
280
0
281
1
  3
ACAD_GROUP
350
D
  3
ACAD_MLINESTYLE
350
17
  3
ACAD_LAYOUT
350
1A
  3
ACAD_PLOTSETTINGS
350
19
  3
ACAD_PLOTSTYLENAME
350
E
  0
DICTIONARY
  5
D
102
{ACAD_REACTORS
330
C
102
}
100
AcDbDictionary
280
0
281
1
  0
ACDBDICTIONARYWDFLT
  5
E
102
{ACAD_REACTORS
330
C
102
}
100
AcDbDictionary
281
1
  3
Normal
350
F
100
AcDbDictionaryWithDefault
340
F
  0
DICTIONARY
  5
17
102
{ACAD_REACTORS
330
C
102
}
100
AcDbDictionary
280
0
281
1
  3
Standard
350
18
  0
DICTIONARY
  5
19
102
{ACAD_REACTORS
330
C
102
}
100
AcDbDictionary
281
1
  0
DICTIONARY
  5
1A
102
{ACAD_REACTORS
330
C
102
}
100
AcDbDictionary
281
1
  3
Model
350
4F1
  3
Layout1
350
4F2
  0
ACDBPLACEHOLDER
  5
F
102
{ACAD_REACTORS
330
E
102
}
  0
MLINESTYLE
  5
18
102
{ACAD_REACTORS
330
17
102
}
100
AcDbMlineStyle
  2
STANDARD
 70
0
  3

 62
256
 51
90.0
 52
90.0
 71
2
 49
0.5
 62
256
  6
BYLAYER
 49
-0.5
 62
256
  6
BYLAYER
  0
LAYOUT
  5
4F1
102
{ACAD_REACTORS
330
1A
102
}
100
AcDbPlotSettings
  1

  2
none_device
  4

  6

 40
0.0
 41
0.0
 42
0.0
 43
0.0
 44
215.9
 45
279.4
 46
0.0
 47
0.0
 48
0.0
 49
0.0
140
0.0
141
0.0
142
1.0
143
1.0
 70
1024
 72
0
 73
0
 74
0
  7

 75
0
147
1.0
148
0.0
149
0.0
100
AcDbLayout
  1
Model
 70
0
 71
0
 10
0.0
 20
0.0
 11
8.5
 21
11.0
 12
0.0
 22
0.0
 32
0.0
 14
0.0
 24
0.0
 34
0.0
 15
0.0
 25
0.0
 35
0.0
146
0.0
 13
0.0
 23
0.0
 33
0.0
 16
1.0
 26
0.0
 36
0.0
 17
0.0
 27
1.0
 37
0.0
 76
0
330
22A
345
0
346
0
  0
LAYOUT
  5
4F2
102
{ACAD_REACTORS
330
1A
102
}
100
AcDbPlotSettings
  1

  2
none_device
  4

  6

 40
0.0
 41
0.0
 42
0.0
 43
0.0
 44
215.9
 45
279.4
 46
0.0
 47
0.0
 48
0.0
 49
0.0
140
0.0
141
0.0
142
1.0
143
1.0
 70
0
 72
0
 73
0
 74
0
  7

 75
0
147
1.0
148
0.0
149
0.0
100
AcDbLayout
  1
Layout1
 70
0
 71
1
 10
0.0
 20
0.0
 11
8.5
 21
11.0
 12
0.0
 22
0.0
 32
0.0
 14
0.0
 24
0.0
 34
0.0
 15
0.0
 25
0.0
 35
0.0
146
0.0
 13
0.0
 23
0.0
 33
0.0
 16
1.0
 26
0.0
 36
0.0
 17
0.0
 27
1.0
 37
0.0
 76
0
330
22B
345
0
346
0
  0
ENDSEC
  0
EOF
