999
DXF file: C:\Prowork\plots\491_front.dxf
999
Pro/ENGINEER 2018500 by Parametric Technology Corporation
  0
SECTION
  2
HEADER
  9
$ACADVER
  1
AC1032
  9
$DWGCODEPAGE
  3
ANSI_1252
  9
$EXTMAX
 10
8.5
 20
11.0
 30
0.0
  9
$EXTMIN
 10
0.0
 20
0.0
 30
0.0
  9
$LIMMIN
 10
0.0
 20
0.0
  9
$LIMMAX
 10
8.5
 20
11.0
  9
$VIEWCTR
 10
4.25
 20
5.5
  9
$VIEWSIZE
 40
11.0
  9
$CLAYER
  8
0
  9
$LTSCALE
 40
0.717037037
  9
$CELTYPE
  6
BYLAYER
  9
$DIMSCALE
 40
1.0
  9
$DIMASZ
 40
0.1
  9
$DIMEXO
 40
0.0625
  9
$DIMDLI
 40
0.4954074074
  9
$DIMEXE
 40
0.125
  9
$DIMCEN
 40
0.1173333333
  9
$DIMLFAC
 40
1.0
  9
$DIMBLK
  1
_FILLED
  9
$DIMALT
 70
1
  9
$DIMALTD
 70
2
  9
$DIMALTTD
 70
2
  9
$DIMALTF
 40
25.4
  9
$DIMTXT
 40
0.08
  9
$DIMTOL
 70
1
  9
$DIMLIM
 70
0
  9
$DIMTFAC
 40
1.0
  9
$DIMTP
 40
0.001
  9
$DIMTM
 40
0.001
  9
$DIMGAP
 40
0.09
  9
$DIMDSEP
 70
46
  9
$AUNITS
 70
0
  9
$PDMODE
 70
3
  9
$PDSIZE
 40
0.06
  9
$HANDSEED
  5
395
  9
$TILEMODE
 70
1
  9
$MEASUREMENT
 70
0
  9
$INSUNITS
 70
1
  0
ENDSEC
  0
SECTION
  2
CLASSES
  0
CLASS
  1
ACDBDICTIONARYWDFLT
  2
AcDbDictionaryWithDefault
  3
AutoCAD 2000
 90
0
 91
1
280
0
281
0
  0
CLASS
  1
ACDBPLACEHOLDER
  2
AcDbPlaceHolder
  3
AutoCAD 2000
 90
0
 91
1
280
0
281
0
  0
CLASS
  1
LAYOUT
  2
AcDbLayout
  3
AutoCAD 2000
 90
0
 91
0
280
0
281
0
  0
ENDSEC
  0
SECTION
  2
TABLES
  0
TABLE
  2
VPORT
  5
8
100
AcDbSymbolTable
 70
2
  0
VPORT
  5
1F4
100
AcDbSymbolTableRecord
100
AcDbViewportTableRecord
  2
*ACTIVE
 70
0
 10
0.0
 20
0.0
 11
1.0
 21
1.0
 12
4.25
 22
5.5
 13
0.0
 23
0.0
 14
1.0
 24
1.0
 15
0.0
 25
0.0
 16
0.0
 26
0.0
 36
1.0
 17
0.0
 27
0.0
 37
0.0
 40
11.0
 41
0.7727272727
 42
50.0
 43
0.0
 44
0.0
 50
0.0
 51
0.0
 71
0
 72
100
 73
1
 74
1
 75
0
 76
0
 77
0
 78
0
  0
ENDTAB
  0
TABLE
  2
LTYPE
  5
5
100
AcDbSymbolTable
 70
6
  0
LTYPE
  5
14
100
AcDbSymbolTableRecord
100
AcDbLinetypeTableRecord
  2
BYBLOCK
 70
0
  3

 72
65
 73
0
 40
0.0
  0
LTYPE
  5
15
100
AcDbSymbolTableRecord
100
AcDbLinetypeTableRecord
  2
BYLAYER
 70
0
  3

 72
65
 73
0
 40
0.0
  0
LTYPE
  5
16
100
AcDbSymbolTableRecord
100
AcDbLinetypeTableRecord
  2
CONTINUOUS
 70
64
  3
Solid line
 72
65
 73
0
 40
0.0
  0
LTYPE
  5
1F5
100
AcDbSymbolTableRecord
100
AcDbLinetypeTableRecord
  2
CENTER
 70
64
  3
____ _ ____ _ ____ _ ____ _ ____ _ ____ _ ____
 72
65
 73
4
 40
0.6
 49
0.375
 74
0
 49
-0.075
 74
0
 49
0.075
 74
0
 49
-0.075
 74
0
  0
LTYPE
  5
1F6
100
AcDbSymbolTableRecord
100
AcDbLinetypeTableRecord
  2
HIDDEN
 70
64
  3
- - - - - - - - - - - - - - - - - - - -
 72
65
 73
2
 40
0.2
 49
0.1
 74
0
 49
-0.1
 74
0
  0
LTYPE
  5
1F7
100
AcDbSymbolTableRecord
100
AcDbLinetypeTableRecord
  2
PHANTOM
 70
64
  3
_____ _ _ _____ _ _ _____ _ _ _____
 72
65
 73
6
 40
0.8
 49
0.45
 74
0
 49
-0.05
 74
0
 49
0.1
 74
0
 49
-0.05
 74
0
 49
0.1
 74
0
 49
-0.05
 74
0
  0
LTYPE
  5
1F8
100
AcDbSymbolTableRecord
100
AcDbLinetypeTableRecord
  2
DOT
 70
64
  3
. . . . . . . . . . . . . . . . . . . .
 72
65
 73
2
 40
0.2
 49
0.1
 74
0
 49
-0.1
 74
0
  0
LTYPE
  5
1F9
100
AcDbSymbolTableRecord
100
AcDbLinetypeTableRecord
  2
DASHED
 70
64
  3
- - - - - - - - - - - - - - - - - - - -
 72
65
 73
2
 40
0.2
 49
0.1
 74
0
 49
-0.1
 74
0
  0
ENDTAB
  0
TABLE
  2
LAYER
  5
2
100
AcDbSymbolTable
 70
36
  0
LAYER
  5
10
100
AcDbSymbolTableRecord
100
AcDbLayerTableRecord
  2
0
 70
0
 62
7
  6
CONTINUOUS
370
-3
390
F
  0
LAYER
  5
1FA
100
AcDbSymbolTableRecord
100
AcDbLayerTableRecord
  2
DEFAULT_1
 70
0
 62
7
  6
CENTER
370
-3
390
F
  0
LAYER
  5
1FB
100
AcDbSymbolTableRecord
100
AcDbLayerTableRecord
  2
DEFAULT_2
 70
0
 62
8
  6
HIDDEN
370
-3
390
F
  0
LAYER
  5
1FC
100
AcDbSymbolTableRecord
100
AcDbLayerTableRecord
  2
DEFAULT_3
 70
0
 62
7
  6
PHANTOM
370
-3
390
F
  0
LAYER
  5
1FD
100
AcDbSymbolTableRecord
100
AcDbLayerTableRecord
  2
1-257
 70
0
 62
7
  6
CONTINUOUS
370
-3
390
F
  0
LAYER
  5
1FE
100
AcDbSymbolTableRecord
100
AcDbLayerTableRecord
  2
1-257_1
 70
0
 62
7
  6
CONTINUOUS
370
-3
390
F
  0
LAYER
  5
1FF
100
AcDbSymbolTableRecord
100
AcDbLayerTableRecord
  2
10182
 70
0
 62
7
  6
CONTINUOUS
370
-3
390
F
  0
LAYER
  5
200
100
AcDbSymbolTableRecord
100
AcDbLayerTableRecord
  2
10182_1
 70
0
 62
7
  6
CONTINUOUS
370
-3
390
F
  0
LAYER
  5
201
100
AcDbSymbolTableRecord
100
AcDbLayerTableRecord
  2
401
 70
0
 62
7
  6
CONTINUOUS
370
-3
390
F
  0
LAYER
  5
202
100
AcDbSymbolTableRecord
100
AcDbLayerTableRecord
  2
401_1
 70
0
 62
7
  6
CONTINUOUS
370
-3
390
F
  0
LAYER
  5
203
100
AcDbSymbolTableRecord
100
AcDbLayerTableRecord
  2
432
 70
0
 62
7
  6
CONTINUOUS
370
-3
390
F
  0
LAYER
  5
204
100
AcDbSymbolTableRecord
100
AcDbLayerTableRecord
  2
432_1
 70
0
 62
7
  6
CONTINUOUS
370
-3
390
F
  0
LAYER
  5
205
100
AcDbSymbolTableRecord
100
AcDbLayerTableRecord
  2
442
 70
0
 62
7
  6
CONTINUOUS
370
-3
390
F
  0
LAYER
  5
206
100
AcDbSymbolTableRecord
100
AcDbLayerTableRecord
  2
442_1
 70
0
 62
7
  6
CONTINUOUS
370
-3
390
F
  0
LAYER
  5
207
100
AcDbSymbolTableRecord
100
AcDbLayerTableRecord
  2
450
 70
0
 62
7
  6
CONTINUOUS
370
-3
390
F
  0
LAYER
  5
208
100
AcDbSymbolTableRecord
100
AcDbLayerTableRecord
  2
450_1
 70
0
 62
7
  6
CONTINUOUS
370
-3
390
F
  0
LAYER
  5
209
100
AcDbSymbolTableRecord
100
AcDbLayerTableRecord
  2
50350
 70
0
 62
7
  6
CONTINUOUS
370
-3
390
F
  0
LAYER
  5
20A
100
AcDbSymbolTableRecord
100
AcDbLayerTableRecord
  2
50350_1
 70
0
 62
7
  6
CONTINUOUS
370
-3
390
F
  0
LAYER
  5
20B
100
AcDbSymbolTableRecord
100
AcDbLayerTableRecord
  2
50355
 70
0
 62
7
  6
CONTINUOUS
370
-3
390
F
  0
LAYER
  5
20C
100
AcDbSymbolTableRecord
100
AcDbLayerTableRecord
  2
50355_1
 70
0
 62
7
  6
CONTINUOUS
370
-3
390
F
  0
LAYER
  5
20D
100
AcDbSymbolTableRecord
100
AcDbLayerTableRecord
  2
50359
 70
0
 62
7
  6
CONTINUOUS
370
-3
390
F
  0
LAYER
  5
20E
100
AcDbSymbolTableRecord
100
AcDbLayerTableRecord
  2
50359_1
 70
0
 62
7
  6
CONTINUOUS
370
-3
390
F
  0
LAYER
  5
20F
100
AcDbSymbolTableRecord
100
AcDbLayerTableRecord
  2
50558-4
 70
0
 62
7
  6
CONTINUOUS
370
-3
390
F
  0
LAYER
  5
210
100
AcDbSymbolTableRecord
100
AcDbLayerTableRecord
  2
50558-4_1
 70
0
 62
7
  6
CONTINUOUS
370
-3
390
F
  0
LAYER
  5
211
100
AcDbSymbolTableRecord
100
AcDbLayerTableRecord
  2
50663
 70
0
 62
7
  6
CONTINUOUS
370
-3
390
F
  0
LAYER
  5
212
100
AcDbSymbolTableRecord
100
AcDbLayerTableRecord
  2
50663_1
 70
0
 62
7
  6
CONTINUOUS
370
-3
390
F
  0
LAYER
  5
213
100
AcDbSymbolTableRecord
100
AcDbLayerTableRecord
  2
50664
 70
0
 62
7
  6
CONTINUOUS
370
-3
390
F
  0
LAYER
  5
214
100
AcDbSymbolTableRecord
100
AcDbLayerTableRecord
  2
50664_1
 70
0
 62
7
  6
CONTINUOUS
370
-3
390
F
  0
LAYER
  5
215
100
AcDbSymbolTableRecord
100
AcDbLayerTableRecord
  2
50666
 70
0
 62
7
  6
CONTINUOUS
370
-3
390
F
  0
LAYER
  5
216
100
AcDbSymbolTableRecord
100
AcDbLayerTableRecord
  2
50666_1
 70
0
 62
7
  6
CONTINUOUS
370
-3
390
F
  0
LAYER
  5
217
100
AcDbSymbolTableRecord
100
AcDbLayerTableRecord
  2
50675
 70
0
 62
7
  6
CONTINUOUS
370
-3
390
F
  0
LAYER
  5
218
100
AcDbSymbolTableRecord
100
AcDbLayerTableRecord
  2
50675_1
 70
0
 62
7
  6
CONTINUOUS
370
-3
390
F
  0
LAYER
  5
219
100
AcDbSymbolTableRecord
100
AcDbLayerTableRecord
  2
50677
 70
0
 62
7
  6
CONTINUOUS
370
-3
390
F
  0
LAYER
  5
21A
100
AcDbSymbolTableRecord
100
AcDbLayerTableRecord
  2
50677_1
 70
0
 62
7
  6
CONTINUOUS
370
-3
390
F
  0
LAYER
  5
21B
100
AcDbSymbolTableRecord
100
AcDbLayerTableRecord
  2
50680
 70
0
 62
7
  6
CONTINUOUS
370
-3
390
F
  0
LAYER
  5
21C
100
AcDbSymbolTableRecord
100
AcDbLayerTableRecord
  2
50680_1
 70
0
 62
7
  6
CONTINUOUS
370
-3
390
F
  0
LAYER
  5
21D
100
AcDbSymbolTableRecord
100
AcDbLayerTableRecord
  2
50846
 70
0
 62
7
  6
CONTINUOUS
370
-3
390
F
  0
LAYER
  5
21E
100
AcDbSymbolTableRecord
100
AcDbLayerTableRecord
  2
50846_1
 70
0
 62
7
  6
CONTINUOUS
370
-3
390
F
  0
LAYER
  5
21F
100
AcDbSymbolTableRecord
100
AcDbLayerTableRecord
  2
6-401
 70
0
 62
7
  6
CONTINUOUS
370
-3
390
F
  0
LAYER
  5
220
100
AcDbSymbolTableRecord
100
AcDbLayerTableRecord
  2
6-401_1
 70
0
 62
7
  6
CONTINUOUS
370
-3
390
F
  0
LAYER
  5
221
100
AcDbSymbolTableRecord
100
AcDbLayerTableRecord
  2
92073
 70
0
 62
7
  6
CONTINUOUS
370
-3
390
F
  0
LAYER
  5
222
100
AcDbSymbolTableRecord
100
AcDbLayerTableRecord
  2
92073_1
 70
0
 62
7
  6
CONTINUOUS
370
-3
390
F
  0
LAYER
  5
223
100
AcDbSymbolTableRecord
100
AcDbLayerTableRecord
  2
DEFAULT_COORDINATE_SYSTEM
 70
0
 62
7
  6
CONTINUOUS
370
-3
390
F
  0
LAYER
  5
224
100
AcDbSymbolTableRecord
100
AcDbLayerTableRecord
  2
DEFAULT_DATUM_AXES
 70
0
 62
7
  6
CONTINUOUS
370
-3
390
F
  0
LAYER
  5
225
100
AcDbSymbolTableRecord
100
AcDbLayerTableRecord
  2
DEFAULT_DATUM_PLANES
 70
0
 62
7
  6
CONTINUOUS
370
-3
390
F
  0
LAYER
  5
226
100
AcDbSymbolTableRecord
100
AcDbLayerTableRecord
  2
INTF_10182
 70
0
 62
7
  6
CONTINUOUS
370
-3
390
F
  0
LAYER
  5
227
100
AcDbSymbolTableRecord
100
AcDbLayerTableRecord
  2
INTF_442
 70
0
 62
7
  6
CONTINUOUS
370
-3
390
F
  0
LAYER
  5
228
100
AcDbSymbolTableRecord
100
AcDbLayerTableRecord
  2
INTF_50350
 70
0
 62
7
  6
CONTINUOUS
370
-3
390
F
  0
LAYER
  5
229
100
AcDbSymbolTableRecord
100
AcDbLayerTableRecord
  2
INTF_50355
 70
0
 62
7
  6
CONTINUOUS
370
-3
390
F
  0
LAYER
  5
22A
100
AcDbSymbolTableRecord
100
AcDbLayerTableRecord
  2
INTF_50359
 70
0
 62
7
  6
CONTINUOUS
370
-3
390
F
  0
LAYER
  5
22B
100
AcDbSymbolTableRecord
100
AcDbLayerTableRecord
  2
INTF_50663
 70
0
 62
7
  6
CONTINUOUS
370
-3
390
F
  0
LAYER
  5
22C
100
AcDbSymbolTableRecord
100
AcDbLayerTableRecord
  2
INTF_50664
 70
0
 62
7
  6
CONTINUOUS
370
-3
390
F
  0
LAYER
  5
22D
100
AcDbSymbolTableRecord
100
AcDbLayerTableRecord
  2
INTF_50666
 70
0
 62
7
  6
CONTINUOUS
370
-3
390
F
  0
LAYER
  5
22E
100
AcDbSymbolTableRecord
100
AcDbLayerTableRecord
  2
INTF_50675
 70
0
 62
7
  6
CONTINUOUS
370
-3
390
F
  0
LAYER
  5
22F
100
AcDbSymbolTableRecord
100
AcDbLayerTableRecord
  2
INTF_50677
 70
0
 62
7
  6
CONTINUOUS
370
-3
390
F
  0
LAYER
  5
230
100
AcDbSymbolTableRecord
100
AcDbLayerTableRecord
  2
INTF_50680
 70
0
 62
7
  6
CONTINUOUS
370
-3
390
F
  0
LAYER
  5
231
100
AcDbSymbolTableRecord
100
AcDbLayerTableRecord
  2
INTF_50846
 70
0
 62
7
  6
CONTINUOUS
370
-3
390
F
  0
LAYER
  5
232
100
AcDbSymbolTableRecord
100
AcDbLayerTableRecord
  2
INTF_92073
 70
0
 62
7
  6
CONTINUOUS
370
-3
390
F
  0
LAYER
  5
233
100
AcDbSymbolTableRecord
100
AcDbLayerTableRecord
  2
INTF_BLANK
 70
0
 62
7
  6
CONTINUOUS
370
-3
390
F
  0
LAYER
  5
234
100
AcDbSymbolTableRecord
100
AcDbLayerTableRecord
  2
NONE
 70
0
 62
7
  6
CONTINUOUS
370
-3
390
F
  0
LAYER
  5
235
100
AcDbSymbolTableRecord
100
AcDbLayerTableRecord
  2
PLATED_SURFACE
 70
0
 62
7
  6
CONTINUOUS
370
-3
390
F
  0
LAYER
  5
236
100
AcDbSymbolTableRecord
100
AcDbLayerTableRecord
  2
QUILT
 70
0
 62
7
  6
CONTINUOUS
370
-3
390
F
  0
LAYER
  5
237
100
AcDbSymbolTableRecord
100
AcDbLayerTableRecord
  2
WETTED_SURFACES
 70
0
 62
7
  6
CONTINUOUS
370
-3
390
F
  0
LAYER
  5
238
100
AcDbSymbolTableRecord
100
AcDbLayerTableRecord
  2
_BLACK_HOLE
 70
0
 62
7
  6
CONTINUOUS
370
-3
390
F
  0
ENDTAB
  0
TABLE
  2
STYLE
  5
3
100
AcDbSymbolTable
 70
1
  0
STYLE
  5
11
100
AcDbSymbolTableRecord
100
AcDbTextStyleTableRecord
  2
STANDARD
 70
0
 40
0.0
 41
0.8
 50
0.0
 71
0
 42
0.2
  3
txt
  4

  0
STYLE
  5
239
100
AcDbSymbolTableRecord
100
AcDbTextStyleTableRecord
  2
TEXTSTYLE_1
 70
0
 40
0.0
 41
0.8
 50
0.0
 71
0
 42
0.2
  3
gdt
  4

  0
ENDTAB
  0
TABLE
  2
VIEW
  5
6
100
AcDbSymbolTable
 70
0
  0
ENDTAB
  0
TABLE
  2
UCS
  5
7
100
AcDbSymbolTable
 70
0
  0
ENDTAB
  0
TABLE
  2
APPID
  5
9
100
AcDbSymbolTable
 70
1
  0
APPID
  5
23A
100
AcDbSymbolTableRecord
100
AcDbRegAppTableRecord
  2
ACAD
 70
0
  0
ENDTAB
  0
TABLE
  2
BLOCK_RECORD
  5
1
100
AcDbSymbolTable
 70
0
  0
BLOCK_RECORD
  5
23B
100
AcDbSymbolTableRecord
100
AcDbBlockTableRecord
  2
*Model_Space
  0
BLOCK_RECORD
  5
23C
100
AcDbSymbolTableRecord
100
AcDbBlockTableRecord
  2
*Paper_Space
  0
BLOCK_RECORD
  5
23D
100
AcDbSymbolTableRecord
100
AcDbBlockTableRecord
  2
_FILLED
  0
ENDTAB
  0
TABLE
  2
DIMSTYLE
  5
A
100
AcDbSymbolTable
 70
1
100
AcDbDimStyleTable
 71
0
  0
DIMSTYLE
105
23E
100
AcDbSymbolTableRecord
100
AcDbDimStyleTableRecord
  2
STANDARD
 70
0
  3

  4

 40
1.0
 41
0.1
 42
0.0625
 43
0.38
 44
0.125
 45
0.0
 46
0.0
 47
0.001
 48
0.001
140
0.08
141
0.09
142
0.0
143
25.4
144
1.0
145
0.0
146
1.0
147
0.09
 71
1.0
 72
0.0
 73
1
 74
1
 75
0
 76
0
 77
0
 78
4
 79
1
170
1
171
2
172
0
173
0
174
0
175
0
176
0
177
0
178
0
270
2
179
3
271
3
272
3
273
2
274
2
275
0
280
0
281
0
282
0
283
1
284
4
285
0
286
0
287
3
288
0
340
11
278
46
341
23D
342
23D
343
23D
344
23D
  0
ENDTAB
  0
ENDSEC
  0
SECTION
  2
BLOCKS
  0
BLOCK
  5
20
100
AcDbEntity
  8
0
100
AcDbBlockBegin
  2
*Model_Space
 70
0
 10
0.0
 20
0.0
 30
0.0
  3
*Model_Space
  1

  0
ENDBLK
  5
21
100
AcDbEntity
  8
0
100
AcDbBlockEnd
  0
BLOCK
  5
1C
100
AcDbEntity
  8
0
100
AcDbBlockBegin
  2
*Paper_Space
 70
0
 10
0.0
 20
0.0
 30
0.0
  3
*Paper_Space
  1

  0
ENDBLK
  5
1D
100
AcDbEntity
  8
0
100
AcDbBlockEnd
  0
BLOCK
  5
23F
100
AcDbEntity
  8
0
100
AcDbBlockBegin
  2
_FILLED
 70
64
 10
0.0
 20
0.0
  3
_FILLED
  1

  0
SOLID
  5
240
100
AcDbEntity
  8
0
  6
BYBLOCK
 62
0
100
AcDbTrace
 10
0.0
 20
0.0
 11
-1.0
 21
0.2
 12
-1.0
 22
-0.2
 13
-1.0
 23
-0.2
  0
ENDBLK
  5
241
100
AcDbEntity
  8
0
  6
BYBLOCK
 62
0
100
AcDbBlockEnd
  0
ENDSEC
  0
SECTION
  2
ENTITIES
  0
MTEXT
  5
242
100
AcDbEntity
  8
0
100
AcDbMText
 62
7
  6
CONTINUOUS
  7
STANDARD
 71
1
 72
1
 10
7.0546583851
 20
0.3115838509
 30
0.0
 11
1.0
 21
0.0
 31
0.0
 73
2
 44
0.9
  1
SCALE: .50
 40
0.08
 41
0.64
  0
LINE
  5
243
100
AcDbEntity
  8
0
100
AcDbLine
 62
7
  6
CONTINUOUS
 10
0.0
 20
0.0
 11
8.5
 21
0.0
  0
LINE
  5
244
100
AcDbEntity
  8
0
100
AcDbLine
 62
7
  6
CONTINUOUS
 10
0.0
 20
0.0
 11
0.0
 21
11.0
  0
LINE
  5
245
100
AcDbEntity
  8
0
100
AcDbLine
 62
7
  6
CONTINUOUS
 10
8.5
 20
0.0
 11
8.5
 21
11.0
  0
LINE
  5
246
100
AcDbEntity
  8
0
100
AcDbLine
 62
7
  6
CONTINUOUS
 10
0.0
 20
11.0
 11
8.5
 21
11.0
  0
LINE
  5
247
100
AcDbEntity
  8
0
100
AcDbLine
 62
7
  6
CONTINUOUS
 10
5.7442104037
 20
0.8083361801
 11
5.7189121059
 21
0.8083361801
  0
LINE
  5
248
100
AcDbEntity
  8
0
100
AcDbLine
 62
7
  6
CONTINUOUS
 10
2.7442104037
 20
0.8083361801
 11
2.7189121059
 21
0.8083361801
  0
LINE
  5
249
100
AcDbEntity
  8
0
100
AcDbLine
 62
7
  6
CONTINUOUS
 10
2.6828396913
 20
0.8083361801
 11
2.7085070438
 21
0.8083361801
  0
LINE
  5
24A
100
AcDbEntity
  8
0
100
AcDbLine
 62
7
  6
CONTINUOUS
 10
2.7641637637
 20
0.8083361801
 11
2.7898311162
 21
0.8083361801
  0
LINE
  5
24B
100
AcDbEntity
  8
0
100
AcDbLine
 62
7
  6
CONTINUOUS
 10
5.6828396913
 20
0.8083361801
 11
5.7085070438
 21
0.8083361801
  0
LINE
  5
24C
100
AcDbEntity
  8
0
100
AcDbLine
 62
7
  6
CONTINUOUS
 10
5.7641637637
 20
0.8083361801
 11
5.7898311162
 21
0.8083361801
  0
LINE
  5
24D
100
AcDbEntity
  8
0
100
AcDbLine
 62
7
  6
CONTINUOUS
 10
2.7284604037
 20
0.8162111801
 11
2.7442104037
 21
0.8162111801
  0
LINE
  5
24E
100
AcDbEntity
  8
0
100
AcDbLine
 62
7
  6
CONTINUOUS
 10
5.7284604037
 20
0.8162111801
 11
5.7442104037
 21
0.8162111801
  0
LINE
  5
24F
100
AcDbEntity
  8
0
100
AcDbLine
 62
7
  6
CONTINUOUS
 10
5.7898311162
 20
0.8240861801
 11
5.7641637637
 21
0.8240861801
  0
LINE
  5
250
100
AcDbEntity
  8
0
100
AcDbLine
 62
7
  6
CONTINUOUS
 10
5.7442104037
 20
0.8240861801
 11
5.7189121061
 21
0.8240861801
  0
LINE
  5
251
100
AcDbEntity
  8
0
100
AcDbLine
 62
7
  6
CONTINUOUS
 10
5.7085070438
 20
0.8240861801
 11
5.6828396913
 21
0.8240861801
  0
LINE
  5
252
100
AcDbEntity
  8
0
100
AcDbLine
 62
7
  6
CONTINUOUS
 10
2.7898311162
 20
0.8240861801
 11
2.7641637637
 21
0.8240861801
  0
LINE
  5
253
100
AcDbEntity
  8
0
100
AcDbLine
 62
7
  6
CONTINUOUS
 10
2.7442104037
 20
0.8240861801
 11
2.7189121061
 21
0.8240861801
  0
LINE
  5
254
100
AcDbEntity
  8
0
100
AcDbLine
 62
7
  6
CONTINUOUS
 10
2.7085070438
 20
0.8240861801
 11
2.6828396913
 21
0.8240861801
  0
LINE
  5
255
100
AcDbEntity
  8
0
100
AcDbLine
 62
9
  6
CONTINUOUS
 10
2.8504042528
 20
0.377948894
 11
2.8479971438
 21
0.3799256055
  0
LINE
  5
256
100
AcDbEntity
  8
0
100
AcDbLine
 62
9
  6
CONTINUOUS
 10
2.6246736653
 20
1.2524967562
 11
2.6222665546
 21
1.2544734663
  0
LINE
  5
257
100
AcDbEntity
  8
0
100
AcDbLine
 62
7
  6
CONTINUOUS
 10
2.7284604037
 20
0.8240861801
 11
2.7442104037
 21
0.8083361801
  0
LINE
  5
258
100
AcDbEntity
  8
0
100
AcDbLine
 62
9
  6
CONTINUOUS
 10
2.598255312
 20
0.4143906764
 11
2.6246746872
 21
0.3799243541
  0
LINE
  5
259
100
AcDbEntity
  8
0
100
AcDbLine
 62
7
  6
CONTINUOUS
 10
5.8925854038
 20
1.3567111801
 11
5.5800854037
 21
1.3567111801
  0
LINE
  5
25A
100
AcDbEntity
  8
0
100
AcDbLine
 62
7
  6
CONTINUOUS
 10
2.8925854038
 20
1.3567111801
 11
2.5800854037
 21
1.3567111801
  0
LINE
  5
25B
100
AcDbEntity
  8
0
100
AcDbLine
 62
9
  6
CONTINUOUS
 10
2.8744154963
 20
1.2180316826
 11
2.8479961207
 21
1.2524980057
  0
LINE
  5
25C
100
AcDbEntity
  8
0
100
AcDbLine
 62
9
  6
CONTINUOUS
 10
5.8504042528
 20
0.377948894
 11
5.8479971438
 21
0.3799256055
  0
LINE
  5
25D
100
AcDbEntity
  8
0
100
AcDbLine
 62
9
  6
CONTINUOUS
 10
5.6246736653
 20
1.2524967562
 11
5.6222665546
 21
1.2544734663
  0
LINE
  5
25E
100
AcDbEntity
  8
0
100
AcDbLine
 62
7
  6
CONTINUOUS
 10
5.7284604037
 20
0.8240861801
 11
5.7442104037
 21
0.8083361801
  0
LINE
  5
25F
100
AcDbEntity
  8
0
100
AcDbLine
 62
9
  6
CONTINUOUS
 10
5.5982553121
 20
0.4143906764
 11
5.6246746872
 21
0.3799243541
  0
LINE
  5
260
100
AcDbEntity
  8
0
100
AcDbLine
 62
7
  6
CONTINUOUS
 10
2.4921603936
 20
10.7071328336
 11
2.4921603936
 21
10.5402895266
  0
LINE
  5
261
100
AcDbEntity
  8
0
100
AcDbLine
 62
7
  6
CONTINUOUS
 10
2.5195854037
 20
10.7262111801
 11
2.5195854037
 21
10.7712111801
  0
LINE
  5
262
100
AcDbEntity
  8
0
100
AcDbLine
 62
7
  6
CONTINUOUS
 10
2.5800854037
 20
1.1965879333
 11
2.5800854037
 21
1.3567111801
  0
LINE
  5
263
100
AcDbEntity
  8
0
100
AcDbLine
 62
7
  6
CONTINUOUS
 10
2.6016242997
 20
10.5402895266
 11
2.6016242997
 21
10.7071328336
  0
LINE
  5
264
100
AcDbEntity
  8
0
100
AcDbLine
 62
7
  6
CONTINUOUS
 10
2.6150854037
 20
10.5212111801
 11
2.6150854037
 21
10.4897111801
  0
LINE
  5
265
100
AcDbEntity
  8
0
100
AcDbLine
 62
7
  6
CONTINUOUS
 10
2.6268714976
 20
10.7071328336
 11
2.6268714976
 21
10.5402895266
  0
LINE
  5
266
100
AcDbEntity
  8
0
100
AcDbLine
 62
7
  6
CONTINUOUS
 10
2.6425854037
 20
10.4897111801
 11
2.6425854037
 21
1.3567111801
  0
LINE
  5
267
100
AcDbEntity
  8
0
100
AcDbLine
 62
7
  6
CONTINUOUS
 10
2.7284604037
 20
0.8697068926
 11
2.7284604037
 21
0.8440395401
  0
LINE
  5
268
100
AcDbEntity
  8
0
100
AcDbLine
 62
7
  6
CONTINUOUS
 10
2.7284604037
 20
0.836361357
 11
2.7284604037
 21
0.7987878825
  0
LINE
  5
269
100
AcDbEntity
  8
0
100
AcDbLine
 62
7
  6
CONTINUOUS
 10
2.7284604037
 20
0.7883828202
 11
2.7284604037
 21
0.7627154677
  0
LINE
  5
26A
100
AcDbEntity
  8
0
100
AcDbLine
 62
7
  6
CONTINUOUS
 10
2.7363354037
 20
0.8949611801
 11
2.7363354037
 21
0.8917315266
  0
LINE
  5
26B
100
AcDbEntity
  8
0
100
AcDbLine
 62
7
  6
CONTINUOUS
 10
2.7363354037
 20
0.8240861801
 11
2.7363354037
 21
0.8083361801
  0
LINE
  5
26C
100
AcDbEntity
  8
0
100
AcDbLine
 62
7
  6
CONTINUOUS
 10
2.7363354037
 20
0.7406908336
 11
2.7363354037
 21
0.7374611801
  0
LINE
  5
26D
100
AcDbEntity
  8
0
100
AcDbLine
 62
7
  6
CONTINUOUS
 10
2.7363354037
 20
1.3084606745
 11
2.7363354037
 21
1.332539221
  0
LINE
  5
26E
100
AcDbEntity
  8
0
100
AcDbLine
 62
7
  6
CONTINUOUS
 10
2.7442104037
 20
0.8697068926
 11
2.7442104037
 21
0.8440395401
  0
LINE
  5
26F
100
AcDbEntity
  8
0
100
AcDbLine
 62
7
  6
CONTINUOUS
 10
2.7442104037
 20
0.8363613568
 11
2.7442104037
 21
0.7987878823
  0
LINE
  5
270
100
AcDbEntity
  8
0
100
AcDbLine
 62
7
  6
CONTINUOUS
 10
2.7442104037
 20
0.7883828202
 11
2.7442104037
 21
0.7627154677
  0
LINE
  5
271
100
AcDbEntity
  8
0
100
AcDbLine
 62
7
  6
CONTINUOUS
 10
2.8300854037
 20
10.4897111801
 11
2.8300854037
 21
1.3567111801
  0
LINE
  5
272
100
AcDbEntity
  8
0
100
AcDbLine
 62
7
  6
CONTINUOUS
 10
2.8457993099
 20
10.5402895266
 11
2.8457993099
 21
10.7071328336
  0
LINE
  5
273
100
AcDbEntity
  8
0
100
AcDbLine
 62
7
  6
CONTINUOUS
 10
2.8575854037
 20
10.5212111801
 11
2.8575854037
 21
10.4897111801
  0
LINE
  5
274
100
AcDbEntity
  8
0
100
AcDbLine
 62
7
  6
CONTINUOUS
 10
2.8710465077
 20
10.7071328336
 11
2.8710465077
 21
10.5402895266
  0
LINE
  5
275
100
AcDbEntity
  8
0
100
AcDbLine
 62
7
  6
CONTINUOUS
 10
2.8925854037
 20
1.1965854237
 11
2.8925854037
 21
1.3567111801
  0
LINE
  5
276
100
AcDbEntity
  8
0
100
AcDbLine
 62
7
  6
CONTINUOUS
 10
2.9530854037
 20
10.7712111801
 11
2.9530854037
 21
10.7262111801
  0
LINE
  5
277
100
AcDbEntity
  8
0
100
AcDbLine
 62
7
  6
CONTINUOUS
 10
2.9805104139
 20
10.5402895266
 11
2.9805104139
 21
10.7071328336
  0
LINE
  5
278
100
AcDbEntity
  8
0
100
AcDbLine
 62
9
  6
CONTINUOUS
 10
5.8744154963
 20
1.2180316826
 11
5.8479961207
 21
1.2524980057
  0
LINE
  5
279
100
AcDbEntity
  8
0
100
AcDbLine
 62
7
  6
CONTINUOUS
 10
5.4921603936
 20
10.7071328336
 11
5.4921603936
 21
10.5402895266
  0
LINE
  5
27A
100
AcDbEntity
  8
0
100
AcDbLine
 62
7
  6
CONTINUOUS
 10
5.5195854037
 20
10.7262111801
 11
5.5195854037
 21
10.7712111801
  0
LINE
  5
27B
100
AcDbEntity
  8
0
100
AcDbLine
 62
7
  6
CONTINUOUS
 10
5.5800854037
 20
1.1965879333
 11
5.5800854037
 21
1.3567111801
  0
LINE
  5
27C
100
AcDbEntity
  8
0
100
AcDbLine
 62
7
  6
CONTINUOUS
 10
5.6016242997
 20
10.5402895266
 11
5.6016242997
 21
10.7071328336
  0
LINE
  5
27D
100
AcDbEntity
  8
0
100
AcDbLine
 62
7
  6
CONTINUOUS
 10
5.6150854037
 20
10.5212111801
 11
5.6150854037
 21
10.4897111801
  0
LINE
  5
27E
100
AcDbEntity
  8
0
100
AcDbLine
 62
7
  6
CONTINUOUS
 10
5.6268714976
 20
10.7071328336
 11
5.6268714976
 21
10.5402895266
  0
LINE
  5
27F
100
AcDbEntity
  8
0
100
AcDbLine
 62
7
  6
CONTINUOUS
 10
5.6425854037
 20
10.4897111801
 11
5.6425854037
 21
1.3567111801
  0
LINE
  5
280
100
AcDbEntity
  8
0
100
AcDbLine
 62
7
  6
CONTINUOUS
 10
5.7284604037
 20
0.8697068926
 11
5.7284604037
 21
0.8440395401
  0
LINE
  5
281
100
AcDbEntity
  8
0
100
AcDbLine
 62
7
  6
CONTINUOUS
 10
5.7284604037
 20
0.836361357
 11
5.7284604037
 21
0.7987878825
  0
LINE
  5
282
100
AcDbEntity
  8
0
100
AcDbLine
 62
7
  6
CONTINUOUS
 10
5.7284604037
 20
0.7883828202
 11
5.7284604037
 21
0.7627154677
  0
LINE
  5
283
100
AcDbEntity
  8
0
100
AcDbLine
 62
7
  6
CONTINUOUS
 10
5.7363354037
 20
0.8949611801
 11
5.7363354037
 21
0.8917315266
  0
LINE
  5
284
100
AcDbEntity
  8
0
100
AcDbLine
 62
7
  6
CONTINUOUS
 10
5.7363354037
 20
0.8240861801
 11
5.7363354037
 21
0.8083361801
  0
LINE
  5
285
100
AcDbEntity
  8
0
100
AcDbLine
 62
7
  6
CONTINUOUS
 10
5.7363354037
 20
0.7406908336
 11
5.7363354037
 21
0.7374611801
  0
LINE
  5
286
100
AcDbEntity
  8
0
100
AcDbLine
 62
7
  6
CONTINUOUS
 10
5.7363354037
 20
1.3084606745
 11
5.7363354037
 21
1.332539221
  0
LINE
  5
287
100
AcDbEntity
  8
0
100
AcDbLine
 62
7
  6
CONTINUOUS
 10
5.7442104037
 20
0.8697068926
 11
5.7442104037
 21
0.8440395401
  0
LINE
  5
288
100
AcDbEntity
  8
0
100
AcDbLine
 62
7
  6
CONTINUOUS
 10
5.7442104037
 20
0.8363613568
 11
5.7442104037
 21
0.7987878823
  0
LINE
  5
289
100
AcDbEntity
  8
0
100
AcDbLine
 62
7
  6
CONTINUOUS
 10
5.7442104037
 20
0.7883828202
 11
5.7442104037
 21
0.7627154677
  0
LINE
  5
28A
100
AcDbEntity
  8
0
100
AcDbLine
 62
9
  6
CONTINUOUS
 10
2.624673665
 20
1.2524967564
 11
2.5982553762
 21
1.2180317813
  0
LINE
  5
28B
100
AcDbEntity
  8
0
100
AcDbLine
 62
7
  6
CONTINUOUS
 10
5.8300854037
 20
10.4897111801
 11
5.8300854037
 21
1.3567111801
  0
LINE
  5
28C
100
AcDbEntity
  8
0
100
AcDbLine
 62
7
  6
CONTINUOUS
 10
5.8457993099
 20
10.5402895266
 11
5.8457993099
 21
10.7071328336
  0
LINE
  5
28D
100
AcDbEntity
  8
0
100
AcDbLine
 62
7
  6
CONTINUOUS
 10
5.8575854037
 20
10.5212111801
 11
5.8575854037
 21
10.4897111801
  0
LINE
  5
28E
100
AcDbEntity
  8
0
100
AcDbLine
 62
7
  6
CONTINUOUS
 10
5.8710465077
 20
10.7071328336
 11
5.8710465077
 21
10.5402895266
  0
LINE
  5
28F
100
AcDbEntity
  8
0
100
AcDbLine
 62
7
  6
CONTINUOUS
 10
5.8925854037
 20
1.1965854237
 11
5.8925854037
 21
1.3567111801
  0
LINE
  5
290
100
AcDbEntity
  8
0
100
AcDbLine
 62
7
  6
CONTINUOUS
 10
5.9530854037
 20
10.7712111801
 11
5.9530854037
 21
10.7262111801
  0
LINE
  5
291
100
AcDbEntity
  8
0
100
AcDbLine
 62
7
  6
CONTINUOUS
 10
5.9805104139
 20
10.5402895266
 11
5.9805104139
 21
10.7071328336
  0
LINE
  5
292
100
AcDbEntity
  8
0
100
AcDbLine
 62
9
  6
CONTINUOUS
 10
2.8479971438
 20
0.3799256055
 11
2.8744154294
 21
0.4143905764
  0
LINE
  5
293
100
AcDbEntity
  8
0
100
AcDbLine
 62
7
  6
CONTINUOUS
 10
2.7284604037
 20
0.8083361801
 11
2.7442104037
 21
0.8240861801
  0
LINE
  5
294
100
AcDbEntity
  8
0
100
AcDbLine
 62
9
  6
CONTINUOUS
 10
2.8504042528
 20
1.2544734663
 11
2.8479961205
 21
1.2524980056
  0
LINE
  5
295
100
AcDbEntity
  8
0
100
AcDbLine
 62
9
  6
CONTINUOUS
 10
2.6222665546
 20
0.377948894
 11
2.6246746873
 21
0.3799243542
  0
LINE
  5
296
100
AcDbEntity
  8
0
100
AcDbLine
 62
9
  6
CONTINUOUS
 10
5.624673665
 20
1.2524967564
 11
5.5982553766
 21
1.2180317814
  0
LINE
  5
297
100
AcDbEntity
  8
0
100
AcDbLine
 62
9
  6
CONTINUOUS
 10
5.8479971438
 20
0.3799256055
 11
5.8744154291
 21
0.4143905764
  0
LINE
  5
298
100
AcDbEntity
  8
0
100
AcDbLine
 62
7
  6
CONTINUOUS
 10
5.7284604037
 20
0.8083361801
 11
5.7442104037
 21
0.8240861801
  0
LINE
  5
299
100
AcDbEntity
  8
0
100
AcDbLine
 62
9
  6
CONTINUOUS
 10
5.8479961207
 20
1.2524980057
 11
5.8504042528
 21
1.2544734663
  0
LINE
  5
29A
100
AcDbEntity
  8
0
100
AcDbLine
 62
9
  6
CONTINUOUS
 10
5.6222665546
 20
0.377948894
 11
5.6246746873
 21
0.3799243542
  0
LINE
  5
29B
100
AcDbEntity
  8
0
100
AcDbLine
 62
7
  6
CONTINUOUS
 10
5.8575854036
 20
10.4897111801
 11
5.6150854038
 21
10.4897111801
  0
LINE
  5
29C
100
AcDbEntity
  8
0
100
AcDbLine
 62
7
  6
CONTINUOUS
 10
2.8575854036
 20
10.4897111801
 11
2.6150854038
 21
10.4897111801
  0
LINE
  5
29D
100
AcDbEntity
  8
0
100
AcDbLine
 62
7
  6
CONTINUOUS
 10
2.5195854037
 20
10.5212111801
 11
2.9530854037
 21
10.5212111801
  0
LINE
  5
29E
100
AcDbEntity
  8
0
100
AcDbLine
 62
7
  6
CONTINUOUS
 10
5.5195854037
 20
10.5212111801
 11
5.9530854037
 21
10.5212111801
  0
LINE
  5
29F
100
AcDbEntity
  8
0
100
AcDbLine
 62
7
  6
CONTINUOUS
 10
2.6016242997
 20
10.5402895266
 11
2.6268714976
 21
10.5402895266
  0
LINE
  5
2A0
100
AcDbEntity
  8
0
100
AcDbLine
 62
7
  6
CONTINUOUS
 10
2.8457993099
 20
10.5402895266
 11
2.8710465077
 21
10.5402895266
  0
LINE
  5
2A1
100
AcDbEntity
  8
0
100
AcDbLine
 62
7
  6
CONTINUOUS
 10
5.6016242997
 20
10.5402895266
 11
5.6268714976
 21
10.5402895266
  0
LINE
  5
2A2
100
AcDbEntity
  8
0
100
AcDbLine
 62
7
  6
CONTINUOUS
 10
5.8457993099
 20
10.5402895266
 11
5.8710465077
 21
10.5402895266
  0
LINE
  5
2A3
100
AcDbEntity
  8
0
100
AcDbLine
 62
7
  6
CONTINUOUS
 10
5.8710465077
 20
10.7071328336
 11
5.8457993099
 21
10.7071328336
  0
LINE
  5
2A4
100
AcDbEntity
  8
0
100
AcDbLine
 62
7
  6
CONTINUOUS
 10
5.6268714976
 20
10.7071328336
 11
5.6016242997
 21
10.7071328336
  0
LINE
  5
2A5
100
AcDbEntity
  8
0
100
AcDbLine
 62
7
  6
CONTINUOUS
 10
2.8710465077
 20
10.7071328336
 11
2.8457993099
 21
10.7071328336
  0
LINE
  5
2A6
100
AcDbEntity
  8
0
100
AcDbLine
 62
7
  6
CONTINUOUS
 10
2.6268714976
 20
10.7071328336
 11
2.6016242997
 21
10.7071328336
  0
LINE
  5
2A7
100
AcDbEntity
  8
0
100
AcDbLine
 62
7
  6
CONTINUOUS
 10
2.5195854037
 20
10.7262111801
 11
2.9530854037
 21
10.7262111801
  0
LINE
  5
2A8
100
AcDbEntity
  8
0
100
AcDbLine
 62
7
  6
CONTINUOUS
 10
5.5195854037
 20
10.7262111801
 11
5.9530854037
 21
10.7262111801
  0
LINE
  5
2A9
100
AcDbEntity
  8
0
100
AcDbLine
 62
7
  6
CONTINUOUS
 10
2.5195854037
 20
10.7712111801
 11
2.9530854037
 21
10.7712111801
  0
LINE
  5
2AA
100
AcDbEntity
  8
0
100
AcDbLine
 62
7
  6
CONTINUOUS
 10
5.5195854037
 20
10.7712111801
 11
5.9530854037
 21
10.7712111801
  0
ARC
  5
2AB
100
AcDbEntity
  8
0
100
AcDbCircle
 62
9
  6
CONTINUOUS
 10
2.3139338433
 20
0.8103134534
 40
0.677157126
100
AcDbArc
 50
35.9018283949
 51
39.7084579254
  0
ARC
  5
2AC
100
AcDbEntity
  8
0
100
AcDbCircle
 62
7
  6
CONTINUOUS
 10
2.7363343808
 20
0.6583385956
 40
0.2115149084
100
AcDbArc
 50
89.9997228933
 51
92.1334189671
  0
ARC
  5
2AD
100
AcDbEntity
  8
0
100
AcDbCircle
 62
7
  6
CONTINUOUS
 10
2.5784628192
 20
0.8162101571
 40
0.2115149084
100
AcDbArc
 50
357.8665810329
 51
0.0002771067
  0
ARC
  5
2AE
100
AcDbEntity
  8
0
100
AcDbCircle
 62
7
  6
CONTINUOUS
 10
2.7082793987
 20
0.7882885509
 40
0.0201836653
100
AcDbArc
 50
10.6039232183
 51
29.8998986536
  0
ARC
  5
2AF
100
AcDbEntity
  8
0
100
AcDbCircle
 62
7
  6
CONTINUOUS
 10
2.3157999068
 20
0.8162111801
 40
0.691285497
100
AcDbArc
 50
320.6555074171
 51
39.3444925829
  0
ARC
  5
2B0
100
AcDbEntity
  8
0
100
AcDbCircle
 62
7
  6
CONTINUOUS
 10
2.3159271224
 20
0.8162111844
 40
0.6879863211
100
AcDbArc
 50
324.2652479485
 51
35.7347410729
  0
ARC
  5
2B1
100
AcDbEntity
  8
0
100
AcDbCircle
 62
9
  6
CONTINUOUS
 10
2.3139040039
 20
0.8221316046
 40
0.6771945695
100
AcDbArc
 50
320.2916776554
 51
324.0973768723
  0
ARC
  5
2B2
100
AcDbEntity
  8
0
100
AcDbCircle
 62
7
  6
CONTINUOUS
 10
2.5784078208
 20
0.8162111801
 40
0.2115699068
100
AcDbArc
 50
357.866858652
 51
2.133141348
  0
ARC
  5
2B3
100
AcDbEntity
  8
0
100
AcDbCircle
 62
7
  6
CONTINUOUS
 10
2.7363314422
 20
0.9739768965
 40
0.211408005
100
AcDbArc
 50
267.8662986879
 51
270.0000242742
  0
ARC
  5
2B4
100
AcDbEntity
  8
0
100
AcDbCircle
 62
7
  6
CONTINUOUS
 10
2.7084127631
 20
0.8442672465
 40
0.02018372
100
AcDbArc
 50
280.610737005
 51
299.9063805044
  0
ARC
  5
2B5
100
AcDbEntity
  8
0
100
AcDbCircle
 62
7
  6
CONTINUOUS
 10
3.1566940698
 20
0.8162111755
 40
0.6879397438
100
AcDbArc
 50
144.262834897
 51
215.7371544706
  0
ARC
  5
2B6
100
AcDbEntity
  8
0
100
AcDbCircle
 62
9
  6
CONTINUOUS
 10
3.1587666973
 20
0.8102908638
 40
0.6771944187
100
AcDbArc
 50
140.2916789545
 51
144.0973706399
  0
ARC
  5
2B7
100
AcDbEntity
  8
0
100
AcDbCircle
 62
7
  6
CONTINUOUS
 10
2.7363354037
 20
0.6582835972
 40
0.2115699068
100
AcDbArc
 50
87.866858652
 51
92.133141348
  0
ARC
  5
2B8
100
AcDbEntity
  8
0
100
AcDbCircle
 62
7
  6
CONTINUOUS
 10
2.7363354037
 20
0.4714611801
 40
0.1475
100
AcDbArc
 50
219.3444925829
 51
320.6555074171
  0
ARC
  5
2B9
100
AcDbEntity
  8
0
100
AcDbCircle
 62
9
  6
CONTINUOUS
 10
2.7363354034
 20
0.4712761892
 40
0.1442703796
100
AcDbArc
 50
219.2872759191
 51
320.7133663071
  0
ARC
  5
2BA
100
AcDbEntity
  8
0
100
AcDbCircle
 62
7
  6
CONTINUOUS
 10
2.7642580443
 20
0.7881551137
 40
0.02018372
100
AcDbArc
 50
100.6107370051
 51
119.9063805042
  0
ARC
  5
2BB
100
AcDbEntity
  8
0
100
AcDbCircle
 62
7
  6
CONTINUOUS
 10
2.7363354037
 20
0.8162111801
 40
0.625
100
AcDbArc
 50
98.6273985978
 51
81.3726021578
  0
ARC
  5
2BC
100
AcDbEntity
  8
0
100
AcDbCircle
 62
9
  6
CONTINUOUS
 10
2.7363354037
 20
0.8162111801
 40
0.6134529946
100
AcDbArc
 50
98.7919694809
 51
81.2080305191
  0
ARC
  5
2BD
100
AcDbEntity
  8
0
100
AcDbCircle
 62
9
  6
CONTINUOUS
 10
2.7363354037
 20
0.8162111801
 40
0.5107212031
100
AcDbArc
 50
107.8214255743
 51
72.1785744257
  0
ARC
  5
2BE
100
AcDbEntity
  8
0
100
AcDbCircle
 62
9
  6
CONTINUOUS
 10
2.7363354037
 20
0.8162111801
 40
0.293413372
100
AcDbArc
 50
150.4172388725
 51
209.5824530913
  0
ARC
  5
2BF
100
AcDbEntity
  8
0
100
AcDbCircle
 62
9
  6
CONTINUOUS
 10
2.7363354037
 20
0.8162111801
 40
0.293413372
100
AcDbArc
 50
330.4172388723
 51
29.5824530913
  0
CIRCLE
  5
2C0
100
AcDbEntity
  8
0
100
AcDbCircle
 62
7
  6
CONTINUOUS
 10
2.7363354037
 20
0.8162111801
 40
0.0825
  0
CIRCLE
  5
2C1
100
AcDbEntity
  8
0
100
AcDbCircle
 62
7
  6
CONTINUOUS
 10
2.7363354037
 20
0.8162111801
 40
0.07875
  0
CIRCLE
  5
2C2
100
AcDbEntity
  8
0
100
AcDbCircle
 62
9
  6
CONTINUOUS
 10
2.7363354037
 20
0.8162111801
 40
0.0755203465
  0
ARC
  5
2C3
100
AcDbEntity
  8
0
100
AcDbCircle
 62
7
  6
CONTINUOUS
 10
2.7643914088
 20
0.8441338093
 40
0.0201836653
100
AcDbArc
 50
190.6039232188
 51
209.8998986538
  0
ARC
  5
2C4
100
AcDbEntity
  8
0
100
AcDbCircle
 62
7
  6
CONTINUOUS
 10
2.7363354037
 20
0.974138763
 40
0.2115699068
100
AcDbArc
 50
267.866858652
 51
272.133141348
  0
ARC
  5
2C5
100
AcDbEntity
  8
0
100
AcDbCircle
 62
7
  6
CONTINUOUS
 10
2.8942629866
 20
0.8162111801
 40
0.2115699068
100
AcDbArc
 50
177.866858652
 51
182.133141348
  0
ARC
  5
2C6
100
AcDbEntity
  8
0
100
AcDbCircle
 62
7
  6
CONTINUOUS
 10
2.7363354037
 20
1.1609611801
 40
0.1475
100
AcDbArc
 50
39.3444925829
 51
140.6555074171
  0
ARC
  5
2C7
100
AcDbEntity
  8
0
100
AcDbCircle
 62
9
  6
CONTINUOUS
 10
2.736335404
 20
1.1611461703
 40
0.1442703796
100
AcDbArc
 50
39.2872759157
 51
140.7133651972
  0
ARC
  5
2C8
100
AcDbEntity
  8
0
100
AcDbCircle
 62
7
  6
CONTINUOUS
 10
3.1568709007
 20
0.8162111801
 40
0.691285497
100
AcDbArc
 50
140.6555074171
 51
219.3444925829
  0
ARC
  5
2C9
100
AcDbEntity
  8
0
100
AcDbCircle
 62
7
  6
CONTINUOUS
 10
3.1567273626
 20
0.8162111827
 40
0.6879719321
100
AcDbArc
 50
144.2649415776
 51
215.735049053
  0
ARC
  5
2CA
100
AcDbEntity
  8
0
100
AcDbCircle
 62
9
  6
CONTINUOUS
 10
3.1587369771
 20
0.822108924
 40
0.6771571469
100
AcDbArc
 50
215.9018254395
 51
219.7084583441
  0
ARC
  5
2CB
100
AcDbEntity
  8
0
100
AcDbCircle
 62
7
  6
CONTINUOUS
 10
2.7347867001
 20
10.3802523853
 40
0.3447176777
100
AcDbArc
 50
96.2358824596
 51
96.7856497794
  0
ARC
  5
2CC
100
AcDbEntity
  8
0
100
AcDbCircle
 62
7
  6
CONTINUOUS
 10
2.7339554313
 20
10.3868591197
 40
0.3380590067
100
AcDbArc
 50
96.77805257
 51
99.6347971242
  0
ARC
  5
2CD
100
AcDbEntity
  8
0
100
AcDbCircle
 62
7
  6
CONTINUOUS
 10
2.7316490417
 20
10.400462371
 40
0.3242616204
100
AcDbArc
 50
99.6353070144
 51
101.8246427926
  0
ARC
  5
2CE
100
AcDbEntity
  8
0
100
AcDbCircle
 62
7
  6
CONTINUOUS
 10
2.7294702377
 20
10.4110197346
 40
0.3134818184
100
AcDbArc
 50
101.8302749845
 51
103.0385694326
  0
ARC
  5
2CF
100
AcDbEntity
  8
0
100
AcDbCircle
 62
7
  6
CONTINUOUS
 10
2.726750421
 20
10.4225423281
 40
0.3016426904
100
AcDbArc
 50
103.02904958
 51
105.7628438357
  0
ARC
  5
2D0
100
AcDbEntity
  8
0
100
AcDbCircle
 62
7
  6
CONTINUOUS
 10
2.7217834608
 20
10.4399657135
 40
0.2835252209
100
AcDbArc
 50
105.7533451124
 51
109.5577428113
  0
ARC
  5
2D1
100
AcDbEntity
  8
0
100
AcDbCircle
 62
7
  6
CONTINUOUS
 10
2.6395072533
 20
10.5212111801
 40
0.2375
100
AcDbArc
 50
120.3269780968
 51
128.479759946
  0
ARC
  5
2D2
100
AcDbEntity
  8
0
100
AcDbCircle
 62
7
  6
CONTINUOUS
 10
2.6395072533
 20
10.7262111801
 40
0.2375
100
AcDbArc
 50
232.4261047039
 51
239.6730219033
  0
ARC
  5
2D3
100
AcDbEntity
  8
0
100
AcDbCircle
 62
7
  6
CONTINUOUS
 10
2.5420450905
 20
10.6234371948
 40
0.102735788
100
AcDbArc
 50
54.5546245592
 51
60.4887650058
  0
ARC
  5
2D4
100
AcDbEntity
  8
0
100
AcDbCircle
 62
7
  6
CONTINUOUS
 10
2.5511471239
 20
10.6243679935
 40
0.1016339172
100
AcDbArc
 50
119.4792516849
 51
125.4775771268
  0
ARC
  5
2D5
100
AcDbEntity
  8
0
100
AcDbCircle
 62
7
  6
CONTINUOUS
 10
2.5446205903
 20
10.6278478079
 40
0.0976287595
100
AcDbArc
 50
60.5290889381
 51
65.119806642
  0
ARC
  5
2D6
100
AcDbEntity
  8
0
100
AcDbCircle
 62
7
  6
CONTINUOUS
 10
2.5489131101
 20
10.6283367266
 40
0.0970796237
100
AcDbArc
 50
114.8666747216
 51
119.4841277584
  0
ARC
  5
2D7
100
AcDbEntity
  8
0
100
AcDbCircle
 62
7
  6
CONTINUOUS
 10
2.5482548707
 20
10.6297354262
 40
0.0955338047
100
AcDbArc
 50
113.7121134399
 51
114.8612478591
  0
ARC
  5
2D8
100
AcDbEntity
  8
0
100
AcDbCircle
 62
7
  6
CONTINUOUS
 10
2.545597285
 20
10.6298827293
 40
0.0953717877
100
AcDbArc
 50
65.1377757558
 51
67.2679941171
  0
ARC
  5
2D9
100
AcDbEntity
  8
0
100
AcDbCircle
 62
7
  6
CONTINUOUS
 10
2.5480410196
 20
10.6302213219
 40
0.0950029311
100
AcDbArc
 50
112.7297603187
 51
113.7118730953
  0
ARC
  5
2DA
100
AcDbEntity
  8
0
100
AcDbCircle
 62
7
  6
CONTINUOUS
 10
2.5460661236
 20
10.6310000205
 40
0.0941601158
100
AcDbArc
 50
67.2684049663
 51
71.223260909
  0
ARC
  5
2DB
100
AcDbEntity
  8
0
100
AcDbCircle
 62
7
  6
CONTINUOUS
 10
2.5476435057
 20
10.6311981326
 40
0.0939483891
100
AcDbArc
 50
108.7722021914
 51
112.7363366251
  0
ARC
  5
2DC
100
AcDbEntity
  8
0
100
AcDbCircle
 62
7
  6
CONTINUOUS
 10
2.5466075451
 20
10.6318941024
 40
0.0931595841
100
AcDbArc
 50
69.804454154
 51
85.6757137966
  0
ARC
  5
2DD
100
AcDbEntity
  8
0
100
AcDbCircle
 62
7
  6
CONTINUOUS
 10
2.5471511373
 20
10.6322669327
 40
0.0927858513
100
AcDbArc
 50
94.3257697344
 51
102.4334584653
  0
ARC
  5
2DE
100
AcDbEntity
  8
0
100
AcDbCircle
 62
7
  6
CONTINUOUS
 10
2.5465551403
 20
10.6324342921
 40
0.0926447708
100
AcDbArc
 50
71.224080919
 51
76.6001766532
  0
ARC
  5
2DF
100
AcDbEntity
  8
0
100
AcDbCircle
 62
7
  6
CONTINUOUS
 10
2.5471140586
 20
10.6328347536
 40
0.0922284514
100
AcDbArc
 50
103.3876053406
 51
108.7879764519
  0
ARC
  5
2E0
100
AcDbEntity
  8
0
100
AcDbCircle
 62
7
  6
CONTINUOUS
 10
2.546822599
 20
10.6134010785
 40
0.0910067678
100
AcDbArc
 50
258.1500355262
 51
270.0440815596
  0
ARC
  5
2E1
100
AcDbEntity
  8
0
100
AcDbCircle
 62
7
  6
CONTINUOUS
 10
2.5469634692
 20
10.6340357388
 40
0.0909923116
100
AcDbArc
 50
76.6173923979
 51
103.3825284576
  0
ARC
  5
2E2
100
AcDbEntity
  8
0
100
AcDbCircle
 62
7
  6
CONTINUOUS
 10
2.5468923653
 20
10.6348167128
 40
0.0902238403
100
AcDbArc
 50
85.7161280984
 51
94.284039958
  0
ARC
  5
2E3
100
AcDbEntity
  8
0
100
AcDbCircle
 62
7
  6
CONTINUOUS
 10
2.7363354088
 20
10.3615607864
 40
0.363467236
100
AcDbArc
 50
83.8414887205
 51
96.1585186708
  0
ARC
  5
2E4
100
AcDbEntity
  8
0
100
AcDbCircle
 62
7
  6
CONTINUOUS
 10
2.7378841147
 20
10.3802524692
 40
0.3447175945
100
AcDbArc
 50
83.2143223929
 51
83.7641233663
  0
ARC
  5
2E5
100
AcDbEntity
  8
0
100
AcDbCircle
 62
7
  6
CONTINUOUS
 10
2.738715361
 20
10.3868590135
 40
0.338059115
100
AcDbArc
 50
80.3652667384
 51
83.221919067
  0
ARC
  5
2E6
100
AcDbEntity
  8
0
100
AcDbCircle
 62
7
  6
CONTINUOUS
 10
2.7410217759
 20
10.4004624611
 40
0.3242615309
100
AcDbArc
 50
78.1753040024
 51
80.364758182
  0
ARC
  5
2E7
100
AcDbEntity
  8
0
100
AcDbCircle
 62
7
  6
CONTINUOUS
 10
2.7432004613
 20
10.4110192617
 40
0.3134823043
100
AcDbArc
 50
76.9616603202
 51
78.1696698544
  0
ARC
  5
2E8
100
AcDbEntity
  8
0
100
AcDbCircle
 62
7
  6
CONTINUOUS
 10
2.7459202411
 20
10.4225418204
 40
0.3016432186
100
AcDbArc
 50
74.2370950594
 51
76.9711838298
  0
ARC
  5
2E9
100
AcDbEntity
  8
0
100
AcDbCircle
 62
7
  6
CONTINUOUS
 10
2.7508873658
 20
10.4399657807
 40
0.2835251511
100
AcDbArc
 50
70.4422562962
 51
74.2465903216
  0
ARC
  5
2EA
100
AcDbEntity
  8
0
100
AcDbCircle
 62
7
  6
CONTINUOUS
 10
2.8331635542
 20
10.5212111801
 40
0.2375
100
AcDbArc
 50
51.520240054
 51
59.6730219032
  0
ARC
  5
2EB
100
AcDbEntity
  8
0
100
AcDbCircle
 62
7
  6
CONTINUOUS
 10
2.8331635542
 20
10.7262111801
 40
0.2375
100
AcDbArc
 50
300.3269780967
 51
307.5738952961
  0
ARC
  5
2EC
100
AcDbEntity
  8
0
100
AcDbCircle
 62
7
  6
CONTINUOUS
 10
2.9209310361
 20
10.6234369529
 40
0.1027360828
100
AcDbArc
 50
54.5546261651
 51
60.4884309584
  0
ARC
  5
2ED
100
AcDbEntity
  8
0
100
AcDbCircle
 62
7
  6
CONTINUOUS
 10
2.9214777799
 20
10.6231252524
 40
0.1017182842
100
AcDbArc
 50
299.6190866557
 51
305.4754593991
  0
ARC
  5
2EE
100
AcDbEntity
  8
0
100
AcDbCircle
 62
7
  6
CONTINUOUS
 10
2.9300330354
 20
10.6243682883
 40
0.1016335595
100
AcDbArc
 50
119.4789553632
 51
125.477580525
  0
ARC
  5
2EF
100
AcDbEntity
  8
0
100
AcDbCircle
 62
7
  6
CONTINUOUS
 10
2.9235067365
 20
10.6278478881
 40
0.0976286748
100
AcDbArc
 50
60.5287468302
 51
65.1207376095
  0
ARC
  5
2F0
100
AcDbEntity
  8
0
100
AcDbCircle
 62
7
  6
CONTINUOUS
 10
2.9236779355
 20
10.6283929205
 40
0.0971076955
100
AcDbArc
 50
54.1792013926
 51
61.9600085931
  0
ARC
  5
2F1
100
AcDbEntity
  8
0
100
AcDbCircle
 62
7
  6
CONTINUOUS
 10
2.9277993146
 20
10.6283365109
 40
0.0970798545
100
AcDbArc
 50
114.8675617654
 51
119.4838197919
  0
ARC
  5
2F2
100
AcDbEntity
  8
0
100
AcDbCircle
 62
7
  6
CONTINUOUS
 10
2.9244834762
 20
10.6298829471
 40
0.0953715598
100
AcDbArc
 50
65.1387185499
 51
67.2675664822
  0
ARC
  5
2F3
100
AcDbEntity
  8
0
100
AcDbCircle
 62
7
  6
CONTINUOUS
 10
2.9270019748
 20
10.6300449528
 40
0.0951945166
100
AcDbArc
 50
112.7299949635
 51
114.8645677307
  0
ARC
  5
2F4
100
AcDbEntity
  8
0
100
AcDbCircle
 62
7
  6
CONTINUOUS
 10
2.9249522397
 20
10.6310000558
 40
0.0941600852
100
AcDbArc
 50
67.267972562
 51
71.2234698549
  0
ARC
  5
2F5
100
AcDbEntity
  8
0
100
AcDbCircle
 62
7
  6
CONTINUOUS
 10
2.9265296723
 20
10.6311979565
 40
0.093948568
100
AcDbArc
 50
108.772389411
 51
112.7360242845
  0
ARC
  5
2F6
100
AcDbEntity
  8
0
100
AcDbCircle
 62
7
  6
CONTINUOUS
 10
2.9261720096
 20
10.6314330724
 40
0.093629834
100
AcDbArc
 50
95.5062646169
 51
108.772389411
  0
ARC
  5
2F7
100
AcDbEntity
  8
0
100
AcDbCircle
 62
7
  6
CONTINUOUS
 10
2.9254935596
 20
10.6318933182
 40
0.0931603679
100
AcDbArc
 50
61.9553474035
 51
85.6755200696
  0
ARC
  5
2F8
100
AcDbEntity
  8
0
100
AcDbCircle
 62
7
  6
CONTINUOUS
 10
2.9254412694
 20
10.6324343638
 40
0.0926447015
100
AcDbArc
 50
71.2242936953
 51
76.6000052313
  0
ARC
  5
2F9
100
AcDbEntity
  8
0
100
AcDbCircle
 62
7
  6
CONTINUOUS
 10
2.9260002228
 20
10.6328345788
 40
0.0922286283
100
AcDbArc
 50
103.3876888059
 51
108.788165994
  0
ARC
  5
2FA
100
AcDbEntity
  8
0
100
AcDbCircle
 62
7
  6
CONTINUOUS
 10
2.925749081
 20
10.6333694929
 40
0.0916585348
100
AcDbArc
 50
89.9819099955
 51
95.8551984255
  0
ARC
  5
2FB
100
AcDbEntity
  8
0
100
AcDbCircle
 62
7
  6
CONTINUOUS
 10
2.9257581402
 20
10.6338167955
 40
0.0912170515
100
AcDbArc
 50
102.3273773074
 51
103.3826117323
  0
ARC
  5
2FC
100
AcDbEntity
  8
0
100
AcDbCircle
 62
7
  6
CONTINUOUS
 10
2.9258482162
 20
10.6340213306
 40
0.0910067196
100
AcDbArc
 50
76.6172187912
 51
90.0441937636
  0
ARC
  5
2FD
100
AcDbEntity
  8
0
100
AcDbCircle
 62
7
  6
CONTINUOUS
 10
2.9258204877
 20
10.6341919363
 40
0.0908500101
100
AcDbArc
 50
94.2808681981
 51
95.4525483361
  0
ARC
  5
2FE
100
AcDbEntity
  8
0
100
AcDbCircle
 62
7
  6
CONTINUOUS
 10
2.9256623789
 20
10.6342716498
 40
0.0907522398
100
AcDbArc
 50
95.8588498514
 51
102.3296228714
  0
ARC
  5
2FF
100
AcDbEntity
  8
0
100
AcDbCircle
 62
7
  6
CONTINUOUS
 10
2.9257784345
 20
10.6348166281
 40
0.0902239222
100
AcDbArc
 50
85.7159291305
 51
94.2838495135
  0
ARC
  5
300
100
AcDbEntity
  8
0
100
AcDbCircle
 62
9
  6
CONTINUOUS
 10
5.3139338433
 20
0.8103134534
 40
0.677157126
100
AcDbArc
 50
35.9018283947
 51
39.7084579251
  0
ARC
  5
301
100
AcDbEntity
  8
0
100
AcDbCircle
 62
7
  6
CONTINUOUS
 10
5.5784628192
 20
0.8162101571
 40
0.2115149084
100
AcDbArc
 50
357.8665810329
 51
0.0002771067
  0
ARC
  5
302
100
AcDbEntity
  8
0
100
AcDbCircle
 62
7
  6
CONTINUOUS
 10
5.7363343808
 20
0.6583385956
 40
0.2115149084
100
AcDbArc
 50
89.9997228933
 51
92.1334189671
  0
ARC
  5
303
100
AcDbEntity
  8
0
100
AcDbCircle
 62
7
  6
CONTINUOUS
 10
5.7082793987
 20
0.7882885509
 40
0.0201836653
100
AcDbArc
 50
10.6039232197
 51
29.8998986556
  0
ARC
  5
304
100
AcDbEntity
  8
0
100
AcDbCircle
 62
7
  6
CONTINUOUS
 10
5.3157999068
 20
0.8162111801
 40
0.691285497
100
AcDbArc
 50
320.6555074171
 51
39.3444925829
  0
ARC
  5
305
100
AcDbEntity
  8
0
100
AcDbCircle
 62
7
  6
CONTINUOUS
 10
5.3159271189
 20
0.8162111853
 40
0.6879863243
100
AcDbArc
 50
324.2652480579
 51
35.7347408698
  0
ARC
  5
306
100
AcDbEntity
  8
0
100
AcDbCircle
 62
9
  6
CONTINUOUS
 10
5.3139040039
 20
0.8221316046
 40
0.6771945695
100
AcDbArc
 50
320.2916776552
 51
324.0973768722
  0
ARC
  5
307
100
AcDbEntity
  8
0
100
AcDbCircle
 62
7
  6
CONTINUOUS
 10
5.5784078208
 20
0.8162111801
 40
0.2115699068
100
AcDbArc
 50
357.866858652
 51
2.133141348
  0
ARC
  5
308
100
AcDbEntity
  8
0
100
AcDbCircle
 62
7
  6
CONTINUOUS
 10
5.7363314422
 20
0.9739768965
 40
0.211408005
100
AcDbArc
 50
267.8662986879
 51
270.0000242742
  0
ARC
  5
309
100
AcDbEntity
  8
0
100
AcDbCircle
 62
7
  6
CONTINUOUS
 10
5.7084127631
 20
0.8442672465
 40
0.02018372
100
AcDbArc
 50
280.610737005
 51
299.9063805044
  0
ARC
  5
30A
100
AcDbEntity
  8
0
100
AcDbCircle
 62
7
  6
CONTINUOUS
 10
6.1566940735
 20
0.8162111747
 40
0.6879397473
100
AcDbArc
 50
144.2628350182
 51
215.7371542608
  0
ARC
  5
30B
100
AcDbEntity
  8
0
100
AcDbCircle
 62
9
  6
CONTINUOUS
 10
6.1587666973
 20
0.8102908638
 40
0.6771944187
100
AcDbArc
 50
140.2916789547
 51
144.09737064
  0
ARC
  5
30C
100
AcDbEntity
  8
0
100
AcDbCircle
 62
7
  6
CONTINUOUS
 10
5.7363354037
 20
0.6582835972
 40
0.2115699068
100
AcDbArc
 50
87.866858652
 51
92.133141348
  0
ARC
  5
30D
100
AcDbEntity
  8
0
100
AcDbCircle
 62
7
  6
CONTINUOUS
 10
5.7363354037
 20
0.4714611801
 40
0.1475
100
AcDbArc
 50
219.3444925828
 51
320.6555074171
  0
ARC
  5
30E
100
AcDbEntity
  8
0
100
AcDbCircle
 62
9
  6
CONTINUOUS
 10
5.7363354034
 20
0.4712761892
 40
0.1442703796
100
AcDbArc
 50
219.2872759191
 51
320.7133663071
  0
ARC
  5
30F
100
AcDbEntity
  8
0
100
AcDbCircle
 62
7
  6
CONTINUOUS
 10
5.7642580443
 20
0.7881551137
 40
0.02018372
100
AcDbArc
 50
100.6107370051
 51
119.9063805042
  0
ARC
  5
310
100
AcDbEntity
  8
0
100
AcDbCircle
 62
7
  6
CONTINUOUS
 10
5.7363354037
 20
0.8162111801
 40
0.625
100
AcDbArc
 50
98.6273985978
 51
81.3726021578
  0
ARC
  5
311
100
AcDbEntity
  8
0
100
AcDbCircle
 62
9
  6
CONTINUOUS
 10
5.7363354037
 20
0.8162111801
 40
0.6134529946
100
AcDbArc
 50
98.7919694809
 51
81.2080305191
  0
ARC
  5
312
100
AcDbEntity
  8
0
100
AcDbCircle
 62
9
  6
CONTINUOUS
 10
5.7363354037
 20
0.8162111801
 40
0.5107212031
100
AcDbArc
 50
107.8214255743
 51
72.1785744257
  0
ARC
  5
313
100
AcDbEntity
  8
0
100
AcDbCircle
 62
9
  6
CONTINUOUS
 10
5.7363354037
 20
0.8162111801
 40
0.293413372
100
AcDbArc
 50
150.4172388725
 51
209.5824530913
  0
ARC
  5
314
100
AcDbEntity
  8
0
100
AcDbCircle
 62
9
  6
CONTINUOUS
 10
5.7363354037
 20
0.8162111801
 40
0.293413372
100
AcDbArc
 50
330.4172388724
 51
29.5824530913
  0
CIRCLE
  5
315
100
AcDbEntity
  8
0
100
AcDbCircle
 62
7
  6
CONTINUOUS
 10
5.7363354037
 20
0.8162111801
 40
0.0825
  0
CIRCLE
  5
316
100
AcDbEntity
  8
0
100
AcDbCircle
 62
7
  6
CONTINUOUS
 10
5.7363354037
 20
0.8162111801
 40
0.07875
  0
CIRCLE
  5
317
100
AcDbEntity
  8
0
100
AcDbCircle
 62
9
  6
CONTINUOUS
 10
5.7363354037
 20
0.8162111801
 40
0.0755203465
  0
ARC
  5
318
100
AcDbEntity
  8
0
100
AcDbCircle
 62
7
  6
CONTINUOUS
 10
5.7643914088
 20
0.8441338093
 40
0.0201836653
100
AcDbArc
 50
190.6039232202
 51
209.8998986558
  0
ARC
  5
319
100
AcDbEntity
  8
0
100
AcDbCircle
 62
7
  6
CONTINUOUS
 10
5.7363354037
 20
0.974138763
 40
0.2115699068
100
AcDbArc
 50
267.866858652
 51
272.133141348
  0
ARC
  5
31A
100
AcDbEntity
  8
0
100
AcDbCircle
 62
7
  6
CONTINUOUS
 10
5.8942629866
 20
0.8162111801
 40
0.2115699068
100
AcDbArc
 50
177.866858652
 51
182.133141348
  0
ARC
  5
31B
100
AcDbEntity
  8
0
100
AcDbCircle
 62
7
  6
CONTINUOUS
 10
5.7363354037
 20
1.1609611801
 40
0.1475
100
AcDbArc
 50
39.3444925829
 51
140.6555074171
  0
ARC
  5
31C
100
AcDbEntity
  8
0
100
AcDbCircle
 62
9
  6
CONTINUOUS
 10
5.736335404
 20
1.1611461703
 40
0.1442703796
100
AcDbArc
 50
39.2872759157
 51
140.7133651972
  0
ARC
  5
31D
100
AcDbEntity
  8
0
100
AcDbCircle
 62
7
  6
CONTINUOUS
 10
6.1568709007
 20
0.8162111801
 40
0.691285497
100
AcDbArc
 50
140.6555074171
 51
219.3444925828
  0
ARC
  5
31E
100
AcDbEntity
  8
0
100
AcDbCircle
 62
7
  6
CONTINUOUS
 10
6.1567273627
 20
0.8162111827
 40
0.6879719321
100
AcDbArc
 50
144.264941581
 51
215.7350490552
  0
ARC
  5
31F
100
AcDbEntity
  8
0
100
AcDbCircle
 62
9
  6
CONTINUOUS
 10
6.1587369771
 20
0.822108924
 40
0.6771571469
100
AcDbArc
 50
215.9018254395
 51
219.7084583441
  0
ARC
  5
320
100
AcDbEntity
  8
0
100
AcDbCircle
 62
7
  6
CONTINUOUS
 10
5.7347867001
 20
10.3802523854
 40
0.3447176776
100
AcDbArc
 50
96.2358824595
 51
96.7856497796
  0
ARC
  5
321
100
AcDbEntity
  8
0
100
AcDbCircle
 62
7
  6
CONTINUOUS
 10
5.7339554313
 20
10.3868591197
 40
0.3380590067
100
AcDbArc
 50
96.77805257
 51
99.6347971242
  0
ARC
  5
322
100
AcDbEntity
  8
0
100
AcDbCircle
 62
7
  6
CONTINUOUS
 10
5.7316490417
 20
10.400462371
 40
0.3242616204
100
AcDbArc
 50
99.6353070144
 51
101.8246427926
  0
ARC
  5
323
100
AcDbEntity
  8
0
100
AcDbCircle
 62
7
  6
CONTINUOUS
 10
5.7294702377
 20
10.4110197346
 40
0.3134818184
100
AcDbArc
 50
101.8302749845
 51
103.0385694325
  0
ARC
  5
324
100
AcDbEntity
  8
0
100
AcDbCircle
 62
7
  6
CONTINUOUS
 10
5.726750421
 20
10.4225423281
 40
0.3016426904
100
AcDbArc
 50
103.0290495799
 51
105.7628438357
  0
ARC
  5
325
100
AcDbEntity
  8
0
100
AcDbCircle
 62
7
  6
CONTINUOUS
 10
5.7217834608
 20
10.4399657135
 40
0.2835252209
100
AcDbArc
 50
105.7533451124
 51
109.5577428113
  0
ARC
  5
326
100
AcDbEntity
  8
0
100
AcDbCircle
 62
7
  6
CONTINUOUS
 10
5.6395072533
 20
10.5212111801
 40
0.2375
100
AcDbArc
 50
120.3269780968
 51
128.479759946
  0
ARC
  5
327
100
AcDbEntity
  8
0
100
AcDbCircle
 62
7
  6
CONTINUOUS
 10
5.6395072533
 20
10.7262111801
 40
0.2375
100
AcDbArc
 50
231.520240054
 51
239.6730219033
  0
ARC
  5
328
100
AcDbEntity
  8
0
100
AcDbCircle
 62
7
  6
CONTINUOUS
 10
5.5420450905
 20
10.6234371948
 40
0.102735788
100
AcDbArc
 50
54.5546245593
 51
60.4887650058
  0
ARC
  5
329
100
AcDbEntity
  8
0
100
AcDbCircle
 62
7
  6
CONTINUOUS
 10
5.5511471239
 20
10.6243679935
 40
0.1016339172
100
AcDbArc
 50
119.4792516848
 51
125.4775771269
  0
ARC
  5
32A
100
AcDbEntity
  8
0
100
AcDbCircle
 62
7
  6
CONTINUOUS
 10
5.5446205903
 20
10.6278478079
 40
0.0976287595
100
AcDbArc
 50
60.5290889381
 51
65.1198066421
  0
ARC
  5
32B
100
AcDbEntity
  8
0
100
AcDbCircle
 62
7
  6
CONTINUOUS
 10
5.5489131101
 20
10.6283367266
 40
0.0970796237
100
AcDbArc
 50
114.8666747216
 51
119.4841277584
  0
ARC
  5
32C
100
AcDbEntity
  8
0
100
AcDbCircle
 62
7
  6
CONTINUOUS
 10
5.5482548707
 20
10.6297354261
 40
0.0955338048
100
AcDbArc
 50
113.7121134402
 51
114.8612478589
  0
ARC
  5
32D
100
AcDbEntity
  8
0
100
AcDbCircle
 62
7
  6
CONTINUOUS
 10
5.545597285
 20
10.6298827293
 40
0.0953717877
100
AcDbArc
 50
65.1377757559
 51
67.2679941171
  0
ARC
  5
32E
100
AcDbEntity
  8
0
100
AcDbCircle
 62
7
  6
CONTINUOUS
 10
5.5480410196
 20
10.6302213219
 40
0.0950029312
100
AcDbArc
 50
112.7297603185
 51
113.7118730951
  0
ARC
  5
32F
100
AcDbEntity
  8
0
100
AcDbCircle
 62
7
  6
CONTINUOUS
 10
5.5460661236
 20
10.6310000205
 40
0.0941601158
100
AcDbArc
 50
67.2684049662
 51
71.2232609091
  0
ARC
  5
330
100
AcDbEntity
  8
0
100
AcDbCircle
 62
7
  6
CONTINUOUS
 10
5.5476435057
 20
10.6311981326
 40
0.0939483891
100
AcDbArc
 50
108.7722021914
 51
112.7363366252
  0
ARC
  5
331
100
AcDbEntity
  8
0
100
AcDbCircle
 62
7
  6
CONTINUOUS
 10
5.5466075451
 20
10.6318941024
 40
0.0931595841
100
AcDbArc
 50
69.8044541541
 51
85.6757137966
  0
ARC
  5
332
100
AcDbEntity
  8
0
100
AcDbCircle
 62
7
  6
CONTINUOUS
 10
5.5471511373
 20
10.6322669327
 40
0.0927858513
100
AcDbArc
 50
94.3257697343
 51
102.4334584653
  0
ARC
  5
333
100
AcDbEntity
  8
0
100
AcDbCircle
 62
7
  6
CONTINUOUS
 10
5.5465551403
 20
10.6324342921
 40
0.0926447708
100
AcDbArc
 50
71.224080919
 51
76.6001766531
  0
ARC
  5
334
100
AcDbEntity
  8
0
100
AcDbCircle
 62
7
  6
CONTINUOUS
 10
5.5471140586
 20
10.6328347536
 40
0.0922284514
100
AcDbArc
 50
103.3876053404
 51
108.7879764519
  0
ARC
  5
335
100
AcDbEntity
  8
0
100
AcDbCircle
 62
7
  6
CONTINUOUS
 10
5.546822599
 20
10.6134010785
 40
0.0910067678
100
AcDbArc
 50
258.1500355262
 51
270.0440815596
  0
ARC
  5
336
100
AcDbEntity
  8
0
100
AcDbCircle
 62
7
  6
CONTINUOUS
 10
5.5469634692
 20
10.6340357388
 40
0.0909923116
100
AcDbArc
 50
76.6173923975
 51
103.3825284576
  0
ARC
  5
337
100
AcDbEntity
  8
0
100
AcDbCircle
 62
7
  6
CONTINUOUS
 10
5.5468923653
 20
10.6348167128
 40
0.0902238403
100
AcDbArc
 50
85.7161280984
 51
94.284039958
  0
ARC
  5
338
100
AcDbEntity
  8
0
100
AcDbCircle
 62
7
  6
CONTINUOUS
 10
5.7363354088
 20
10.3615607864
 40
0.363467236
100
AcDbArc
 50
83.8414887205
 51
96.1585186708
  0
ARC
  5
339
100
AcDbEntity
  8
0
100
AcDbCircle
 62
7
  6
CONTINUOUS
 10
5.7378841147
 20
10.3802524691
 40
0.3447175946
100
AcDbArc
 50
83.2143223929
 51
83.7641233662
  0
ARC
  5
33A
100
AcDbEntity
  8
0
100
AcDbCircle
 62
7
  6
CONTINUOUS
 10
5.738715361
 20
10.3868590135
 40
0.338059115
100
AcDbArc
 50
80.3652667385
 51
83.2219190669
  0
ARC
  5
33B
100
AcDbEntity
  8
0
100
AcDbCircle
 62
7
  6
CONTINUOUS
 10
5.7410217759
 20
10.4004624611
 40
0.3242615309
100
AcDbArc
 50
78.1753040024
 51
80.364758182
  0
ARC
  5
33C
100
AcDbEntity
  8
0
100
AcDbCircle
 62
7
  6
CONTINUOUS
 10
5.7432004613
 20
10.4110192616
 40
0.3134823043
100
AcDbArc
 50
76.9616603204
 51
78.1696698544
  0
ARC
  5
33D
100
AcDbEntity
  8
0
100
AcDbCircle
 62
7
  6
CONTINUOUS
 10
5.7459202411
 20
10.4225418204
 40
0.3016432186
100
AcDbArc
 50
74.2370950594
 51
76.9711838299
  0
ARC
  5
33E
100
AcDbEntity
  8
0
100
AcDbCircle
 62
7
  6
CONTINUOUS
 10
5.7508873658
 20
10.4399657807
 40
0.2835251511
100
AcDbArc
 50
70.4422562962
 51
74.2465903216
  0
ARC
  5
33F
100
AcDbEntity
  8
0
100
AcDbCircle
 62
7
  6
CONTINUOUS
 10
5.8331635542
 20
10.5212111801
 40
0.2375
100
AcDbArc
 50
51.520240054
 51
59.6730219032
  0
ARC
  5
340
100
AcDbEntity
  8
0
100
AcDbCircle
 62
7
  6
CONTINUOUS
 10
5.8331635542
 20
10.7262111801
 40
0.2375
100
AcDbArc
 50
300.3269780967
 51
308.479759946
  0
ARC
  5
341
100
AcDbEntity
  8
0
100
AcDbCircle
 62
7
  6
CONTINUOUS
 10
5.9209310361
 20
10.6234369529
 40
0.1027360828
100
AcDbArc
 50
54.5546261651
 51
60.4884309585
  0
ARC
  5
342
100
AcDbEntity
  8
0
100
AcDbCircle
 62
7
  6
CONTINUOUS
 10
5.9214777799
 20
10.6231252524
 40
0.1017182842
100
AcDbArc
 50
299.6190866557
 51
305.4754593992
  0
ARC
  5
343
100
AcDbEntity
  8
0
100
AcDbCircle
 62
7
  6
CONTINUOUS
 10
5.9300330354
 20
10.6243682883
 40
0.1016335595
100
AcDbArc
 50
119.4789553631
 51
125.4775805249
  0
ARC
  5
344
100
AcDbEntity
  8
0
100
AcDbCircle
 62
7
  6
CONTINUOUS
 10
5.9235067365
 20
10.6278478881
 40
0.0976286748
100
AcDbArc
 50
60.5287468303
 51
65.1207376094
  0
ARC
  5
345
100
AcDbEntity
  8
0
100
AcDbCircle
 62
7
  6
CONTINUOUS
 10
5.9236779355
 20
10.6283929205
 40
0.0971076955
100
AcDbArc
 50
54.1792013926
 51
61.9600085932
  0
ARC
  5
346
100
AcDbEntity
  8
0
100
AcDbCircle
 62
7
  6
CONTINUOUS
 10
5.9277993146
 20
10.6283365109
 40
0.0970798545
100
AcDbArc
 50
114.8675617653
 51
119.4838197919
  0
ARC
  5
347
100
AcDbEntity
  8
0
100
AcDbCircle
 62
7
  6
CONTINUOUS
 10
5.9244834762
 20
10.6298829471
 40
0.0953715598
100
AcDbArc
 50
65.1387185499
 51
67.2675664822
  0
ARC
  5
348
100
AcDbEntity
  8
0
100
AcDbCircle
 62
7
  6
CONTINUOUS
 10
5.9270019748
 20
10.6300449528
 40
0.0951945167
100
AcDbArc
 50
112.7299949637
 51
114.8645677305
  0
ARC
  5
349
100
AcDbEntity
  8
0
100
AcDbCircle
 62
7
  6
CONTINUOUS
 10
5.9249522397
 20
10.6310000558
 40
0.0941600852
100
AcDbArc
 50
67.2679725621
 51
71.223469855
  0
ARC
  5
34A
100
AcDbEntity
  8
0
100
AcDbCircle
 62
7
  6
CONTINUOUS
 10
5.9265296723
 20
10.6311979565
 40
0.093948568
100
AcDbArc
 50
108.7723894109
 51
112.7360242846
  0
ARC
  5
34B
100
AcDbEntity
  8
0
100
AcDbCircle
 62
7
  6
CONTINUOUS
 10
5.9261720096
 20
10.6314330724
 40
0.093629834
100
AcDbArc
 50
95.5062646168
 51
108.7723894109
  0
ARC
  5
34C
100
AcDbEntity
  8
0
100
AcDbCircle
 62
7
  6
CONTINUOUS
 10
5.9254935596
 20
10.6318933182
 40
0.0931603679
100
AcDbArc
 50
61.9553474035
 51
85.6755200696
  0
ARC
  5
34D
100
AcDbEntity
  8
0
100
AcDbCircle
 62
7
  6
CONTINUOUS
 10
5.9254412694
 20
10.6324343638
 40
0.0926447015
100
AcDbArc
 50
71.2242936953
 51
76.6000052314
  0
ARC
  5
34E
100
AcDbEntity
  8
0
100
AcDbCircle
 62
7
  6
CONTINUOUS
 10
5.9260002228
 20
10.6328345788
 40
0.0922286283
100
AcDbArc
 50
103.3876888061
 51
108.7881659939
  0
ARC
  5
34F
100
AcDbEntity
  8
0
100
AcDbCircle
 62
7
  6
CONTINUOUS
 10
5.925749081
 20
10.6333694929
 40
0.0916585348
100
AcDbArc
 50
89.9819099955
 51
95.8551984255
  0
ARC
  5
350
100
AcDbEntity
  8
0
100
AcDbCircle
 62
7
  6
CONTINUOUS
 10
5.9257581402
 20
10.6338167955
 40
0.0912170515
100
AcDbArc
 50
102.3273773076
 51
103.3826117325
  0
ARC
  5
351
100
AcDbEntity
  8
0
100
AcDbCircle
 62
7
  6
CONTINUOUS
 10
5.9258482162
 20
10.6340213306
 40
0.0910067196
100
AcDbArc
 50
76.6172187911
 51
90.0441937636
  0
ARC
  5
352
100
AcDbEntity
  8
0
100
AcDbCircle
 62
7
  6
CONTINUOUS
 10
5.9258204877
 20
10.6341919363
 40
0.0908500101
100
AcDbArc
 50
94.280868198
 51
95.452548336
  0
ARC
  5
353
100
AcDbEntity
  8
0
100
AcDbCircle
 62
7
  6
CONTINUOUS
 10
5.9256623789
 20
10.6342716498
 40
0.0907522398
100
AcDbArc
 50
95.8588498514
 51
102.3296228713
  0
ARC
  5
354
100
AcDbEntity
  8
0
100
AcDbCircle
 62
7
  6
CONTINUOUS
 10
5.9257784345
 20
10.6348166281
 40
0.0902239222
100
AcDbArc
 50
85.7159291305
 51
94.2838495135
  0
SPLINE
  5
355
100
AcDbEntity
  8
0
100
AcDbSpline
 62
7
  6
CONTINUOUS
 70
0
 71
3
 72
11
 73
7
 74
0
 42
0.0000001
 43
0.0000001
 44
0.0000000001
 40
0.0
 40
0.0
 40
0.0
 40
0.0
 40
0.246884386
 40
0.4954300327
 40
0.746464561
 40
1.0
 40
1.0
 40
1.0
 40
1.0
 10
5.8144604037
 20
1.3567111801
 30
0.0
 10
5.8076559496
 20
1.3567111801
 30
0.0
 10
5.793974984
 20
1.355495899
 30
0.0
 10
5.7739804408
 20
1.3503523724
 30
0.0
 10
5.7546982541
 20
1.3425426704
 30
0.0
 10
5.7423869864
 20
1.3360331039
 30
0.0
 10
5.7363354037
 20
1.332539221
 30
0.0
  0
SPLINE
  5
356
100
AcDbEntity
  8
0
100
AcDbSpline
 62
7
  6
CONTINUOUS
 70
0
 71
3
 72
11
 73
7
 74
0
 42
0.0000001
 43
0.0000001
 44
0.0000000001
 40
0.0
 40
0.0
 40
0.0
 40
0.0
 40
0.2535354384
 40
0.5045699669
 40
0.7531156138
 40
1.0
 40
1.0
 40
1.0
 40
1.0
 10
5.8925854037
 20
1.332539221
 30
0.0
 10
5.8865338211
 20
1.3360331039
 30
0.0
 10
5.8742225533
 20
1.3425426702
 30
0.0
 10
5.8549403667
 20
1.3503523725
 30
0.0
 10
5.8349458236
 20
1.3554958993
 30
0.0
 10
5.8212648579
 20
1.3567111801
 30
0.0
 10
5.8144604037
 20
1.3567111801
 30
0.0
  0
SPLINE
  5
357
100
AcDbEntity
  8
0
100
AcDbSpline
 62
7
  6
CONTINUOUS
 70
0
 71
3
 72
11
 73
7
 74
0
 42
0.0000001
 43
0.0000001
 44
0.0000000001
 40
0.0
 40
0.0
 40
0.0
 40
0.0
 40
0.246884386
 40
0.4954300327
 40
0.746464561
 40
1.0
 40
1.0
 40
1.0
 40
1.0
 10
5.6582104037
 20
1.3567111801
 30
0.0
 10
5.6514059496
 20
1.3567111801
 30
0.0
 10
5.637724984
 20
1.355495899
 30
0.0
 10
5.6177304408
 20
1.3503523724
 30
0.0
 10
5.5984482541
 20
1.3425426704
 30
0.0
 10
5.5861369864
 20
1.3360331039
 30
0.0
 10
5.5800854037
 20
1.332539221
 30
0.0
  0
SPLINE
  5
358
100
AcDbEntity
  8
0
100
AcDbSpline
 62
7
  6
CONTINUOUS
 70
0
 71
3
 72
11
 73
7
 74
0
 42
0.0000001
 43
0.0000001
 44
0.0000000001
 40
0.0
 40
0.0
 40
0.0
 40
0.0
 40
0.2535354384
 40
0.5045699669
 40
0.7531156138
 40
1.0
 40
1.0
 40
1.0
 40
1.0
 10
5.7363354037
 20
1.332539221
 30
0.0
 10
5.7302838211
 20
1.3360331039
 30
0.0
 10
5.7179725533
 20
1.3425426702
 30
0.0
 10
5.6986903667
 20
1.3503523725
 30
0.0
 10
5.6786958236
 20
1.3554958993
 30
0.0
 10
5.6650148579
 20
1.3567111801
 30
0.0
 10
5.6582104037
 20
1.3567111801
 30
0.0
  0
SPLINE
  5
359
100
AcDbEntity
  8
0
100
AcDbSpline
 62
7
  6
CONTINUOUS
 70
0
 71
3
 72
11
 73
7
 74
0
 42
0.0000001
 43
0.0000001
 44
0.0000000001
 40
0.0
 40
0.0
 40
0.0
 40
0.0
 40
0.2475222776
 40
0.4982048234
 40
0.7491023245
 40
1.0
 40
1.0
 40
1.0
 40
1.0
 10
2.7442104037
 20
0.7883828202
 30
0.0
 10
2.7442104037
 20
0.7901008295
 30
0.0
 10
2.7446846607
 20
0.7935718907
 30
0.0
 10
2.7466746227
 20
0.7984364981
 30
0.0
 10
2.7498900282
 20
0.8026270159
 30
0.0
 10
2.7526861601
 20
0.80478129
 30
0.0
 10
2.7541947589
 20
0.8056511944
 30
0.0
  0
LINE
  5
35A
100
AcDbEntity
  8
0
100
AcDbLine
 62
7
  6
CONTINUOUS
 10
2.760541504
 20
0.8079937095
 11
2.7641637637
 21
0.8083361801
  0
SPLINE
  5
35B
100
AcDbEntity
  8
0
100
AcDbSpline
 62
7
  6
CONTINUOUS
 70
0
 71
3
 72
9
 73
5
 74
0
 42
0.0000001
 43
0.0000001
 44
0.0000000001
 40
0.0
 40
0.0
 40
0.0
 40
0.0
 40
0.5160808332
 40
1.0
 40
1.0
 40
1.0
 40
1.0
 10
2.4921603936
 20
10.5402895266
 30
0.0
 10
2.4977063651
 20
10.5363440893
 30
0.0
 10
2.509234938
 20
10.5297249326
 30
0.0
 10
2.5218884312
 20
10.5256446358
 30
0.0
 10
2.5281343965
 20
10.5243337845
 30
0.0
  0
SPLINE
  5
35C
100
AcDbEntity
  8
0
100
AcDbSpline
 62
7
  6
CONTINUOUS
 70
0
 71
3
 72
9
 73
5
 74
0
 42
0.0000001
 43
0.0000001
 44
0.0000000001
 40
0.0
 40
0.0
 40
0.0
 40
0.0
 40
0.4906862543
 40
1.0
 40
1.0
 40
1.0
 40
1.0
 10
2.5468926167
 20
10.5223943377
 30
0.0
 10
2.5535239088
 20
10.5223943579
 30
0.0
 10
2.5670808502
 20
10.5238628709
 30
0.0
 10
2.5799759141
 20
10.5283140847
 30
0.0
 10
2.5862040409
 20
10.5312443646
 30
0.0
  0
SPLINE
  5
35D
100
AcDbEntity
  8
0
100
AcDbSpline
 62
7
  6
CONTINUOUS
 70
0
 71
3
 72
9
 73
5
 74
0
 42
0.0000001
 43
0.0000001
 44
0.0000000001
 40
0.0
 40
0.0
 40
0.0
 40
0.0
 40
0.2437374302
 40
1.0
 40
1.0
 40
1.0
 40
1.0
 10
2.5862040409
 20
10.5312443646
 30
0.0
 10
2.5875192858
 20
10.531863176
 30
0.0
 10
2.5928574039
 20
10.5345240416
 30
0.0
 10
2.5979493403
 20
10.5376751385
 30
0.0
 10
2.6016242997
 20
10.5402895266
 30
0.0
  0
SPLINE
  5
35E
100
AcDbEntity
  8
0
100
AcDbSpline
 62
7
  6
CONTINUOUS
 70
0
 71
3
 72
11
 73
7
 74
0
 42
0.0000001
 43
0.0000001
 44
0.0000000001
 40
0.0
 40
0.0
 40
0.0
 40
0.0
 40
0.2499956975
 40
0.5000000003
 40
0.7500043017
 40
1.0
 40
1.0
 40
1.0
 40
1.0
 10
2.6268714976
 20
10.5402895266
 30
0.0
 10
2.6443508013
 20
10.534072086
 30
0.0
 10
2.6806303759
 20
10.5251709444
 30
0.0
 10
2.7363354037
 20
10.5210060115
 30
0.0
 10
2.7920404323
 20
10.5251709412
 30
0.0
 10
2.8283200061
 20
10.534072086
 30
0.0
 10
2.8457993099
 20
10.5402895266
 30
0.0
  0
SPLINE
  5
35F
100
AcDbEntity
  8
0
100
AcDbSpline
 62
7
  6
CONTINUOUS
 70
0
 71
3
 72
9
 73
5
 74
0
 42
0.0000001
 43
0.0000001
 44
0.0000000001
 40
0.0
 40
0.0
 40
0.0
 40
0.0
 40
0.2578200597
 40
1.0
 40
1.0
 40
1.0
 40
1.0
 10
2.8710465077
 20
10.5402895266
 30
0.0
 10
2.8724725315
 20
10.5392750447
 30
0.0
 10
2.878099903
 20
10.5354777279
 30
0.0
 10
2.8841099351
 20
10.5322443998
 30
0.0
 10
2.8887224989
 20
10.530218499
 30
0.0
  0
SPLINE
  5
360
100
AcDbEntity
  8
0
100
AcDbSpline
 62
7
  6
CONTINUOUS
 70
0
 71
3
 72
9
 73
5
 74
0
 42
0.0000001
 43
0.0000001
 44
0.0000000001
 40
0.0
 40
0.0
 40
0.0
 40
0.0
 40
0.5082510175
 40
1.0
 40
1.0
 40
1.0
 40
1.0
 10
2.8887224989
 20
10.530218499
 30
0.0
 10
2.8946290772
 20
10.5276242494
 30
0.0
 10
2.9068080357
 20
10.5236896608
 30
0.0
 10
2.9195365349
 20
10.5223943518
 30
0.0
 10
2.9257782618
 20
10.5223943369
 30
0.0
  0
SPLINE
  5
361
100
AcDbEntity
  8
0
100
AcDbSpline
 62
7
  6
CONTINUOUS
 70
0
 71
3
 72
11
 73
7
 74
0
 42
0.0000001
 43
0.0000001
 44
0.0000000001
 40
0.0
 40
0.0
 40
0.0
 40
0.0
 40
0.2420627077
 40
0.4871674421
 40
0.7386954811
 40
1.0
 40
1.0
 40
1.0
 40
1.0
 10
2.9257782618
 20
10.5223943369
 30
0.0
 10
2.9296590248
 20
10.5223943277
 30
0.0
 10
2.9374788424
 20
10.5228848581
 30
0.0
 10
2.9491349261
 20
10.525155485
 30
0.0
 10
2.9606911071
 20
10.5290174708
 30
0.0
 10
2.968107795
 20
10.5326289236
 30
0.0
 10
2.971750159
 20
10.5346984621
 30
0.0
  0
SPLINE
  5
362
100
AcDbEntity
  8
0
100
AcDbSpline
 62
7
  6
CONTINUOUS
 70
0
 71
3
 72
11
 73
7
 74
0
 42
0.0000001
 43
0.0000001
 44
0.0000000001
 40
0.0
 40
0.0
 40
0.0
 40
0.0
 40
0.2475226063
 40
0.4982061812
 40
0.749103535
 40
1.0
 40
1.0
 40
1.0
 40
1.0
 10
2.7641637637
 20
0.8240861801
 30
0.0
 10
2.7624455638
 20
0.8240861801
 30
0.0
 10
2.7589741119
 20
0.8245605551
 30
0.0
 10
2.7541090341
 20
0.8265509417
 30
0.0
 10
2.7499182829
 20
0.8297670151
 30
0.0
 10
2.747764061
 20
0.8325636747
 30
0.0
 10
2.7468942371
 20
0.8340725305
 30
0.0
  0
LINE
  5
363
100
AcDbEntity
  8
0
100
AcDbLine
 62
7
  6
CONTINUOUS
 10
2.7445524249
 20
0.8404196384
 11
2.7442104037
 21
0.8440395401
  0
SPLINE
  5
364
100
AcDbEntity
  8
0
100
AcDbSpline
 62
7
  6
CONTINUOUS
 70
0
 71
3
 72
11
 73
7
 74
0
 42
0.0000001
 43
0.0000001
 44
0.0000000001
 40
0.0
 40
0.0
 40
0.0
 40
0.0
 40
0.246884386
 40
0.4954300327
 40
0.746464561
 40
1.0
 40
1.0
 40
1.0
 40
1.0
 10
2.6582104037
 20
1.3567111801
 30
0.0
 10
2.6514059496
 20
1.3567111801
 30
0.0
 10
2.637724984
 20
1.355495899
 30
0.0
 10
2.6177304408
 20
1.3503523724
 30
0.0
 10
2.5984482541
 20
1.3425426704
 30
0.0
 10
2.5861369864
 20
1.3360331039
 30
0.0
 10
2.5800854037
 20
1.332539221
 30
0.0
  0
SPLINE
  5
365
100
AcDbEntity
  8
0
100
AcDbSpline
 62
7
  6
CONTINUOUS
 70
0
 71
3
 72
11
 73
7
 74
0
 42
0.0000001
 43
0.0000001
 44
0.0000000001
 40
0.0
 40
0.0
 40
0.0
 40
0.0
 40
0.2535354384
 40
0.5045699669
 40
0.7531156138
 40
1.0
 40
1.0
 40
1.0
 40
1.0
 10
2.7363354037
 20
1.332539221
 30
0.0
 10
2.7302838211
 20
1.3360331039
 30
0.0
 10
2.7179725533
 20
1.3425426702
 30
0.0
 10
2.6986903667
 20
1.3503523725
 30
0.0
 10
2.6786958236
 20
1.3554958993
 30
0.0
 10
2.6650148579
 20
1.3567111801
 30
0.0
 10
2.6582104037
 20
1.3567111801
 30
0.0
  0
SPLINE
  5
366
100
AcDbEntity
  8
0
100
AcDbSpline
 62
7
  6
CONTINUOUS
 70
0
 71
3
 72
11
 73
7
 74
0
 42
0.0000001
 43
0.0000001
 44
0.0000000001
 40
0.0
 40
0.0
 40
0.0
 40
0.0
 40
0.2475222776
 40
0.4982048234
 40
0.7491023245
 40
1.0
 40
1.0
 40
1.0
 40
1.0
 10
5.7284604037
 20
0.8440395401
 30
0.0
 10
5.7284604037
 20
0.8423215308
 30
0.0
 10
5.7279861467
 20
0.8388504695
 30
0.0
 10
5.7259961848
 20
0.8339858622
 30
0.0
 10
5.7227807793
 20
0.8297953443
 30
0.0
 10
5.7199846473
 20
0.8276410703
 30
0.0
 10
5.7184760485
 20
0.8267711658
 30
0.0
  0
LINE
  5
367
100
AcDbEntity
  8
0
100
AcDbLine
 62
7
  6
CONTINUOUS
 10
5.7121293034
 20
0.8244286508
 11
5.7085070438
 21
0.8240861801
  0
SPLINE
  5
368
100
AcDbEntity
  8
0
100
AcDbSpline
 62
7
  6
CONTINUOUS
 70
0
 71
3
 72
11
 73
7
 74
0
 42
0.0000001
 43
0.0000001
 44
0.0000000001
 40
0.0
 40
0.0
 40
0.0
 40
0.0
 40
0.2475226063
 40
0.4982061812
 40
0.749103535
 40
1.0
 40
1.0
 40
1.0
 40
1.0
 10
5.7085070438
 20
0.8083361801
 30
0.0
 10
5.7102252436
 20
0.8083361801
 30
0.0
 10
5.7136966956
 20
0.8078618052
 30
0.0
 10
5.7185617733
 20
0.8058714185
 30
0.0
 10
5.7227525245
 20
0.8026553451
 30
0.0
 10
5.7249067465
 20
0.7998586855
 30
0.0
 10
5.7257765703
 20
0.7983498297
 30
0.0
  0
LINE
  5
369
100
AcDbEntity
  8
0
100
AcDbLine
 62
7
  6
CONTINUOUS
 10
5.7281183825
 20
0.7920027219
 11
5.7284604037
 21
0.7883828202
  0
SPLINE
  5
36A
100
AcDbEntity
  8
0
100
AcDbSpline
 62
7
  6
CONTINUOUS
 70
0
 71
3
 72
11
 73
7
 74
0
 42
0.0000001
 43
0.0000001
 44
0.0000000001
 40
0.0
 40
0.0
 40
0.0
 40
0.0
 40
0.2475222776
 40
0.4982048234
 40
0.7491023245
 40
1.0
 40
1.0
 40
1.0
 40
1.0
 10
5.7442104037
 20
0.7883828202
 30
0.0
 10
5.7442104037
 20
0.7901008295
 30
0.0
 10
5.7446846607
 20
0.7935718907
 30
0.0
 10
5.7466746227
 20
0.7984364981
 30
0.0
 10
5.7498900282
 20
0.8026270159
 30
0.0
 10
5.7526861601
 20
0.80478129
 30
0.0
 10
5.7541947589
 20
0.8056511944
 30
0.0
  0
LINE
  5
36B
100
AcDbEntity
  8
0
100
AcDbLine
 62
7
  6
CONTINUOUS
 10
5.760541504
 20
0.8079937095
 11
5.7641637637
 21
0.8083361801
  0
SPLINE
  5
36C
100
AcDbEntity
  8
0
100
AcDbSpline
 62
7
  6
CONTINUOUS
 70
0
 71
3
 72
11
 73
7
 74
0
 42
0.0000001
 43
0.0000001
 44
0.0000000001
 40
0.0
 40
0.0
 40
0.0
 40
0.0
 40
0.2475226063
 40
0.4982061812
 40
0.749103535
 40
1.0
 40
1.0
 40
1.0
 40
1.0
 10
5.7641637637
 20
0.8240861801
 30
0.0
 10
5.7624455638
 20
0.8240861801
 30
0.0
 10
5.7589741119
 20
0.8245605551
 30
0.0
 10
5.7541090341
 20
0.8265509417
 30
0.0
 10
5.7499182829
 20
0.8297670151
 30
0.0
 10
5.747764061
 20
0.8325636747
 30
0.0
 10
5.7468942371
 20
0.8340725305
 30
0.0
  0
LINE
  5
36D
100
AcDbEntity
  8
0
100
AcDbLine
 62
7
  6
CONTINUOUS
 10
5.7445524249
 20
0.8404196384
 11
5.7442104037
 21
0.8440395401
  0
SPLINE
  5
36E
100
AcDbEntity
  8
0
100
AcDbSpline
 62
7
  6
CONTINUOUS
 70
0
 71
3
 72
11
 73
7
 74
0
 42
0.0000001
 43
0.0000001
 44
0.0000000001
 40
0.0
 40
0.0
 40
0.0
 40
0.0
 40
0.246884386
 40
0.4954300327
 40
0.746464561
 40
1.0
 40
1.0
 40
1.0
 40
1.0
 10
2.8144604037
 20
1.3567111801
 30
0.0
 10
2.8076559496
 20
1.3567111801
 30
0.0
 10
2.793974984
 20
1.355495899
 30
0.0
 10
2.7739804408
 20
1.3503523724
 30
0.0
 10
2.7546982541
 20
1.3425426704
 30
0.0
 10
2.7423869864
 20
1.3360331039
 30
0.0
 10
2.7363354037
 20
1.332539221
 30
0.0
  0
SPLINE
  5
36F
100
AcDbEntity
  8
0
100
AcDbSpline
 62
7
  6
CONTINUOUS
 70
0
 71
3
 72
11
 73
7
 74
0
 42
0.0000001
 43
0.0000001
 44
0.0000000001
 40
0.0
 40
0.0
 40
0.0
 40
0.0
 40
0.2535354384
 40
0.5045699669
 40
0.7531156138
 40
1.0
 40
1.0
 40
1.0
 40
1.0
 10
2.8925854037
 20
1.332539221
 30
0.0
 10
2.8865338211
 20
1.3360331039
 30
0.0
 10
2.8742225533
 20
1.3425426702
 30
0.0
 10
2.8549403667
 20
1.3503523725
 30
0.0
 10
2.8349458236
 20
1.3554958993
 30
0.0
 10
2.8212648579
 20
1.3567111801
 30
0.0
 10
2.8144604037
 20
1.3567111801
 30
0.0
  0
SPLINE
  5
370
100
AcDbEntity
  8
0
100
AcDbSpline
 62
7
  6
CONTINUOUS
 70
0
 71
3
 72
11
 73
7
 74
0
 42
0.0000001
 43
0.0000001
 44
0.0000000001
 40
0.0
 40
0.0
 40
0.0
 40
0.0
 40
0.2475222776
 40
0.4982048234
 40
0.7491023245
 40
1.0
 40
1.0
 40
1.0
 40
1.0
 10
2.7284604037
 20
0.8440395401
 30
0.0
 10
2.7284604037
 20
0.8423215308
 30
0.0
 10
2.7279861467
 20
0.8388504695
 30
0.0
 10
2.7259961848
 20
0.8339858622
 30
0.0
 10
2.7227807793
 20
0.8297953443
 30
0.0
 10
2.7199846473
 20
0.8276410703
 30
0.0
 10
2.7184760485
 20
0.8267711658
 30
0.0
  0
LINE
  5
371
100
AcDbEntity
  8
0
100
AcDbLine
 62
7
  6
CONTINUOUS
 10
2.7121293034
 20
0.8244286508
 11
2.7085070438
 21
0.8240861801
  0
SPLINE
  5
372
100
AcDbEntity
  8
0
100
AcDbSpline
 62
9
  6
CONTINUOUS
 70
0
 71
3
 72
18
 73
14
 74
0
 42
0.0000001
 43
0.0000001
 44
0.0000000001
 40
0.0
 40
0.0
 40
0.0
 40
0.0
 40
0.0089699934
 40
0.0259318547
 40
0.0511534034
 40
0.084608118
 40
0.126208453
 40
0.175846768
 40
0.2987667166
 40
0.4510376851
 40
0.6248210365
 40
0.8108877655
 40
1.0
 40
1.0
 40
1.0
 40
1.0
 10
5.8479954647
 20
0.3799235901
 30
0.0
 10
5.8479483213
 20
0.3799115668
 30
0.0
 10
5.8478045865
 20
0.3799581506
 30
0.0
 10
5.8475570587
 20
0.3800678651
 30
0.0
 10
5.8471957575
 20
0.380270044
 30
0.0
 10
5.8467326841
 20
0.3805526683
 30
0.0
 10
5.846165405
 20
0.3809220485
 30
0.0
 10
5.8452048818
 20
0.3815748884
 30
0.0
 10
5.843771833
 20
0.3826004764
 30
0.0
 10
5.841819751
 20
0.384056359
 30
0.0
 10
5.8396141712
 20
0.3857449949
 30
0.0
 10
5.8372676164
 20
0.3875778898
 30
0.0
 10
5.8356745687
 20
0.3888441042
 30
0.0
 10
5.8348743729
 20
0.389485825
 30
0.0
  0
SPLINE
  5
373
100
AcDbEntity
  8
0
100
AcDbSpline
 62
7
  6
CONTINUOUS
 70
0
 71
3
 72
11
 73
7
 74
0
 42
0.0000001
 43
0.0000001
 44
0.0000000001
 40
0.0
 40
0.0
 40
0.0
 40
0.0
 40
0.2475226063
 40
0.4982061812
 40
0.749103535
 40
1.0
 40
1.0
 40
1.0
 40
1.0
 10
2.7085070438
 20
0.8083361801
 30
0.0
 10
2.7102252436
 20
0.8083361801
 30
0.0
 10
2.7136966956
 20
0.8078618052
 30
0.0
 10
2.7185617733
 20
0.8058714185
 30
0.0
 10
2.7227525245
 20
0.8026553451
 30
0.0
 10
2.7249067465
 20
0.7998586855
 30
0.0
 10
2.7257765703
 20
0.7983498297
 30
0.0
  0
LINE
  5
374
100
AcDbEntity
  8
0
100
AcDbLine
 62
7
  6
CONTINUOUS
 10
2.7281183825
 20
0.7920027219
 11
2.7284604037
 21
0.7883828202
  0
SPLINE
  5
375
100
AcDbEntity
  8
0
100
AcDbSpline
 62
9
  6
CONTINUOUS
 70
0
 71
3
 72
18
 73
14
 74
0
 42
0.0000001
 43
0.0000001
 44
0.0000000001
 40
0.0
 40
0.0
 40
0.0
 40
0.0
 40
0.0089699931
 40
0.0259318536
 40
0.0511534013
 40
0.0846081147
 40
0.1262084484
 40
0.1758467621
 40
0.2987667088
 40
0.4510376769
 40
0.6248210294
 40
0.8108877612
 40
1.0
 40
1.0
 40
1.0
 40
1.0
 10
5.6246753427
 20
1.2524987702
 30
0.0
 10
5.6247224861
 20
1.2525107935
 30
0.0
 10
5.6248662209
 20
1.2524642096
 30
0.0
 10
5.6251137487
 20
1.2523544952
 30
0.0
 10
5.6254750499
 20
1.2521523163
 30
0.0
 10
5.6259381232
 20
1.251869692
 30
0.0
 10
5.6265054023
 20
1.2515003118
 30
0.0
 10
5.6274659256
 20
1.2508474719
 30
0.0
 10
5.6288989743
 20
1.249821884
 30
0.0
 10
5.6308510563
 20
1.2483660014
 30
0.0
 10
5.6330566361
 20
1.2466773654
 30
0.0
 10
5.635403191
 20
1.2448444705
 30
0.0
 10
5.6369962387
 20
1.2435782561
 30
0.0
 10
5.6377964346
 20
1.2429365353
 30
0.0
  0
SPLINE
  5
376
100
AcDbEntity
  8
0
100
AcDbSpline
 62
7
  6
CONTINUOUS
 70
0
 71
3
 72
9
 73
5
 74
0
 42
0.0000001
 43
0.0000001
 44
0.0000000001
 40
0.0
 40
0.0
 40
0.0
 40
0.0
 40
0.5160808332
 40
1.0
 40
1.0
 40
1.0
 40
1.0
 10
5.4921603936
 20
10.5402895266
 30
0.0
 10
5.4977063651
 20
10.5363440893
 30
0.0
 10
5.509234938
 20
10.5297249326
 30
0.0
 10
5.5218884312
 20
10.5256446358
 30
0.0
 10
5.5281343965
 20
10.5243337845
 30
0.0
  0
SPLINE
  5
377
100
AcDbEntity
  8
0
100
AcDbSpline
 62
7
  6
CONTINUOUS
 70
0
 71
3
 72
9
 73
5
 74
0
 42
0.0000001
 43
0.0000001
 44
0.0000000001
 40
0.0
 40
0.0
 40
0.0
 40
0.0
 40
0.4906862543
 40
1.0
 40
1.0
 40
1.0
 40
1.0
 10
5.5468926167
 20
10.5223943377
 30
0.0
 10
5.5535239088
 20
10.5223943579
 30
0.0
 10
5.5670808502
 20
10.5238628709
 30
0.0
 10
5.5799759141
 20
10.5283140847
 30
0.0
 10
5.5862040409
 20
10.5312443646
 30
0.0
  0
SPLINE
  5
378
100
AcDbEntity
  8
0
100
AcDbSpline
 62
7
  6
CONTINUOUS
 70
0
 71
3
 72
9
 73
5
 74
0
 42
0.0000001
 43
0.0000001
 44
0.0000000001
 40
0.0
 40
0.0
 40
0.0
 40
0.0
 40
0.2437374302
 40
1.0
 40
1.0
 40
1.0
 40
1.0
 10
5.5862040409
 20
10.5312443646
 30
0.0
 10
5.5875192858
 20
10.531863176
 30
0.0
 10
5.5928574039
 20
10.5345240416
 30
0.0
 10
5.5979493403
 20
10.5376751385
 30
0.0
 10
5.6016242997
 20
10.5402895266
 30
0.0
  0
SPLINE
  5
379
100
AcDbEntity
  8
0
100
AcDbSpline
 62
7
  6
CONTINUOUS
 70
0
 71
3
 72
11
 73
7
 74
0
 42
0.0000001
 43
0.0000001
 44
0.0000000001
 40
0.0
 40
0.0
 40
0.0
 40
0.0
 40
0.2499956975
 40
0.5000000003
 40
0.7500043017
 40
1.0
 40
1.0
 40
1.0
 40
1.0
 10
5.6268714976
 20
10.5402895266
 30
0.0
 10
5.6443508013
 20
10.534072086
 30
0.0
 10
5.6806303759
 20
10.5251709444
 30
0.0
 10
5.7363354037
 20
10.5210060115
 30
0.0
 10
5.7920404323
 20
10.5251709412
 30
0.0
 10
5.8283200061
 20
10.534072086
 30
0.0
 10
5.8457993099
 20
10.5402895266
 30
0.0
  0
SPLINE
  5
37A
100
AcDbEntity
  8
0
100
AcDbSpline
 62
7
  6
CONTINUOUS
 70
0
 71
3
 72
9
 73
5
 74
0
 42
0.0000001
 43
0.0000001
 44
0.0000000001
 40
0.0
 40
0.0
 40
0.0
 40
0.0
 40
0.2578200597
 40
1.0
 40
1.0
 40
1.0
 40
1.0
 10
5.8710465077
 20
10.5402895266
 30
0.0
 10
5.8724725315
 20
10.5392750447
 30
0.0
 10
5.878099903
 20
10.5354777279
 30
0.0
 10
5.8841099351
 20
10.5322443998
 30
0.0
 10
5.8887224989
 20
10.530218499
 30
0.0
  0
SPLINE
  5
37B
100
AcDbEntity
  8
0
100
AcDbSpline
 62
7
  6
CONTINUOUS
 70
0
 71
3
 72
9
 73
5
 74
0
 42
0.0000001
 43
0.0000001
 44
0.0000000001
 40
0.0
 40
0.0
 40
0.0
 40
0.0
 40
0.5082510175
 40
1.0
 40
1.0
 40
1.0
 40
1.0
 10
5.8887224989
 20
10.530218499
 30
0.0
 10
5.8946290772
 20
10.5276242494
 30
0.0
 10
5.9068080357
 20
10.5236896608
 30
0.0
 10
5.9195365349
 20
10.5223943518
 30
0.0
 10
5.9257782618
 20
10.5223943369
 30
0.0
  0
SPLINE
  5
37C
100
AcDbEntity
  8
0
100
AcDbSpline
 62
7
  6
CONTINUOUS
 70
0
 71
3
 72
11
 73
7
 74
0
 42
0.0000001
 43
0.0000001
 44
0.0000000001
 40
0.0
 40
0.0
 40
0.0
 40
0.0
 40
0.2420627077
 40
0.4871674421
 40
0.7386954811
 40
1.0
 40
1.0
 40
1.0
 40
1.0
 10
5.9257782618
 20
10.5223943369
 30
0.0
 10
5.9296590248
 20
10.5223943277
 30
0.0
 10
5.9374788424
 20
10.5228848581
 30
0.0
 10
5.9491349261
 20
10.525155485
 30
0.0
 10
5.9606911071
 20
10.5290174708
 30
0.0
 10
5.968107795
 20
10.5326289236
 30
0.0
 10
5.971750159
 20
10.5346984621
 30
0.0
  0
SPLINE
  5
37D
100
AcDbEntity
  8
0
100
AcDbSpline
 62
7
  6
CONTINUOUS
 70
0
 71
3
 72
9
 73
5
 74
0
 42
0.0000001
 43
0.0000001
 44
0.0000000001
 40
0.0
 40
0.0
 40
0.0
 40
0.0
 40
0.5122164511
 40
1.0
 40
1.0
 40
1.0
 40
1.0
 10
5.8710465077
 20
10.7071328336
 30
0.0
 10
5.8746443494
 20
10.7097231034
 30
0.0
 10
5.8820111289
 20
10.7143241427
 30
0.0
 10
5.8899394338
 20
10.7178701959
 30
0.0
 10
5.8939022179
 20
10.7193262255
 30
0.0
  0
SPLINE
  5
37E
100
AcDbEntity
  8
0
100
AcDbSpline
 62
7
  6
CONTINUOUS
 70
0
 71
3
 72
15
 73
11
 74
0
 42
0.0000001
 43
0.0000001
 44
0.0000000001
 40
0.0
 40
0.0
 40
0.0
 40
0.0
 40
0.1248286511
 40
0.2499293002
 40
0.3750505098
 40
0.4999999992
 40
0.6249494893
 40
0.7500707004
 40
0.8751713498
 40
1.0
 40
1.0
 40
1.0
 40
1.0
 10
5.6268714976
 20
10.7071328336
 30
0.0
 10
5.6355958031
 20
10.710273757
 30
0.0
 10
5.6534101459
 20
10.71563275
 30
0.0
 10
5.6807599706
 20
10.7211093895
 30
0.0
 10
5.7084719847
 20
10.7243181054
 30
0.0
 10
5.7363354037
 20
10.7254012665
 30
0.0
 10
5.7641988226
 20
10.724318104
 30
0.0
 10
5.791910837
 20
10.7211093892
 30
0.0
 10
5.8192606623
 20
10.7156327523
 30
0.0
 10
5.837075005
 20
10.7102737586
 30
0.0
 10
5.8457993099
 20
10.7071328336
 30
0.0
  0
SPLINE
  5
37F
100
AcDbEntity
  8
0
100
AcDbSpline
 62
7
  6
CONTINUOUS
 70
0
 71
3
 72
9
 73
5
 74
0
 42
0.0000001
 43
0.0000001
 44
0.0000000001
 40
0.0
 40
0.0
 40
0.0
 40
0.0
 40
0.5157912485
 40
1.0
 40
1.0
 40
1.0
 40
1.0
 10
5.4921603936
 20
10.7071328336
 30
0.0
 10
5.4975453585
 20
10.7110097564
 30
0.0
 10
5.5087683706
 20
10.7175129571
 30
0.0
 10
5.5210903817
 20
10.7215374732
 30
0.0
 10
5.5271738213
 20
10.722876651
 30
0.0
  0
SPLINE
  5
380
100
AcDbEntity
  8
0
100
AcDbSpline
 62
7
  6
CONTINUOUS
 70
0
 71
3
 72
9
 73
5
 74
0
 42
0.0000001
 43
0.0000001
 44
0.0000000001
 40
0.0
 40
0.0
 40
0.0
 40
0.0
 40
0.4877835839
 40
1.0
 40
1.0
 40
1.0
 40
1.0
 10
5.5787685848
 20
10.7193262226
 30
0.0
 10
5.5827313694
 20
10.7178701922
 30
0.0
 10
5.5906596748
 20
10.7143241384
 30
0.0
 10
5.5980264565
 20
10.7097231014
 30
0.0
 10
5.6016242997
 20
10.7071328336
 30
0.0
  0
SPLINE
  5
381
100
AcDbEntity
  8
0
100
AcDbSpline
 62
7
  6
CONTINUOUS
 70
0
 71
3
 72
9
 73
5
 74
0
 42
0.0000001
 43
0.0000001
 44
0.0000000001
 40
0.0
 40
0.0
 40
0.0
 40
0.0
 40
0.5122164511
 40
1.0
 40
1.0
 40
1.0
 40
1.0
 10
2.8710465077
 20
10.7071328336
 30
0.0
 10
2.8746443494
 20
10.7097231034
 30
0.0
 10
2.8820111289
 20
10.7143241427
 30
0.0
 10
2.8899394338
 20
10.7178701959
 30
0.0
 10
2.8939022179
 20
10.7193262255
 30
0.0
  0
SPLINE
  5
382
100
AcDbEntity
  8
0
100
AcDbSpline
 62
7
  6
CONTINUOUS
 70
0
 71
3
 72
15
 73
11
 74
0
 42
0.0000001
 43
0.0000001
 44
0.0000000001
 40
0.0
 40
0.0
 40
0.0
 40
0.0
 40
0.1248286511
 40
0.2499293002
 40
0.3750505098
 40
0.4999999992
 40
0.6249494893
 40
0.7500707004
 40
0.8751713498
 40
1.0
 40
1.0
 40
1.0
 40
1.0
 10
2.6268714976
 20
10.7071328336
 30
0.0
 10
2.6355958031
 20
10.710273757
 30
0.0
 10
2.6534101459
 20
10.71563275
 30
0.0
 10
2.6807599706
 20
10.7211093895
 30
0.0
 10
2.7084719847
 20
10.7243181054
 30
0.0
 10
2.7363354037
 20
10.7254012665
 30
0.0
 10
2.7641988226
 20
10.724318104
 30
0.0
 10
2.791910837
 20
10.7211093892
 30
0.0
 10
2.8192606623
 20
10.7156327523
 30
0.0
 10
2.837075005
 20
10.7102737586
 30
0.0
 10
2.8457993099
 20
10.7071328336
 30
0.0
  0
SPLINE
  5
383
100
AcDbEntity
  8
0
100
AcDbSpline
 62
7
  6
CONTINUOUS
 70
0
 71
3
 72
9
 73
5
 74
0
 42
0.0000001
 43
0.0000001
 44
0.0000000001
 40
0.0
 40
0.0
 40
0.0
 40
0.0
 40
0.5157912485
 40
1.0
 40
1.0
 40
1.0
 40
1.0
 10
2.4921603936
 20
10.7071328336
 30
0.0
 10
2.4975453585
 20
10.7110097564
 30
0.0
 10
2.5087683706
 20
10.7175129571
 30
0.0
 10
2.5210903817
 20
10.7215374732
 30
0.0
 10
2.5271738213
 20
10.722876651
 30
0.0
  0
SPLINE
  5
384
100
AcDbEntity
  8
0
100
AcDbSpline
 62
7
  6
CONTINUOUS
 70
0
 71
3
 72
9
 73
5
 74
0
 42
0.0000001
 43
0.0000001
 44
0.0000000001
 40
0.0
 40
0.0
 40
0.0
 40
0.0
 40
0.4877835839
 40
1.0
 40
1.0
 40
1.0
 40
1.0
 10
2.5787685848
 20
10.7193262226
 30
0.0
 10
2.5827313694
 20
10.7178701922
 30
0.0
 10
2.5906596748
 20
10.7143241384
 30
0.0
 10
2.5980264565
 20
10.7097231014
 30
0.0
 10
2.6016242997
 20
10.7071328336
 30
0.0
  0
SPLINE
  5
385
100
AcDbEntity
  8
0
100
AcDbSpline
 62
9
  6
CONTINUOUS
 70
0
 71
3
 72
18
 73
14
 74
0
 42
0.0000001
 43
0.0000001
 44
0.0000000001
 40
0.0
 40
0.0
 40
0.0
 40
0.0
 40
0.0089345727
 40
0.0258207806
 40
0.0509367966
 40
0.0842675643
 40
0.125737123
 40
0.1752494422
 40
0.2979782018
 40
0.4502014969
 40
0.6240984982
 40
0.8104430048
 40
1.0
 40
1.0
 40
1.0
 40
1.0
 10
5.6246753387
 20
0.3799235862
 30
0.0
 10
5.6247222961
 20
0.3799116106
 30
0.0
 10
5.6248654374
 20
0.3799578014
 30
0.0
 10
5.625112004
 20
0.3800669479
 30
0.0
 10
5.6254719288
 20
0.3802681334
 30
0.0
 10
5.6259334301
 20
0.3805496092
 30
0.0
 10
5.6264990615
 20
0.3809177305
 30
0.0
 10
5.6274576869
 20
0.3815690476
 30
0.0
 10
5.6288892266
 20
0.3825933497
 30
0.0
 10
5.630840864
 20
0.3840487008
 30
0.0
 10
5.6330480186
 20
0.3857383562
 30
0.0
 10
5.6353982195
 20
0.3875739608
 30
0.0
 10
5.6369943558
 20
0.3888425946
 30
0.0
 10
5.6377964351
 20
0.3894858259
 30
0.0
  0
SPLINE
  5
386
100
AcDbEntity
  8
0
100
AcDbSpline
 62
9
  6
CONTINUOUS
 70
0
 71
3
 72
18
 73
14
 74
0
 42
0.0000001
 43
0.0000001
 44
0.0000000001
 40
0.0
 40
0.0
 40
0.0
 40
0.0
 40
0.0089345727
 40
0.0258207806
 40
0.0509367966
 40
0.0842675644
 40
0.125737123
 40
0.1752494422
 40
0.2979782018
 40
0.4502014969
 40
0.6240984982
 40
0.8104430047
 40
1.0
 40
1.0
 40
1.0
 40
1.0
 10
5.8479954688
 20
1.252498774
 30
0.0
 10
5.8479485113
 20
1.2525107496
 30
0.0
 10
5.84780537
 20
1.2524645588
 30
0.0
 10
5.8475588035
 20
1.2523554124
 30
0.0
 10
5.8471988786
 20
1.2521542269
 30
0.0
 10
5.8467373774
 20
1.2518727511
 30
0.0
 10
5.846171746
 20
1.2515046298
 30
0.0
 10
5.8452131205
 20
1.2508533127
 30
0.0
 10
5.8437815809
 20
1.2498290106
 30
0.0
 10
5.8418299434
 20
1.2483736595
 30
0.0
 10
5.8396227889
 20
1.246684004
 30
0.0
 10
5.8372725879
 20
1.2448483994
 30
0.0
 10
5.8356764517
 20
1.2435797656
 30
0.0
 10
5.8348743724
 20
1.2429365343
 30
0.0
  0
SPLINE
  5
387
100
AcDbEntity
  8
0
100
AcDbSpline
 62
9
  6
CONTINUOUS
 70
0
 71
3
 72
17
 73
13
 74
0
 42
0.0000001
 43
0.0000001
 44
0.0000000001
 40
0.0
 40
0.0
 40
0.0
 40
0.0
 40
0.1252052331
 40
0.1877983196
 40
0.2503425086
 40
0.3752223774
 40
0.5000001333
 40
0.6247781498
 40
0.7496581156
 40
0.8122019832
 40
0.8747946105
 40
1.0
 40
1.0
 40
1.0
 40
1.0
 10
5.6102241417
 20
0.4250252161
 30
0.0
 10
5.5897673275
 20
0.4532817867
 30
0.0
 10
5.5622911369
 20
0.4981319469
 30
0.0
 10
5.5329724454
 20
0.5614767874
 30
0.0
 10
5.5087417132
 20
0.6268557266
 30
0.0
 10
5.4882699408
 20
0.7117943021
 30
0.0
 10
5.47992389
 20
0.8162157021
 30
0.0
 10
5.4882715794
 20
0.9206369858
 30
0.0
 10
5.5087443891
 20
1.0055753086
 30
0.0
 10
5.5329758026
 20
1.0709537924
 30
0.0
 10
5.5622951827
 20
1.1342981263
 30
0.0
 10
5.589772015
 20
1.1791477995
 30
0.0
 10
5.6102292428
 20
1.2074041244
 30
0.0
  0
SPLINE
  5
388
100
AcDbEntity
  8
0
100
AcDbSpline
 62
9
  6
CONTINUOUS
 70
0
 71
3
 72
15
 73
11
 74
0
 42
0.0000001
 43
0.0000001
 44
0.0000000001
 40
0.0
 40
0.0
 40
0.0
 40
0.0
 40
0.1245656296
 40
0.2494941328
 40
0.3746749425
 40
0.4999994292
 40
0.6253241643
 40
0.7505046729
 40
0.8754318391
 40
1.0
 40
1.0
 40
1.0
 40
1.0
 10
5.6377964293
 20
1.2429365392
 30
0.0
 10
5.6437422015
 20
1.2500950788
 30
0.0
 10
5.6573192271
 20
1.2631249473
 30
0.0
 10
5.6814158478
 20
1.2777863284
 30
0.0
 10
5.7082078256
 20
1.2868178358
 30
0.0
 10
5.7363352966
 20
1.2899206815
 30
0.0
 10
5.7644627276
 20
1.2868177704
 30
0.0
 10
5.791254642
 20
1.2777864592
 30
0.0
 10
5.8153514595
 20
1.2631252396
 30
0.0
 10
5.8289284706
 20
1.2500952122
 30
0.0
 10
5.8348743678
 20
1.2429365308
 30
0.0
  0
SPLINE
  5
389
100
AcDbEntity
  8
0
100
AcDbSpline
 62
9
  6
CONTINUOUS
 70
0
 71
3
 72
17
 73
13
 74
0
 42
0.0000001
 43
0.0000001
 44
0.0000000001
 40
0.0
 40
0.0
 40
0.0
 40
0.0
 40
0.1252052642
 40
0.1877983705
 40
0.2503425801
 40
0.3752224872
 40
0.5000002674
 40
0.6247782834
 40
0.7496582224
 40
0.8122020657
 40
0.8747946636
 40
1.0
 40
1.0
 40
1.0
 40
1.0
 10
5.8624466412
 20
1.2073971773
 30
0.0
 10
5.8829034606
 20
1.1791406027
 30
0.0
 10
5.9103796587
 20
1.1342904347
 30
0.0
 10
5.9396983587
 20
1.0709455813
 30
0.0
 10
5.9639290974
 20
1.0055666262
 30
0.0
 10
5.9844008707
 20
0.920628033
 30
0.0
 10
5.992746918
 20
0.8162066224
 30
0.0
 10
5.9843992217
 20
0.7117853473
 30
0.0
 10
5.9639264139
 20
0.6268470455
 30
0.0
 10
5.939695013
 20
0.5614685862
 30
0.0
 10
5.9103756528
 20
0.4981242812
 30
0.0
 10
5.8828988384
 20
0.4532746285
 30
0.0
 10
5.8624416238
 20
0.4250183152
 30
0.0
  0
SPLINE
  5
38A
100
AcDbEntity
  8
0
100
AcDbSpline
 62
9
  6
CONTINUOUS
 70
0
 71
3
 72
15
 73
11
 74
0
 42
0.0000001
 43
0.0000001
 44
0.0000000001
 40
0.0
 40
0.0
 40
0.0
 40
0.0
 40
0.1245656753
 40
0.2494942129
 40
0.3746750247
 40
0.4999995008
 40
0.6253242323
 40
0.7505047338
 40
0.8754318767
 40
1.0
 40
1.0
 40
1.0
 40
1.0
 10
5.8348743781
 20
0.3894858211
 30
0.0
 10
5.8289286034
 20
0.3823272792
 30
0.0
 10
5.8153515721
 20
0.3692974078
 30
0.0
 10
5.7912549453
 20
0.354636025
 30
0.0
 10
5.7644629647
 20
0.3456045193
 30
0.0
 10
5.7363354939
 20
0.3425016789
 30
0.0
 10
5.7082080652
 20
0.3456045942
 30
0.0
 10
5.6814161539
 20
0.3546359065
 30
0.0
 10
5.6573193417
 20
0.3692971249
 30
0.0
 10
5.6437423347
 20
0.3823271499
 30
0.0
 10
5.6377964396
 20
0.3894858294
 30
0.0
  0
SPLINE
  5
38B
100
AcDbEntity
  8
0
100
AcDbSpline
 62
9
  6
CONTINUOUS
 70
0
 71
3
 72
18
 73
14
 74
0
 42
0.0000001
 43
0.0000001
 44
0.0000000001
 40
0.0
 40
0.0
 40
0.0
 40
0.0
 40
0.0089345727
 40
0.0258207806
 40
0.0509367966
 40
0.0842675644
 40
0.125737123
 40
0.1752494422
 40
0.2979782018
 40
0.4502014969
 40
0.6240984982
 40
0.8104430047
 40
1.0
 40
1.0
 40
1.0
 40
1.0
 10
2.8479954688
 20
1.252498774
 30
0.0
 10
2.8479485113
 20
1.2525107496
 30
0.0
 10
2.84780537
 20
1.2524645588
 30
0.0
 10
2.8475588035
 20
1.2523554124
 30
0.0
 10
2.8471988786
 20
1.2521542269
 30
0.0
 10
2.8467373774
 20
1.2518727511
 30
0.0
 10
2.846171746
 20
1.2515046298
 30
0.0
 10
2.8452131205
 20
1.2508533127
 30
0.0
 10
2.8437815809
 20
1.2498290106
 30
0.0
 10
2.8418299434
 20
1.2483736595
 30
0.0
 10
2.8396227889
 20
1.246684004
 30
0.0
 10
2.8372725879
 20
1.2448483994
 30
0.0
 10
2.8356764517
 20
1.2435797656
 30
0.0
 10
2.8348743724
 20
1.2429365343
 30
0.0
  0
SPLINE
  5
38C
100
AcDbEntity
  8
0
100
AcDbSpline
 62
9
  6
CONTINUOUS
 70
0
 71
3
 72
18
 73
14
 74
0
 42
0.0000001
 43
0.0000001
 44
0.0000000001
 40
0.0
 40
0.0
 40
0.0
 40
0.0
 40
0.0089699934
 40
0.0259318547
 40
0.0511534034
 40
0.084608118
 40
0.126208453
 40
0.1758467679
 40
0.2987667166
 40
0.4510376851
 40
0.6248210365
 40
0.8108877655
 40
1.0
 40
1.0
 40
1.0
 40
1.0
 10
2.8479954647
 20
0.3799235901
 30
0.0
 10
2.8479483213
 20
0.3799115668
 30
0.0
 10
2.8478045865
 20
0.3799581506
 30
0.0
 10
2.8475570587
 20
0.3800678651
 30
0.0
 10
2.8471957575
 20
0.380270044
 30
0.0
 10
2.8467326841
 20
0.3805526683
 30
0.0
 10
2.846165405
 20
0.3809220485
 30
0.0
 10
2.8452048818
 20
0.3815748884
 30
0.0
 10
2.843771833
 20
0.3826004764
 30
0.0
 10
2.841819751
 20
0.384056359
 30
0.0
 10
2.8396141712
 20
0.3857449949
 30
0.0
 10
2.8372676164
 20
0.3875778898
 30
0.0
 10
2.8356745687
 20
0.3888441042
 30
0.0
 10
2.8348743729
 20
0.389485825
 30
0.0
  0
SPLINE
  5
38D
100
AcDbEntity
  8
0
100
AcDbSpline
 62
9
  6
CONTINUOUS
 70
0
 71
3
 72
15
 73
11
 74
0
 42
0.0000001
 43
0.0000001
 44
0.0000000001
 40
0.0
 40
0.0
 40
0.0
 40
0.0
 40
0.1245656753
 40
0.2494942129
 40
0.3746750247
 40
0.4999995008
 40
0.6253242323
 40
0.7505047338
 40
0.8754318767
 40
1.0
 40
1.0
 40
1.0
 40
1.0
 10
2.8348743781
 20
0.3894858211
 30
0.0
 10
2.8289286034
 20
0.3823272792
 30
0.0
 10
2.8153515721
 20
0.3692974078
 30
0.0
 10
2.7912549453
 20
0.354636025
 30
0.0
 10
2.7644629647
 20
0.3456045193
 30
0.0
 10
2.7363354939
 20
0.3425016789
 30
0.0
 10
2.7082080652
 20
0.3456045942
 30
0.0
 10
2.6814161539
 20
0.3546359065
 30
0.0
 10
2.6573193417
 20
0.3692971249
 30
0.0
 10
2.6437423347
 20
0.3823271499
 30
0.0
 10
2.6377964396
 20
0.3894858294
 30
0.0
  0
SPLINE
  5
38E
100
AcDbEntity
  8
0
100
AcDbSpline
 62
9
  6
CONTINUOUS
 70
0
 71
3
 72
17
 73
13
 74
0
 42
0.0000001
 43
0.0000001
 44
0.0000000001
 40
0.0
 40
0.0
 40
0.0
 40
0.0
 40
0.1252052642
 40
0.1877983705
 40
0.2503425801
 40
0.3752224872
 40
0.5000002674
 40
0.6247782834
 40
0.7496582224
 40
0.8122020657
 40
0.8747946636
 40
1.0
 40
1.0
 40
1.0
 40
1.0
 10
2.8624466412
 20
1.2073971773
 30
0.0
 10
2.8829034606
 20
1.1791406027
 30
0.0
 10
2.9103796587
 20
1.1342904347
 30
0.0
 10
2.9396983587
 20
1.0709455813
 30
0.0
 10
2.9639290974
 20
1.0055666262
 30
0.0
 10
2.9844008707
 20
0.920628033
 30
0.0
 10
2.992746918
 20
0.8162066224
 30
0.0
 10
2.9843992217
 20
0.7117853473
 30
0.0
 10
2.9639264139
 20
0.6268470455
 30
0.0
 10
2.939695013
 20
0.5614685862
 30
0.0
 10
2.9103756528
 20
0.4981242812
 30
0.0
 10
2.8828988384
 20
0.4532746285
 30
0.0
 10
2.8624416238
 20
0.4250183152
 30
0.0
  0
SPLINE
  5
38F
100
AcDbEntity
  8
0
100
AcDbSpline
 62
9
  6
CONTINUOUS
 70
0
 71
3
 72
15
 73
11
 74
0
 42
0.0000001
 43
0.0000001
 44
0.0000000001
 40
0.0
 40
0.0
 40
0.0
 40
0.0
 40
0.1245656296
 40
0.2494941328
 40
0.3746749425
 40
0.4999994292
 40
0.6253241643
 40
0.7505046729
 40
0.8754318391
 40
1.0
 40
1.0
 40
1.0
 40
1.0
 10
2.6377964293
 20
1.2429365392
 30
0.0
 10
2.6437422015
 20
1.2500950788
 30
0.0
 10
2.6573192271
 20
1.2631249473
 30
0.0
 10
2.6814158478
 20
1.2777863284
 30
0.0
 10
2.7082078256
 20
1.2868178358
 30
0.0
 10
2.7363352966
 20
1.2899206815
 30
0.0
 10
2.7644627276
 20
1.2868177704
 30
0.0
 10
2.791254642
 20
1.2777864592
 30
0.0
 10
2.8153514595
 20
1.2631252396
 30
0.0
 10
2.8289284706
 20
1.2500952122
 30
0.0
 10
2.8348743678
 20
1.2429365308
 30
0.0
  0
SPLINE
  5
390
100
AcDbEntity
  8
0
100
AcDbSpline
 62
9
  6
CONTINUOUS
 70
0
 71
3
 72
17
 73
13
 74
0
 42
0.0000001
 43
0.0000001
 44
0.0000000001
 40
0.0
 40
0.0
 40
0.0
 40
0.0
 40
0.1252052331
 40
0.1877983196
 40
0.2503425086
 40
0.3752223774
 40
0.5000001333
 40
0.6247781498
 40
0.7496581156
 40
0.8122019832
 40
0.8747946105
 40
1.0
 40
1.0
 40
1.0
 40
1.0
 10
2.6102241417
 20
0.4250252161
 30
0.0
 10
2.5897673275
 20
0.4532817867
 30
0.0
 10
2.5622911369
 20
0.4981319469
 30
0.0
 10
2.5329724454
 20
0.5614767874
 30
0.0
 10
2.5087417132
 20
0.6268557266
 30
0.0
 10
2.4882699408
 20
0.7117943021
 30
0.0
 10
2.47992389
 20
0.8162157021
 30
0.0
 10
2.4882715794
 20
0.9206369858
 30
0.0
 10
2.5087443891
 20
1.0055753086
 30
0.0
 10
2.5329758026
 20
1.0709537924
 30
0.0
 10
2.5622951827
 20
1.1342981263
 30
0.0
 10
2.589772015
 20
1.1791477995
 30
0.0
 10
2.6102292428
 20
1.2074041244
 30
0.0
  0
SPLINE
  5
391
100
AcDbEntity
  8
0
100
AcDbSpline
 62
9
  6
CONTINUOUS
 70
0
 71
3
 72
18
 73
14
 74
0
 42
0.0000001
 43
0.0000001
 44
0.0000000001
 40
0.0
 40
0.0
 40
0.0
 40
0.0
 40
0.0089699931
 40
0.0259318536
 40
0.0511534013
 40
0.0846081147
 40
0.1262084484
 40
0.1758467621
 40
0.2987667088
 40
0.4510376769
 40
0.6248210294
 40
0.8108877612
 40
1.0
 40
1.0
 40
1.0
 40
1.0
 10
2.6246753427
 20
1.2524987702
 30
0.0
 10
2.6247224861
 20
1.2525107935
 30
0.0
 10
2.6248662209
 20
1.2524642096
 30
0.0
 10
2.6251137487
 20
1.2523544952
 30
0.0
 10
2.6254750499
 20
1.2521523163
 30
0.0
 10
2.6259381232
 20
1.251869692
 30
0.0
 10
2.6265054023
 20
1.2515003118
 30
0.0
 10
2.6274659256
 20
1.2508474719
 30
0.0
 10
2.6288989743
 20
1.249821884
 30
0.0
 10
2.6308510563
 20
1.2483660014
 30
0.0
 10
2.6330566361
 20
1.2466773654
 30
0.0
 10
2.635403191
 20
1.2448444705
 30
0.0
 10
2.6369962387
 20
1.2435782561
 30
0.0
 10
2.6377964346
 20
1.2429365353
 30
0.0
  0
SPLINE
  5
392
100
AcDbEntity
  8
0
100
AcDbSpline
 62
9
  6
CONTINUOUS
 70
0
 71
3
 72
18
 73
14
 74
0
 42
0.0000001
 43
0.0000001
 44
0.0000000001
 40
0.0
 40
0.0
 40
0.0
 40
0.0
 40
0.0089345727
 40
0.0258207806
 40
0.0509367966
 40
0.0842675643
 40
0.125737123
 40
0.1752494422
 40
0.2979782018
 40
0.4502014969
 40
0.6240984982
 40
0.8104430048
 40
1.0
 40
1.0
 40
1.0
 40
1.0
 10
2.6246753387
 20
0.3799235862
 30
0.0
 10
2.6247222961
 20
0.3799116106
 30
0.0
 10
2.6248654374
 20
0.3799578014
 30
0.0
 10
2.625112004
 20
0.3800669479
 30
0.0
 10
2.6254719288
 20
0.3802681334
 30
0.0
 10
2.6259334301
 20
0.3805496092
 30
0.0
 10
2.6264990615
 20
0.3809177305
 30
0.0
 10
2.6274576869
 20
0.3815690476
 30
0.0
 10
2.6288892266
 20
0.3825933497
 30
0.0
 10
2.630840864
 20
0.3840487008
 30
0.0
 10
2.6330480186
 20
0.3857383562
 30
0.0
 10
2.6353982195
 20
0.3875739608
 30
0.0
 10
2.6369943558
 20
0.3888425946
 30
0.0
 10
2.6377964351
 20
0.3894858259
 30
0.0
  0
ENDSEC
  0
SECTION
  2
OBJECTS
  0
DICTIONARY
  5
C
100
AcDbDictionary
280
0
281
1
  3
ACAD_GROUP
350
D
  3
ACAD_MLINESTYLE
350
17
  3
ACAD_LAYOUT
350
1A
  3
ACAD_PLOTSETTINGS
350
19
  3
ACAD_PLOTSTYLENAME
350
E
  0
DICTIONARY
  5
D
102
{ACAD_REACTORS
330
C
102
}
100
AcDbDictionary
280
0
281
1
  0
ACDBDICTIONARYWDFLT
  5
E
102
{ACAD_REACTORS
330
C
102
}
100
AcDbDictionary
281
1
  3
Normal
350
F
100
AcDbDictionaryWithDefault
340
F
  0
DICTIONARY
  5
17
102
{ACAD_REACTORS
330
C
102
}
100
AcDbDictionary
280
0
281
1
  3
Standard
350
18
  0
DICTIONARY
  5
19
102
{ACAD_REACTORS
330
C
102
}
100
AcDbDictionary
281
1
  0
DICTIONARY
  5
1A
102
{ACAD_REACTORS
330
C
102
}
100
AcDbDictionary
281
1
  3
Model
350
393
  3
Layout1
350
394
  0
ACDBPLACEHOLDER
  5
F
102
{ACAD_REACTORS
330
E
102
}
  0
MLINESTYLE
  5
18
102
{ACAD_REACTORS
330
17
102
}
100
AcDbMlineStyle
  2
STANDARD
 70
0
  3

 62
256
 51
90.0
 52
90.0
 71
2
 49
0.5
 62
256
  6
BYLAYER
 49
-0.5
 62
256
  6
BYLAYER
  0
LAYOUT
  5
393
102
{ACAD_REACTORS
330
1A
102
}
100
AcDbPlotSettings
  1

  2
none_device
  4

  6

 40
0.0
 41
0.0
 42
0.0
 43
0.0
 44
215.9
 45
279.4
 46
0.0
 47
0.0
 48
0.0
 49
0.0
140
0.0
141
0.0
142
1.0
143
1.0
 70
1024
 72
0
 73
0
 74
0
  7

 75
0
147
1.0
148
0.0
149
0.0
100
AcDbLayout
  1
Model
 70
0
 71
0
 10
0.0
 20
0.0
 11
8.5
 21
11.0
 12
0.0
 22
0.0
 32
0.0
 14
0.0
 24
0.0
 34
0.0
 15
0.0
 25
0.0
 35
0.0
146
0.0
 13
0.0
 23
0.0
 33
0.0
 16
1.0
 26
0.0
 36
0.0
 17
0.0
 27
1.0
 37
0.0
 76
0
330
23B
345
0
346
0
  0
LAYOUT
  5
394
102
{ACAD_REACTORS
330
1A
102
}
100
AcDbPlotSettings
  1

  2
none_device
  4

  6

 40
0.0
 41
0.0
 42
0.0
 43
0.0
 44
215.9
 45
279.4
 46
0.0
 47
0.0
 48
0.0
 49
0.0
140
0.0
141
0.0
142
1.0
143
1.0
 70
0
 72
0
 73
0
 74
0
  7

 75
0
147
1.0
148
0.0
149
0.0
100
AcDbLayout
  1
Layout1
 70
0
 71
1
 10
0.0
 20
0.0
 11
8.5
 21
11.0
 12
0.0
 22
0.0
 32
0.0
 14
0.0
 24
0.0
 34
0.0
 15
0.0
 25
0.0
 35
0.0
146
0.0
 13
0.0
 23
0.0
 33
0.0
 16
1.0
 26
0.0
 36
0.0
 17
0.0
 27
1.0
 37
0.0
 76
0
330
23C
345
0
346
0
  0
ENDSEC
  0
EOF
