999
DXF file: C:\Prowork\plots\491_right.dxf
999
Pro/ENGINEER 2018500 by Parametric Technology Corporation
  0
SECTION
  2
HEADER
  9
$ACADVER
  1
AC1032
  9
$DWGCODEPAGE
  3
ANSI_1252
  9
$EXTMAX
 10
8.5
 20
11.0
 30
0.0
  9
$EXTMIN
 10
0.0
 20
0.0
 30
0.0
  9
$LIMMIN
 10
0.0
 20
0.0
  9
$LIMMAX
 10
8.5
 20
11.0
  9
$VIEWCTR
 10
4.25
 20
5.5
  9
$VIEWSIZE
 40
11.0
  9
$CLAYER
  8
0
  9
$LTSCALE
 40
0.717037037
  9
$CELTYPE
  6
BYLAYER
  9
$DIMSCALE
 40
1.0
  9
$DIMASZ
 40
0.1
  9
$DIMEXO
 40
0.0625
  9
$DIMDLI
 40
0.4954074074
  9
$DIMEXE
 40
0.125
  9
$DIMCEN
 40
0.1173333333
  9
$DIMLFAC
 40
1.0
  9
$DIMBLK
  1
_FILLED
  9
$DIMALT
 70
1
  9
$DIMALTD
 70
2
  9
$DIMALTTD
 70
2
  9
$DIMALTF
 40
25.4
  9
$DIMTXT
 40
0.08
  9
$DIMTOL
 70
1
  9
$DIMLIM
 70
0
  9
$DIMTFAC
 40
1.0
  9
$DIMTP
 40
0.001
  9
$DIMTM
 40
0.001
  9
$DIMGAP
 40
0.09
  9
$DIMDSEP
 70
46
  9
$AUNITS
 70
0
  9
$PDMODE
 70
3
  9
$PDSIZE
 40
0.06
  9
$HANDSEED
  5
5AB
  9
$TILEMODE
 70
1
  9
$MEASUREMENT
 70
0
  9
$INSUNITS
 70
1
  0
ENDSEC
  0
SECTION
  2
CLASSES
  0
CLASS
  1
ACDBDICTIONARYWDFLT
  2
AcDbDictionaryWithDefault
  3
AutoCAD 2000
 90
0
 91
1
280
0
281
0
  0
CLASS
  1
ACDBPLACEHOLDER
  2
AcDbPlaceHolder
  3
AutoCAD 2000
 90
0
 91
1
280
0
281
0
  0
CLASS
  1
LAYOUT
  2
AcDbLayout
  3
AutoCAD 2000
 90
0
 91
0
280
0
281
0
  0
ENDSEC
  0
SECTION
  2
TABLES
  0
TABLE
  2
VPORT
  5
8
100
AcDbSymbolTable
 70
2
  0
VPORT
  5
1F4
100
AcDbSymbolTableRecord
100
AcDbViewportTableRecord
  2
*ACTIVE
 70
0
 10
0.0
 20
0.0
 11
1.0
 21
1.0
 12
4.25
 22
5.5
 13
0.0
 23
0.0
 14
1.0
 24
1.0
 15
0.0
 25
0.0
 16
0.0
 26
0.0
 36
1.0
 17
0.0
 27
0.0
 37
0.0
 40
11.0
 41
0.7727272727
 42
50.0
 43
0.0
 44
0.0
 50
0.0
 51
0.0
 71
0
 72
100
 73
1
 74
1
 75
0
 76
0
 77
0
 78
0
  0
ENDTAB
  0
TABLE
  2
LTYPE
  5
5
100
AcDbSymbolTable
 70
6
  0
LTYPE
  5
14
100
AcDbSymbolTableRecord
100
AcDbLinetypeTableRecord
  2
BYBLOCK
 70
0
  3

 72
65
 73
0
 40
0.0
  0
LTYPE
  5
15
100
AcDbSymbolTableRecord
100
AcDbLinetypeTableRecord
  2
BYLAYER
 70
0
  3

 72
65
 73
0
 40
0.0
  0
LTYPE
  5
16
100
AcDbSymbolTableRecord
100
AcDbLinetypeTableRecord
  2
CONTINUOUS
 70
64
  3
Solid line
 72
65
 73
0
 40
0.0
  0
LTYPE
  5
1F5
100
AcDbSymbolTableRecord
100
AcDbLinetypeTableRecord
  2
CENTER
 70
64
  3
____ _ ____ _ ____ _ ____ _ ____ _ ____ _ ____
 72
65
 73
4
 40
0.6
 49
0.375
 74
0
 49
-0.075
 74
0
 49
0.075
 74
0
 49
-0.075
 74
0
  0
LTYPE
  5
1F6
100
AcDbSymbolTableRecord
100
AcDbLinetypeTableRecord
  2
HIDDEN
 70
64
  3
- - - - - - - - - - - - - - - - - - - -
 72
65
 73
2
 40
0.2
 49
0.1
 74
0
 49
-0.1
 74
0
  0
LTYPE
  5
1F7
100
AcDbSymbolTableRecord
100
AcDbLinetypeTableRecord
  2
PHANTOM
 70
64
  3
_____ _ _ _____ _ _ _____ _ _ _____
 72
65
 73
6
 40
0.8
 49
0.45
 74
0
 49
-0.05
 74
0
 49
0.1
 74
0
 49
-0.05
 74
0
 49
0.1
 74
0
 49
-0.05
 74
0
  0
LTYPE
  5
1F8
100
AcDbSymbolTableRecord
100
AcDbLinetypeTableRecord
  2
DOT
 70
64
  3
. . . . . . . . . . . . . . . . . . . .
 72
65
 73
2
 40
0.2
 49
0.1
 74
0
 49
-0.1
 74
0
  0
LTYPE
  5
1F9
100
AcDbSymbolTableRecord
100
AcDbLinetypeTableRecord
  2
DASHED
 70
64
  3
- - - - - - - - - - - - - - - - - - - -
 72
65
 73
2
 40
0.2
 49
0.1
 74
0
 49
-0.1
 74
0
  0
ENDTAB
  0
TABLE
  2
LAYER
  5
2
100
AcDbSymbolTable
 70
36
  0
LAYER
  5
10
100
AcDbSymbolTableRecord
100
AcDbLayerTableRecord
  2
0
 70
0
 62
7
  6
CONTINUOUS
370
-3
390
F
  0
LAYER
  5
1FA
100
AcDbSymbolTableRecord
100
AcDbLayerTableRecord
  2
DEFAULT_1
 70
0
 62
7
  6
CENTER
370
-3
390
F
  0
LAYER
  5
1FB
100
AcDbSymbolTableRecord
100
AcDbLayerTableRecord
  2
DEFAULT_2
 70
0
 62
8
  6
HIDDEN
370
-3
390
F
  0
LAYER
  5
1FC
100
AcDbSymbolTableRecord
100
AcDbLayerTableRecord
  2
DEFAULT_3
 70
0
 62
7
  6
PHANTOM
370
-3
390
F
  0
LAYER
  5
1FD
100
AcDbSymbolTableRecord
100
AcDbLayerTableRecord
  2
1-257
 70
0
 62
7
  6
CONTINUOUS
370
-3
390
F
  0
LAYER
  5
1FE
100
AcDbSymbolTableRecord
100
AcDbLayerTableRecord
  2
1-257_1
 70
0
 62
7
  6
CONTINUOUS
370
-3
390
F
  0
LAYER
  5
1FF
100
AcDbSymbolTableRecord
100
AcDbLayerTableRecord
  2
10182
 70
0
 62
7
  6
CONTINUOUS
370
-3
390
F
  0
LAYER
  5
200
100
AcDbSymbolTableRecord
100
AcDbLayerTableRecord
  2
10182_1
 70
0
 62
7
  6
CONTINUOUS
370
-3
390
F
  0
LAYER
  5
201
100
AcDbSymbolTableRecord
100
AcDbLayerTableRecord
  2
401
 70
0
 62
7
  6
CONTINUOUS
370
-3
390
F
  0
LAYER
  5
202
100
AcDbSymbolTableRecord
100
AcDbLayerTableRecord
  2
401_1
 70
0
 62
7
  6
CONTINUOUS
370
-3
390
F
  0
LAYER
  5
203
100
AcDbSymbolTableRecord
100
AcDbLayerTableRecord
  2
432
 70
0
 62
7
  6
CONTINUOUS
370
-3
390
F
  0
LAYER
  5
204
100
AcDbSymbolTableRecord
100
AcDbLayerTableRecord
  2
432_1
 70
0
 62
7
  6
CONTINUOUS
370
-3
390
F
  0
LAYER
  5
205
100
AcDbSymbolTableRecord
100
AcDbLayerTableRecord
  2
442
 70
0
 62
7
  6
CONTINUOUS
370
-3
390
F
  0
LAYER
  5
206
100
AcDbSymbolTableRecord
100
AcDbLayerTableRecord
  2
442_1
 70
0
 62
7
  6
CONTINUOUS
370
-3
390
F
  0
LAYER
  5
207
100
AcDbSymbolTableRecord
100
AcDbLayerTableRecord
  2
450
 70
0
 62
7
  6
CONTINUOUS
370
-3
390
F
  0
LAYER
  5
208
100
AcDbSymbolTableRecord
100
AcDbLayerTableRecord
  2
450_1
 70
0
 62
7
  6
CONTINUOUS
370
-3
390
F
  0
LAYER
  5
209
100
AcDbSymbolTableRecord
100
AcDbLayerTableRecord
  2
50350
 70
0
 62
7
  6
CONTINUOUS
370
-3
390
F
  0
LAYER
  5
20A
100
AcDbSymbolTableRecord
100
AcDbLayerTableRecord
  2
50350_1
 70
0
 62
7
  6
CONTINUOUS
370
-3
390
F
  0
LAYER
  5
20B
100
AcDbSymbolTableRecord
100
AcDbLayerTableRecord
  2
50355
 70
0
 62
7
  6
CONTINUOUS
370
-3
390
F
  0
LAYER
  5
20C
100
AcDbSymbolTableRecord
100
AcDbLayerTableRecord
  2
50355_1
 70
0
 62
7
  6
CONTINUOUS
370
-3
390
F
  0
LAYER
  5
20D
100
AcDbSymbolTableRecord
100
AcDbLayerTableRecord
  2
50359
 70
0
 62
7
  6
CONTINUOUS
370
-3
390
F
  0
LAYER
  5
20E
100
AcDbSymbolTableRecord
100
AcDbLayerTableRecord
  2
50359_1
 70
0
 62
7
  6
CONTINUOUS
370
-3
390
F
  0
LAYER
  5
20F
100
AcDbSymbolTableRecord
100
AcDbLayerTableRecord
  2
50558-4
 70
0
 62
7
  6
CONTINUOUS
370
-3
390
F
  0
LAYER
  5
210
100
AcDbSymbolTableRecord
100
AcDbLayerTableRecord
  2
50558-4_1
 70
0
 62
7
  6
CONTINUOUS
370
-3
390
F
  0
LAYER
  5
211
100
AcDbSymbolTableRecord
100
AcDbLayerTableRecord
  2
50663
 70
0
 62
7
  6
CONTINUOUS
370
-3
390
F
  0
LAYER
  5
212
100
AcDbSymbolTableRecord
100
AcDbLayerTableRecord
  2
50663_1
 70
0
 62
7
  6
CONTINUOUS
370
-3
390
F
  0
LAYER
  5
213
100
AcDbSymbolTableRecord
100
AcDbLayerTableRecord
  2
50664
 70
0
 62
7
  6
CONTINUOUS
370
-3
390
F
  0
LAYER
  5
214
100
AcDbSymbolTableRecord
100
AcDbLayerTableRecord
  2
50664_1
 70
0
 62
7
  6
CONTINUOUS
370
-3
390
F
  0
LAYER
  5
215
100
AcDbSymbolTableRecord
100
AcDbLayerTableRecord
  2
50666
 70
0
 62
7
  6
CONTINUOUS
370
-3
390
F
  0
LAYER
  5
216
100
AcDbSymbolTableRecord
100
AcDbLayerTableRecord
  2
50666_1
 70
0
 62
7
  6
CONTINUOUS
370
-3
390
F
  0
LAYER
  5
217
100
AcDbSymbolTableRecord
100
AcDbLayerTableRecord
  2
50675
 70
0
 62
7
  6
CONTINUOUS
370
-3
390
F
  0
LAYER
  5
218
100
AcDbSymbolTableRecord
100
AcDbLayerTableRecord
  2
50675_1
 70
0
 62
7
  6
CONTINUOUS
370
-3
390
F
  0
LAYER
  5
219
100
AcDbSymbolTableRecord
100
AcDbLayerTableRecord
  2
50677
 70
0
 62
7
  6
CONTINUOUS
370
-3
390
F
  0
LAYER
  5
21A
100
AcDbSymbolTableRecord
100
AcDbLayerTableRecord
  2
50677_1
 70
0
 62
7
  6
CONTINUOUS
370
-3
390
F
  0
LAYER
  5
21B
100
AcDbSymbolTableRecord
100
AcDbLayerTableRecord
  2
50680
 70
0
 62
7
  6
CONTINUOUS
370
-3
390
F
  0
LAYER
  5
21C
100
AcDbSymbolTableRecord
100
AcDbLayerTableRecord
  2
50680_1
 70
0
 62
7
  6
CONTINUOUS
370
-3
390
F
  0
LAYER
  5
21D
100
AcDbSymbolTableRecord
100
AcDbLayerTableRecord
  2
50846
 70
0
 62
7
  6
CONTINUOUS
370
-3
390
F
  0
LAYER
  5
21E
100
AcDbSymbolTableRecord
100
AcDbLayerTableRecord
  2
50846_1
 70
0
 62
7
  6
CONTINUOUS
370
-3
390
F
  0
LAYER
  5
21F
100
AcDbSymbolTableRecord
100
AcDbLayerTableRecord
  2
6-401
 70
0
 62
7
  6
CONTINUOUS
370
-3
390
F
  0
LAYER
  5
220
100
AcDbSymbolTableRecord
100
AcDbLayerTableRecord
  2
6-401_1
 70
0
 62
7
  6
CONTINUOUS
370
-3
390
F
  0
LAYER
  5
221
100
AcDbSymbolTableRecord
100
AcDbLayerTableRecord
  2
92073
 70
0
 62
7
  6
CONTINUOUS
370
-3
390
F
  0
LAYER
  5
222
100
AcDbSymbolTableRecord
100
AcDbLayerTableRecord
  2
92073_1
 70
0
 62
7
  6
CONTINUOUS
370
-3
390
F
  0
LAYER
  5
223
100
AcDbSymbolTableRecord
100
AcDbLayerTableRecord
  2
DEFAULT_COORDINATE_SYSTEM
 70
0
 62
7
  6
CONTINUOUS
370
-3
390
F
  0
LAYER
  5
224
100
AcDbSymbolTableRecord
100
AcDbLayerTableRecord
  2
DEFAULT_DATUM_AXES
 70
0
 62
7
  6
CONTINUOUS
370
-3
390
F
  0
LAYER
  5
225
100
AcDbSymbolTableRecord
100
AcDbLayerTableRecord
  2
DEFAULT_DATUM_PLANES
 70
0
 62
7
  6
CONTINUOUS
370
-3
390
F
  0
LAYER
  5
226
100
AcDbSymbolTableRecord
100
AcDbLayerTableRecord
  2
INTF_10182
 70
0
 62
7
  6
CONTINUOUS
370
-3
390
F
  0
LAYER
  5
227
100
AcDbSymbolTableRecord
100
AcDbLayerTableRecord
  2
INTF_442
 70
0
 62
7
  6
CONTINUOUS
370
-3
390
F
  0
LAYER
  5
228
100
AcDbSymbolTableRecord
100
AcDbLayerTableRecord
  2
INTF_50350
 70
0
 62
7
  6
CONTINUOUS
370
-3
390
F
  0
LAYER
  5
229
100
AcDbSymbolTableRecord
100
AcDbLayerTableRecord
  2
INTF_50355
 70
0
 62
7
  6
CONTINUOUS
370
-3
390
F
  0
LAYER
  5
22A
100
AcDbSymbolTableRecord
100
AcDbLayerTableRecord
  2
INTF_50359
 70
0
 62
7
  6
CONTINUOUS
370
-3
390
F
  0
LAYER
  5
22B
100
AcDbSymbolTableRecord
100
AcDbLayerTableRecord
  2
INTF_50663
 70
0
 62
7
  6
CONTINUOUS
370
-3
390
F
  0
LAYER
  5
22C
100
AcDbSymbolTableRecord
100
AcDbLayerTableRecord
  2
INTF_50664
 70
0
 62
7
  6
CONTINUOUS
370
-3
390
F
  0
LAYER
  5
22D
100
AcDbSymbolTableRecord
100
AcDbLayerTableRecord
  2
INTF_50666
 70
0
 62
7
  6
CONTINUOUS
370
-3
390
F
  0
LAYER
  5
22E
100
AcDbSymbolTableRecord
100
AcDbLayerTableRecord
  2
INTF_50675
 70
0
 62
7
  6
CONTINUOUS
370
-3
390
F
  0
LAYER
  5
22F
100
AcDbSymbolTableRecord
100
AcDbLayerTableRecord
  2
INTF_50677
 70
0
 62
7
  6
CONTINUOUS
370
-3
390
F
  0
LAYER
  5
230
100
AcDbSymbolTableRecord
100
AcDbLayerTableRecord
  2
INTF_50680
 70
0
 62
7
  6
CONTINUOUS
370
-3
390
F
  0
LAYER
  5
231
100
AcDbSymbolTableRecord
100
AcDbLayerTableRecord
  2
INTF_50846
 70
0
 62
7
  6
CONTINUOUS
370
-3
390
F
  0
LAYER
  5
232
100
AcDbSymbolTableRecord
100
AcDbLayerTableRecord
  2
INTF_92073
 70
0
 62
7
  6
CONTINUOUS
370
-3
390
F
  0
LAYER
  5
233
100
AcDbSymbolTableRecord
100
AcDbLayerTableRecord
  2
INTF_BLANK
 70
0
 62
7
  6
CONTINUOUS
370
-3
390
F
  0
LAYER
  5
234
100
AcDbSymbolTableRecord
100
AcDbLayerTableRecord
  2
NONE
 70
0
 62
7
  6
CONTINUOUS
370
-3
390
F
  0
LAYER
  5
235
100
AcDbSymbolTableRecord
100
AcDbLayerTableRecord
  2
PLATED_SURFACE
 70
0
 62
7
  6
CONTINUOUS
370
-3
390
F
  0
LAYER
  5
236
100
AcDbSymbolTableRecord
100
AcDbLayerTableRecord
  2
QUILT
 70
0
 62
7
  6
CONTINUOUS
370
-3
390
F
  0
LAYER
  5
237
100
AcDbSymbolTableRecord
100
AcDbLayerTableRecord
  2
WETTED_SURFACES
 70
0
 62
7
  6
CONTINUOUS
370
-3
390
F
  0
LAYER
  5
238
100
AcDbSymbolTableRecord
100
AcDbLayerTableRecord
  2
_BLACK_HOLE
 70
0
 62
7
  6
CONTINUOUS
370
-3
390
F
  0
ENDTAB
  0
TABLE
  2
STYLE
  5
3
100
AcDbSymbolTable
 70
1
  0
STYLE
  5
11
100
AcDbSymbolTableRecord
100
AcDbTextStyleTableRecord
  2
STANDARD
 70
0
 40
0.0
 41
0.8
 50
0.0
 71
0
 42
0.2
  3
txt
  4

  0
STYLE
  5
239
100
AcDbSymbolTableRecord
100
AcDbTextStyleTableRecord
  2
TEXTSTYLE_1
 70
0
 40
0.0
 41
0.8
 50
0.0
 71
0
 42
0.2
  3
gdt
  4

  0
ENDTAB
  0
TABLE
  2
VIEW
  5
6
100
AcDbSymbolTable
 70
0
  0
ENDTAB
  0
TABLE
  2
UCS
  5
7
100
AcDbSymbolTable
 70
0
  0
ENDTAB
  0
TABLE
  2
APPID
  5
9
100
AcDbSymbolTable
 70
1
  0
APPID
  5
23A
100
AcDbSymbolTableRecord
100
AcDbRegAppTableRecord
  2
ACAD
 70
0
  0
ENDTAB
  0
TABLE
  2
BLOCK_RECORD
  5
1
100
AcDbSymbolTable
 70
0
  0
BLOCK_RECORD
  5
23B
100
AcDbSymbolTableRecord
100
AcDbBlockTableRecord
  2
*Model_Space
  0
BLOCK_RECORD
  5
23C
100
AcDbSymbolTableRecord
100
AcDbBlockTableRecord
  2
*Paper_Space
  0
BLOCK_RECORD
  5
23D
100
AcDbSymbolTableRecord
100
AcDbBlockTableRecord
  2
_FILLED
  0
ENDTAB
  0
TABLE
  2
DIMSTYLE
  5
A
100
AcDbSymbolTable
 70
1
100
AcDbDimStyleTable
 71
0
  0
DIMSTYLE
105
23E
100
AcDbSymbolTableRecord
100
AcDbDimStyleTableRecord
  2
STANDARD
 70
0
  3

  4

 40
1.0
 41
0.1
 42
0.0625
 43
0.38
 44
0.125
 45
0.0
 46
0.0
 47
0.001
 48
0.001
140
0.08
141
0.09
142
0.0
143
25.4
144
1.0
145
0.0
146
1.0
147
0.09
 71
1.0
 72
0.0
 73
1
 74
1
 75
0
 76
0
 77
0
 78
4
 79
1
170
1
171
2
172
0
173
0
174
0
175
0
176
0
177
0
178
0
270
2
179
3
271
3
272
3
273
2
274
2
275
0
280
0
281
0
282
0
283
1
284
4
285
0
286
0
287
3
288
0
340
11
278
46
341
23D
342
23D
343
23D
344
23D
  0
ENDTAB
  0
ENDSEC
  0
SECTION
  2
BLOCKS
  0
BLOCK
  5
20
100
AcDbEntity
  8
0
100
AcDbBlockBegin
  2
*Model_Space
 70
0
 10
0.0
 20
0.0
 30
0.0
  3
*Model_Space
  1

  0
ENDBLK
  5
21
100
AcDbEntity
  8
0
100
AcDbBlockEnd
  0
BLOCK
  5
1C
100
AcDbEntity
  8
0
100
AcDbBlockBegin
  2
*Paper_Space
 70
0
 10
0.0
 20
0.0
 30
0.0
  3
*Paper_Space
  1

  0
ENDBLK
  5
1D
100
AcDbEntity
  8
0
100
AcDbBlockEnd
  0
BLOCK
  5
23F
100
AcDbEntity
  8
0
100
AcDbBlockBegin
  2
_FILLED
 70
64
 10
0.0
 20
0.0
  3
_FILLED
  1

  0
SOLID
  5
240
100
AcDbEntity
  8
0
  6
BYBLOCK
 62
0
100
AcDbTrace
 10
0.0
 20
0.0
 11
-1.0
 21
0.2
 12
-1.0
 22
-0.2
 13
-1.0
 23
-0.2
  0
ENDBLK
  5
241
100
AcDbEntity
  8
0
  6
BYBLOCK
 62
0
100
AcDbBlockEnd
  0
ENDSEC
  0
SECTION
  2
ENTITIES
  0
MTEXT
  5
242
100
AcDbEntity
  8
0
100
AcDbMText
 62
7
  6
CONTINUOUS
  7
STANDARD
 71
1
 72
1
 10
7.0580745342
 20
0.2449689441
 30
0.0
 11
1.0
 21
0.0
 31
0.0
 73
2
 44
0.9
  1
SCALE: .50
 40
0.08
 41
0.64
  0
LINE
  5
243
100
AcDbEntity
  8
0
100
AcDbLine
 62
7
  6
CONTINUOUS
 10
0.0
 20
0.0
 11
8.5
 21
0.0
  0
LINE
  5
244
100
AcDbEntity
  8
0
100
AcDbLine
 62
7
  6
CONTINUOUS
 10
0.0
 20
0.0
 11
0.0
 21
11.0
  0
LINE
  5
245
100
AcDbEntity
  8
0
100
AcDbLine
 62
7
  6
CONTINUOUS
 10
8.5
 20
0.0
 11
8.5
 21
11.0
  0
LINE
  5
246
100
AcDbEntity
  8
0
100
AcDbLine
 62
7
  6
CONTINUOUS
 10
0.0
 20
11.0
 11
8.5
 21
11.0
  0
LINE
  5
247
100
AcDbEntity
  8
0
100
AcDbLine
 62
9
  6
CONTINUOUS
 10
2.5332362586
 20
0.3796569685
 11
2.4440420037
 21
0.3816336801
  0
LINE
  5
248
100
AcDbEntity
  8
0
100
AcDbLine
 62
7
  6
CONTINUOUS
 10
2.4459446032
 20
0.3287175464
 11
2.5332362586
 21
0.3256692547
  0
LINE
  5
249
100
AcDbEntity
  8
0
100
AcDbLine
 62
7
  6
CONTINUOUS
 10
2.8209862586
 20
10.7267361151
 11
2.8229862586
 21
10.7279192547
  0
LINE
  5
24A
100
AcDbEntity
  8
0
100
AcDbLine
 62
7
  6
CONTINUOUS
 10
5.2699862428
 20
0.6235064082
 11
5.2605985934
 21
0.6232140972
  0
LINE
  5
24B
100
AcDbEntity
  8
0
100
AcDbLine
 62
7
  6
CONTINUOUS
 10
5.2342862604
 20
0.6223947882
 11
5.2248986051
 21
0.622102477
  0
LINE
  5
24C
100
AcDbEntity
  8
0
100
AcDbLine
 62
7
  6
CONTINUOUS
 10
5.1985862712
 20
0.621283168
 11
5.1891985839
 21
0.6209908558
  0
LINE
  5
24D
100
AcDbEntity
  8
0
100
AcDbLine
 62
7
  6
CONTINUOUS
 10
2.7210108585
 20
0.5691960253
 11
2.6368909259
 21
0.5691960253
  0
LINE
  5
24E
100
AcDbEntity
  8
0
100
AcDbLine
 62
9
  6
CONTINUOUS
 10
2.6354774637
 20
0.5725453903
 11
2.7224243207
 21
0.5725453903
  0
LINE
  5
24F
100
AcDbEntity
  8
0
100
AcDbLine
 62
7
  6
CONTINUOUS
 10
2.8772362586
 20
0.5929192547
 11
3.2022362586
 21
0.5929192547
  0
LINE
  5
250
100
AcDbEntity
  8
0
100
AcDbLine
 62
7
  6
CONTINUOUS
 10
3.3008799012
 20
0.5929192547
 11
3.4410925855
 21
0.5929192547
  0
LINE
  5
251
100
AcDbEntity
  8
0
100
AcDbLine
 62
7
  6
CONTINUOUS
 10
3.2022362586
 20
0.5979192547
 11
3.2897362586
 21
0.5979192547
  0
LINE
  5
252
100
AcDbEntity
  8
0
100
AcDbLine
 62
7
  6
CONTINUOUS
 10
2.7367362586
 20
0.6029192547
 11
2.7492362586
 21
0.6029192547
  0
LINE
  5
253
100
AcDbEntity
  8
0
100
AcDbLine
 62
7
  6
CONTINUOUS
 10
2.8272362586
 20
0.6147942547
 11
2.8000744827
 21
0.6147942547
  0
LINE
  5
254
100
AcDbEntity
  8
0
100
AcDbLine
 62
7
  6
CONTINUOUS
 10
2.7793980345
 20
0.6147942547
 11
2.7750856909
 21
0.6147942547
  0
LINE
  5
255
100
AcDbEntity
  8
0
100
AcDbLine
 62
7
  6
CONTINUOUS
 10
2.7543870583
 20
0.6147942547
 11
2.7500761843
 21
0.6147942547
  0
LINE
  5
256
100
AcDbEntity
  8
0
100
AcDbLine
 62
7
  6
CONTINUOUS
 10
4.9647362586
 20
0.6151692547
 11
3.6022362586
 21
0.6151692547
  0
LINE
  5
257
100
AcDbEntity
  8
0
100
AcDbLine
 62
7
  6
CONTINUOUS
 10
2.7881737586
 20
0.6299942547
 11
2.7912987586
 21
0.6299942547
  0
LINE
  5
258
100
AcDbEntity
  8
0
100
AcDbLine
 62
7
  6
CONTINUOUS
 10
2.7631693647
 20
0.630011907
 11
2.7662943647
 21
0.630011907
  0
LINE
  5
259
100
AcDbEntity
  8
0
100
AcDbLine
 62
7
  6
CONTINUOUS
 10
2.8772362586
 20
0.6304192547
 11
2.8272362586
 21
0.6304192547
  0
LINE
  5
25A
100
AcDbEntity
  8
0
100
AcDbLine
 62
7
  6
CONTINUOUS
 10
3.5687772524
 20
0.6350697108
 11
3.5732422524
 21
0.6350697108
  0
LINE
  5
25B
100
AcDbEntity
  8
0
100
AcDbLine
 62
7
  6
CONTINUOUS
 10
3.5330541366
 20
0.6362306964
 11
3.5375191366
 21
0.6362306964
  0
LINE
  5
25C
100
AcDbEntity
  8
0
100
AcDbLine
 62
7
  6
CONTINUOUS
 10
3.497378229
 20
0.6373481998
 11
3.501843229
 21
0.6373481998
  0
LINE
  5
25D
100
AcDbEntity
  8
0
100
AcDbLine
 62
7
  6
CONTINUOUS
 10
3.4616639282
 20
0.6384825738
 11
3.4661289282
 21
0.6384825738
  0
LINE
  5
25E
100
AcDbEntity
  8
0
100
AcDbLine
 62
7
  6
CONTINUOUS
 10
5.1740287581
 20
0.6395224942
 11
5.1784937581
 21
0.6395224942
  0
LINE
  5
25F
100
AcDbEntity
  8
0
100
AcDbLine
 62
7
  6
CONTINUOUS
 10
5.2097539634
 20
0.6406680949
 11
5.2142189634
 21
0.6406680949
  0
LINE
  5
260
100
AcDbEntity
  8
0
100
AcDbLine
 62
7
  6
CONTINUOUS
 10
5.2454312135
 20
0.641793364
 11
5.2498962135
 21
0.641793364
  0
LINE
  5
261
100
AcDbEntity
  8
0
100
AcDbLine
 62
7
  6
CONTINUOUS
 10
5.2811082904
 20
0.6428490617
 11
5.2856265393
 21
0.6428490617
  0
LINE
  5
262
100
AcDbEntity
  8
0
100
AcDbLine
 62
9
  6
CONTINUOUS
 10
5.2467297726
 20
0.6462580764
 11
5.2511947726
 21
0.6462580764
  0
LINE
  5
263
100
AcDbEntity
  8
0
100
AcDbLine
 62
7
  6
CONTINUOUS
 10
2.5817362586
 20
0.6606692547
 11
2.5942362586
 21
0.6606692547
  0
LINE
  5
264
100
AcDbEntity
  8
0
100
AcDbLine
 62
9
  6
CONTINUOUS
 10
2.7224243207
 20
0.6844070049
 11
2.6354774637
 21
0.6844070049
  0
LINE
  5
265
100
AcDbEntity
  8
0
100
AcDbLine
 62
9
  6
CONTINUOUS
 10
2.6354774637
 20
0.70605764
 11
2.7224243207
 21
0.70605764
  0
LINE
  5
266
100
AcDbEntity
  8
0
100
AcDbLine
 62
7
  6
CONTINUOUS
 10
2.5332362586
 20
0.7242807093
 11
2.5817362586
 21
0.7241692547
  0
LINE
  5
267
100
AcDbEntity
  8
0
100
AcDbLine
 62
7
  6
CONTINUOUS
 10
2.8772362586
 20
0.7247212031
 11
3.2022362586
 21
0.7247212031
  0
LINE
  5
268
100
AcDbEntity
  8
0
100
AcDbLine
 62
7
  6
CONTINUOUS
 10
3.3397362424
 20
0.7247212031
 11
3.4022362834
 21
0.7247212031
  0
LINE
  5
269
100
AcDbEntity
  8
0
100
AcDbLine
 62
7
  6
CONTINUOUS
 10
2.5572362586
 20
0.7283647567
 11
2.5332362586
 21
0.7283647567
  0
LINE
  5
26A
100
AcDbEntity
  8
0
100
AcDbLine
 62
7
  6
CONTINUOUS
 10
2.5332362586
 20
0.7314908525
 11
2.5572362586
 21
0.7314908525
  0
LINE
  5
26B
100
AcDbEntity
  8
0
100
AcDbLine
 62
7
  6
CONTINUOUS
 10
2.5332362586
 20
0.742540416
 11
2.5572362586
 21
0.742540416
  0
LINE
  5
26C
100
AcDbEntity
  8
0
100
AcDbLine
 62
7
  6
CONTINUOUS
 10
2.5572362586
 20
0.7432503981
 11
2.5332362586
 21
0.7432503981
  0
LINE
  5
26D
100
AcDbEntity
  8
0
100
AcDbLine
 62
7
  6
CONTINUOUS
 10
2.5332362586
 20
0.7491255365
 11
2.5572362586
 21
0.7491255365
  0
LINE
  5
26E
100
AcDbEntity
  8
0
100
AcDbLine
 62
7
  6
CONTINUOUS
 10
2.5332362586
 20
0.7605213562
 11
2.5572362586
 21
0.7605213562
  0
LINE
  5
26F
100
AcDbEntity
  8
0
100
AcDbLine
 62
7
  6
CONTINUOUS
 10
2.5332362586
 20
0.7661452007
 11
2.5572362586
 21
0.7661452007
  0
LINE
  5
270
100
AcDbEntity
  8
0
100
AcDbLine
 62
7
  6
CONTINUOUS
 10
2.5572362586
 20
0.7671422057
 11
2.5332362586
 21
0.7671422057
  0
LINE
  5
271
100
AcDbEntity
  8
0
100
AcDbLine
 62
7
  6
CONTINUOUS
 10
3.6022362586
 20
0.6151692547
 11
3.5843862748
 21
0.6157250644
  0
LINE
  5
272
100
AcDbEntity
  8
0
100
AcDbLine
 62
7
  6
CONTINUOUS
 10
3.5580739387
 20
0.6165443735
 11
3.5486862634
 21
0.6168366853
  0
LINE
  5
273
100
AcDbEntity
  8
0
100
AcDbLine
 62
7
  6
CONTINUOUS
 10
3.5223739273
 20
0.6176559944
 11
3.512986243
 21
0.6179483065
  0
LINE
  5
274
100
AcDbEntity
  8
0
100
AcDbLine
 62
7
  6
CONTINUOUS
 10
3.4866739097
 20
0.6187676155
 11
3.4772862687
 21
0.6190599262
  0
LINE
  5
275
100
AcDbEntity
  8
0
100
AcDbLine
 62
7
  6
CONTINUOUS
 10
3.2564862586
 20
10.5229192547
 11
3.2584862586
 21
10.5241023942
  0
LINE
  5
276
100
AcDbEntity
  8
0
100
AcDbLine
 62
7
  6
CONTINUOUS
 10
3.4594362761
 20
1.016222773
 11
3.4688239153
 21
1.0165150838
  0
LINE
  5
277
100
AcDbEntity
  8
0
100
AcDbLine
 62
7
  6
CONTINUOUS
 10
3.4951362481
 20
1.0173343927
 11
3.504523916
 21
1.0176267043
  0
LINE
  5
278
100
AcDbEntity
  8
0
100
AcDbLine
 62
7
  6
CONTINUOUS
 10
3.5308362506
 20
1.0184460133
 11
3.5402239371
 21
1.0187383255
  0
LINE
  5
279
100
AcDbEntity
  8
0
100
AcDbLine
 62
7
  6
CONTINUOUS
 10
3.5665362739
 20
1.0195576346
 11
3.6022362586
 21
1.0206692547
  0
LINE
  5
27A
100
AcDbEntity
  8
0
100
AcDbLine
 62
7
  6
CONTINUOUS
 10
2.5332362586
 20
0.7750577582
 11
2.5572362586
 21
0.7750577582
  0
LINE
  5
27B
100
AcDbEntity
  8
0
100
AcDbLine
 62
7
  6
CONTINUOUS
 10
2.5332362586
 20
0.7854253301
 11
2.5572362586
 21
0.7854253301
  0
LINE
  5
27C
100
AcDbEntity
  8
0
100
AcDbLine
 62
7
  6
CONTINUOUS
 10
2.5332362586
 20
0.7923239966
 11
2.5572362586
 21
0.7923239966
  0
LINE
  5
27D
100
AcDbEntity
  8
0
100
AcDbLine
 62
7
  6
CONTINUOUS
 10
2.5572362586
 20
0.7971584748
 11
2.5332362586
 21
0.7971584748
  0
LINE
  5
27E
100
AcDbEntity
  8
0
100
AcDbLine
 62
7
  6
CONTINUOUS
 10
2.5332362586
 20
0.806159709
 11
2.5572362586
 21
0.806159709
  0
LINE
  5
27F
100
AcDbEntity
  8
0
100
AcDbLine
 62
7
  6
CONTINUOUS
 10
2.365432087
 20
0.8100442547
 11
2.3719108471
 21
0.8100442547
  0
LINE
  5
280
100
AcDbEntity
  8
0
100
AcDbLine
 62
7
  6
CONTINUOUS
 10
2.5332362586
 20
0.8142485509
 11
2.5572362586
 21
0.8142485509
  0
LINE
  5
281
100
AcDbEntity
  8
0
100
AcDbLine
 62
7
  6
CONTINUOUS
 10
2.5332362586
 20
0.8215899585
 11
2.5572362586
 21
0.8215899585
  0
LINE
  5
282
100
AcDbEntity
  8
0
100
AcDbLine
 62
7
  6
CONTINUOUS
 10
2.3719108471
 20
0.8257942547
 11
2.365432087
 21
0.8257942547
  0
LINE
  5
283
100
AcDbEntity
  8
0
100
AcDbLine
 62
7
  6
CONTINUOUS
 10
2.5572362586
 20
0.8296788003
 11
2.5332362586
 21
0.8296788003
  0
LINE
  5
284
100
AcDbEntity
  8
0
100
AcDbLine
 62
7
  6
CONTINUOUS
 10
2.5332362586
 20
0.8386800345
 11
2.5572362586
 21
0.8386800345
  0
LINE
  5
285
100
AcDbEntity
  8
0
100
AcDbLine
 62
7
  6
CONTINUOUS
 10
2.5332362586
 20
0.8435145127
 11
2.5572362586
 21
0.8435145127
  0
LINE
  5
286
100
AcDbEntity
  8
0
100
AcDbLine
 62
7
  6
CONTINUOUS
 10
2.5332362586
 20
0.8504131792
 11
2.5572362586
 21
0.8504131792
  0
LINE
  5
287
100
AcDbEntity
  8
0
100
AcDbLine
 62
7
  6
CONTINUOUS
 10
2.5572362586
 20
0.8607807511
 11
2.5332362586
 21
0.8607807511
  0
LINE
  5
288
100
AcDbEntity
  8
0
100
AcDbLine
 62
7
  6
CONTINUOUS
 10
2.5332362586
 20
0.8686963036
 11
2.5572362586
 21
0.8686963036
  0
LINE
  5
289
100
AcDbEntity
  8
0
100
AcDbLine
 62
7
  6
CONTINUOUS
 10
2.5332362586
 20
0.8696933086
 11
2.5572362586
 21
0.8696933086
  0
LINE
  5
28A
100
AcDbEntity
  8
0
100
AcDbLine
 62
7
  6
CONTINUOUS
 10
2.5332362586
 20
0.8753171531
 11
2.5572362586
 21
0.8753171531
  0
LINE
  5
28B
100
AcDbEntity
  8
0
100
AcDbLine
 62
7
  6
CONTINUOUS
 10
2.5572362586
 20
0.8867129728
 11
2.5332362586
 21
0.8867129728
  0
LINE
  5
28C
100
AcDbEntity
  8
0
100
AcDbLine
 62
7
  6
CONTINUOUS
 10
2.5332362586
 20
0.8925881112
 11
2.5572362586
 21
0.8925881112
  0
LINE
  5
28D
100
AcDbEntity
  8
0
100
AcDbLine
 62
7
  6
CONTINUOUS
 10
2.5332362586
 20
0.8932980934
 11
2.5572362586
 21
0.8932980934
  0
LINE
  5
28E
100
AcDbEntity
  8
0
100
AcDbLine
 62
7
  6
CONTINUOUS
 10
2.5572362586
 20
0.9043476568
 11
2.5332362586
 21
0.9043476568
  0
LINE
  5
28F
100
AcDbEntity
  8
0
100
AcDbLine
 62
7
  6
CONTINUOUS
 10
2.5332362586
 20
0.9074737527
 11
2.5572362586
 21
0.9074737527
  0
LINE
  5
290
100
AcDbEntity
  8
0
100
AcDbLine
 62
7
  6
CONTINUOUS
 10
3.4022362586
 20
0.9111173062
 11
3.3397362791
 21
0.9111173062
  0
LINE
  5
291
100
AcDbEntity
  8
0
100
AcDbLine
 62
7
  6
CONTINUOUS
 10
3.2022362586
 20
0.9111173062
 11
2.8772362586
 21
0.9111173062
  0
LINE
  5
292
100
AcDbEntity
  8
0
100
AcDbLine
 62
7
  6
CONTINUOUS
 10
2.5332362586
 20
0.9115578
 11
2.5817362586
 21
0.9116692547
  0
LINE
  5
293
100
AcDbEntity
  8
0
100
AcDbLine
 62
9
  6
CONTINUOUS
 10
2.7224243207
 20
0.9297808693
 11
2.6354774637
 21
0.9297808693
  0
LINE
  5
294
100
AcDbEntity
  8
0
100
AcDbLine
 62
9
  6
CONTINUOUS
 10
2.6354774637
 20
0.9514315044
 11
2.7224243207
 21
0.9514315044
  0
LINE
  5
295
100
AcDbEntity
  8
0
100
AcDbLine
 62
7
  6
CONTINUOUS
 10
2.5942362586
 20
0.9751692547
 11
2.5817362586
 21
0.9751692547
  0
LINE
  5
296
100
AcDbEntity
  8
0
100
AcDbLine
 62
7
  6
CONTINUOUS
 10
5.3022362586
 20
0.9924399396
 11
5.298952118
 21
0.9924399396
  0
LINE
  5
297
100
AcDbEntity
  8
0
100
AcDbLine
 62
7
  6
CONTINUOUS
 10
5.2677721761
 20
0.9935360597
 11
5.263276083
 21
0.9935360597
  0
LINE
  5
298
100
AcDbEntity
  8
0
100
AcDbLine
 62
7
  6
CONTINUOUS
 10
5.2320586271
 20
0.9945769983
 11
5.2275933655
 21
0.9945769981
  0
LINE
  5
299
100
AcDbEntity
  8
0
100
AcDbLine
 62
7
  6
CONTINUOUS
 10
5.1963626058
 20
0.9957766083
 11
5.1918976058
 21
0.9957766083
  0
LINE
  5
29A
100
AcDbEntity
  8
0
100
AcDbLine
 62
7
  6
CONTINUOUS
 10
3.483992172
 20
0.9979902667
 11
3.479527172
 21
0.9979902667
  0
LINE
  5
29B
100
AcDbEntity
  8
0
100
AcDbLine
 62
7
  6
CONTINUOUS
 10
3.5196807354
 20
0.9990200182
 11
3.5152157354
 21
0.9990200182
  0
LINE
  5
29C
100
AcDbEntity
  8
0
100
AcDbLine
 62
7
  6
CONTINUOUS
 10
3.5553725203
 20
1.0002182144
 11
3.5509075202
 21
1.0002182144
  0
LINE
  5
29D
100
AcDbEntity
  8
0
100
AcDbLine
 62
7
  6
CONTINUOUS
 10
2.8272362586
 20
1.0054192547
 11
2.8772362586
 21
1.0054192547
  0
LINE
  5
29E
100
AcDbEntity
  8
0
100
AcDbLine
 62
7
  6
CONTINUOUS
 10
2.7756737586
 20
1.0058342227
 11
2.7787987586
 21
1.0058342227
  0
LINE
  5
29F
100
AcDbEntity
  8
0
100
AcDbLine
 62
7
  6
CONTINUOUS
 10
2.7537960574
 20
1.0058414813
 11
2.7506710574
 21
1.0058414813
  0
LINE
  5
2A0
100
AcDbEntity
  8
0
100
AcDbLine
 62
7
  6
CONTINUOUS
 10
4.9647362586
 20
1.0206692547
 11
3.6022362586
 21
1.0206692547
  0
LINE
  5
2A1
100
AcDbEntity
  8
0
100
AcDbLine
 62
7
  6
CONTINUOUS
 10
2.766879328
 20
1.0210442547
 11
2.7625762996
 21
1.0210442547
  0
LINE
  5
2A2
100
AcDbEntity
  8
0
100
AcDbLine
 62
7
  6
CONTINUOUS
 10
2.7875935329
 20
1.0210442547
 11
2.8272362586
 21
1.0210442547
  0
LINE
  5
2A3
100
AcDbEntity
  8
0
100
AcDbLine
 62
7
  6
CONTINUOUS
 10
2.7367362586
 20
1.0329192547
 11
2.7492362586
 21
1.0329192547
  0
LINE
  5
2A4
100
AcDbEntity
  8
0
100
AcDbLine
 62
7
  6
CONTINUOUS
 10
3.2897362586
 20
1.0379192547
 11
3.2022362586
 21
1.0379192547
  0
LINE
  5
2A5
100
AcDbEntity
  8
0
100
AcDbLine
 62
7
  6
CONTINUOUS
 10
3.2022362586
 20
1.0429192547
 11
3.1450430191
 21
1.0429192547
  0
LINE
  5
2A6
100
AcDbEntity
  8
0
100
AcDbLine
 62
7
  6
CONTINUOUS
 10
2.934429498
 20
1.0429192547
 11
2.8772362586
 21
1.0429192547
  0
LINE
  5
2A7
100
AcDbEntity
  8
0
100
AcDbLine
 62
7
  6
CONTINUOUS
 10
3.3008799012
 20
1.0429192547
 11
3.4410925855
 21
1.0429192547
  0
LINE
  5
2A8
100
AcDbEntity
  8
0
100
AcDbLine
 62
9
  6
CONTINUOUS
 10
2.7224243207
 20
1.0632931191
 11
2.6354774637
 21
1.0632931191
  0
LINE
  5
2A9
100
AcDbEntity
  8
0
100
AcDbLine
 62
7
  6
CONTINUOUS
 10
2.7210108585
 20
1.066642484
 11
2.6368909259
 21
1.066642484
  0
LINE
  5
2AA
100
AcDbEntity
  8
0
100
AcDbLine
 62
7
  6
CONTINUOUS
 10
5.2860743612
 20
1.011831152
 11
5.278467372
 21
1.0120680172
  0
LINE
  5
2AB
100
AcDbEntity
  8
0
100
AcDbLine
 62
7
  6
CONTINUOUS
 10
5.1713485777
 20
1.015403464
 11
5.1807362599
 21
1.0151111519
  0
LINE
  5
2AC
100
AcDbEntity
  8
0
100
AcDbLine
 62
7
  6
CONTINUOUS
 10
5.2070485953
 20
1.0142918429
 11
5.2164362738
 21
1.013999531
  0
LINE
  5
2AD
100
AcDbEntity
  8
0
100
AcDbLine
 62
7
  6
CONTINUOUS
 10
5.2427486067
 20
1.013180222
 11
5.2521362429
 21
1.0128879114
  0
LINE
  5
2AE
100
AcDbEntity
  8
0
100
AcDbLine
 62
7
  6
CONTINUOUS
 10
2.8000744827
 20
0.6147942547
 11
2.79994099
 21
0.6149085655
  0
LINE
  5
2AF
100
AcDbEntity
  8
0
100
AcDbLine
 62
7
  6
CONTINUOUS
 10
2.7662943647
 20
0.630011907
 11
2.7661487332
 21
0.630137827
  0
LINE
  5
2B0
100
AcDbEntity
  8
0
100
AcDbLine
 62
7
  6
CONTINUOUS
 10
2.791154422
 20
0.6301193254
 11
2.7912987586
 21
0.6299942547
  0
LWPOLYLINE
  5
2B1
100
AcDbEntity
  8
0
100
AcDbPolyline
 62
7
  6
CONTINUOUS
 90
9
 70
0
 10
2.4459446043
 20
1.3071209341
 10
2.4437106172
 20
1.3069170381
 10
2.4405124935
 20
1.3061704985
 10
2.4374353192
 20
1.3048877255
 10
2.4345949802
 20
1.3030972972
 10
2.4321254575
 20
1.3008900356
 10
2.4300252121
 20
1.298262479
 10
2.4283754043
 20
1.2952762045
 10
2.4272699407
 20
1.2921030672
  0
LINE
  5
2B2
100
AcDbEntity
  8
0
100
AcDbLine
 62
7
  6
CONTINUOUS
 10
2.4459446033
 20
1.3071209629
 11
2.5332362586
 21
1.3101692547
  0
LINE
  5
2B3
100
AcDbEntity
  8
0
100
AcDbLine
 62
7
  6
CONTINUOUS
 10
3.0207485538
 20
1.1421517159
 11
3.0643493094
 21
1.1432873472
  0
LINE
  5
2B4
100
AcDbEntity
  8
0
100
AcDbLine
 62
7
  6
CONTINUOUS
 10
3.0207485538
 20
1.1447567159
 11
3.0643493094
 21
1.1458923472
  0
LINE
  5
2B5
100
AcDbEntity
  8
0
100
AcDbLine
 62
9
  6
CONTINUOUS
 10
2.4440420564
 20
1.2542060802
 11
2.5332362586
 21
1.2561815408
  0
LINE
  5
2B6
100
AcDbEntity
  8
0
100
AcDbLine
 62
7
  6
CONTINUOUS
 10
3.1959862586
 20
1.1489192547
 11
2.8834862586
 21
1.1489192547
  0
LINE
  5
2B7
100
AcDbEntity
  8
0
100
AcDbLine
 62
7
  6
CONTINUOUS
 10
3.1959862586
 20
1.3584192547
 11
2.8834862586
 21
1.3584192547
  0
LINE
  5
2B8
100
AcDbEntity
  8
0
100
AcDbLine
 62
7
  6
CONTINUOUS
 10
5.2924812676
 20
0.6306699443
 11
5.2926727932
 21
0.6306057893
  0
LINE
  5
2B9
100
AcDbEntity
  8
0
100
AcDbLine
 62
7
  6
CONTINUOUS
 10
2.8991138163
 20
1.0640541031
 11
2.9118135854
 21
1.0567217547
  0
LINE
  5
2BA
100
AcDbEntity
  8
0
100
AcDbLine
 62
7
  6
CONTINUOUS
 10
2.8992326973
 20
1.084741751
 11
2.9119604524
 21
1.0773854724
  0
LINE
  5
2BB
100
AcDbEntity
  8
0
100
AcDbLine
 62
7
  6
CONTINUOUS
 10
2.8992339441
 20
1.1055693907
 11
2.9119508445
 21
1.0982199304
  0
LINE
  5
2BC
100
AcDbEntity
  8
0
100
AcDbLine
 62
7
  6
CONTINUOUS
 10
2.8992209346
 20
1.1472455672
 11
2.9119367958
 21
1.1398975037
  0
LINE
  5
2BD
100
AcDbEntity
  8
0
100
AcDbLine
 62
7
  6
CONTINUOUS
 10
3.180248148
 20
1.0573134298
 11
3.1675339813
 21
1.064660606
  0
LINE
  5
2BE
100
AcDbEntity
  8
0
100
AcDbLine
 62
7
  6
CONTINUOUS
 10
3.1802403645
 20
1.078153268
 11
3.1675276214
 21
1.0854999888
  0
LINE
  5
2BF
100
AcDbEntity
  8
0
100
AcDbLine
 62
7
  6
CONTINUOUS
 10
3.1802577672
 20
1.1197912864
 11
3.1675083001
 21
1.1271603318
  0
LINE
  5
2C0
100
AcDbEntity
  8
0
100
AcDbLine
 62
7
  6
CONTINUOUS
 10
3.1802312761
 20
1.140655357
 11
3.1675071157
 21
1.1480098554
  0
LINE
  5
2C1
100
AcDbEntity
  8
0
100
AcDbLine
 62
7
  6
CONTINUOUS
 10
2.8992405734
 20
1.1264286316
 11
2.912000842
 21
1.1190512333
  0
LINE
  5
2C2
100
AcDbEntity
  8
0
100
AcDbLine
 62
7
  6
CONTINUOUS
 10
3.1802344584
 20
1.0989541226
 11
3.1674628985
 21
1.1063385531
  0
LINE
  5
2C3
100
AcDbEntity
  8
0
100
AcDbLine
 62
7
  6
CONTINUOUS
 10
2.7668980345
 20
1.0210442547
 11
2.7670317581
 21
1.0209295481
  0
LINE
  5
2C4
100
AcDbEntity
  8
0
100
AcDbLine
 62
7
  6
CONTINUOUS
 10
2.7758184431
 20
1.0057073286
 11
2.7756737586
 21
1.0058342227
  0
LINE
  5
2C5
100
AcDbEntity
  8
0
100
AcDbLine
 62
7
  6
CONTINUOUS
 10
2.775074487
 20
0.6147942547
 11
2.7749352224
 21
0.6149186554
  0
LINE
  5
2C6
100
AcDbEntity
  8
0
100
AcDbLine
 62
7
  6
CONTINUOUS
 10
2.3719108471
 20
0.8714149671
 11
2.3717642394
 21
0.8715615748
  0
LINE
  5
2C7
100
AcDbEntity
  8
0
100
AcDbLine
 62
7
  6
CONTINUOUS
 10
2.3719108471
 20
0.8714149671
 11
2.3717642356
 21
0.8715615786
  0
LINE
  5
2C8
100
AcDbEntity
  8
0
100
AcDbLine
 62
7
  6
CONTINUOUS
 10
5.1647362586
 20
0.1929192547
 11
5.1447362586
 21
0.20446626
  0
LINE
  5
2C9
100
AcDbEntity
  8
0
100
AcDbLine
 62
9
  6
CONTINUOUS
 10
3.1435745603
 20
1.1041167547
 11
3.1538833071
 21
1.0967844062
  0
LINE
  5
2CA
100
AcDbEntity
  8
0
100
AcDbLine
 62
7
  6
CONTINUOUS
 10
3.5402239371
 20
1.0187383255
 11
3.5404938723
 21
1.0185201342
  0
LINE
  5
2CB
100
AcDbEntity
  8
0
100
AcDbLine
 62
7
  6
CONTINUOUS
 10
3.5843862748
 20
0.6157250644
 11
3.5841287648
 21
0.6159406979
  0
LINE
  5
2CC
100
AcDbEntity
  8
0
100
AcDbLine
 62
7
  6
CONTINUOUS
 10
3.512986243
 20
0.6179483065
 11
3.5127203502
 21
0.6181755011
  0
LINE
  5
2CD
100
AcDbEntity
  8
0
100
AcDbLine
 62
7
  6
CONTINUOUS
 10
3.4688239153
 20
1.0165150838
 11
3.4691149796
 21
1.0162636113
  0
LINE
  5
2CE
100
AcDbEntity
  8
0
100
AcDbLine
 62
7
  6
CONTINUOUS
 10
3.4772862687
 20
0.6190599262
 11
3.4770026044
 21
0.6193165239
  0
LINE
  5
2CF
100
AcDbEntity
  8
0
100
AcDbLine
 62
7
  6
CONTINUOUS
 10
3.5486862634
 20
0.6168366853
 11
3.548399257
 21
0.6171020932
  0
LINE
  5
2D0
100
AcDbEntity
  8
0
100
AcDbLine
 62
7
  6
CONTINUOUS
 10
2.8593142994
 20
1.1730912138
 11
2.8834862586
 21
1.1489192547
  0
LINE
  5
2D1
100
AcDbEntity
  8
0
100
AcDbLine
 62
7
  6
CONTINUOUS
 10
3.504523916
 20
1.0176267043
 11
3.504812972
 21
1.0173773141
  0
LINE
  5
2D2
100
AcDbEntity
  8
0
100
AcDbLine
 62
7
  6
CONTINUOUS
 10
3.1959862586
 20
1.3584192547
 11
3.2201582177
 21
1.3342472955
  0
LINE
  5
2D3
100
AcDbEntity
  8
0
100
AcDbLine
 62
7
  6
CONTINUOUS
 10
2.9119367958
 20
1.1398975037
 11
2.9118112963
 21
1.1400422246
  0
LINE
  5
2D4
100
AcDbEntity
  8
0
100
AcDbLine
 62
7
  6
CONTINUOUS
 10
3.1675339813
 20
1.064660606
 11
3.1676612
 21
1.0645138201
  0
LINE
  5
2D5
100
AcDbEntity
  8
0
100
AcDbLine
 62
7
  6
CONTINUOUS
 10
3.1675935945
 20
1.1061873522
 11
3.1674628985
 21
1.1063385531
  0
LINE
  5
2D6
100
AcDbEntity
  8
0
100
AcDbLine
 62
7
  6
CONTINUOUS
 10
2.9119508445
 20
1.0982199304
 11
2.9118223773
 21
1.0983685675
  0
LINE
  5
2D7
100
AcDbEntity
  8
0
100
AcDbLine
 62
7
  6
CONTINUOUS
 10
3.1675276214
 20
1.0854999888
 11
3.1676551988
 21
1.0853523463
  0
LINE
  5
2D8
100
AcDbEntity
  8
0
100
AcDbLine
 62
7
  6
CONTINUOUS
 10
2.9119604524
 20
1.0773854724
 11
2.9118307136
 21
1.0775356427
  0
LINE
  5
2D9
100
AcDbEntity
  8
0
100
AcDbLine
 62
7
  6
CONTINUOUS
 10
3.1676347284
 20
1.1478621107
 11
3.1675071157
 21
1.1480098554
  0
LINE
  5
2DA
100
AcDbEntity
  8
0
100
AcDbLine
 62
7
  6
CONTINUOUS
 10
2.7661487332
 20
0.630137827
 11
2.7738756278
 21
0.6167640836
  0
LINE
  5
2DB
100
AcDbEntity
  8
0
100
AcDbLine
 62
7
  6
CONTINUOUS
 10
2.791154422
 20
0.6301193254
 11
2.7988714064
 21
0.6167614211
  0
LINE
  5
2DC
100
AcDbEntity
  8
0
100
AcDbLine
 62
9
  6
CONTINUOUS
 10
2.7668980345
 20
1.0210334113
 11
2.7756737586
 21
1.0058342227
  0
LINE
  5
2DD
100
AcDbEntity
  8
0
100
AcDbLine
 62
7
  6
CONTINUOUS
 10
2.6353555916
 20
0.5724885604
 11
2.5942362586
 21
0.6606692547
  0
LINE
  5
2DE
100
AcDbEntity
  8
0
100
AcDbLine
 62
7
  6
CONTINUOUS
 10
2.6368909259
 20
0.5691960253
 11
2.6354774637
 21
0.5725453903
  0
LWPOLYLINE
  5
2DF
100
AcDbEntity
  8
0
100
AcDbPolyline
 62
7
  6
CONTINUOUS
 90
9
 70
0
 10
2.4272699406
 20
0.3437354425
 10
2.4283754039
 20
0.3405623056
 10
2.4300252115
 20
0.3375760312
 10
2.4321254566
 20
0.3349484745
 10
2.4345949794
 20
0.3327412126
 10
2.4374353186
 20
0.330950784
 10
2.4405124932
 20
0.3296680109
 10
2.4437106173
 20
0.3289214712
 10
2.4459446042
 20
0.3287175752
  0
LINE
  5
2E0
100
AcDbEntity
  8
0
100
AcDbLine
 62
7
  6
CONTINUOUS
 10
3.5155296341
 20
0.9987487226
 11
3.5099611664
 21
1.0083742657
  0
LINE
  5
2E1
100
AcDbEntity
  8
0
100
AcDbLine
 62
7
  6
CONTINUOUS
 10
3.4658125005
 20
0.6387560031
 11
3.472416578
 21
0.6273391056
  0
LINE
  5
2E2
100
AcDbEntity
  8
0
100
AcDbLine
 62
7
  6
CONTINUOUS
 10
3.5015298383
 20
0.6376194252
 11
3.5081337427
 21
0.6262011657
  0
LINE
  5
2E3
100
AcDbEntity
  8
0
100
AcDbLine
 62
7
  6
CONTINUOUS
 10
3.5372106042
 20
0.6364970848
 11
3.5438141418
 21
0.6250786419
  0
LINE
  5
2E4
100
AcDbEntity
  8
0
100
AcDbLine
 62
7
  6
CONTINUOUS
 10
3.4798305309
 20
0.9977285519
 11
3.474262488
 21
1.0073581113
  0
LINE
  5
2E5
100
AcDbEntity
  8
0
100
AcDbLine
 62
7
  6
CONTINUOUS
 10
3.5729394224
 20
0.635332178
 11
3.5795427226
 21
0.6239107759
  0
LINE
  5
2E6
100
AcDbEntity
  8
0
100
AcDbLine
 62
7
  6
CONTINUOUS
 10
2.7367362586
 20
1.0329192547
 11
2.7225461928
 21
1.0633499489
  0
LINE
  5
2E7
100
AcDbEntity
  8
0
100
AcDbLine
 62
7
  6
CONTINUOUS
 10
2.7224243207
 20
1.0632931191
 11
2.7210108585
 21
1.066642484
  0
LINE
  5
2E8
100
AcDbEntity
  8
0
100
AcDbLine
 62
7
  6
CONTINUOUS
 10
2.721641796
 20
1.0651423277
 11
2.7214487982
 21
1.0656019596
  0
LINE
  5
2E9
100
AcDbEntity
  8
0
100
AcDbLine
 62
7
  6
CONTINUOUS
 10
2.7210272734
 20
1.0666016691
 11
2.7210108585
 21
1.066642484
  0
LINE
  5
2EA
100
AcDbEntity
  8
0
100
AcDbLine
 62
7
  6
CONTINUOUS
 10
3.5512100889
 20
0.9999559663
 11
3.5456420904
 21
1.0095858862
  0
LINE
  5
2EB
100
AcDbEntity
  8
0
100
AcDbLine
 62
7
  6
CONTINUOUS
 10
2.3870343005
 20
0.8998684596
 11
2.3870014346
 21
0.9002174121
  0
LINE
  5
2EC
100
AcDbEntity
  8
0
100
AcDbLine
 62
7
  6
CONTINUOUS
 10
2.3870343005
 20
0.8998684596
 11
2.3870014346
 21
0.9002174121
  0
LINE
  5
2ED
100
AcDbEntity
  8
0
100
AcDbLine
 62
7
  6
CONTINUOUS
 10
5.2860743612
 20
1.011831152
 11
5.2900395505
 21
1.0078659627
  0
LINE
  5
2EE
100
AcDbEntity
  8
0
100
AcDbLine
 62
7
  6
CONTINUOUS
 10
2.3872297576
 20
0.8966811279
 11
2.3869876242
 21
0.9003440801
  0
LINE
  5
2EF
100
AcDbEntity
  8
0
100
AcDbLine
 62
7
  6
CONTINUOUS
 10
2.3872419415
 20
0.8965569494
 11
2.3871422433
 21
0.8982186902
  0
LINE
  5
2F0
100
AcDbEntity
  8
0
100
AcDbLine
 62
9
  6
CONTINUOUS
 10
2.3809751513
 20
0.8934396011
 11
2.3809873512
 21
0.8912208254
  0
LINE
  5
2F1
100
AcDbEntity
  8
0
100
AcDbLine
 62
9
  6
CONTINUOUS
 10
2.3809568001
 20
0.7558618142
 11
2.3809819279
 21
0.7429624508
  0
LINE
  5
2F2
100
AcDbEntity
  8
0
100
AcDbLine
 62
9
  6
CONTINUOUS
 10
2.3809528254
 20
0.8847295485
 11
2.3809568001
 21
0.7558618142
  0
LINE
  5
2F3
100
AcDbEntity
  8
0
100
AcDbLine
 62
9
  6
CONTINUOUS
 10
2.3809873512
 20
0.8912208254
 11
2.3809528254
 21
0.8847295485
  0
LINE
  5
2F4
100
AcDbEntity
  8
0
100
AcDbLine
 62
7
  6
CONTINUOUS
 10
5.29088278
 20
1.0067784381
 11
5.2902132805
 21
1.0076922312
  0
LINE
  5
2F5
100
AcDbEntity
  8
0
100
AcDbLine
 62
7
  6
CONTINUOUS
 10
2.7572899162
 20
0.8006569365
 11
2.7564703693
 21
0.8392808836
  0
LINE
  5
2F6
100
AcDbEntity
  8
0
100
AcDbLine
 62
7
  6
CONTINUOUS
 10
2.7604149162
 20
0.8006569365
 11
2.7595953693
 21
0.8392808836
  0
LINE
  5
2F7
100
AcDbEntity
  8
0
100
AcDbLine
 62
7
  6
CONTINUOUS
 10
2.7824161889
 20
0.7947229287
 11
2.7816223639
 21
0.832140335
  0
LINE
  5
2F8
100
AcDbEntity
  8
0
100
AcDbLine
 62
7
  6
CONTINUOUS
 10
2.7847473321
 20
0.8321418301
 11
2.785541158
 21
0.7947243732
  0
LINE
  5
2F9
100
AcDbEntity
  8
0
100
AcDbLine
 62
7
  6
CONTINUOUS
 10
2.5332362586
 20
1.3101692546
 11
2.5332362586
 21
0.3256692547
  0
LINE
  5
2FA
100
AcDbEntity
  8
0
100
AcDbLine
 62
7
  6
CONTINUOUS
 10
2.5572362586
 20
0.7242807093
 11
2.5572362586
 21
0.7283647567
  0
LINE
  5
2FB
100
AcDbEntity
  8
0
100
AcDbLine
 62
7
  6
CONTINUOUS
 10
2.5572362586
 20
0.7314908525
 11
2.5572362586
 21
0.7432503981
  0
LINE
  5
2FC
100
AcDbEntity
  8
0
100
AcDbLine
 62
7
  6
CONTINUOUS
 10
2.5572362586
 20
0.7491255365
 11
2.5572362586
 21
0.7671422057
  0
LINE
  5
2FD
100
AcDbEntity
  8
0
100
AcDbLine
 62
7
  6
CONTINUOUS
 10
2.5572362586
 20
0.7750577582
 11
2.5572362586
 21
0.7971584748
  0
LINE
  5
2FE
100
AcDbEntity
  8
0
100
AcDbLine
 62
7
  6
CONTINUOUS
 10
2.5572362586
 20
0.806159709
 11
2.5572362586
 21
0.8296788003
  0
LINE
  5
2FF
100
AcDbEntity
  8
0
100
AcDbLine
 62
7
  6
CONTINUOUS
 10
2.5572362586
 20
0.8386800345
 11
2.5572362586
 21
0.8607807511
  0
LINE
  5
300
100
AcDbEntity
  8
0
100
AcDbLine
 62
7
  6
CONTINUOUS
 10
2.5572362586
 20
0.8686963036
 11
2.5572362586
 21
0.8867129728
  0
LINE
  5
301
100
AcDbEntity
  8
0
100
AcDbLine
 62
7
  6
CONTINUOUS
 10
2.5572362586
 20
0.9074737527
 11
2.5572362586
 21
0.9113922495
  0
LINE
  5
302
100
AcDbEntity
  8
0
100
AcDbLine
 62
7
  6
CONTINUOUS
 10
2.5572362586
 20
0.8925881112
 11
2.5572362586
 21
0.9043476568
  0
LINE
  5
303
100
AcDbEntity
  8
0
100
AcDbLine
 62
7
  6
CONTINUOUS
 10
2.5817362586
 20
0.9751692547
 11
2.5817362586
 21
0.6606692547
  0
LINE
  5
304
100
AcDbEntity
  8
0
100
AcDbLine
 62
7
  6
CONTINUOUS
 10
2.5942362586
 20
0.6606692547
 11
2.5942362586
 21
0.9751692547
  0
LINE
  5
305
100
AcDbEntity
  8
0
100
AcDbLine
 62
7
  6
CONTINUOUS
 10
2.7367362586
 20
1.0329192547
 11
2.7367362586
 21
0.6029192547
  0
LINE
  5
306
100
AcDbEntity
  8
0
100
AcDbLine
 62
7
  6
CONTINUOUS
 10
2.7492362586
 20
1.032885712
 11
2.7492362586
 21
0.6031921078
  0
LINE
  5
307
100
AcDbEntity
  8
0
100
AcDbLine
 62
9
  6
CONTINUOUS
 10
2.3809819279
 20
0.7429624508
 11
2.3809751513
 21
0.7423989082
  0
LINE
  5
308
100
AcDbEntity
  8
0
100
AcDbLine
 62
7
  6
CONTINUOUS
 10
2.38714262
 20
0.7376241878
 11
2.3872405822
 21
0.739257807
  0
LINE
  5
309
100
AcDbEntity
  8
0
100
AcDbLine
 62
7
  6
CONTINUOUS
 10
2.3869875794
 20
0.7354941809
 11
2.3872281488
 21
0.7391323283
  0
LINE
  5
30A
100
AcDbEntity
  8
0
100
AcDbLine
 62
7
  6
CONTINUOUS
 10
2.3869823848
 20
0.7354192547
 11
2.3869875794
 21
0.7354941815
  0
LINE
  5
30B
100
AcDbEntity
  8
0
100
AcDbLine
 62
9
  6
CONTINUOUS
 10
5.2618819251
 20
0.6282673148
 11
5.2511947726
 21
0.6463012884
  0
LINE
  5
30C
100
AcDbEntity
  8
0
100
AcDbLine
 62
7
  6
CONTINUOUS
 10
5.2139010349
 20
0.6409433093
 11
5.2246655159
 21
0.6223315564
  0
LINE
  5
30D
100
AcDbEntity
  8
0
100
AcDbLine
 62
7
  6
CONTINUOUS
 10
5.2495764577
 20
0.6420694516
 11
5.2603255691
 21
0.6234861096
  0
LINE
  5
30E
100
AcDbEntity
  8
0
100
AcDbLine
 62
7
  6
CONTINUOUS
 10
5.2853003958
 20
0.6431337073
 11
5.2924986807
 21
0.6306873692
  0
LINE
  5
30F
100
AcDbEntity
  8
0
100
AcDbLine
 62
7
  6
CONTINUOUS
 10
5.1781861478
 20
0.6397878857
 11
5.188905559
 21
0.6212495007
  0
LINE
  5
310
100
AcDbEntity
  8
0
100
AcDbLine
 62
7
  6
CONTINUOUS
 10
5.1922022185
 20
0.9955135485
 11
5.1810125659
 21
1.0148691777
  0
LINE
  5
311
100
AcDbEntity
  8
0
100
AcDbLine
 62
7
  6
CONTINUOUS
 10
2.8209862586
 20
10.5241024124
 11
2.8209862586
 21
10.7267360969
  0
LINE
  5
312
100
AcDbEntity
  8
0
100
AcDbLine
 62
7
  6
CONTINUOUS
 10
2.8229862586
 20
10.7279192547
 11
2.8229862586
 21
10.7729192547
  0
LINE
  5
313
100
AcDbEntity
  8
0
100
AcDbLine
 62
7
  6
CONTINUOUS
 10
2.8272362586
 20
1.0210127084
 11
2.8272362586
 21
0.614825801
  0
LINE
  5
314
100
AcDbEntity
  8
0
100
AcDbLine
 62
7
  6
CONTINUOUS
 10
2.835562735
 20
10.7088409082
 11
2.835562735
 21
10.5419976011
  0
LINE
  5
315
100
AcDbEntity
  8
0
100
AcDbLine
 62
7
  6
CONTINUOUS
 10
2.8593142994
 20
1.1730912138
 11
2.8593142994
 21
1.3342472955
  0
LINE
  5
316
100
AcDbEntity
  8
0
100
AcDbLine
 62
7
  6
CONTINUOUS
 10
2.8772362586
 20
1.0429192547
 11
2.8772362586
 21
0.5929192547
  0
LINE
  5
317
100
AcDbEntity
  8
0
100
AcDbLine
 62
7
  6
CONTINUOUS
 10
2.8991112586
 20
1.1301044062
 11
2.8991112586
 21
1.1265391031
  0
LINE
  5
318
100
AcDbEntity
  8
0
100
AcDbLine
 62
7
  6
CONTINUOUS
 10
2.8991112586
 20
1.1092694062
 11
2.8991112586
 21
1.1057041031
  0
LINE
  5
319
100
AcDbEntity
  8
0
100
AcDbLine
 62
7
  6
CONTINUOUS
 10
2.8991112586
 20
1.0884344062
 11
2.8991112586
 21
1.0848691031
  0
LINE
  5
31A
100
AcDbEntity
  8
0
100
AcDbLine
 62
7
  6
CONTINUOUS
 10
2.9118112963
 20
1.1400422246
 11
2.9118112963
 21
1.1374372246
  0
LINE
  5
31B
100
AcDbEntity
  8
0
100
AcDbLine
 62
7
  6
CONTINUOUS
 10
2.9118135854
 20
1.0541167547
 11
2.9118135854
 21
1.0567217547
  0
LINE
  5
31C
100
AcDbEntity
  8
0
100
AcDbLine
 62
7
  6
CONTINUOUS
 10
2.9118223773
 20
1.0983685675
 11
2.9118223773
 21
1.0957635675
  0
LINE
  5
31D
100
AcDbEntity
  8
0
100
AcDbLine
 62
7
  6
CONTINUOUS
 10
2.9118307136
 20
1.0775356427
 11
2.9118307135
 21
1.0749304941
  0
LINE
  5
31E
100
AcDbEntity
  8
0
100
AcDbLine
 62
7
  6
CONTINUOUS
 10
2.9118706152
 20
1.1192019181
 11
2.9118706152
 21
1.1165969181
  0
LINE
  5
31F
100
AcDbEntity
  8
0
100
AcDbLine
 62
7
  6
CONTINUOUS
 10
2.9184862586
 20
10.4914192547
 11
2.9184862586
 21
10.5229192547
  0
LINE
  5
320
100
AcDbEntity
  8
0
100
AcDbLine
 62
7
  6
CONTINUOUS
 10
2.9459862586
 20
1.3584192547
 11
2.9459862586
 21
10.4914192547
  0
LINE
  5
321
100
AcDbEntity
  8
0
100
AcDbLine
 62
7
  6
CONTINUOUS
 10
2.949525279
 20
1.1730912138
 11
2.949525279
 21
1.3342472955
  0
LINE
  5
322
100
AcDbEntity
  8
0
100
AcDbLine
 62
7
  6
CONTINUOUS
 10
3.0251597821
 20
10.5419976011
 11
3.0251597821
 21
10.7088409082
  0
LINE
  5
323
100
AcDbEntity
  8
0
100
AcDbLine
 62
7
  6
CONTINUOUS
 10
3.054312735
 20
10.7088409082
 11
3.054312735
 21
10.5419976011
  0
LINE
  5
324
100
AcDbEntity
  8
0
100
AcDbLine
 62
7
  6
CONTINUOUS
 10
3.1299472381
 20
1.1730912138
 11
3.1299472381
 21
1.3342472955
  0
LINE
  5
325
100
AcDbEntity
  8
0
100
AcDbLine
 62
7
  6
CONTINUOUS
 10
3.1334862586
 20
10.4914192547
 11
3.1334862586
 21
1.3584192547
  0
LINE
  5
326
100
AcDbEntity
  8
0
100
AcDbLine
 62
9
  6
CONTINUOUS
 10
3.1435745603
 20
1.1067217547
 11
3.1435745603
 21
1.1041167547
  0
LINE
  5
327
100
AcDbEntity
  8
0
100
AcDbLine
 62
7
  6
CONTINUOUS
 10
2.8991112586
 20
1.0675994062
 11
2.8991112586
 21
1.0429192547
  0
LINE
  5
328
100
AcDbEntity
  8
0
100
AcDbLine
 62
7
  6
CONTINUOUS
 10
2.3869823848
 20
0.7354192547
 11
2.3870014245
 21
0.73562099
  0
LINE
  5
329
100
AcDbEntity
  8
0
100
AcDbLine
 62
7
  6
CONTINUOUS
 10
2.3869823848
 20
0.7354192547
 11
2.3870014246
 21
0.7356209908
  0
LINE
  5
32A
100
AcDbEntity
  8
0
100
AcDbLine
 62
7
  6
CONTINUOUS
 10
5.227915044
 20
0.9942992757
 11
5.216669243
 21
1.0137407805
  0
LINE
  5
32B
100
AcDbEntity
  8
0
100
AcDbLine
 62
7
  6
CONTINUOUS
 10
5.2635990089
 20
0.9932543539
 11
5.2524001448
 21
1.0126175526
  0
LINE
  5
32C
100
AcDbEntity
  8
0
100
AcDbLine
 62
7
  6
CONTINUOUS
 10
5.2992583584
 20
0.9921691579
 11
5.290705912
 21
1.006953832
  0
LINE
  5
32D
100
AcDbEntity
  8
0
100
AcDbLine
 62
7
  6
CONTINUOUS
 10
3.1609862586
 20
10.5229192547
 11
3.1609862586
 21
10.4914192547
  0
LINE
  5
32E
100
AcDbEntity
  8
0
100
AcDbLine
 62
7
  6
CONTINUOUS
 10
3.1675935945
 20
1.1061873522
 11
3.1675935945
 21
1.1087923522
  0
LINE
  5
32F
100
AcDbEntity
  8
0
100
AcDbLine
 62
7
  6
CONTINUOUS
 10
3.1676372521
 20
1.1270114891
 11
3.1676372521
 21
1.1296164891
  0
LINE
  5
330
100
AcDbEntity
  8
0
100
AcDbLine
 62
7
  6
CONTINUOUS
 10
3.1676551988
 20
1.0853523463
 11
3.1676551988
 21
1.0879573463
  0
LINE
  5
331
100
AcDbEntity
  8
0
100
AcDbLine
 62
7
  6
CONTINUOUS
 10
3.1676612
 20
1.0645138201
 11
3.1676612
 21
1.0671188201
  0
LINE
  5
332
100
AcDbEntity
  8
0
100
AcDbLine
 62
7
  6
CONTINUOUS
 10
3.1803612586
 20
1.0429192547
 11
3.1803612586
 21
1.0571819062
  0
LINE
  5
333
100
AcDbEntity
  8
0
100
AcDbLine
 62
7
  6
CONTINUOUS
 10
3.1803612586
 20
1.0744516031
 11
3.1803612586
 21
1.0780169062
  0
LINE
  5
334
100
AcDbEntity
  8
0
100
AcDbLine
 62
7
  6
CONTINUOUS
 10
3.1803612586
 20
1.0952866031
 11
3.1803612586
 21
1.0988519062
  0
LINE
  5
335
100
AcDbEntity
  8
0
100
AcDbLine
 62
7
  6
CONTINUOUS
 10
3.1803612586
 20
1.1161216031
 11
3.1803612586
 21
1.1196869062
  0
LINE
  5
336
100
AcDbEntity
  8
0
100
AcDbLine
 62
7
  6
CONTINUOUS
 10
3.1803612586
 20
1.1369566031
 11
3.1803612586
 21
1.1405219062
  0
LINE
  5
337
100
AcDbEntity
  8
0
100
AcDbLine
 62
7
  6
CONTINUOUS
 10
3.2022362586
 20
0.5929192547
 11
3.2022362586
 21
1.0429192547
  0
LINE
  5
338
100
AcDbEntity
  8
0
100
AcDbLine
 62
7
  6
CONTINUOUS
 10
3.2201582177
 20
1.1730912138
 11
3.2201582177
 21
1.3342472955
  0
LINE
  5
339
100
AcDbEntity
  8
0
100
AcDbLine
 62
7
  6
CONTINUOUS
 10
3.2439097821
 20
10.5419976011
 11
3.2439097821
 21
10.7088409082
  0
LINE
  5
33A
100
AcDbEntity
  8
0
100
AcDbLine
 62
7
  6
CONTINUOUS
 10
3.2564862586
 20
10.7279192547
 11
3.2564862586
 21
10.7729192547
  0
LINE
  5
33B
100
AcDbEntity
  8
0
100
AcDbLine
 62
7
  6
CONTINUOUS
 10
3.2584862586
 20
10.7267360969
 11
3.2584862586
 21
10.5241024124
  0
LINE
  5
33C
100
AcDbEntity
  8
0
100
AcDbLine
 62
7
  6
CONTINUOUS
 10
3.2897362586
 20
0.5979192547
 11
3.2897362586
 21
1.0379192547
  0
LINE
  5
33D
100
AcDbEntity
  8
0
100
AcDbLine
 62
9
  6
CONTINUOUS
 10
3.4522362586
 20
1.0114514611
 11
3.4522362586
 21
0.6293557641
  0
LINE
  5
33E
100
AcDbEntity
  8
0
100
AcDbLine
 62
7
  6
CONTINUOUS
 10
3.6022362586
 20
1.0206692547
 11
3.6022362586
 21
0.6151692547
  0
LINE
  5
33F
100
AcDbEntity
  8
0
100
AcDbLine
 62
7
  6
CONTINUOUS
 10
2.6362621447
 20
1.065147449
 11
2.6368909259
 21
1.066642484
  0
LINE
  5
340
100
AcDbEntity
  8
0
100
AcDbLine
 62
7
  6
CONTINUOUS
 10
2.6354774637
 20
1.0632931191
 11
2.6368909259
 21
1.066642484
  0
LINE
  5
341
100
AcDbEntity
  8
0
100
AcDbLine
 62
7
  6
CONTINUOUS
 10
4.9647362586
 20
1.0689261739
 11
4.9647362586
 21
0.5669123355
  0
LINE
  5
342
100
AcDbEntity
  8
0
100
AcDbLine
 62
9
  6
CONTINUOUS
 10
4.9778759905
 20
1.1113326266
 11
4.9778759905
 21
0.5245058827
  0
LINE
  5
343
100
AcDbEntity
  8
0
100
AcDbLine
 62
7
  6
CONTINUOUS
 10
2.7210108585
 20
0.5691960253
 11
2.7210273494
 21
0.5692369194
  0
LINE
  5
344
100
AcDbEntity
  8
0
100
AcDbLine
 62
7
  6
CONTINUOUS
 10
2.7210273494
 20
0.5692369194
 11
2.7224243207
 21
0.5725453903
  0
LINE
  5
345
100
AcDbEntity
  8
0
100
AcDbLine
 62
7
  6
CONTINUOUS
 10
2.5942362586
 20
0.9751692547
 11
2.6353555916
 21
1.0633499489
  0
LINE
  5
346
100
AcDbEntity
  8
0
100
AcDbLine
 62
7
  6
CONTINUOUS
 10
2.7225461928
 20
0.5724885604
 11
2.7367362586
 21
0.6029192547
  0
LINE
  5
347
100
AcDbEntity
  8
0
100
AcDbLine
 62
9
  6
CONTINUOUS
 10
5.07047126
 20
0.3071980516
 11
5.07047126
 21
1.3286404577
  0
LINE
  5
348
100
AcDbEntity
  8
0
100
AcDbLine
 62
9
  6
CONTINUOUS
 10
5.1447362586
 20
1.4313722493
 11
5.1447362586
 21
0.20446626
  0
LINE
  5
349
100
AcDbEntity
  8
0
100
AcDbLine
 62
7
  6
CONTINUOUS
 10
5.1647362586
 20
1.4429192547
 11
5.1647362586
 21
0.1929192547
  0
LINE
  5
34A
100
AcDbEntity
  8
0
100
AcDbLine
 62
7
  6
CONTINUOUS
 10
5.2860743612
 20
1.0025826219
 11
5.2860743612
 21
1.0117142797
  0
LINE
  5
34B
100
AcDbEntity
  8
0
100
AcDbLine
 62
7
  6
CONTINUOUS
 10
5.3022362586
 20
0.6401996283
 11
5.3022362586
 21
0.9923063044
  0
LINE
  5
34C
100
AcDbEntity
  8
0
100
AcDbLine
 62
9
  6
CONTINUOUS
 10
2.7787987586
 20
1.0058342227
 11
2.7875744827
 21
1.0210334113
  0
LINE
  5
34D
100
AcDbEntity
  8
0
100
AcDbLine
 62
7
  6
CONTINUOUS
 10
2.7624390692
 20
1.020926555
 11
2.7536526288
 21
1.005717509
  0
LINE
  5
34E
100
AcDbEntity
  8
0
100
AcDbLine
 62
7
  6
CONTINUOUS
 10
2.7545137565
 20
0.6149041485
 11
2.7633157381
 21
0.6301386823
  0
LINE
  5
34F
100
AcDbEntity
  8
0
100
AcDbLine
 62
7
  6
CONTINUOUS
 10
5.2978920261
 20
0.7911656647
 11
5.2989756898
 21
0.8446237867
  0
LINE
  5
350
100
AcDbEntity
  8
0
100
AcDbLine
 62
7
  6
CONTINUOUS
 10
5.2938832108
 20
0.7978527897
 11
5.2950740888
 21
0.834431655
  0
LINE
  5
351
100
AcDbEntity
  8
0
100
AcDbLine
 62
7
  6
CONTINUOUS
 10
2.7795307485
 20
0.6149085649
 11
2.7883180946
 21
0.6301193244
  0
LINE
  5
352
100
AcDbEntity
  8
0
100
AcDbLine
 62
7
  6
CONTINUOUS
 10
3.4948960471
 20
1.0171158537
 11
3.4836846386
 21
0.9977237262
  0
LINE
  5
353
100
AcDbEntity
  8
0
100
AcDbLine
 62
7
  6
CONTINUOUS
 10
3.5662623079
 20
1.0193144078
 11
3.5550741158
 21
0.9999607469
  0
LINE
  5
354
100
AcDbEntity
  8
0
100
AcDbLine
 62
7
  6
CONTINUOUS
 10
3.558359997
 20
0.6167929542
 11
3.5690760234
 21
0.635327486
  0
LINE
  5
355
100
AcDbEntity
  8
0
100
AcDbLine
 62
7
  6
CONTINUOUS
 10
3.4592241243
 20
1.0159922072
 11
3.4522362586
 21
1.0039095656
  0
LINE
  5
356
100
AcDbEntity
  8
0
100
AcDbLine
 62
7
  6
CONTINUOUS
 10
3.5306155512
 20
1.0181962725
 11
3.5193669131
 21
0.9987487925
  0
LINE
  5
357
100
AcDbEntity
  8
0
100
AcDbLine
 62
7
  6
CONTINUOUS
 10
3.4520537187
 20
0.6215959892
 11
3.4619807465
 21
0.6387564339
  0
LINE
  5
358
100
AcDbEntity
  8
0
100
AcDbLine
 62
7
  6
CONTINUOUS
 10
3.486942531
 20
0.6190360159
 11
3.497689394
 21
0.6376168443
  0
LINE
  5
359
100
AcDbEntity
  8
0
100
AcDbLine
 62
7
  6
CONTINUOUS
 10
3.5225972879
 20
0.6178820097
 11
3.5333649993
 21
0.6364997505
  0
LINE
  5
35A
100
AcDbEntity
  8
0
100
AcDbLine
 62
7
  6
CONTINUOUS
 10
2.8991112586
 20
1.1301044062
 11
2.8992220681
 21
1.1302360543
  0
LINE
  5
35B
100
AcDbEntity
  8
0
100
AcDbLine
 62
7
  6
CONTINUOUS
 10
2.8991112586
 20
1.1092694062
 11
2.8992235814
 21
1.1094019503
  0
LINE
  5
35C
100
AcDbEntity
  8
0
100
AcDbLine
 62
7
  6
CONTINUOUS
 10
2.8991112586
 20
1.0884344062
 11
2.899223833
 21
1.0885670987
  0
LINE
  5
35D
100
AcDbEntity
  8
0
100
AcDbLine
 62
7
  6
CONTINUOUS
 10
2.9118706152
 20
1.1165969181
 11
2.9120014943
 21
1.1167481692
  0
LINE
  5
35E
100
AcDbEntity
  8
0
100
AcDbLine
 62
7
  6
CONTINUOUS
 10
2.9119607469
 20
1.0750807715
 11
2.9118307135
 21
1.0749304941
  0
LINE
  5
35F
100
AcDbEntity
  8
0
100
AcDbLine
 62
7
  6
CONTINUOUS
 10
2.9119518132
 20
1.0959130449
 11
2.9118223773
 21
1.0957635675
  0
LINE
  5
360
100
AcDbEntity
  8
0
100
AcDbLine
 62
7
  6
CONTINUOUS
 10
2.8991112586
 20
1.0675994062
 11
2.8992285361
 21
1.0677348425
  0
LINE
  5
361
100
AcDbEntity
  8
0
100
AcDbLine
 62
7
  6
CONTINUOUS
 10
2.9118112963
 20
1.1374372246
 11
2.9119365125
 21
1.137581627
  0
LINE
  5
362
100
AcDbEntity
  8
0
100
AcDbLine
 62
7
  6
CONTINUOUS
 10
2.8991112586
 20
1.0467644062
 11
2.89923314
 21
1.0469024756
  0
LINE
  5
363
100
AcDbEntity
  8
0
100
AcDbLine
 62
7
  6
CONTINUOUS
 10
2.8834862586
 20
1.3584192547
 11
2.8593142994
 21
1.3342472955
  0
LINE
  5
364
100
AcDbEntity
  8
0
100
AcDbLine
 62
7
  6
CONTINUOUS
 10
3.1803612586
 20
1.0952866031
 11
3.1802496953
 21
1.095154508
  0
LINE
  5
365
100
AcDbEntity
  8
0
100
AcDbLine
 62
7
  6
CONTINUOUS
 10
3.1803612586
 20
1.0744516031
 11
3.180247256
 21
1.0743180715
  0
LINE
  5
366
100
AcDbEntity
  8
0
100
AcDbLine
 62
7
  6
CONTINUOUS
 10
3.1803612586
 20
1.1161216031
 11
3.1802452319
 21
1.1159868911
  0
LINE
  5
367
100
AcDbEntity
  8
0
100
AcDbLine
 62
7
  6
CONTINUOUS
 10
3.1675098754
 20
1.1294690131
 11
3.1676372521
 21
1.1296164891
  0
LINE
  5
368
100
AcDbEntity
  8
0
100
AcDbLine
 62
7
  6
CONTINUOUS
 10
3.1674625032
 20
1.1086408082
 11
3.1675935945
 21
1.1087923522
  0
LINE
  5
369
100
AcDbEntity
  8
0
100
AcDbLine
 62
7
  6
CONTINUOUS
 10
3.1675263656
 20
1.0878086145
 11
3.1676551988
 21
1.0879573463
  0
LINE
  5
36A
100
AcDbEntity
  8
0
100
AcDbLine
 62
7
  6
CONTINUOUS
 10
3.1675343394
 20
1.0669724288
 11
3.1676612
 21
1.0671188201
  0
LINE
  5
36B
100
AcDbEntity
  8
0
100
AcDbLine
 62
7
  6
CONTINUOUS
 10
3.1803612586
 20
1.1369566031
 11
3.1802319183
 21
1.136814371
  0
LINE
  5
36C
100
AcDbEntity
  8
0
100
AcDbLine
 62
7
  6
CONTINUOUS
 10
2.9119587099
 20
1.0542482132
 11
2.9118310702
 21
1.0541167547
  0
LINE
  5
36D
100
AcDbEntity
  8
0
100
AcDbLine
 62
7
  6
CONTINUOUS
 10
2.3717642394
 20
0.7642769345
 11
2.3719108471
 21
0.7644235422
  0
LINE
  5
36E
100
AcDbEntity
  8
0
100
AcDbLine
 62
7
  6
CONTINUOUS
 10
2.3717642356
 20
0.7642769308
 11
2.3719108471
 21
0.7644235422
  0
LINE
  5
36F
100
AcDbEntity
  8
0
100
AcDbLine
 62
7
  6
CONTINUOUS
 10
3.2201582177
 20
1.1730912138
 11
3.1959862586
 21
1.1489192547
  0
LINE
  5
370
100
AcDbEntity
  8
0
100
AcDbLine
 62
7
  6
CONTINUOUS
 10
2.7875744827
 20
1.0210442547
 11
2.7874359082
 21
1.020921076
  0
LINE
  5
371
100
AcDbEntity
  8
0
100
AcDbLine
 62
7
  6
CONTINUOUS
 10
2.7625744834
 20
1.0210442547
 11
2.7624390255
 21
1.0209265551
  0
LINE
  5
372
100
AcDbEntity
  8
0
100
AcDbLine
 62
7
  6
CONTINUOUS
 10
2.7633157381
 20
0.6301386823
 11
2.7631693647
 21
0.630011907
  0
LINE
  5
373
100
AcDbEntity
  8
0
100
AcDbLine
 62
7
  6
CONTINUOUS
 10
2.7537960574
 20
1.0058414813
 11
2.7536526288
 21
1.005717509
  0
LINE
  5
374
100
AcDbEntity
  8
0
100
AcDbLine
 62
7
  6
CONTINUOUS
 10
2.8125744827
 20
1.0210442547
 11
2.8124407584
 21
1.020929547
  0
LINE
  5
375
100
AcDbEntity
  8
0
100
AcDbLine
 62
7
  6
CONTINUOUS
 10
2.7883180946
 20
0.6301193244
 11
2.7881737586
 21
0.6299942547
  0
LINE
  5
376
100
AcDbEntity
  8
0
100
AcDbLine
 62
7
  6
CONTINUOUS
 10
2.7793980345
 20
0.6147942547
 11
2.7795315265
 21
0.6149085644
  0
LINE
  5
377
100
AcDbEntity
  8
0
100
AcDbLine
 62
7
  6
CONTINUOUS
 10
2.7543980303
 20
0.6147942547
 11
2.7545289166
 21
0.6149041387
  0
LINE
  5
378
100
AcDbEntity
  8
0
100
AcDbLine
 62
9
  6
CONTINUOUS
 10
3.1538833071
 20
1.1140541031
 11
3.1435745603
 21
1.1067217547
  0
LINE
  5
379
100
AcDbEntity
  8
0
100
AcDbLine
 62
7
  6
CONTINUOUS
 10
2.9120014943
 20
1.1167481692
 11
2.9010984976
 21
1.1104444532
  0
LINE
  5
37A
100
AcDbEntity
  8
0
100
AcDbLine
 62
7
  6
CONTINUOUS
 10
2.9119365125
 20
1.137581627
 11
2.9010437925
 21
1.1312870337
  0
LINE
  5
37B
100
AcDbEntity
  8
0
100
AcDbLine
 62
7
  6
CONTINUOUS
 10
2.9119518132
 20
1.0959130449
 11
2.901047618
 21
1.0896110815
  0
LINE
  5
37C
100
AcDbEntity
  8
0
100
AcDbLine
 62
7
  6
CONTINUOUS
 10
5.2049455981
 20
1.0108874634
 11
5.1960538192
 21
0.9955089308
  0
LINE
  5
37D
100
AcDbEntity
  8
0
100
AcDbLine
 62
7
  6
CONTINUOUS
 10
5.1647362586
 20
0.6231818873
 11
5.1743403944
 21
0.6397925406
  0
LINE
  5
37E
100
AcDbEntity
  8
0
100
AcDbLine
 62
7
  6
CONTINUOUS
 10
5.1692224707
 20
1.0119175081
 11
5.1658991295
 21
1.0061716902
  0
LINE
  5
37F
100
AcDbEntity
  8
0
100
AcDbLine
 62
7
  6
CONTINUOUS
 10
5.2406295057
 20
1.0096702637
 11
5.2317367939
 21
0.9942988165
  0
LINE
  5
380
100
AcDbEntity
  8
0
100
AcDbLine
 62
7
  6
CONTINUOUS
 10
5.2763218552
 20
1.008631626
 11
5.2674117905
 21
0.9932244783
  0
LINE
  5
381
100
AcDbEntity
  8
0
100
AcDbLine
 62
7
  6
CONTINUOUS
 10
5.2000877539
 20
0.6236805316
 11
5.2100691466
 21
0.6409401675
  0
LINE
  5
382
100
AcDbEntity
  8
0
100
AcDbLine
 62
7
  6
CONTINUOUS
 10
5.2357707574
 20
0.6248128877
 11
5.2457529067
 21
0.6420717018
  0
LINE
  5
383
100
AcDbEntity
  8
0
100
AcDbLine
 62
7
  6
CONTINUOUS
 10
5.2714859179
 20
0.6259445061
 11
5.2814259131
 21
0.6431285228
  0
LINE
  5
384
100
AcDbEntity
  8
0
100
AcDbLine
 62
9
  6
CONTINUOUS
 10
5.2355695919
 20
0.6274243258
 11
5.2467297726
 21
0.6462609412
  0
LINE
  5
385
100
AcDbEntity
  8
0
100
AcDbLine
 62
7
  6
CONTINUOUS
 10
3.1674625032
 20
1.1086408082
 11
3.1782532
 21
1.1148800167
  0
LINE
  5
386
100
AcDbEntity
  8
0
100
AcDbLine
 62
7
  6
CONTINUOUS
 10
2.9119607469
 20
1.0750807715
 11
2.9010516014
 21
1.0687755082
  0
LINE
  5
387
100
AcDbEntity
  8
0
100
AcDbLine
 62
7
  6
CONTINUOUS
 10
3.1675098754
 20
1.1294690131
 11
3.1783191334
 21
1.1357166519
  0
LINE
  5
388
100
AcDbEntity
  8
0
100
AcDbLine
 62
7
  6
CONTINUOUS
 10
3.1675263656
 20
1.0878086145
 11
3.1783145965
 21
1.0940432883
  0
LINE
  5
389
100
AcDbEntity
  8
0
100
AcDbLine
 62
7
  6
CONTINUOUS
 10
3.1675343394
 20
1.0669724288
 11
3.178317844
 21
1.0732039895
  0
LINE
  5
38A
100
AcDbEntity
  8
0
100
AcDbLine
 62
7
  6
CONTINUOUS
 10
2.9119587099
 20
1.0542482132
 11
2.8991138163
 21
1.0467844062
  0
LINE
  5
38B
100
AcDbEntity
  8
0
100
AcDbLine
 62
7
  6
CONTINUOUS
 10
2.8229862586
 20
10.5229192547
 11
2.8209862586
 21
10.5241023942
  0
LINE
  5
38C
100
AcDbEntity
  8
0
100
AcDbLine
 62
7
  6
CONTINUOUS
 10
5.1710471005
 20
1.0151349098
 11
5.1713485777
 21
1.015403464
  0
LINE
  5
38D
100
AcDbEntity
  8
0
100
AcDbLine
 62
7
  6
CONTINUOUS
 10
5.2781469628
 20
1.0118044941
 11
5.2784485949
 21
1.0120686018
  0
LINE
  5
38E
100
AcDbEntity
  8
0
100
AcDbLine
 62
7
  6
CONTINUOUS
 10
5.2424549988
 20
1.012928708
 11
5.2427486067
 21
1.013180222
  0
LINE
  5
38F
100
AcDbEntity
  8
0
100
AcDbLine
 62
7
  6
CONTINUOUS
 10
5.2067712251
 20
1.014066528
 11
5.2070485953
 21
1.0142918429
  0
LINE
  5
390
100
AcDbEntity
  8
0
100
AcDbLine
 62
7
  6
CONTINUOUS
 10
5.1447362586
 20
1.4313722493
 11
5.1647362586
 21
1.4429192547
  0
LINE
  5
391
100
AcDbEntity
  8
0
100
AcDbLine
 62
7
  6
CONTINUOUS
 10
3.2584862586
 20
10.7267361151
 11
3.2564862586
 21
10.7279192547
  0
LINE
  5
392
100
AcDbEntity
  8
0
100
AcDbLine
 62
7
  6
CONTINUOUS
 10
5.2926852535
 20
0.6306182496
 11
5.3022362586
 21
0.6401692547
  0
LINE
  5
393
100
AcDbEntity
  8
0
100
AcDbLine
 62
7
  6
CONTINUOUS
 10
5.1988792055
 20
0.6215535538
 11
5.1985862712
 21
0.621283168
  0
LINE
  5
394
100
AcDbEntity
  8
0
100
AcDbLine
 62
7
  6
CONTINUOUS
 10
5.2702767972
 20
0.6237695867
 11
5.2699862428
 21
0.6235064082
  0
LINE
  5
395
100
AcDbEntity
  8
0
100
AcDbLine
 62
7
  6
CONTINUOUS
 10
3.1609862586
 20
10.4914192547
 11
2.9184862586
 21
10.4914192547
  0
LINE
  5
396
100
AcDbEntity
  8
0
100
AcDbLine
 62
7
  6
CONTINUOUS
 10
2.823019884
 20
10.5229192547
 11
3.2564526331
 21
10.5229192547
  0
LINE
  5
397
100
AcDbEntity
  8
0
100
AcDbLine
 62
7
  6
CONTINUOUS
 10
2.8209862586
 20
10.5419976011
 11
2.835562735
 21
10.5419976011
  0
LINE
  5
398
100
AcDbEntity
  8
0
100
AcDbLine
 62
7
  6
CONTINUOUS
 10
3.0251597821
 20
10.5419976011
 11
3.054312735
 21
10.5419976011
  0
LINE
  5
399
100
AcDbEntity
  8
0
100
AcDbLine
 62
7
  6
CONTINUOUS
 10
3.2439097821
 20
10.5419976011
 11
3.2584862586
 21
10.5419976011
  0
LINE
  5
39A
100
AcDbEntity
  8
0
100
AcDbLine
 62
7
  6
CONTINUOUS
 10
3.2584862586
 20
10.7088409082
 11
3.2439097821
 21
10.7088409082
  0
LINE
  5
39B
100
AcDbEntity
  8
0
100
AcDbLine
 62
7
  6
CONTINUOUS
 10
3.054312735
 20
10.7088409082
 11
3.0251597821
 21
10.7088409082
  0
LINE
  5
39C
100
AcDbEntity
  8
0
100
AcDbLine
 62
7
  6
CONTINUOUS
 10
2.835562735
 20
10.7088409082
 11
2.8209862586
 21
10.7088409082
  0
LINE
  5
39D
100
AcDbEntity
  8
0
100
AcDbLine
 62
7
  6
CONTINUOUS
 10
2.8229862586
 20
10.7279192547
 11
3.2564862586
 21
10.7279192547
  0
LINE
  5
39E
100
AcDbEntity
  8
0
100
AcDbLine
 62
7
  6
CONTINUOUS
 10
2.8230199279
 20
10.7729192547
 11
3.2564525893
 21
10.7729192547
  0
ARC
  5
39F
100
AcDbEntity
  8
0
100
AcDbCircle
 62
7
  6
CONTINUOUS
 10
-26.316911207
 20
0.2757646123
 40
29.0907697623
100
AcDbArc
 50
1.1059072522
 51
1.2842168675
  0
ARC
  5
3A0
100
AcDbEntity
  8
0
100
AcDbCircle
 62
7
  6
CONTINUOUS
 10
-25.1698740727
 20
0.2961206022
 40
27.9685524916
100
AcDbArc
 50
1.1052887864
 51
1.3077435311
  0
ARC
  5
3A1
100
AcDbEntity
  8
0
100
AcDbCircle
 62
7
  6
CONTINUOUS
 10
-22.7074083671
 20
0.3471465284
 40
25.4848936646
100
AcDbArc
 50
1.098263998
 51
1.3204365028
  0
ARC
  5
3A2
100
AcDbEntity
  8
0
100
AcDbCircle
 62
7
  6
CONTINUOUS
 10
-16.5265776753
 20
0.4409207939
 40
19.2871623795
100
AcDbArc
 50
1.1834802092
 51
1.4471693512
  0
ARC
  5
3A3
100
AcDbEntity
  8
0
100
AcDbCircle
 62
7
  6
CONTINUOUS
 10
-16.5234526746
 20
0.4409207939
 40
19.2871623788
100
AcDbArc
 50
1.1834802092
 51
1.4471693512
  0
ARC
  5
3A4
100
AcDbEntity
  8
0
100
AcDbCircle
 62
7
  6
CONTINUOUS
 10
-15.9503311106
 20
0.4510321397
 40
18.7358299636
100
AcDbArc
 50
1.1655420264
 51
1.4808125138
  0
ARC
  5
3A5
100
AcDbEntity
  8
0
100
AcDbCircle
 62
7
  6
CONTINUOUS
 10
-15.9465154134
 20
0.4510479548
 40
18.7351390863
100
AcDbArc
 50
1.1655412103
 51
1.4808238912
  0
ARC
  5
3A6
100
AcDbEntity
  8
0
100
AcDbCircle
 62
7
  6
CONTINUOUS
 10
-11.697320652
 20
1.1210640122
 40
16.9984142464
100
AcDbArc
 50
358.5605622319
 51
358.8879568719
  0
ARC
  5
3A7
100
AcDbEntity
  8
0
100
AcDbCircle
 62
7
  6
CONTINUOUS
 10
-4.3867232644
 20
0.765392972
 40
7.1551124101
100
AcDbArc
 50
1.4262702492
 51
1.543285538
  0
ARC
  5
3A8
100
AcDbEntity
  8
0
100
AcDbCircle
 62
7
  6
CONTINUOUS
 10
-4.1641543028
 20
0.7473189972
 40
6.9209465474
100
AcDbArc
 50
1.4961357275
 51
1.6206031898
  0
ARC
  5
3A9
100
AcDbEntity
  8
0
100
AcDbCircle
 62
7
  6
CONTINUOUS
 10
-4.1610293024
 20
0.7473189972
 40
6.920946547
100
AcDbArc
 50
1.4961357275
 51
1.6206031898
  0
ARC
  5
3AA
100
AcDbEntity
  8
0
100
AcDbCircle
 62
7
  6
CONTINUOUS
 10
-3.5430040016
 20
0.7867827684
 40
6.3361142285
100
AcDbArc
 50
1.462428694
 51
1.5806208218
  0
ARC
  5
3AB
100
AcDbEntity
  8
0
100
AcDbCircle
 62
7
  6
CONTINUOUS
 10
-3.1810585735
 20
0.7967835776
 40
5.9533621077
100
AcDbArc
 50
1.4600733986
 51
1.5858725669
  0
ARC
  5
3AC
100
AcDbEntity
  8
0
100
AcDbCircle
 62
7
  6
CONTINUOUS
 10
-3.0208865719
 20
0.7781911229
 40
5.802253218
100
AcDbArc
 50
1.5506790087
 51
1.689251241
  0
ARC
  5
3AD
100
AcDbEntity
  8
0
100
AcDbCircle
 62
7
  6
CONTINUOUS
 10
-2.6749066668
 20
0.7878875372
 40
5.4592614927
100
AcDbArc
 50
1.5463431036
 51
1.6936197685
  0
ARC
  5
3AE
100
AcDbEntity
  8
0
100
AcDbCircle
 62
7
  6
CONTINUOUS
 10
-2.0921664264
 20
0.8269434793
 40
4.8597302108
100
AcDbArc
 50
1.5464591976
 51
1.7038154141
  0
ARC
  5
3AF
100
AcDbEntity
  8
0
100
AcDbCircle
 62
7
  6
CONTINUOUS
 10
-1.9474252115
 20
0.8097631626
 40
4.7033381444
100
AcDbArc
 50
1.6239206623
 51
1.7913751806
  0
ARC
  5
3B0
100
AcDbEntity
  8
0
100
AcDbCircle
 62
7
  6
CONTINUOUS
 10
-1.9443002097
 20
0.8097631626
 40
4.7033381426
100
AcDbArc
 50
1.6239206623
 51
1.7913751807
  0
ARC
  5
3B1
100
AcDbEntity
  8
0
100
AcDbCircle
 62
7
  6
CONTINUOUS
 10
-1.6600075747
 20
0.8384926188
 40
4.4524079447
100
AcDbArc
 50
1.5838318918
 51
1.7379229015
  0
ARC
  5
3B2
100
AcDbEntity
  8
0
100
AcDbCircle
 62
7
  6
CONTINUOUS
 10
-1.1719006136
 20
0.8324678723
 40
3.952470813
100
AcDbArc
 50
1.6929127951
 51
1.877448253
  0
ARC
  5
3B3
100
AcDbEntity
  8
0
100
AcDbCircle
 62
7
  6
CONTINUOUS
 10
-0.9057845069
 20
0.8406646499
 40
3.6893523661
100
AcDbArc
 50
1.6863553812
 51
1.8840480782
  0
ARC
  5
3B4
100
AcDbEntity
  8
0
100
AcDbCircle
 62
7
  6
CONTINUOUS
 10
-0.30365215
 20
0.8608040336
 40
3.0618963638
100
AcDbArc
 50
1.7964505161
 51
2.0268836439
  0
ARC
  5
3B5
100
AcDbEntity
  8
0
100
AcDbCircle
 62
7
  6
CONTINUOUS
 10
-0.3067771493
 20
0.8608040337
 40
3.0618963631
100
AcDbArc
 50
1.7964505161
 51
2.0268836439
  0
ARC
  5
3B6
100
AcDbEntity
  8
0
100
AcDbCircle
 62
7
  6
CONTINUOUS
 10
0.2315545761
 20
0.8782346421
 40
2.548269624
100
AcDbArc
 50
1.8827883047
 51
2.1369786493
  0
ARC
  5
3B7
100
AcDbEntity
  8
0
100
AcDbCircle
 62
7
  6
CONTINUOUS
 10
2.9709674888
 20
-0.0965183683
 40
1.146250254
100
AcDbArc
 50
92.2296022706
 51
92.63218548
  0
ARC
  5
3B8
100
AcDbEntity
  8
0
100
AcDbCircle
 62
7
  6
CONTINUOUS
 10
4.4829938461
 20
0.1852542605
 40
0.6
100
AcDbArc
 50
11.726469314
 51
34.4314181982
  0
ARC
  5
3B9
100
AcDbEntity
  8
0
100
AcDbCircle
 62
7
  6
CONTINUOUS
 10
5.2222362586
 20
0.3387001976
 40
0.155
100
AcDbArc
 50
191.726469314
 51
240.0
  0
ARC
  5
3BA
100
AcDbEntity
  8
0
100
AcDbCircle
 62
7
  6
CONTINUOUS
 10
2.9397150187
 20
0.6363749057
 40
0.4923740126
100
AcDbArc
 50
93.1747448514
 51
93.3123464846
  0
ARC
  5
3BB
100
AcDbEntity
  8
0
100
AcDbCircle
 62
7
  6
CONTINUOUS
 10
2.9392216331
 20
0.6035083292
 40
0.4835579927
100
AcDbArc
 50
93.1726203867
 51
93.3142451414
  0
ARC
  5
3BC
100
AcDbEntity
  8
0
100
AcDbCircle
 62
7
  6
CONTINUOUS
 10
2.9516238201
 20
0.6889078473
 40
0.4508333681
100
AcDbArc
 50
92.9396920372
 51
93.7542760543
  0
ARC
  5
3BD
100
AcDbEntity
  8
0
100
AcDbCircle
 62
7
  6
CONTINUOUS
 10
2.9516238201
 20
0.6915128473
 40
0.4508333681
100
AcDbArc
 50
92.9396920372
 51
93.7542760543
  0
ARC
  5
3BE
100
AcDbEntity
  8
0
100
AcDbCircle
 62
7
  6
CONTINUOUS
 10
2.5284005045
 20
0.6020195939
 40
0.2107911923
100
AcDbArc
 50
22.6489578483
 51
23.0073028177
  0
ARC
  5
3BF
100
AcDbEntity
  8
0
100
AcDbCircle
 62
7
  6
CONTINUOUS
 10
2.5332826704
 20
0.6040542149
 40
0.2055020316
100
AcDbArc
 50
22.1302255653
 51
22.6496074824
  0
ARC
  5
3C0
100
AcDbEntity
  8
0
100
AcDbCircle
 62
7
  6
CONTINUOUS
 10
2.5393023692
 20
0.6503752693
 40
0.1989752226
100
AcDbArc
 50
336.9736997834
 51
339.9180053464
  0
ARC
  5
3C1
100
AcDbEntity
  8
0
100
AcDbCircle
 62
7
  6
CONTINUOUS
 10
2.5394833641
 20
0.6065730617
 40
0.1988092605
100
AcDbArc
 50
21.4622451671
 51
22.1309744155
  0
ARC
  5
3C2
100
AcDbEntity
  8
0
100
AcDbCircle
 62
7
  6
CONTINUOUS
 10
2.5460737388
 20
0.6091639407
 40
0.1917278982
100
AcDbArc
 50
20.7705025557
 51
21.4622794974
  0
ARC
  5
3C3
100
AcDbEntity
  8
0
100
AcDbCircle
 62
7
  6
CONTINUOUS
 10
2.5525025492
 20
0.6116014689
 40
0.1848524966
100
AcDbArc
 50
20.023870965
 51
20.7707231538
  0
ARC
  5
3C4
100
AcDbEntity
  8
0
100
AcDbCircle
 62
7
  6
CONTINUOUS
 10
2.5660640918
 20
0.640466091
 40
0.1704381337
100
AcDbArc
 50
339.9575705495
 51
343.2982538104
  0
ARC
  5
3C5
100
AcDbEntity
  8
0
100
AcDbCircle
 62
7
  6
CONTINUOUS
 10
2.5680185452
 20
0.6171220919
 40
0.1683841636
100
AcDbArc
 50
17.1717715666
 51
20.0667296718
  0
ARC
  5
3C6
100
AcDbEntity
  8
0
100
AcDbCircle
 62
7
  6
CONTINUOUS
 10
2.6087847211
 20
0.6293474375
 40
0.1262447624
100
AcDbArc
 50
351.2303392066
 51
352.8498548949
  0
ARC
  5
3C7
100
AcDbEntity
  8
0
100
AcDbCircle
 62
7
  6
CONTINUOUS
 10
2.6125050297
 20
0.628890126
 40
0.122496464
100
AcDbArc
 50
352.8454996524
 51
355.5039686086
  0
ARC
  5
3C8
100
AcDbEntity
  8
0
100
AcDbCircle
 62
7
  6
CONTINUOUS
 10
2.6184748403
 20
0.6284761809
 40
0.1165125879
100
AcDbArc
 50
355.4767733147
 51
4.5221057579
  0
ARC
  5
3C9
100
AcDbEntity
  8
0
100
AcDbCircle
 62
7
  6
CONTINUOUS
 10
2.3862362586
 20
0.7450692547
 40
0.0059
100
AcDbArc
 50
206.9106905226
 51
275.9164079043
  0
ARC
  5
3CA
100
AcDbEntity
  8
0
100
AcDbCircle
 62
7
  6
CONTINUOUS
 10
1.2091941441
 20
0.8685528706
 40
2.2564853725
100
AcDbArc
 50
2.3610928591
 51
2.9534251322
  0
ARC
  5
3CB
100
AcDbEntity
  8
0
100
AcDbCircle
 62
7
  6
CONTINUOUS
 10
0.9991708875
 20
0.8285230584
 40
1.3909326596
100
AcDbArc
 50
356.3152466601
 51
356.522568987
  0
ARC
  5
3CC
100
AcDbEntity
  8
0
100
AcDbCircle
 62
7
  6
CONTINUOUS
 10
1.0998274488
 20
0.8221375293
 40
1.2900738064
100
AcDbArc
 50
356.3109589604
 51
356.7482146443
  0
ARC
  5
3CD
100
AcDbEntity
  8
0
100
AcDbCircle
 62
7
  6
CONTINUOUS
 10
1.1526804862
 20
0.8188296283
 40
1.2371181578
100
AcDbArc
 50
357.3345401458
 51
357.6759213757
  0
ARC
  5
3CE
100
AcDbEntity
  8
0
100
AcDbCircle
 62
7
  6
CONTINUOUS
 10
1.155678359
 20
0.8171391805
 40
1.234117469
100
AcDbArc
 50
2.3245047677
 51
2.6666467839
  0
ARC
  5
3CF
100
AcDbEntity
  8
0
100
AcDbCircle
 62
7
  6
CONTINUOUS
 10
1.159875884
 20
0.8184476616
 40
1.2299127827
100
AcDbArc
 50
356.7611534777
 51
357.3367267046
  0
ARC
  5
3D0
100
AcDbEntity
  8
0
100
AcDbCircle
 62
7
  6
CONTINUOUS
 10
1.1622354917
 20
0.8175000424
 40
1.227550649
100
AcDbArc
 50
2.6640609593
 51
3.6983353076
  0
ARC
  5
3D1
100
AcDbEntity
  8
0
100
AcDbCircle
 62
7
  6
CONTINUOUS
 10
1.1738430008
 20
0.81791927
 40
1.2159361352
100
AcDbArc
 50
357.6783449574
 51
2.3224924538
  0
ARC
  5
3D2
100
AcDbEntity
  8
0
100
AcDbCircle
 62
7
  6
CONTINUOUS
 10
1.1883166916
 20
0.816860542
 40
1.2014277343
100
AcDbArc
 50
356.5305968362
 51
356.7600911076
  0
ARC
  5
3D3
100
AcDbEntity
  8
0
100
AcDbCircle
 62
7
  6
CONTINUOUS
 10
0.8784628655
 20
0.9024060114
 40
1.8790495667
100
AcDbArc
 50
2.0340061072
 51
2.3610700422
  0
ARC
  5
3D4
100
AcDbEntity
  8
0
100
AcDbCircle
 62
7
  6
CONTINUOUS
 10
0.8753378657
 20
0.9024060114
 40
1.8790495665
100
AcDbArc
 50
2.0340061071
 51
2.3610700422
  0
ARC
  5
3D5
100
AcDbEntity
  8
0
100
AcDbCircle
 62
7
  6
CONTINUOUS
 10
2.4802902973
 20
0.8263015309
 40
0.1164927407
100
AcDbArc
 50
170.3906542068
 51
172.1925847332
  0
ARC
  5
3D6
100
AcDbEntity
  8
0
100
AcDbCircle
 62
7
  6
CONTINUOUS
 10
2.4802888071
 20
0.8095367123
 40
0.116491227
100
AcDbArc
 50
187.8073626451
 51
189.6093390842
  0
ARC
  5
3D7
100
AcDbEntity
  8
0
100
AcDbCircle
 62
7
  6
CONTINUOUS
 10
2.3862362586
 20
0.8907692547
 40
0.0059
100
AcDbArc
 50
94.1181448782
 51
153.0893094774
  0
ARC
  5
3D8
100
AcDbEntity
  8
0
100
AcDbCircle
 62
7
  6
CONTINUOUS
 10
2.3862362586
 20
0.8907692547
 40
0.0059
100
AcDbArc
 50
90.0
 51
94.1181448782
  0
ARC
  5
3D9
100
AcDbEntity
  8
0
100
AcDbCircle
 62
7
  6
CONTINUOUS
 10
2.5830463662
 20
0.8179274096
 40
0.2112820264
100
AcDbArc
 50
177.8661638168
 51
182.1336199978
  0
ARC
  5
3DA
100
AcDbEntity
  8
0
100
AcDbCircle
 62
7
  6
CONTINUOUS
 10
2.5297650734
 20
0.8179192547
 40
0.1666725773
100
AcDbArc
 50
189.6113601359
 51
206.9106905226
  0
ARC
  5
3DB
100
AcDbEntity
  8
0
100
AcDbCircle
 62
7
  6
CONTINUOUS
 10
2.5297650734
 20
0.8179192547
 40
0.1666725773
100
AcDbArc
 50
153.0893094774
 51
170.3886398641
  0
ARC
  5
3DC
100
AcDbEntity
  8
0
100
AcDbCircle
 62
7
  6
CONTINUOUS
 10
2.4125701176
 20
0.92949648
 40
1.0515683352
100
AcDbArc
 50
3.0155547571
 51
3.5301589815
  0
ARC
  5
3DD
100
AcDbEntity
  8
0
100
AcDbCircle
 62
7
  6
CONTINUOUS
 10
2.9441978352
 20
0.9620046965
 40
0.5283298311
100
AcDbArc
 50
3.5253364011
 51
4.3780841076
  0
ARC
  5
3DE
100
AcDbEntity
  8
0
100
AcDbCircle
 62
7
  6
CONTINUOUS
 10
2.9863098925
 20
0.9637234707
 40
0.5218871614
100
AcDbArc
 50
3.4885115978
 51
4.3566075912
  0
ARC
  5
3DF
100
AcDbEntity
  8
0
100
AcDbCircle
 62
7
  6
CONTINUOUS
 10
3.0240556767
 20
0.9651131931
 40
0.5198221732
100
AcDbArc
 50
3.4580666983
 51
4.3344267354
  0
ARC
  5
3E0
100
AcDbEntity
  8
0
100
AcDbCircle
 62
7
  6
CONTINUOUS
 10
2.5441829592
 20
0.9873911016
 40
0.1937294485
100
AcDbArc
 50
20.0417861242
 51
23.0661676537
  0
ARC
  5
3E1
100
AcDbEntity
  8
0
100
AcDbCircle
 62
7
  6
CONTINUOUS
 10
4.2883689033
 20
0.7028677325
 40
0.9410828865
100
AcDbArc
 50
356.4100162822
 51
356.9786103222
  0
ARC
  5
3E2
100
AcDbEntity
  8
0
100
AcDbCircle
 62
7
  6
CONTINUOUS
 10
4.2528289819
 20
0.7020242547
 40
0.9409278501
100
AcDbArc
 50
356.400592524
 51
356.9725119979
  0
ARC
  5
3E3
100
AcDbEntity
  8
0
100
AcDbCircle
 62
7
  6
CONTINUOUS
 10
3.3102237583
 20
0.6578686155
 40
0.5374225769
100
AcDbArc
 50
182.6358864924
 51
183.4026494698
  0
ARC
  5
3E4
100
AcDbEntity
  8
0
100
AcDbCircle
 62
7
  6
CONTINUOUS
 10
4.0271929481
 20
0.6715223425
 40
0.517858221
100
AcDbArc
 50
183.4622221282
 51
184.3399851413
  0
ARC
  5
3E5
100
AcDbEntity
  8
0
100
AcDbCircle
 62
7
  6
CONTINUOUS
 10
3.4385835987
 20
0.6588215838
 40
0.1377089158
100
AcDbArc
 50
176.7412569775
 51
182.6039350663
  0
ARC
  5
3E6
100
AcDbEntity
  8
0
100
AcDbCircle
 62
7
  6
CONTINUOUS
 10
3.3037722197
 20
0.6588175022
 40
0.1373260877
100
AcDbArc
 50
356.7343738738
 51
4.5892485102
  0
ARC
  5
3E7
100
AcDbEntity
  8
0
100
AcDbCircle
 62
7
  6
CONTINUOUS
 10
3.4282549396
 20
0.6594867366
 40
0.1273591706
100
AcDbArc
 50
172.8255685175
 51
176.7758718323
  0
ARC
  5
3E8
100
AcDbEntity
  8
0
100
AcDbCircle
 62
7
  6
CONTINUOUS
 10
5.0397362586
 20
0.5669123355
 40
0.075
100
AcDbArc
 50
180.0
 51
214.4314181982
  0
ARC
  5
3E9
100
AcDbEntity
  8
0
100
AcDbCircle
 62
7
  6
CONTINUOUS
 10
5.2106006323
 20
0.6345708951
 40
0.0516757097
100
AcDbArc
 50
351.7547335739
 51
352.9164856385
  0
ARC
  5
3EA
100
AcDbEntity
  8
0
100
AcDbCircle
 62
7
  6
CONTINUOUS
 10
3.3397362586
 20
0.6243810096
 40
0.05
100
AcDbArc
 50
187.5
 51
218.9937120236
  0
ARC
  5
3EB
100
AcDbEntity
  8
0
100
AcDbCircle
 62
7
  6
CONTINUOUS
 10
3.4022362586
 20
0.6243810096
 40
0.05
100
AcDbArc
 50
321.0062879764
 51
356.7994695443
  0
ARC
  5
3EC
100
AcDbEntity
  8
0
100
AcDbCircle
 62
7
  6
CONTINUOUS
 10
5.1172362586
 20
0.8179192547
 40
2.7315
100
AcDbArc
 50
181.7307782453
 51
189.9649595862
  0
ARC
  5
3ED
100
AcDbEntity
  8
0
100
AcDbCircle
 62
7
  6
CONTINUOUS
 10
5.1172362586
 20
0.8179192547
 40
2.7315
100
AcDbArc
 50
170.0350404149
 51
178.2692217547
  0
ARC
  5
3EE
100
AcDbEntity
  8
0
100
AcDbCircle
 62
7
  6
CONTINUOUS
 10
3.3073334277
 20
0.9772401665
 40
0.133758458
100
AcDbArc
 50
2.5867721122
 51
4.608517326
  0
ARC
  5
3EF
100
AcDbEntity
  8
0
100
AcDbCircle
 62
7
  6
CONTINUOUS
 10
3.1164983023
 20
2.0727739755
 40
0.9594492241
100
AcDbArc
 50
272.2342031271
 51
272.5574108004
  0
ARC
  5
3F0
100
AcDbEntity
  8
0
100
AcDbCircle
 62
7
  6
CONTINUOUS
 10
4.4829938461
 20
1.4505842488
 40
0.6
100
AcDbArc
 50
325.5685818018
 51
348.273530686
  0
ARC
  5
3F1
100
AcDbEntity
  8
0
100
AcDbCircle
 62
7
  6
CONTINUOUS
 10
3.1392178959
 20
1.6402962477
 40
0.5019981764
100
AcDbArc
 50
273.1725519128
 51
273.3104630708
  0
ARC
  5
3F2
100
AcDbEntity
  8
0
100
AcDbCircle
 62
7
  6
CONTINUOUS
 10
3.1399939453
 20
1.5639641653
 40
0.4881510089
100
AcDbArc
 50
273.1742635388
 51
273.3132347235
  0
ARC
  5
3F3
100
AcDbEntity
  8
0
100
AcDbCircle
 62
7
  6
CONTINUOUS
 10
3.1413893806
 20
1.58072229
 40
0.4632038628
100
AcDbArc
 50
273.1643350481
 51
273.3189812394
  0
ARC
  5
3F4
100
AcDbEntity
  8
0
100
AcDbCircle
 62
7
  6
CONTINUOUS
 10
2.5393023692
 20
1.0292613835
 40
0.1989752226
100
AcDbArc
 50
336.9736997834
 51
339.9180053464
  0
ARC
  5
3F5
100
AcDbEntity
  8
0
100
AcDbCircle
 62
7
  6
CONTINUOUS
 10
2.8137189455
 20
1.0273335713
 40
0.1937295785
100
AcDbArc
 50
200.0418022628
 51
203.0661671664
  0
ARC
  5
3F6
100
AcDbEntity
  8
0
100
AcDbCircle
 62
7
  6
CONTINUOUS
 10
3.1603129233
 20
1.2870340993
 40
0.1724577566
100
AcDbArc
 50
273.8882709887
 51
274.8838411662
  0
ARC
  5
3F7
100
AcDbEntity
  8
0
100
AcDbCircle
 62
7
  6
CONTINUOUS
 10
2.5660640918
 20
1.0193522051
 40
0.1704381337
100
AcDbArc
 50
339.9575705495
 51
343.2982538105
  0
ARC
  5
3F8
100
AcDbEntity
  8
0
100
AcDbCircle
 62
7
  6
CONTINUOUS
 10
2.5699853456
 20
0.9966747198
 40
0.1663080772
100
AcDbArc
 50
16.659592508
 51
20.0835369705
  0
ARC
  5
3F9
100
AcDbEntity
  8
0
100
AcDbCircle
 62
7
  6
CONTINUOUS
 10
5.2222362586
 20
1.2971383117
 40
0.155
100
AcDbArc
 50
120.0
 51
168.273530686
  0
ARC
  5
3FA
100
AcDbEntity
  8
0
100
AcDbCircle
 62
7
  6
CONTINUOUS
 10
2.9654464545
 20
1.2284067692
 40
0.1498874623
100
AcDbArc
 50
132.3112864894
 51
135.0788265866
  0
ARC
  5
3FB
100
AcDbEntity
  8
0
100
AcDbCircle
 62
7
  6
CONTINUOUS
 10
2.6117349788
 20
1.0068828209
 40
0.1232692832
100
AcDbArc
 50
4.497278752
 51
8.7976117461
  0
ARC
  5
3FC
100
AcDbEntity
  8
0
100
AcDbCircle
 62
7
  6
CONTINUOUS
 10
2.6184748403
 20
1.0073622951
 40
0.1165125879
100
AcDbArc
 50
355.4767733147
 51
4.5221057577
  0
ARC
  5
3FD
100
AcDbEntity
  8
0
100
AcDbCircle
 62
7
  6
CONTINUOUS
 10
5.0397362586
 20
1.0689261739
 40
0.075
100
AcDbArc
 50
145.5685818018
 51
180.0
  0
ARC
  5
3FE
100
AcDbEntity
  8
0
100
AcDbCircle
 62
7
  6
CONTINUOUS
 10
3.3397362586
 20
1.0114574997
 40
0.05
100
AcDbArc
 50
141.0062879764
 51
172.5
  0
ARC
  5
3FF
100
AcDbEntity
  8
0
100
AcDbCircle
 62
7
  6
CONTINUOUS
 10
3.4022362586
 20
1.0114574997
 40
0.05
100
AcDbArc
 50
0.0
 51
38.9937120236
  0
ARC
  5
400
100
AcDbEntity
  8
0
100
AcDbCircle
 62
7
  6
CONTINUOUS
 10
2.9044521118
 20
1.1882671494
 40
0.039347908
100
AcDbArc
 50
263.104269079
 51
269.952934094
  0
ARC
  5
401
100
AcDbEntity
  8
0
100
AcDbCircle
 62
7
  6
CONTINUOUS
 10
2.9291656675
 20
10.4664780957
 40
0.2602072008
100
AcDbArc
 50
97.1906716265
 51
97.8207226038
  0
ARC
  5
402
100
AcDbEntity
  8
0
100
AcDbCircle
 62
7
  6
CONTINUOUS
 10
3.1503068632
 20
10.4664781611
 40
0.2602071356
100
AcDbArc
 50
82.1792798902
 51
82.8093464423
  0
ARC
  5
403
100
AcDbEntity
  8
0
100
AcDbCircle
 62
7
  6
CONTINUOUS
 10
3.1479156031
 20
10.4664784726
 40
0.2602068235
100
AcDbArc
 50
97.1907388254
 51
97.820672903
  0
ARC
  5
404
100
AcDbEntity
  8
0
100
AcDbCircle
 62
7
  6
CONTINUOUS
 10
2.9315569188
 20
10.4664785877
 40
0.2602067094
100
AcDbArc
 50
82.1791759898
 51
82.8092713988
  0
ARC
  5
405
100
AcDbEntity
  8
0
100
AcDbCircle
 62
7
  6
CONTINUOUS
 10
2.9286785366
 20
10.4699184614
 40
0.2567325497
100
AcDbArc
 50
97.817496423
 51
101.0898823462
  0
ARC
  5
406
100
AcDbEntity
  8
0
100
AcDbCircle
 62
7
  6
CONTINUOUS
 10
3.1474285028
 20
10.46991864
 40
0.2567323729
100
AcDbArc
 50
97.8174467667
 51
101.0897658772
  0
ARC
  5
407
100
AcDbEntity
  8
0
100
AcDbCircle
 62
7
  6
CONTINUOUS
 10
3.1509743707
 20
10.4710017909
 40
0.2556347552
100
AcDbArc
 50
78.9031554642
 51
82.1895341453
  0
ARC
  5
408
100
AcDbEntity
  8
0
100
AcDbCircle
 62
7
  6
CONTINUOUS
 10
2.9322243746
 20
10.471001837
 40
0.2556347129
100
AcDbArc
 50
78.903286267
 51
82.1894285068
  0
ARC
  5
409
100
AcDbEntity
  8
0
100
AcDbCircle
 62
7
  6
CONTINUOUS
 10
2.9269099121
 20
10.4790287583
 40
0.2474521805
100
AcDbArc
 50
101.0937619131
 51
103.5884508924
  0
ARC
  5
40A
100
AcDbEntity
  8
0
100
AcDbCircle
 62
7
  6
CONTINUOUS
 10
3.1525626203
 20
10.4790288595
 40
0.2474520798
100
AcDbArc
 50
76.4115325818
 51
78.9063047502
  0
ARC
  5
40B
100
AcDbEntity
  8
0
100
AcDbCircle
 62
7
  6
CONTINUOUS
 10
3.1456598076
 20
10.479029359
 40
0.2474515759
100
AcDbArc
 50
101.093643816
 51
103.5886478282
  0
ARC
  5
40C
100
AcDbEntity
  8
0
100
AcDbCircle
 62
7
  6
CONTINUOUS
 10
2.9338127068
 20
10.4790293653
 40
0.2474515706
100
AcDbArc
 50
76.4112583677
 51
78.9064381635
  0
ARC
  5
40D
100
AcDbEntity
  8
0
100
AcDbCircle
 62
7
  6
CONTINUOUS
 10
2.9354024075
 20
10.485704294
 40
0.240589991
100
AcDbArc
 50
75.0257481303
 51
76.4057615788
  0
ARC
  5
40E
100
AcDbEntity
  8
0
100
AcDbCircle
 62
7
  6
CONTINUOUS
 10
3.1440700378
 20
10.4857045808
 40
0.2405896952
100
AcDbArc
 50
103.5941423515
 51
104.9745182432
  0
ARC
  5
40F
100
AcDbEntity
  8
0
100
AcDbCircle
 62
7
  6
CONTINUOUS
 10
3.1541525409
 20
10.4857047435
 40
0.24058952
100
AcDbArc
 50
75.0251350074
 51
76.4060410605
  0
ARC
  5
410
100
AcDbEntity
  8
0
100
AcDbCircle
 62
7
  6
CONTINUOUS
 10
2.9253198992
 20
10.4857050104
 40
0.2405892412
100
AcDbArc
 50
103.5939411731
 51
104.9750981445
  0
ARC
  5
411
100
AcDbEntity
  8
0
100
AcDbCircle
 62
7
  6
CONTINUOUS
 10
3.142373319
 20
10.4919991638
 40
0.2340704571
100
AcDbArc
 50
104.9714227698
 51
108.0486940566
  0
ARC
  5
412
100
AcDbEntity
  8
0
100
AcDbCircle
 62
7
  6
CONTINUOUS
 10
2.9236230233
 20
10.4920000084
 40
0.2340695615
100
AcDbArc
 50
104.9720079201
 51
108.0484972387
  0
ARC
  5
413
100
AcDbEntity
  8
0
100
AcDbCircle
 62
7
  6
CONTINUOUS
 10
2.9375627634
 20
10.4935631516
 40
0.2324398076
100
AcDbArc
 50
71.9404289081
 51
75.0396466749
  0
ARC
  5
414
100
AcDbEntity
  8
0
100
AcDbCircle
 62
7
  6
CONTINUOUS
 10
3.1563129432
 20
10.49356362
 40
0.2324393058
100
AcDbArc
 50
71.9406587633
 51
75.0390219271
  0
ARC
  5
415
100
AcDbEntity
  8
0
100
AcDbCircle
 62
7
  6
CONTINUOUS
 10
3.1391070034
 20
10.5021100531
 40
0.2234451037
100
AcDbArc
 50
108.0556215316
 51
112.3018423423
  0
ARC
  5
416
100
AcDbEntity
  8
0
100
AcDbCircle
 62
7
  6
CONTINUOUS
 10
2.9203569696
 20
10.5021100988
 40
0.2234450486
100
AcDbArc
 50
108.0554157329
 51
112.3018387744
  0
ARC
  5
417
100
AcDbEntity
  8
0
100
AcDbCircle
 62
7
  6
CONTINUOUS
 10
2.9410299482
 20
10.5039179989
 40
0.2215202647
100
AcDbArc
 50
67.6797013441
 51
71.9627532544
  0
ARC
  5
418
100
AcDbEntity
  8
0
100
AcDbCircle
 62
7
  6
CONTINUOUS
 10
3.1597799658
 20
10.5039180297
 40
0.2215202296
100
AcDbArc
 50
67.6797025493
 51
71.9629896616
  0
ARC
  5
419
100
AcDbEntity
  8
0
100
AcDbCircle
 62
7
  6
CONTINUOUS
 10
37.0139353113
 20
1.8767116867
 40
33.5779035556
100
AcDbArc
 50
181.7801112358
 51
181.9118575537
  0
ARC
  5
41A
100
AcDbEntity
  8
0
100
AcDbCircle
 62
7
  6
CONTINUOUS
 10
30.2436875221
 20
1.329043425
 40
27.4752842976
100
AcDbArc
 50
181.1062202999
 51
181.2950152012
  0
ARC
  5
41B
100
AcDbEntity
  8
0
100
AcDbCircle
 62
7
  6
CONTINUOUS
 10
25.1495703842
 20
1.2653875597
 40
22.3689814165
100
AcDbArc
 50
181.2056444581
 51
181.4269864909
  0
ARC
  5
41C
100
AcDbEntity
  8
0
100
AcDbCircle
 62
7
  6
CONTINUOUS
 10
24.2797826955
 20
1.2022271303
 40
21.4893671885
100
AcDbArc
 50
181.076191477
 51
181.3175585723
  0
ARC
  5
41D
100
AcDbEntity
  8
0
100
AcDbCircle
 62
7
  6
CONTINUOUS
 10
19.1380630008
 20
1.1273262721
 40
16.359028378
100
AcDbArc
 50
181.1649906509
 51
181.4676476754
  0
ARC
  5
41E
100
AcDbEntity
  8
0
100
AcDbCircle
 62
7
  6
CONTINUOUS
 10
18.9979052123
 20
1.0850335071
 40
16.231185281
100
AcDbArc
 50
181.1449740483
 51
181.3306635227
  0
ARC
  5
41F
100
AcDbEntity
  8
0
100
AcDbCircle
 62
7
  6
CONTINUOUS
 10
18.2995415188
 20
0.591016856
 40
13.0030391967
100
AcDbArc
 50
178.468391201
 51
178.8824514062
  0
ARC
  5
420
100
AcDbEntity
  8
0
100
AcDbCircle
 62
7
  6
CONTINUOUS
 10
14.314733896
 20
1.0076955889
 40
11.5592099278
100
AcDbArc
 50
181.3048152498
 51
181.4717643616
  0
ARC
  5
421
100
AcDbEntity
  8
0
100
AcDbCircle
 62
7
  6
CONTINUOUS
 10
14.3178588957
 20
1.0076955889
 40
11.5592099275
100
AcDbArc
 50
181.3048152498
 51
181.4717643616
  0
ARC
  5
422
100
AcDbEntity
  8
0
100
AcDbCircle
 62
7
  6
CONTINUOUS
 10
12.1061289158
 20
1.0447618918
 40
8.6517444846
100
AcDbArc
 50
181.9094532863
 51
182.1310370217
  0
ARC
  5
423
100
AcDbEntity
  8
0
100
AcDbCircle
 62
7
  6
CONTINUOUS
 10
12.1016639121
 20
1.0447618917
 40
8.6517444809
100
AcDbArc
 50
181.9094532867
 51
182.1310370221
  0
ARC
  5
424
100
AcDbEntity
  8
0
100
AcDbCircle
 62
7
  6
CONTINUOUS
 10
9.844938502
 20
0.8920767003
 40
7.0598038273
100
AcDbArc
 50
181.4913993295
 51
181.610456448
  0
ARC
  5
425
100
AcDbEntity
  8
0
100
AcDbCircle
 62
7
  6
CONTINUOUS
 10
9.7913373252
 20
0.8669828612
 40
7.0177109517
100
AcDbArc
 50
181.4259303746
 51
181.5452356631
  0
ARC
  5
426
100
AcDbEntity
  8
0
100
AcDbCircle
 62
7
  6
CONTINUOUS
 10
9.737425939
 20
0.8900385691
 40
6.9803900686
100
AcDbArc
 50
181.4713275883
 51
181.5963216526
  0
ARC
  5
427
100
AcDbEntity
  8
0
100
AcDbCircle
 62
7
  6
CONTINUOUS
 10
9.7405509381
 20
0.8900385691
 40
6.9803900677
100
AcDbArc
 50
181.4713275883
 51
181.5963216526
  0
ARC
  5
428
100
AcDbEntity
  8
0
100
AcDbCircle
 62
7
  6
CONTINUOUS
 10
9.7229311619
 20
0.8658887169
 40
6.974291207
100
AcDbArc
 50
181.4258188368
 51
181.545866757
  0
ARC
  5
429
100
AcDbEntity
  8
0
100
AcDbCircle
 62
7
  6
CONTINUOUS
 10
9.496386564
 20
0.8593522807
 40
6.72698324
100
AcDbArc
 50
181.4224413767
 51
181.5469123408
  0
ARC
  5
42A
100
AcDbEntity
  8
0
100
AcDbCircle
 62
7
  6
CONTINUOUS
 10
9.4862263104
 20
0.8584718495
 40
6.6918121741
100
AcDbArc
 50
181.4223784339
 51
181.5475035996
  0
ARC
  5
42B
100
AcDbEntity
  8
0
100
AcDbCircle
 62
7
  6
CONTINUOUS
 10
9.4259714034
 20
0.8808175818
 40
6.6438095722
100
AcDbArc
 50
181.4876807252
 51
181.6141915895
  0
ARC
  5
42C
100
AcDbEntity
  8
0
100
AcDbCircle
 62
7
  6
CONTINUOUS
 10
7.6195908299
 20
0.8305665195
 40
4.8585963656
100
AcDbArc
 50
181.5920244297
 51
181.7425058559
  0
ARC
  5
42D
100
AcDbEntity
  8
0
100
AcDbCircle
 62
7
  6
CONTINUOUS
 10
7.6090840305
 20
0.8303529724
 40
4.8512114828
100
AcDbArc
 50
181.5919254582
 51
181.7436680192
  0
ARC
  5
42E
100
AcDbEntity
  8
0
100
AcDbCircle
 62
7
  6
CONTINUOUS
 10
7.6149087603
 20
0.8296452037
 40
4.8289003698
100
AcDbArc
 50
181.6136133921
 51
181.7730351672
  0
ARC
  5
42F
100
AcDbEntity
  8
0
100
AcDbCircle
 62
7
  6
CONTINUOUS
 10
7.2968004042
 20
0.8203334176
 40
4.5137797287
100
AcDbArc
 50
181.6080599577
 51
181.7786101395
  0
ARC
  5
430
100
AcDbEntity
  8
0
100
AcDbCircle
 62
7
  6
CONTINUOUS
 10
5.9773828332
 20
0.7792265896
 40
3.1905984784
100
AcDbArc
 50
181.7779047696
 51
181.9945536366
  0
ARC
  5
431
100
AcDbEntity
  8
0
100
AcDbCircle
 62
7
  6
CONTINUOUS
 10
5.424793351
 20
0.7436245186
 40
2.6744096964
100
AcDbArc
 50
181.6975152661
 51
182.1775937782
  0
ARC
  5
432
100
AcDbEntity
  8
0
100
AcDbCircle
 62
7
  6
CONTINUOUS
 10
7.3532616334
 20
0.8473504036
 40
2.0608752878
100
AcDbArc
 50
177.0480658528
 51
177.3889257743
  0
ARC
  5
433
100
AcDbEntity
  8
0
100
AcDbCircle
 62
7
  6
CONTINUOUS
 10
6.5692939565
 20
0.888236819
 40
1.2758423734
100
AcDbArc
 50
176.5862248112
 51
177.0686901204
  0
ARC
  5
434
100
AcDbEntity
  8
0
100
AcDbCircle
 62
7
  6
CONTINUOUS
 10
6.114296186
 20
0.9344031157
 40
0.9381117022
100
AcDbArc
 50
176.40390057
 51
176.9776335968
  0
ARC
  5
435
100
AcDbEntity
  8
0
100
AcDbCircle
 62
7
  6
CONTINUOUS
 10
6.1413575017
 20
0.9337132786
 40
0.9294721145
100
AcDbArc
 50
176.3888416856
 51
176.964646574
  0
ARC
  5
436
100
AcDbEntity
  8
0
100
AcDbCircle
 62
7
  6
CONTINUOUS
 10
5.8398730855
 20
0.9550335561
 40
0.5558669428
100
AcDbArc
 50
175.7539816732
 51
176.5781966101
  0
SPLINE
  5
437
100
AcDbEntity
  8
0
100
AcDbSpline
 62
7
  6
CONTINUOUS
 70
0
 71
3
 72
18
 73
14
 74
0
 42
0.0000001
 43
0.0000001
 44
0.0000000001
 40
0.0
 40
0.0
 40
0.0
 40
0.0
 40
0.1991915154
 40
0.3862004021
 40
0.554403308
 40
0.6992926483
 40
0.8169970377
 40
0.8646669462
 40
0.9047458936
 40
0.9374047256
 40
0.9631181708
 40
0.9830753858
 40
1.0
 40
1.0
 40
1.0
 40
1.0
 10
2.3648774081
 20
0.7937122079
 30
0.0
 10
2.3647256399
 20
0.7948188103
 30
0.0
 10
2.3644620502
 20
0.7969687117
 30
0.0
 10
2.3641816655
 20
0.8000654043
 30
0.0
 10
2.3640376001
 20
0.8028670355
 30
0.0
 10
2.3640314067
 20
0.8052834903
 30
0.0
 10
2.3641409545
 20
0.8070226524
 30
0.0
 10
2.3643170552
 20
0.8081620823
 30
0.0
 10
2.3644724972
 20
0.8088200039
 30
0.0
 10
2.3646582398
 20
0.8093417833
 30
0.0
 10
2.364873975
 20
0.8097273444
 30
0.0
 10
2.3651278463
 20
0.8099817468
 30
0.0
 10
2.3653371827
 20
0.8100442547
 30
0.0
 10
2.365432087
 20
0.8100442547
 30
0.0
  0
SPLINE
  5
438
100
AcDbEntity
  8
0
100
AcDbSpline
 62
7
  6
CONTINUOUS
 70
0
 71
3
 72
13
 73
9
 74
0
 42
0.0000001
 43
0.0000001
 44
0.0000000001
 40
0.0
 40
0.0
 40
0.0
 40
0.0
 40
0.0685086871
 40
0.1434940785
 40
0.2330300952
 40
0.3417168236
 40
0.6244613068
 40
1.0
 40
1.0
 40
1.0
 40
1.0
 10
2.365432087
 20
0.8257942547
 30
0.0
 10
2.3653605339
 20
0.8257942547
 30
0.0
 10
2.36520897
 20
0.8258266156
 30
0.0
 10
2.3650061808
 20
0.8259694036
 30
0.0
 10
2.364826002
 20
0.8261937595
 30
0.0
 10
2.3645894858
 20
0.826639114
 30
0.0
 10
2.3643598528
 20
0.8274126473
 30
0.0
 10
2.3642494204
 20
0.8280917532
 30
0.0
 10
2.3642012846
 20
0.8284810154
 30
0.0
  0
SPLINE
  5
439
100
AcDbEntity
  8
0
100
AcDbSpline
 62
7
  6
CONTINUOUS
 70
0
 71
3
 72
9
 73
5
 74
0
 42
0.0000001
 43
0.0000001
 44
0.0000000001
 40
0.0
 40
0.0
 40
0.0
 40
0.0
 40
0.4345692739
 40
1.0
 40
1.0
 40
1.0
 40
1.0
 10
2.3642012846
 20
0.8284810154
 30
0.0
 10
2.3640713879
 20
0.8295314578
 30
0.0
 10
2.3639953172
 20
0.8319733911
 30
0.0
 10
2.3641035695
 20
0.8344069307
 30
0.0
 10
2.364201651
 20
0.8357806051
 30
0.0
  0
LINE
  5
43A
100
AcDbEntity
  8
0
100
AcDbLine
 62
7
  6
CONTINUOUS
 10
2.364201651
 20
0.8357806051
 11
2.3648774131
 21
0.8421263469
  0
SPLINE
  5
43B
100
AcDbEntity
  8
0
100
AcDbSpline
 62
7
  6
CONTINUOUS
 70
0
 71
3
 72
9
 73
5
 74
0
 42
0.0000001
 43
0.0000001
 44
0.0000000001
 40
0.0
 40
0.0
 40
0.0
 40
0.0
 40
0.4999999989
 40
1.0
 40
1.0
 40
1.0
 40
1.0
 10
2.964127693
 20
10.7246387633
 30
0.0
 10
2.9529392698
 20
10.7260504048
 30
0.0
 10
2.9303613918
 20
10.727421782
 30
0.0
 10
2.9077835132
 20
10.7260504217
 30
0.0
 10
2.8965950885
 20
10.7246387913
 30
0.0
  0
SPLINE
  5
43C
100
AcDbEntity
  8
0
100
AcDbSpline
 62
7
  6
CONTINUOUS
 70
0
 71
3
 72
11
 73
7
 74
0
 42
0.0000001
 43
0.0000001
 44
0.0000000001
 40
0.0
 40
0.0
 40
0.0
 40
0.0
 40
0.2298927059
 40
0.4703176402
 40
0.7268262682
 40
1.0
 40
1.0
 40
1.0
 40
1.0
 10
2.9044197892
 20
1.3584192547
 30
0.0
 10
2.9009556745
 20
1.3584192547
 30
0.0
 10
2.8938414149
 20
1.3574379306
 30
0.0
 10
2.8835948804
 20
1.353353137
 30
0.0
 10
2.8737464802
 20
1.3471289961
 30
0.0
 10
2.8675938
 20
1.3420177777
 30
0.0
 10
2.8645484805
 20
1.3392483237
 30
0.0
  0
SPLINE
  5
43D
100
AcDbEntity
  8
0
100
AcDbSpline
 62
7
  6
CONTINUOUS
 70
0
 71
3
 72
11
 73
7
 74
0
 42
0.0000001
 43
0.0000001
 44
0.0000000001
 40
0.0
 40
0.0
 40
0.0
 40
0.0
 40
0.2760303184
 40
0.5340858403
 40
0.7735184979
 40
1.0
 40
1.0
 40
1.0
 40
1.0
 10
2.949525279
 20
1.3342472955
 30
0.0
 10
2.9461146381
 20
1.3376579365
 30
0.0
 10
2.9392353879
 20
1.3439918819
 30
0.0
 10
2.9281652342
 20
1.3518395013
 30
0.0
 10
2.9165563822
 20
1.3571233938
 30
0.0
 10
2.9083773441
 20
1.3584192547
 30
0.0
 10
2.9044197892
 20
1.3584192547
 30
0.0
  0
SPLINE
  5
43E
100
AcDbEntity
  8
0
100
AcDbSpline
 62
7
  6
CONTINUOUS
 70
0
 71
3
 72
9
 73
5
 74
0
 42
0.0000001
 43
0.0000001
 44
0.0000000001
 40
0.0
 40
0.0
 40
0.0
 40
0.0
 40
0.4999999975
 40
1.0
 40
1.0
 40
1.0
 40
1.0
 10
3.1828773526
 20
10.7246388023
 30
0.0
 10
3.171688931
 20
10.7260504287
 30
0.0
 10
3.1491110588
 20
10.7274217806
 30
0.0
 10
3.1265331883
 20
10.7260503987
 30
0.0
 10
3.1153447686
 20
10.7246387556
 30
0.0
  0
SPLINE
  5
43F
100
AcDbEntity
  8
0
100
AcDbSpline
 62
7
  6
CONTINUOUS
 70
0
 71
3
 72
11
 73
7
 74
0
 42
0.0000001
 43
0.0000001
 44
0.0000000001
 40
0.0
 40
0.0
 40
0.0
 40
0.0
 40
0.2511004771
 40
0.4999999936
 40
0.7488995076
 40
1.0
 40
1.0
 40
1.0
 40
1.0
 10
2.835562735
 20
10.5419976011
 30
0.0
 10
2.8505715112
 20
10.5358330399
 30
0.0
 10
2.8819128
 20
10.5269043633
 30
0.0
 10
2.9303612573
 20
10.5227076052
 30
0.0
 10
2.9788097183
 20
10.5269043525
 30
0.0
 10
3.010151005
 20
10.5358330396
 30
0.0
 10
3.0251597821
 20
10.5419976011
 30
0.0
  0
SPLINE
  5
440
100
AcDbEntity
  8
0
100
AcDbSpline
 62
7
  6
CONTINUOUS
 70
0
 71
3
 72
11
 73
7
 74
0
 42
0.0000001
 43
0.0000001
 44
0.0000000001
 40
0.0
 40
0.0
 40
0.0
 40
0.0
 40
0.2511004909
 40
0.500000007
 40
0.7488995213
 40
1.0
 40
1.0
 40
1.0
 40
1.0
 10
3.054312735
 20
10.5419976011
 30
0.0
 10
3.069321512
 20
10.5358330396
 30
0.0
 10
3.1006627997
 20
10.5269043553
 30
0.0
 10
3.1491112597
 20
10.5227076065
 30
0.0
 10
3.197559718
 20
10.5269043599
 30
0.0
 10
3.2289010058
 20
10.5358330399
 30
0.0
 10
3.2439097821
 20
10.5419976011
 30
0.0
  0
SPLINE
  5
441
100
AcDbEntity
  8
0
100
AcDbSpline
 62
7
  6
CONTINUOUS
 70
0
 71
3
 72
11
 73
7
 74
0
 42
0.0000001
 43
0.0000001
 44
0.0000000001
 40
0.0
 40
0.0
 40
0.0
 40
0.0
 40
0.2737123708
 40
0.5316277155
 40
0.7727114896
 40
1.0
 40
1.0
 40
1.0
 40
1.0
 10
2.8593142994
 20
1.1730912138
 30
0.0
 10
2.8623949038
 20
1.1700106095
 30
0.0
 10
2.8686069838
 20
1.164245144
 30
0.0
 10
2.878523315
 20
1.156910766
 30
0.0
 10
2.8888351293
 20
1.1515459014
 30
0.0
 10
2.8961362145
 20
1.1496371318
 30
0.0
 10
2.899727889
 20
1.1492038727
 30
0.0
  0
SPLINE
  5
442
100
AcDbEntity
  8
0
100
AcDbSpline
 62
7
  6
CONTINUOUS
 70
0
 71
3
 72
11
 73
7
 74
0
 42
0.0000001
 43
0.0000001
 44
0.0000000001
 40
0.0
 40
0.0
 40
0.0
 40
0.0
 40
0.2760303184
 40
0.5340858403
 40
0.7735184979
 40
1.0
 40
1.0
 40
1.0
 40
1.0
 10
3.2201582177
 20
1.3342472955
 30
0.0
 10
3.2167475767
 20
1.3376579365
 30
0.0
 10
3.2098683265
 20
1.3439918819
 30
0.0
 10
3.1987981729
 20
1.3518395013
 30
0.0
 10
3.1871893209
 20
1.3571233938
 30
0.0
 10
3.1790102828
 20
1.3584192547
 30
0.0
 10
3.1750527279
 20
1.3584192547
 30
0.0
  0
SPLINE
  5
443
100
AcDbEntity
  8
0
100
AcDbSpline
 62
7
  6
CONTINUOUS
 70
0
 71
3
 72
11
 73
7
 74
0
 42
0.0000001
 43
0.0000001
 44
0.0000000001
 40
0.0
 40
0.0
 40
0.0
 40
0.0
 40
0.2264815024
 40
0.4659141596
 40
0.7239696801
 40
1.0
 40
1.0
 40
1.0
 40
1.0
 10
3.1750527279
 20
1.3584192547
 30
0.0
 10
3.171095173
 20
1.3584192547
 30
0.0
 10
3.162916135
 20
1.3571233935
 30
0.0
 10
3.1513072829
 20
1.3518395013
 30
0.0
 10
3.1402371292
 20
1.3439918821
 30
0.0
 10
3.1333578791
 20
1.3376579365
 30
0.0
 10
3.1299472381
 20
1.3342472955
 30
0.0
  0
SPLINE
  5
444
100
AcDbEntity
  8
0
100
AcDbSpline
 62
7
  6
CONTINUOUS
 70
0
 71
3
 72
11
 73
7
 74
0
 42
0.0000001
 43
0.0000001
 44
0.0000000001
 40
0.0
 40
0.0
 40
0.0
 40
0.0
 40
0.2499846567
 40
0.4999992503
 40
0.7500228123
 40
1.0
 40
1.0
 40
1.0
 40
1.0
 10
3.0397362586
 20
1.1489192547
 30
0.0
 10
3.0475860261
 20
1.1489192547
 30
0.0
 10
3.0633096797
 20
1.1501241201
 30
0.0
 10
3.0863629548
 20
1.1552452074
 30
0.0
 10
3.1086317605
 20
1.1630416715
 30
0.0
 10
3.1229264024
 20
1.1695807959
 30
0.0
 10
3.1299472381
 20
1.1730912138
 30
0.0
  0
SPLINE
  5
445
100
AcDbEntity
  8
0
100
AcDbSpline
 62
7
  6
CONTINUOUS
 70
0
 71
3
 72
11
 73
7
 74
0
 42
0.0000001
 43
0.0000001
 44
0.0000000001
 40
0.0
 40
0.0
 40
0.0
 40
0.0
 40
0.2760402473
 40
0.5340924413
 40
0.7735206851
 40
1.0
 40
1.0
 40
1.0
 40
1.0
 10
3.1299472381
 20
1.1730912138
 30
0.0
 10
3.1333580035
 20
1.1696804484
 30
0.0
 10
3.1402372443
 20
1.1633462777
 30
0.0
 10
3.1513077055
 20
1.1554990751
 30
0.0
 10
3.1629162107
 20
1.1502147936
 30
0.0
 10
3.1710952091
 20
1.1489192547
 30
0.0
 10
3.1750527279
 20
1.1489192547
 30
0.0
  0
SPLINE
  5
446
100
AcDbEntity
  8
0
100
AcDbSpline
 62
7
  6
CONTINUOUS
 70
0
 71
3
 72
9
 73
5
 74
0
 42
0.0000001
 43
0.0000001
 44
0.0000000001
 40
0.0
 40
0.0
 40
0.0
 40
0.0
 40
0.4939712295
 40
1.0
 40
1.0
 40
1.0
 40
1.0
 10
3.1750527279
 20
1.1489192547
 30
0.0
 10
3.1774556576
 20
1.1489192547
 30
0.0
 10
3.1823291321
 20
1.1493829603
 30
0.0
 10
3.1870413365
 20
1.1506838932
 30
0.0
 10
3.1893576757
 20
1.1515169403
 30
0.0
  0
SPLINE
  5
447
100
AcDbEntity
  8
0
100
AcDbSpline
 62
7
  6
CONTINUOUS
 70
0
 71
3
 72
9
 73
5
 74
0
 42
0.0000001
 43
0.0000001
 44
0.0000000001
 40
0.0
 40
0.0
 40
0.0
 40
0.0
 40
0.4790019665
 40
1.0
 40
1.0
 40
1.0
 40
1.0
 10
3.1893576757
 20
1.1515169403
 30
0.0
 10
3.1939293212
 20
1.1531610846
 30
0.0
 10
3.2029644423
 20
1.1580176587
 30
0.0
 10
3.2108739756
 20
1.1644167715
 30
0.0
 10
3.2147881677
 20
1.1679667651
 30
0.0
  0
LINE
  5
448
100
AcDbEntity
  8
0
100
AcDbLine
 62
7
  6
CONTINUOUS
 10
3.2147881677
 20
1.1679667651
 11
3.2201582177
 21
1.1730912138
  0
SPLINE
  5
449
100
AcDbEntity
  8
0
100
AcDbSpline
 62
7
  6
CONTINUOUS
 70
0
 71
3
 72
12
 73
8
 74
0
 42
0.0000001
 43
0.0000001
 44
0.0000000001
 40
0.0
 40
0.0
 40
0.0
 40
0.0
 40
0.0520601713
 40
0.1247353004
 40
0.3331045888
 40
0.6252924824
 40
1.0
 40
1.0
 40
1.0
 40
1.0
 10
5.1960537829
 20
0.9955173476
 30
0.0
 10
5.1959773393
 20
0.9953866378
 30
0.0
 10
5.1958385709
 20
0.9950488207
 30
0.0
 10
5.1955657029
 20
0.9941192561
 30
0.0
 10
5.1952527912
 20
0.9924782163
 30
0.0
 10
5.1948933111
 20
0.9899585397
 30
0.0
 10
5.194678611
 20
0.9880301567
 30
0.0
 10
5.1945668487
 20
0.9869460278
 30
0.0
  0
SPLINE
  5
44A
100
AcDbEntity
  8
0
100
AcDbSpline
 62
7
  6
CONTINUOUS
 70
0
 71
3
 72
34
 73
30
 74
0
 42
0.0000001
 43
0.0000001
 44
0.0000000001
 40
0.0
 40
0.0
 40
0.0
 40
0.0
 40
0.0159323307
 40
0.0354793979
 40
0.0850061832
 40
0.1472947428
 40
0.220088822
 40
0.3010441853
 40
0.3878305078
 40
0.4777781075
 40
0.5679999273
 40
0.6556254556
 40
0.7379240523
 40
0.7763236141
 40
0.8124997459
 40
0.8461636434
 40
0.8770283694
 40
0.9048077108
 40
0.9292672023
 40
0.9502727166
 40
0.9677028457
 40
0.981440719
 40
0.9913929986
 40
0.9949298876
 40
0.9963375588
 40
0.9975061914
 40
0.9984396388
 40
0.9991472357
 40
1.0
 40
1.0
 40
1.0
 40
1.0
 10
5.1945668487
 20
0.9869460278
 30
0.0
 10
5.1943772952
 20
0.9851072987
 30
0.0
 10
5.1940137835
 20
0.9810066753
 30
0.0
 10
5.1932973661
 20
0.9711701075
 30
0.0
 10
5.1924452067
 20
0.9559523956
 30
0.0
 10
5.1914731353
 20
0.9345559742
 30
0.0
 10
5.1904917703
 20
0.9095102514
 30
0.0
 10
5.1895041862
 20
0.8816206796
 30
0.0
 10
5.1885157574
 20
0.8517398166
 30
0.0
 10
5.1875270105
 20
0.8207833192
 30
0.0
 10
5.1865387481
 20
0.78972939
 30
0.0
 10
5.1855511008
 20
0.7595633371
 30
0.0
 10
5.1847098543
 20
0.7354081683
 30
0.0
 10
5.1840278637
 20
0.7172203369
 30
0.0
 10
5.1835289751
 20
0.7046722471
 30
0.0
 10
5.1830309091
 20
0.6929990522
 30
0.0
 10
5.1825337772
 20
0.6823009628
 30
0.0
 10
5.1820373498
 20
0.6726720058
 30
0.0
 10
5.1815412716
 20
0.6641885481
 30
0.0
 10
5.1810470137
 20
0.6569081374
 30
0.0
 10
5.1805576169
 20
0.6508742743
 30
0.0
 10
5.1800727876
 20
0.646128264
 30
0.0
 10
5.1796483723
 20
0.642995874
 30
0.0
 10
5.1793110982
 20
0.6413002124
 30
0.0
 10
5.1791317477
 20
0.6406131683
 30
0.0
 10
5.1790100002
 20
0.6402257174
 30
0.0
 10
5.1788841673
 20
0.6399203925
 30
0.0
 10
5.1787531145
 20
0.6396742122
 30
0.0
 10
5.1785924086
 20
0.6395231098
 30
0.0
 10
5.1784937419
 20
0.6395304316
 30
0.0
  0
SPLINE
  5
44B
100
AcDbEntity
  8
0
100
AcDbSpline
 62
7
  6
CONTINUOUS
 70
0
 71
3
 72
13
 73
9
 74
0
 42
0.0000001
 43
0.0000001
 44
0.0000000001
 40
0.0
 40
0.0
 40
0.0
 40
0.0
 40
0.0487165954
 40
0.11861358
 40
0.2102717136
 40
0.3239258844
 40
0.617592471
 40
1.0
 40
1.0
 40
1.0
 40
1.0
 10
5.2317367954
 20
0.9942986568
 30
0.0
 10
5.2316451994
 20
0.9941391231
 30
0.0
 10
5.2314820799
 20
0.9937184201
 30
0.0
 10
5.2312720671
 20
0.9929531028
 30
0.0
 10
5.231059729
 20
0.9919349295
 30
0.0
 10
5.2307466667
 20
0.9900768587
 30
0.0
 10
5.2303735452
 20
0.9871170714
 30
0.0
 10
5.2301225026
 20
0.9845764894
 30
0.0
 10
5.2299922668
 20
0.9831383652
 30
0.0
  0
SPLINE
  5
44C
100
AcDbEntity
  8
0
100
AcDbSpline
 62
7
  6
CONTINUOUS
 70
0
 71
3
 72
32
 73
28
 74
0
 42
0.0000001
 43
0.0000001
 44
0.0000000001
 40
0.0
 40
0.0
 40
0.0
 40
0.0
 40
0.0391274254
 40
0.0915276811
 40
0.1554608541
 40
0.2292473074
 40
0.3107907847
 40
0.3974504046
 40
0.4865842367
 40
0.5755797156
 40
0.6618429562
 40
0.7427978312
 40
0.7804908392
 40
0.8159073205
 40
0.8487806155
 40
0.8789067877
 40
0.9060863351
 40
0.9301222721
 40
0.9508360759
 40
0.9680594113
 40
0.9816270099
 40
0.991421402
 40
0.9949044071
 40
0.9974561213
 40
0.9983916834
 40
0.9991110686
 40
1.0
 40
1.0
 40
1.0
 40
1.0
 10
5.2299922668
 20
0.9831383652
 30
0.0
 10
5.229588704
 20
0.9786820375
 30
0.0
 10
5.2288727373
 20
0.9682378838
 30
0.0
 10
5.2279229407
 20
0.9504851338
 30
0.0
 10
5.2269629982
 20
0.9287640788
 30
0.0
 10
5.2259965428
 20
0.9037080449
 30
0.0
 10
5.225029026
 20
0.8760512842
 30
0.0
 10
5.2240587549
 20
0.8466385509
 30
0.0
 10
5.2230876896
 20
0.8163731909
 30
0.0
 10
5.2221157547
 20
0.7861532121
 30
0.0
 10
5.2211450385
 20
0.7568690227
 30
0.0
 10
5.2203211081
 20
0.7334500933
 30
0.0
 10
5.2196522224
 20
0.715844173
 30
0.0
 10
5.219162496
 20
0.7037339961
 30
0.0
 10
5.2186725822
 20
0.6924899166
 30
0.0
 10
5.2181833859
 20
0.6821887311
 30
0.0
 10
5.2176953276
 20
0.6728993677
 30
0.0
 10
5.2172091944
 20
0.6646879046
 30
0.0
 10
5.2167250324
 20
0.6576172054
 30
0.0
 10
5.216246392
 20
0.65174631
 30
0.0
 10
5.2157703254
 20
0.6471292195
 30
0.0
 10
5.2153553024
 20
0.6440861019
 30
0.0
 10
5.214993119
 20
0.6423105182
 30
0.0
 10
5.2147849897
 20
0.6415421736
 30
0.0
 10
5.2146024445
 20
0.6410916855
 30
0.0
 10
5.2144692113
 20
0.6408430681
 30
0.0
 10
5.2143204578
 20
0.6406856443
 30
0.0
 10
5.2142189797
 20
0.6406796136
 30
0.0
  0
SPLINE
  5
44D
100
AcDbEntity
  8
0
100
AcDbSpline
 62
7
  6
CONTINUOUS
 70
0
 71
3
 72
13
 73
9
 74
0
 42
0.0000001
 43
0.0000001
 44
0.0000000001
 40
0.0
 40
0.0
 40
0.0
 40
0.0
 40
0.0504242382
 40
0.1218663134
 40
0.2147635215
 40
0.3291844927
 40
0.622254357
 40
1.0
 40
1.0
 40
1.0
 40
1.0
 10
5.1743404216
 20
0.6397811209
 30
0.0
 10
5.1744216698
 20
0.6399176781
 30
0.0
 10
5.1745676141
 20
0.6402759773
 30
0.0
 10
5.1747558585
 20
0.6409257682
 30
0.0
 10
5.1749461628
 20
0.6417841011
 30
0.0
 10
5.1752256198
 20
0.6433360763
 30
0.0
 10
5.1755593515
 20
0.6457889401
 30
0.0
 10
5.1757855679
 20
0.6478907517
 30
0.0
 10
5.1759028477
 20
0.6490753342
 30
0.0
  0
SPLINE
  5
44E
100
AcDbEntity
  8
0
100
AcDbSpline
 62
7
  6
CONTINUOUS
 70
0
 71
3
 72
34
 73
30
 74
0
 42
0.0000001
 43
0.0000001
 44
0.0000000001
 40
0.0
 40
0.0
 40
0.0
 40
0.0
 40
0.0164106099
 40
0.0363985086
 40
0.0866243961
 40
0.149315476
 40
0.2223047077
 40
0.303305096
 40
0.3899783711
 40
0.4796865051
 40
0.5696027712
 40
0.656878434
 40
0.7388062499
 40
0.7770339988
 40
0.8130594908
 40
0.8465928123
 40
0.8773407507
 40
0.9050104357
 40
0.9293562887
 40
0.9502570853
 40
0.9676130251
 40
0.9813265878
 40
0.9913006283
 40
0.9948598682
 40
0.9962804735
 40
0.997462721
 40
0.9984099728
 40
0.9991307771
 40
1.0
 40
1.0
 40
1.0
 40
1.0
 10
5.1759028477
 20
0.6490753342
 30
0.0
 10
5.1760900422
 20
0.6509660873
 30
0.0
 10
5.1764500357
 20
0.6551651805
 30
0.0
 10
5.1771596724
 20
0.6651694591
 30
0.0
 10
5.1780059101
 20
0.6805344725
 30
0.0
 10
5.1789723366
 20
0.7020367793
 30
0.0
 10
5.1799480457
 20
0.7271049165
 30
0.0
 10
5.1809302921
 20
0.7549512277
 30
0.0
 10
5.181912967
 20
0.7847343375
 30
0.0
 10
5.1828960328
 20
0.8155502266
 30
0.0
 10
5.1838798399
 20
0.8464358735
 30
0.0
 10
5.1848633114
 20
0.8764202721
 30
0.0
 10
5.1857006429
 20
0.9004218011
 30
0.0
 10
5.1863796619
 20
0.9184914802
 30
0.0
 10
5.1868766657
 20
0.9309609685
 30
0.0
 10
5.18737306
 20
0.9425637484
 30
0.0
 10
5.1878686258
 20
0.953198194
 30
0.0
 10
5.1883632916
 20
0.9627677012
 30
0.0
 10
5.1888577016
 20
0.9711954803
 30
0.0
 10
5.1893504489
 20
0.9784268091
 30
0.0
 10
5.1898387138
 20
0.9844245014
 30
0.0
 10
5.1903225981
 20
0.9891516817
 30
0.0
 10
5.1907460842
 20
0.9922798446
 30
0.0
 10
5.1910822312
 20
0.9939787319
 30
0.0
 10
5.1912610298
 20
0.9946702571
 30
0.0
 10
5.1913827072
 20
0.9950616761
 30
0.0
 10
5.1915080069
 20
0.9953716561
 30
0.0
 10
5.1916396493
 20
0.9956222077
 30
0.0
 10
5.1917970326
 20
0.9957802233
 30
0.0
 10
5.1918976058
 20
0.9957766287
 30
0.0
  0
SPLINE
  5
44F
100
AcDbEntity
  8
0
100
AcDbSpline
 62
7
  6
CONTINUOUS
 70
0
 71
3
 72
11
 73
7
 74
0
 42
0.0000001
 43
0.0000001
 44
0.0000000001
 40
0.0
 40
0.0
 40
0.0
 40
0.0
 40
0.133053473
 40
0.3431940936
 40
0.6320267943
 40
1.0
 40
1.0
 40
1.0
 40
1.0
 10
5.2100691837
 20
0.6409692895
 30
0.0
 10
5.2102130685
 20
0.6412252802
 30
0.0
 10
5.2104446807
 20
0.6419556566
 30
0.0
 10
5.2107437609
 20
0.6433148347
 30
0.0
 10
5.2110447118
 20
0.6452069757
 30
0.0
 10
5.2112272798
 20
0.6466446128
 30
0.0
 10
5.2113214472
 20
0.6474512723
 30
0.0
  0
SPLINE
  5
450
100
AcDbEntity
  8
0
100
AcDbSpline
 62
7
  6
CONTINUOUS
 70
0
 71
3
 72
33
 73
29
 74
0
 42
0.0000001
 43
0.0000001
 44
0.0000000001
 40
0.0
 40
0.0
 40
0.0
 40
0.0
 40
0.0145505987
 40
0.0329009206
 40
0.0802781514
 40
0.140587365
 40
0.2120907797
 40
0.292557575
 40
0.3792692047
 40
0.4694476862
 40
0.5602897471
 40
0.6489709007
 40
0.7326385382
 40
0.7716877875
 40
0.8084226835
 40
0.8425978247
 40
0.8739887391
 40
0.9023707862
 40
0.9275113415
 40
0.949170685
 40
0.9671102458
 40
0.9811405776
 40
0.99123368
 40
0.9948119291
 40
0.9974239196
 40
0.9983770732
 40
0.9991063904
 40
1.0
 40
1.0
 40
1.0
 40
1.0
 10
5.2113214472
 20
0.6474512723
 30
0.0
 10
5.2115170337
 20
0.6491267111
 30
0.0
 10
5.2118857729
 20
0.6529235581
 30
0.0
 10
5.2126096676
 20
0.6622019943
 30
0.0
 10
5.2134671277
 20
0.6767890104
 30
0.0
 10
5.21445366
 20
0.6975386404
 30
0.0
 10
5.215443785
 20
0.7221279785
 30
0.0
 10
5.2164380798
 20
0.7497799419
 30
0.0
 10
5.2174372889
 20
0.7795980024
 30
0.0
 10
5.2184387504
 20
0.8106193947
 30
0.0
 10
5.219439478
 20
0.8418692529
 30
0.0
 10
5.2204392967
 20
0.8723639604
 30
0.0
 10
5.2212888009
 20
0.8968561402
 30
0.0
 10
5.2219791837
 20
0.9153281221
 30
0.0
 10
5.2224852393
 20
0.9280654066
 30
0.0
 10
5.222990824
 20
0.9399141515
 30
0.0
 10
5.2234956672
 20
0.9507936588
 30
0.0
 10
5.223999476
 20
0.960624623
 30
0.0
 10
5.2245013816
 20
0.9693259233
 30
0.0
 10
5.2250013893
 20
0.9768144289
 30
0.0
 10
5.2254952794
 20
0.9830122792
 30
0.0
 10
5.2259891285
 20
0.9878637853
 30
0.0
 10
5.2264180286
 20
0.9910477595
 30
0.0
 10
5.2267928746
 20
0.9928999897
 30
0.0
 10
5.2270074896
 20
0.9936985444
 30
0.0
 10
5.2271968638
 20
0.9941648539
 30
0.0
 10
5.2273332123
 20
0.994419634
 30
0.0
 10
5.2274897441
 20
0.9945798707
 30
0.0
 10
5.227593323
 20
0.9945816373
 30
0.0
  0
LINE
  5
451
100
AcDbEntity
  8
0
100
AcDbLine
 62
7
  6
CONTINUOUS
 10
5.2457530442
 20
0.6420643136
 11
5.2461420746
 21
0.6431456427
  0
LINE
  5
452
100
AcDbEntity
  8
0
100
AcDbLine
 62
7
  6
CONTINUOUS
 10
5.2461420746
 20
0.6431456427
 11
5.2467297726
 21
0.6463012884
  0
SPLINE
  5
453
100
AcDbEntity
  8
0
100
AcDbSpline
 62
7
  6
CONTINUOUS
 70
0
 71
3
 72
15
 73
11
 74
0
 42
0.0000001
 43
0.0000001
 44
0.0000000001
 40
0.0
 40
0.0
 40
0.0
 40
0.0
 40
0.0296552642
 40
0.0522555503
 40
0.0814266874
 40
0.1609407366
 40
0.2696969369
 40
0.4080100344
 40
0.5759038512
 40
1.0
 40
1.0
 40
1.0
 40
1.0
 10
5.2633017794
 20
0.9935037342
 30
0.0
 10
5.2632203639
 20
0.9935080063
 30
0.0
 10
5.2630851662
 20
0.9934083796
 30
0.0
 10
5.2629657341
 20
0.9932245166
 30
0.0
 10
5.2628052989
 20
0.9928978552
 30
0.0
 10
5.2626228455
 20
0.9923280227
 30
0.0
 10
5.2624125631
 20
0.991454492
 30
0.0
 10
5.2622020202
 20
0.9903330167
 30
0.0
 10
5.2618939851
 20
0.9883488389
 30
0.0
 10
5.2617016118
 20
0.9867322744
 30
0.0
 10
5.2615752688
 20
0.9855732261
 30
0.0
  0
SPLINE
  5
454
100
AcDbEntity
  8
0
100
AcDbSpline
 62
7
  6
CONTINUOUS
 70
0
 71
3
 72
24
 73
20
 74
0
 42
0.0000001
 43
0.0000001
 44
0.0000000001
 40
0.0
 40
0.0
 40
0.0
 40
0.0
 40
0.0142450659
 40
0.0317166803
 40
0.075803075
 40
0.1309800952
 40
0.1957775464
 40
0.2685412067
 40
0.3473629124
 40
0.5145082991
 40
0.598372536
 40
0.6794959922
 40
0.7557438092
 40
0.8250726007
 40
0.8855487572
 40
0.9356603912
 40
0.9741329952
 40
0.9886954135
 40
1.0
 40
1.0
 40
1.0
 40
1.0
 10
5.2615752688
 20
0.9855732261
 30
0.0
 10
5.2614004835
 20
0.9839697773
 30
0.0
 10
5.2610647377
 20
0.9803939123
 30
0.0
 10
5.2604050616
 20
0.9718360586
 30
0.0
 10
5.2596178762
 20
0.9586410086
 30
0.0
 10
5.258715026
 20
0.9400865337
 30
0.0
 10
5.2578076819
 20
0.9182817976
 30
0.0
 10
5.2568952887
 20
0.8937980687
 30
0.0
 10
5.255651372
 20
0.8577300812
 30
0.0
 10
5.2544546732
 20
0.8204029449
 30
0.0
 10
5.2532350221
 20
0.7828158068
 30
0.0
 10
5.252319831
 20
0.7555164085
 30
0.0
 10
5.2514074613
 20
0.7298636857
 30
0.0
 10
5.2504994005
 20
0.7065502969
 30
0.0
 10
5.2495957668
 20
0.6861983914
 30
0.0
 10
5.2486979904
 20
0.6693444104
 30
0.0
 10
5.2479120788
 20
0.6576903812
 30
0.0
 10
5.2472464809
 20
0.6504355838
 30
0.0
 10
5.2469093776
 20
0.6475254141
 30
0.0
 10
5.2467297726
 20
0.6462580764
 30
0.0
  0
SPLINE
  5
455
100
AcDbEntity
  8
0
100
AcDbSpline
 62
7
  6
CONTINUOUS
 70
0
 71
3
 72
15
 73
11
 74
0
 42
0.0000001
 43
0.0000001
 44
0.0000000001
 40
0.0
 40
0.0
 40
0.0
 40
0.0
 40
0.0294962885
 40
0.052225272
 40
0.0815803994
 40
0.1616105473
 40
0.2709908707
 40
0.4097891194
 40
0.5777854546
 40
1.0
 40
1.0
 40
1.0
 40
1.0
 10
5.2856151975
 20
0.6428584091
 30
0.0
 10
5.2856990949
 20
0.6428578853
 30
0.0
 10
5.2858331549
 20
0.6429672543
 30
0.0
 10
5.2859529242
 20
0.6431599792
 30
0.0
 10
5.2861140432
 20
0.6435030449
 30
0.0
 10
5.2862974365
 20
0.6440979327
 30
0.0
 10
5.2865086909
 20
0.6450080399
 30
0.0
 10
5.2867204126
 20
0.6461729175
 30
0.0
 10
5.2870296372
 20
0.6482235506
 30
0.0
 10
5.2872237238
 20
0.6498915324
 30
0.0
 10
5.287351266
 20
0.6510856853
 30
0.0
  0
SPLINE
  5
456
100
AcDbEntity
  8
0
100
AcDbSpline
 62
7
  6
CONTINUOUS
 70
0
 71
3
 72
14
 73
10
 74
0
 42
0.0000001
 43
0.0000001
 44
0.0000000001
 40
0.0
 40
0.0
 40
0.0
 40
0.0
 40
0.0635910226
 40
0.1488849268
 40
0.2544516382
 40
0.3784932739
 40
0.518151139
 40
0.6703594974
 40
1.0
 40
1.0
 40
1.0
 40
1.0
 10
5.287351266
 20
0.6510856853
 30
0.0
 10
5.2876820234
 20
0.6541825047
 30
0.0
 10
5.2882788715
 20
0.66145135
 30
0.0
 10
5.289068439
 20
0.6738882906
 30
0.0
 10
5.2898642235
 20
0.6892907822
 30
0.0
 10
5.2906636178
 20
0.7073583212
 30
0.0
 10
5.2914671912
 20
0.7277120275
 30
0.0
 10
5.2925722409
 20
0.7581308874
 30
0.0
 10
5.293355336
 20
0.7817169553
 30
0.0
 10
5.2938832108
 20
0.7978527897
 30
0.0
  0
SPLINE
  5
457
100
AcDbEntity
  8
0
100
AcDbSpline
 62
7
  6
CONTINUOUS
 70
0
 71
3
 72
10
 73
6
 74
0
 42
0.0000001
 43
0.0000001
 44
0.0000000001
 40
0.0
 40
0.0
 40
0.0
 40
0.0
 40
0.5464169468
 40
0.788772668
 40
1.0
 40
1.0
 40
1.0
 40
1.0
 10
5.2950740888
 20
0.834431655
 30
0.0
 10
5.295741759
 20
0.854883953
 30
0.0
 10
5.2967161184
 20
0.8844073709
 30
0.0
 10
5.2981358925
 20
0.9218302871
 30
0.0
 10
5.298868176
 20
0.9388012651
 30
0.0
 10
5.2992482596
 20
0.9467025452
 30
0.0
  0
SPLINE
  5
458
100
AcDbEntity
  8
0
100
AcDbSpline
 62
7
  6
CONTINUOUS
 70
0
 71
3
 72
12
 73
8
 74
0
 42
0.0000001
 43
0.0000001
 44
0.0000000001
 40
0.0
 40
0.0
 40
0.0
 40
0.0
 40
0.3439173545
 40
0.6280945129
 40
0.8475716167
 40
0.9322969541
 40
1.0
 40
1.0
 40
1.0
 40
1.0
 10
5.2992482596
 20
0.9467025452
 30
0.0
 10
5.2994784266
 20
0.9514873196
 30
0.0
 10
5.2999246698
 20
0.9602246191
 30
0.0
 10
5.3006518652
 20
0.9720078424
 30
0.0
 10
5.301292134
 20
0.9801791881
 30
0.0
 10
5.3018266849
 20
0.9853318772
 30
0.0
 10
5.3020958456
 20
0.9874383297
 30
0.0
 10
5.3022362586
 20
0.98837083
 30
0.0
  0
SPLINE
  5
459
100
AcDbEntity
  8
0
100
AcDbSpline
 62
7
  6
CONTINUOUS
 70
0
 71
3
 72
15
 73
11
 74
0
 42
0.0000001
 43
0.0000001
 44
0.0000000001
 40
0.0
 40
0.0
 40
0.0
 40
0.0
 40
0.0260490165
 40
0.0478832373
 40
0.0767602801
 40
0.1129504
 40
0.1565618936
 40
0.2661609056
 40
0.5745180274
 40
1.0
 40
1.0
 40
1.0
 40
1.0
 10
5.2989963275
 20
0.9924218918
 30
0.0
 10
5.2988922936
 20
0.9924275622
 30
0.0
 10
5.2987266652
 20
0.992263125
 30
0.0
 10
5.2985907492
 20
0.9920007687
 30
0.0
 10
5.2984599505
 20
0.9916736872
 30
0.0
 10
5.2983331521
 20
0.9912592006
 30
0.0
 10
5.2981462002
 20
0.9905241654
 30
0.0
 10
5.2977942032
 20
0.9887114102
 30
0.0
 10
5.2973505999
 20
0.9853649644
 30
0.0
 10
5.2970584107
 20
0.98244452
 30
0.0
 10
5.2969045496
 20
0.9807496878
 30
0.0
  0
LINE
  5
45A
100
AcDbEntity
  8
0
100
AcDbLine
 62
7
  6
CONTINUOUS
 10
5.2969045496
 20
0.9807496878
 11
5.2957155137
 21
0.9642086024
  0
SPLINE
  5
45B
100
AcDbEntity
  8
0
100
AcDbSpline
 62
7
  6
CONTINUOUS
 70
0
 71
3
 72
9
 73
5
 74
0
 42
0.0000001
 43
0.0000001
 44
0.0000000001
 40
0.0
 40
0.0
 40
0.0
 40
0.0
 40
0.4599051832
 40
1.0
 40
1.0
 40
1.0
 40
1.0
 10
5.2945259807
 20
0.9412357825
 30
0.0
 10
5.2938473109
 20
0.9264590298
 30
0.0
 10
5.2926041679
 20
0.8943185911
 30
0.0
 10
5.2915200357
 20
0.862173082
 30
0.0
 10
5.2909489635
 20
0.8448109329
 30
0.0
  0
LINE
  5
45C
100
AcDbEntity
  8
0
100
AcDbLine
 62
7
  6
CONTINUOUS
 10
5.2909489635
 20
0.8448109329
 11
5.2903518817
 21
0.8265389391
  0
SPLINE
  5
45D
100
AcDbEntity
  8
0
100
AcDbSpline
 62
7
  6
CONTINUOUS
 70
0
 71
3
 72
18
 73
14
 74
0
 42
0.0000001
 43
0.0000001
 44
0.0000000001
 40
0.0
 40
0.0
 40
0.0
 40
0.0
 40
0.1768862088
 40
0.3494075025
 40
0.5116471678
 40
0.6582190459
 40
0.7841876763
 40
0.8380857952
 40
0.8852402558
 40
0.925270256
 40
0.9579031675
 40
0.9828772892
 40
1.0
 40
1.0
 40
1.0
 40
1.0
 10
5.2903518817
 20
0.8265389391
 30
0.0
 10
5.2900029121
 20
0.8158111397
 30
0.0
 10
5.2893164602
 20
0.79462017
 30
0.0
 10
5.2882858154
 20
0.7635904731
 30
0.0
 10
5.2872585486
 20
0.7344011701
 30
0.0
 10
5.2862361395
 20
0.7080384335
 30
0.0
 10
5.2853503811
 20
0.6882496265
 30
0.0
 10
5.2846212407
 20
0.6744932132
 30
0.0
 10
5.2841052131
 20
0.6659476872
 30
0.0
 10
5.2835912623
 20
0.6586953967
 30
0.0
 10
5.2830844367
 20
0.6527915357
 30
0.0
 10
5.2825819811
 20
0.6482855934
 30
0.0
 10
5.2821957104
 20
0.6457568185
 30
0.0
 10
5.2819690619
 20
0.6447428324
 30
0.0
  0
LINE
  5
45E
100
AcDbEntity
  8
0
100
AcDbLine
 62
7
  6
CONTINUOUS
 10
5.2819690619
 20
0.6447428324
 11
5.2818211882
 21
0.6441396304
  0
LINE
  5
45F
100
AcDbEntity
  8
0
100
AcDbLine
 62
7
  6
CONTINUOUS
 10
5.2817689317
 20
0.6439544146
 11
5.2814684616
 21
0.6431736099
  0
SPLINE
  5
460
100
AcDbEntity
  8
0
100
AcDbSpline
 62
7
  6
CONTINUOUS
 70
0
 71
3
 72
13
 73
9
 74
0
 42
0.0000001
 43
0.0000001
 44
0.0000000001
 40
0.0
 40
0.0
 40
0.0
 40
0.0
 40
0.2136906797
 40
0.3051165428
 40
0.4015723645
 40
0.5137977658
 40
0.6486941525
 40
1.0
 40
1.0
 40
1.0
 40
1.0
 10
5.2902126864
 20
1.0076929517
 30
0.0
 10
5.2900202771
 20
1.0078848884
 30
0.0
 10
5.2896823275
 20
1.0081325079
 30
0.0
 10
5.2891588323
 20
1.0081560699
 30
0.0
 10
5.2887922939
 20
1.0080245274
 30
0.0
 10
5.2884382955
 20
1.0077612378
 30
0.0
 10
5.287928875
 20
1.0071915034
 30
0.0
 10
5.2876217943
 20
1.0066473717
 30
0.0
 10
5.2874224513
 20
1.0062475124
 30
0.0
  0
LINE
  5
461
100
AcDbEntity
  8
0
100
AcDbLine
 62
7
  6
CONTINUOUS
 10
5.2874224513
 20
1.0062475124
 11
5.2860743612
 21
1.0025826219
  0
SPLINE
  5
462
100
AcDbEntity
  8
0
100
AcDbSpline
 62
7
  6
CONTINUOUS
 70
0
 71
3
 72
14
 73
10
 74
0
 42
0.0000001
 43
0.0000001
 44
0.0000000001
 40
0.0
 40
0.0
 40
0.0
 40
0.0
 40
0.0350349629
 40
0.0947804473
 40
0.1803325761
 40
0.2919724654
 40
0.4297750101
 40
0.593740127
 40
1.0
 40
1.0
 40
1.0
 40
1.0
 10
5.2926727969
 20
0.6306069159
 30
0.0
 10
5.2927268579
 20
0.6306615339
 30
0.0
 10
5.2928109155
 20
0.630860034
 30
0.0
 10
5.2929168346
 20
0.6312372291
 30
0.0
 10
5.2930242121
 20
0.6317928861
 30
0.0
 10
5.2931341109
 20
0.6325187078
 30
0.0
 10
5.2932447051
 20
0.633419133
 30
0.0
 10
5.2934047821
 20
0.6349638254
 30
0.0
 10
5.2935066268
 20
0.6362106636
 30
0.0
 10
5.2935732961
 20
0.6370992918
 30
0.0
  0
LINE
  5
463
100
AcDbEntity
  8
0
100
AcDbLine
 62
7
  6
CONTINUOUS
 10
5.2935732961
 20
0.6370992918
 11
5.2942913287
 21
0.6500246369
  0
LINE
  5
464
100
AcDbEntity
  8
0
100
AcDbLine
 62
7
  6
CONTINUOUS
 10
5.2942913287
 20
0.6500246369
 11
5.295729504
 21
0.6940589891
  0
LINE
  5
465
100
AcDbEntity
  8
0
100
AcDbLine
 62
7
  6
CONTINUOUS
 10
5.3011478969
 20
0.9385677162
 11
5.3022362586
 21
0.9709645828
  0
SPLINE
  5
466
100
AcDbEntity
  8
0
100
AcDbSpline
 62
7
  6
CONTINUOUS
 70
0
 71
3
 72
16
 73
12
 74
0
 42
0.0000001
 43
0.0000001
 44
0.0000000001
 40
0.0
 40
0.0
 40
0.0
 40
0.0
 40
0.0159370784
 40
0.0379433709
 40
0.1006701727
 40
0.1885870064
 40
0.3016689647
 40
0.439783498
 40
0.6025756308
 40
0.7895016977
 40
1.0
 40
1.0
 40
1.0
 40
1.0
 10
3.5841362797
 20
0.6159425222
 30
0.0
 10
3.584075357
 20
0.6160454408
 30
0.0
 10
3.5839629329
 20
0.6163089189
 30
0.0
 10
3.5837397787
 20
0.6170307367
 30
0.0
 10
3.5834795357
 20
0.6183025752
 30
0.0
 10
3.5831793859
 20
0.6202584505
 30
0.0
 10
3.5828766732
 20
0.6227858563
 30
0.0
 10
3.5825726324
 20
0.6258777184
 30
0.0
 10
3.5822696291
 20
0.6295262003
 30
0.0
 10
3.5819668434
 20
0.6337194234
 30
0.0
 10
3.5817762924
 20
0.6366958014
 30
0.0
 10
3.5816800482
 20
0.6382725339
 30
0.0
  0
SPLINE
  5
467
100
AcDbEntity
  8
0
100
AcDbSpline
 62
7
  6
CONTINUOUS
 70
0
 71
3
 72
28
 73
24
 74
0
 42
0.0000001
 43
0.0000001
 44
0.0000000001
 40
0.0
 40
0.0
 40
0.0
 40
0.0
 40
0.0450433708
 40
0.101042201
 40
0.1665606997
 40
0.2399151985
 40
0.319231623
 40
0.4024628453
 40
0.487477056
 40
0.572082711
 40
0.6541063984
 40
0.7314330665
 40
0.802080035
 40
0.8642148201
 40
0.8915890591
 40
0.9162605498
 40
0.9380580672
 40
0.956854397
 40
0.9725369717
 40
0.984995618
 40
0.9941546511
 40
0.9974906416
 40
1.0
 40
1.0
 40
1.0
 40
1.0
 10
3.5816800482
 20
0.6382725339
 30
0.0
 10
3.5813317563
 20
0.643978469
 30
0.0
 10
3.5806771522
 20
0.6567857381
 30
0.0
 10
3.5797885959
 20
0.6779057103
 30
0.0
 10
3.5788956338
 20
0.7026213338
 30
0.0
 10
3.5779991852
 20
0.7302977533
 30
0.0
 10
3.5771003983
 20
0.7602231488
 30
0.0
 10
3.5761999506
 20
0.7916288761
 30
0.0
 10
3.575299119
 20
0.8237061277
 30
0.0
 10
3.5743982528
 20
0.8556300677
 30
0.0
 10
3.5734980796
 20
0.8865779892
 30
0.0
 10
3.5725990236
 20
0.9157536437
 30
0.0
 10
3.571702331
 20
0.9424039316
 30
0.0
 10
3.5709307441
 20
0.9627151687
 30
0.0
 10
3.5702998218
 20
0.9771923758
 30
0.0
 10
3.5698471685
 20
0.986553088
 30
0.0
 10
3.5693944729
 20
0.9948237774
 30
0.0
 10
3.5689433408
 20
1.0019517202
 30
0.0
 10
3.5684976705
 20
1.0078923792
 30
0.0
 10
3.5680577062
 20
1.0126055992
 30
0.0
 10
3.5676753735
 20
1.0157511273
 30
0.0
 10
3.567345848
 20
1.0176268071
 30
0.0
 10
3.5671778409
 20
1.0183504867
 30
0.0
 10
3.5670866123
 20
1.0186556086
 30
0.0
  0
SPLINE
  5
468
100
AcDbEntity
  8
0
100
AcDbSpline
 62
7
  6
CONTINUOUS
 70
0
 71
3
 72
10
 73
6
 74
0
 42
0.0000001
 43
0.0000001
 44
0.0000000001
 40
0.0
 40
0.0
 40
0.0
 40
0.0
 40
0.3855644196
 40
0.6742438848
 40
1.0
 40
1.0
 40
1.0
 40
1.0
 10
3.5670866123
 20
1.0186556086
 30
0.0
 10
3.5670465072
 20
1.0187897436
 30
0.0
 10
3.5669662536
 20
1.0190269562
 30
0.0
 10
3.5668276455
 20
1.019341918
 30
0.0
 10
3.5666545018
 20
1.019561316
 30
0.0
 10
3.5665362739
 20
1.0195576346
 30
0.0
  0
SPLINE
  5
469
100
AcDbEntity
  8
0
100
AcDbSpline
 62
7
  6
CONTINUOUS
 70
0
 71
3
 72
12
 73
8
 74
0
 42
0.0000001
 43
0.0000001
 44
0.0000000001
 40
0.0
 40
0.0
 40
0.0
 40
0.0
 40
0.0529479654
 40
0.125991144
 40
0.3340234355
 40
0.6253997901
 40
1.0
 40
1.0
 40
1.0
 40
1.0
 10
3.5483899136
 20
0.6171048243
 30
0.0
 10
3.5483206906
 20
0.617229087
 30
0.0
 10
3.548194825
 20
0.6175454261
 30
0.0
 10
3.5479493246
 20
0.6184085755
 30
0.0
 10
3.5476703932
 20
0.6199238278
 30
0.0
 10
3.5473522606
 20
0.6222496801
 30
0.0
 10
3.5471625576
 20
0.6240291946
 30
0.0
 10
3.5470635113
 20
0.6250306596
 30
0.0
  0
LINE
  5
46A
100
AcDbEntity
  8
0
100
AcDbLine
 62
7
  6
CONTINUOUS
 10
3.5470635113
 20
0.6250306596
 11
3.545984215
 21
0.6392604517
  0
SPLINE
  5
46B
100
AcDbEntity
  8
0
100
AcDbSpline
 62
7
  6
CONTINUOUS
 70
0
 71
3
 72
19
 73
15
 74
0
 42
0.0000001
 43
0.0000001
 44
0.0000000001
 40
0.0
 40
0.0
 40
0.0
 40
0.0
 40
0.0399185633
 40
0.0884247086
 40
0.1445965368
 40
0.2074119519
 40
0.3114706731
 40
0.4234373389
 40
0.538617976
 40
0.6521742717
 40
0.7593475641
 40
0.8556353341
 40
0.936985764
 40
1.0
 40
1.0
 40
1.0
 40
1.0
 10
3.545984215
 20
0.6392604517
 30
0.0
 10
3.5456908546
 20
0.6440042046
 30
0.0
 10
3.545130776
 20
0.6545177269
 30
0.0
 10
3.5443719153
 20
0.6717171475
 30
0.0
 10
3.5436088203
 20
0.6916448611
 30
0.0
 10
3.5426960955
 20
0.7181856824
 30
0.0
 10
3.5416665096
 20
0.7513693354
 30
0.0
 10
3.5405260434
 20
0.7907871569
 30
0.0
 10
3.5393839856
 20
0.831336193
 30
0.0
 10
3.538242393
 20
0.8713143171
 30
0.0
 10
3.5371032118
 20
0.9090420897
 30
0.0
 10
3.5359712434
 20
0.9429338408
 30
0.0
 10
3.5348477108
 20
0.9715645246
 30
0.0
 10
3.5340048388
 20
0.9887333098
 30
0.0
 10
3.5335411315
 20
0.9962216164
 30
0.0
  0
SPLINE
  5
46C
100
AcDbEntity
  8
0
100
AcDbSpline
 62
7
  6
CONTINUOUS
 70
0
 71
3
 72
13
 73
9
 74
0
 42
0.0000001
 43
0.0000001
 44
0.0000000001
 40
0.0
 40
0.0
 40
0.0
 40
0.0
 40
0.3696497546
 40
0.6610796231
 40
0.7765153988
 40
0.8715039781
 40
0.9459859396
 40
1.0
 40
1.0
 40
1.0
 40
1.0
 10
3.5335411315
 20
0.9962216164
 30
0.0
 10
3.5333777265
 20
0.9988604076
 30
0.0
 10
3.5330618332
 20
1.0035781283
 30
0.0
 10
3.5326006245
 20
1.0091135131
 30
0.0
 10
3.532215089
 20
1.0126822623
 30
0.0
 10
3.5319509122
 20
1.0147032522
 30
0.0
 10
3.5316891043
 20
1.0162800471
 30
0.0
 10
3.5314890057
 20
1.0171787341
 30
0.0
 10
3.5313780549
 20
1.0175487838
 30
0.0
  0
SPLINE
  5
46D
100
AcDbEntity
  8
0
100
AcDbSpline
 62
7
  6
CONTINUOUS
 70
0
 71
3
 72
10
 73
6
 74
0
 42
0.0000001
 43
0.0000001
 44
0.0000000001
 40
0.0
 40
0.0
 40
0.0
 40
0.0
 40
0.386951609
 40
0.6763564739
 40
1.0
 40
1.0
 40
1.0
 40
1.0
 10
3.5313780549
 20
1.0175487838
 30
0.0
 10
3.5313380684
 20
1.0176821495
 30
0.0
 10
3.5312583251
 20
1.0179181853
 30
0.0
 10
3.5311213245
 20
1.0182295629
 30
0.0
 10
3.5309526462
 20
1.0184496376
 30
0.0
 10
3.5308362506
 20
1.0184460133
 30
0.0
  0
SPLINE
  5
46E
100
AcDbEntity
  8
0
100
AcDbSpline
 62
7
  6
CONTINUOUS
 70
0
 71
3
 72
12
 73
8
 74
0
 42
0.0000001
 43
0.0000001
 44
0.0000000001
 40
0.0
 40
0.0
 40
0.0
 40
0.0
 40
0.050905958
 40
0.122532503
 40
0.3295143111
 40
0.6220811733
 40
1.0
 40
1.0
 40
1.0
 40
1.0
 10
3.512728471
 20
0.6181773939
 30
0.0
 10
3.5126598774
 20
0.618295726
 30
0.0
 10
3.5125349141
 20
0.618602618
 30
0.0
 10
3.5122863281
 20
0.6194522424
 30
0.0
 10
3.5119978121
 20
0.6209625818
 30
0.0
 10
3.5116644081
 20
0.6232959594
 30
0.0
 10
3.5114663093
 20
0.6250870639
 30
0.0
 10
3.5113634922
 20
0.6260972485
 30
0.0
  0
LINE
  5
46F
100
AcDbEntity
  8
0
100
AcDbLine
 62
7
  6
CONTINUOUS
 10
3.5113634922
 20
0.6260972485
 11
3.5108196518
 21
0.6323336203
  0
SPLINE
  5
470
100
AcDbEntity
  8
0
100
AcDbSpline
 62
7
  6
CONTINUOUS
 70
0
 71
3
 72
17
 73
13
 74
0
 42
0.0000001
 43
0.0000001
 44
0.0000000001
 40
0.0
 40
0.0
 40
0.0
 40
0.0
 40
0.0399180001
 40
0.0884246166
 40
0.2074124555
 40
0.3481435469
 40
0.5001653397
 40
0.6521743871
 40
0.7928601957
 40
0.9117504846
 40
0.9601807301
 40
1.0
 40
1.0
 40
1.0
 40
1.0
 10
3.5102799044
 20
0.6402486733
 30
0.0
 10
3.5099888086
 20
0.6449661661
 30
0.0
 10
3.5094333472
 20
0.6554216064
 30
0.0
 10
3.5083438846
 20
0.6799560846
 30
0.0
 10
3.5070514019
 20
0.7164289999
 30
0.0
 10
3.5055617046
 20
0.7651580959
 30
0.0
 10
3.5040647453
 20
0.8177985978
 30
0.0
 10
3.5025675308
 20
0.8704337298
 30
0.0
 10
3.5010768726
 20
0.9191443658
 30
0.0
 10
3.499783098
 20
0.9555912722
 30
0.0
 10
3.498691869
 20
0.9800933585
 30
0.0
 10
3.4981351088
 20
0.9905279746
 30
0.0
 10
3.4978431662
 20
0.9952337026
 30
0.0
  0
SPLINE
  5
471
100
AcDbEntity
  8
0
100
AcDbSpline
 62
7
  6
CONTINUOUS
 70
0
 71
3
 72
13
 73
9
 74
0
 42
0.0000001
 43
0.0000001
 44
0.0000000001
 40
0.0
 40
0.0
 40
0.0
 40
0.0
 40
0.3696108284
 40
0.6610229688
 40
0.7764645139
 40
0.8714687299
 40
0.9459716344
 40
1.0
 40
1.0
 40
1.0
 40
1.0
 10
3.4978431662
 20
0.9952337026
 30
0.0
 10
3.497680363
 20
0.9978578745
 30
0.0
 10
3.4973653977
 20
1.0025495247
 30
0.0
 10
3.4969027407
 20
1.0080542314
 30
0.0
 10
3.4965119248
 20
1.0116028556
 30
0.0
 10
3.4962435877
 20
1.0136124388
 30
0.0
 10
3.4959785138
 20
1.0151802819
 30
0.0
 10
3.4957773749
 20
1.0160737981
 30
0.0
 10
3.4956668021
 20
1.0164418779
 30
0.0
  0
SPLINE
  5
472
100
AcDbEntity
  8
0
100
AcDbSpline
 62
7
  6
CONTINUOUS
 70
0
 71
3
 72
10
 73
6
 74
0
 42
0.0000001
 43
0.0000001
 44
0.0000000001
 40
0.0
 40
0.0
 40
0.0
 40
0.0
 40
0.3889243734
 40
0.6793470743
 40
1.0
 40
1.0
 40
1.0
 40
1.0
 10
3.4956668021
 20
1.0164418779
 30
0.0
 10
3.4956269734
 20
1.0165744612
 30
0.0
 10
3.4955479216
 20
1.0168093829
 30
0.0
 10
3.4954130145
 20
1.0171164266
 30
0.0
 10
3.4952503282
 20
1.0173379449
 30
0.0
 10
3.4951362481
 20
1.0173343927
 30
0.0
  0
SPLINE
  5
473
100
AcDbEntity
  8
0
100
AcDbSpline
 62
7
  6
CONTINUOUS
 70
0
 71
3
 72
12
 73
8
 74
0
 42
0.0000001
 43
0.0000001
 44
0.0000000001
 40
0.0
 40
0.0
 40
0.0
 40
0.0
 40
0.0505766385
 40
0.1219300161
 40
0.3286489724
 40
0.6214034396
 40
1.0
 40
1.0
 40
1.0
 40
1.0
 10
3.5404876811
 20
1.0185177301
 30
0.0
 10
3.540556604
 20
1.0184014666
 30
0.0
 10
3.540681814
 20
1.0180982068
 30
0.0
 10
3.5409302515
 20
1.0172559607
 30
0.0
 10
3.5412173346
 20
1.0157546038
 30
0.0
 10
3.5415486966
 20
1.0134322121
 30
0.0
 10
3.5417454627
 20
1.0116483981
 30
0.0
 10
3.5418477101
 20
1.0106418423
 30
0.0
  0
LINE
  5
474
100
AcDbEntity
  8
0
100
AcDbLine
 62
7
  6
CONTINUOUS
 10
3.5418477101
 20
1.0106418423
 11
3.5423911074
 21
1.0044002519
  0
SPLINE
  5
475
100
AcDbEntity
  8
0
100
AcDbSpline
 62
7
  6
CONTINUOUS
 70
0
 71
3
 72
17
 73
13
 74
0
 42
0.0000001
 43
0.0000001
 44
0.0000000001
 40
0.0
 40
0.0
 40
0.0
 40
0.0
 40
0.0398289114
 40
0.0882680023
 40
0.2071728476
 40
0.3478680465
 40
0.4998805437
 40
0.6518994479
 40
0.7926215112
 40
0.9115941475
 40
0.960091381
 40
1.0
 40
1.0
 40
1.0
 40
1.0
 10
3.5429313633
 20
0.9964678343
 30
0.0
 10
3.543223472
 20
0.9917277926
 30
0.0
 10
3.5437805996
 20
0.9812175086
 30
0.0
 10
3.5448716105
 20
0.9565390662
 30
0.0
 10
3.5461653047
 20
0.9198319892
 30
0.0
 10
3.5476559949
 20
0.8707757015
 30
0.0
 10
3.5491533839
 20
0.8177694659
 30
0.0
 10
3.5506497692
 20
0.7647599995
 30
0.0
 10
3.5521406643
 20
0.7156916561
 30
0.0
 10
3.5534320366
 20
0.6789662929
 30
0.0
 10
3.5545192796
 20
0.6542631265
 30
0.0
 10
3.5550792151
 20
0.6437365242
 30
0.0
 10
3.5553724302
 20
0.6389870287
 30
0.0
  0
SPLINE
  5
476
100
AcDbEntity
  8
0
100
AcDbSpline
 62
7
  6
CONTINUOUS
 70
0
 71
3
 72
13
 73
9
 74
0
 42
0.0000001
 43
0.0000001
 44
0.0000000001
 40
0.0
 40
0.0
 40
0.0
 40
0.0
 40
0.3689555478
 40
0.6601482568
 40
0.7756353205
 40
0.8707919924
 40
0.945564666
 40
1.0
 40
1.0
 40
1.0
 40
1.0
 10
3.5553724302
 20
0.6389870287
 30
0.0
 10
3.5555363883
 20
0.6363312368
 30
0.0
 10
3.5558531942
 20
0.6315808549
 30
0.0
 10
3.5563129634
 20
0.6260053916
 30
0.0
 10
3.5566935173
 20
0.6224062056
 30
0.0
 10
3.5569539781
 20
0.6203639388
 30
0.0
 10
3.5572128565
 20
0.6187667487
 30
0.0
 10
3.5574118076
 20
0.6178547247
 30
0.0
 10
3.5575226426
 20
0.6174781164
 30
0.0
  0
SPLINE
  5
477
100
AcDbEntity
  8
0
100
AcDbSpline
 62
7
  6
CONTINUOUS
 70
0
 71
3
 72
10
 73
6
 74
0
 42
0.0000001
 43
0.0000001
 44
0.0000000001
 40
0.0
 40
0.0
 40
0.0
 40
0.0
 40
0.3830974475
 40
0.6715638072
 40
1.0
 40
1.0
 40
1.0
 40
1.0
 10
3.5575226426
 20
0.6174781164
 30
0.0
 10
3.5575628251
 20
0.6173415795
 30
0.0
 10
3.557642738
 20
0.6170995182
 30
0.0
 10
3.557784087
 20
0.6167758909
 30
0.0
 10
3.5579519784
 20
0.6165481711
 30
0.0
 10
3.5580739387
 20
0.6165443735
 30
0.0
  0
SPLINE
  5
478
100
AcDbEntity
  8
0
100
AcDbSpline
 62
7
  6
CONTINUOUS
 70
0
 71
3
 72
12
 73
8
 74
0
 42
0.0000001
 43
0.0000001
 44
0.0000000001
 40
0.0
 40
0.0
 40
0.0
 40
0.0
 40
0.052338957
 40
0.124976179
 40
0.3327263173
 40
0.6244563289
 40
1.0
 40
1.0
 40
1.0
 40
1.0
 10
3.5048121853
 20
1.0173748334
 30
0.0
 10
3.5048802041
 20
1.0172542339
 30
0.0
 10
3.5050043897
 20
1.0169457152
 30
0.0
 10
3.5052492108
 20
1.0161002409
 30
0.0
 10
3.5055311084
 20
1.0146103634
 30
0.0
 10
3.5058547655
 20
1.0123187606
 30
0.0
 10
3.5060474766
 20
1.0105635931
 30
0.0
 10
3.5061477011
 20
1.0095751897
 30
0.0
  0
LINE
  5
479
100
AcDbEntity
  8
0
100
AcDbLine
 62
7
  6
CONTINUOUS
 10
3.5061477011
 20
1.0095751897
 11
3.5066890969
 21
1.0033680537
  0
SPLINE
  5
47A
100
AcDbEntity
  8
0
100
AcDbSpline
 62
7
  6
CONTINUOUS
 70
0
 71
3
 72
17
 73
13
 74
0
 42
0.0000001
 43
0.0000001
 44
0.0000000001
 40
0.0
 40
0.0
 40
0.0
 40
0.0
 40
0.0398294223
 40
0.0882687801
 40
0.2071738769
 40
0.3478690641
 40
0.4998813528
 40
0.651899991
 40
0.7926217471
 40
0.9115947445
 40
0.9600921772
 40
1.0
 40
1.0
 40
1.0
 40
1.0
 10
3.5072300071
 20
0.9954794704
 30
0.0
 10
3.5075228347
 20
0.9907656856
 30
0.0
 10
3.5080814884
 20
0.9803135804
 30
0.0
 10
3.5091717318
 20
0.9557715095
 30
0.0
 10
3.5104650383
 20
0.9192672991
 30
0.0
 10
3.5119562156
 20
0.8704821478
 30
0.0
 10
3.5134531772
 20
0.8177688788
 30
0.0
 10
3.5149502438
 20
0.7650524617
 30
0.0
 10
3.5164398751
 20
0.7162553046
 30
0.0
 10
3.5177323947
 20
0.6797329642
 30
0.0
 10
3.5188219307
 20
0.655166613
 30
0.0
 10
3.5193772919
 20
0.6446981399
 30
0.0
 10
3.5196683489
 20
0.6399749312
 30
0.0
  0
SPLINE
  5
47B
100
AcDbEntity
  8
0
100
AcDbSpline
 62
7
  6
CONTINUOUS
 70
0
 71
3
 72
12
 73
8
 74
0
 42
0.0000001
 43
0.0000001
 44
0.0000000001
 40
0.0
 40
0.0
 40
0.0
 40
0.0
 40
0.3688608878
 40
0.6600240349
 40
0.8707242168
 40
0.9455456884
 40
1.0
 40
1.0
 40
1.0
 40
1.0
 10
3.5196683489
 20
0.6399749312
 30
0.0
 10
3.5198311028
 20
0.6373337965
 30
0.0
 10
3.5201446691
 20
0.6326089038
 30
0.0
 10
3.5206688776
 20
0.626384771
 30
0.0
 10
3.5211331891
 20
0.6222714575
 30
0.0
 10
3.5215339297
 20
0.6198656092
 30
0.0
 10
3.5217350678
 20
0.6189587633
 30
0.0
 10
3.5218451811
 20
0.6185839576
 30
0.0
  0
SPLINE
  5
47C
100
AcDbEntity
  8
0
100
AcDbSpline
 62
7
  6
CONTINUOUS
 70
0
 71
3
 72
10
 73
6
 74
0
 42
0.0000001
 43
0.0000001
 44
0.0000000001
 40
0.0
 40
0.0
 40
0.0
 40
0.0
 40
0.6713979067
 40
0.8699268427
 40
1.0
 40
1.0
 40
1.0
 40
1.0
 10
3.5218451811
 20
0.6185839576
 30
0.0
 10
3.5219148313
 20
0.6183468806
 30
0.0
 10
3.522015342
 20
0.6180379486
 30
0.0
 10
3.5222128486
 20
0.6177262557
 30
0.0
 10
3.5223260793
 20
0.6176574843
 30
0.0
 10
3.5223739273
 20
0.6176559944
 30
0.0
  0
SPLINE
  5
47D
100
AcDbEntity
  8
0
100
AcDbSpline
 62
7
  6
CONTINUOUS
 70
0
 71
3
 72
12
 73
8
 74
0
 42
0.0000001
 43
0.0000001
 44
0.0000000001
 40
0.0
 40
0.0
 40
0.0
 40
0.0
 40
0.0526542025
 40
0.1254636805
 40
0.3332893585
 40
0.6248418735
 40
1.0
 40
1.0
 40
1.0
 40
1.0
 10
3.4691229306
 20
1.0162613885
 30
0.0
 10
3.4691918701
 20
1.0161413083
 30
0.0
 10
3.4693172991
 20
1.0158339313
 30
0.0
 10
3.469562252
 20
1.0149923917
 30
0.0
 10
3.4698409461
 20
1.0135107949
 30
0.0
 10
3.4701591182
 20
1.0112336896
 30
0.0
 10
3.4703487341
 20
1.0094902565
 30
0.0
 10
3.4704476945
 20
1.0085086936
 30
0.0
  0
LINE
  5
47E
100
AcDbEntity
  8
0
100
AcDbLine
 62
7
  6
CONTINUOUS
 10
3.4704476945
 20
1.0085086936
 11
3.4709860129
 21
1.0023361518
  0
SPLINE
  5
47F
100
AcDbEntity
  8
0
100
AcDbSpline
 62
7
  6
CONTINUOUS
 70
0
 71
3
 72
17
 73
13
 74
0
 42
0.0000001
 43
0.0000001
 44
0.0000000001
 40
0.0
 40
0.0
 40
0.0
 40
0.0
 40
0.0398295263
 40
0.0882687048
 40
0.2071732518
 40
0.3478678164
 40
0.4998795072
 40
0.6518976546
 40
0.7926193194
 40
0.9115923298
 40
0.9600902323
 40
1.0
 40
1.0
 40
1.0
 40
1.0
 10
3.4715279104
 20
0.9944916516
 30
0.0
 10
3.4718218386
 20
0.9898041852
 30
0.0
 10
3.4723828268
 20
0.9794103762
 30
0.0
 10
3.4734718867
 20
0.9550047895
 30
0.0
 10
3.4747646448
 20
0.9187035708
 30
0.0
 10
3.4762563767
 20
0.8701896456
 30
0.0
 10
3.4777532627
 20
0.8177693623
 30
0.0
 10
3.4792498365
 20
0.7653458743
 30
0.0
 10
3.4807406732
 20
0.7168198847
 30
0.0
 10
3.48203205
 20
0.6805004199
 30
0.0
 10
3.4831192672
 20
0.6560702677
 30
0.0
 10
3.4836792228
 20
0.6456599983
 30
0.0
 10
3.4839724441
 20
0.6409630072
 30
0.0
  0
SPLINE
  5
480
100
AcDbEntity
  8
0
100
AcDbSpline
 62
7
  6
CONTINUOUS
 70
0
 71
3
 72
13
 73
9
 74
0
 42
0.0000001
 43
0.0000001
 44
0.0000000001
 40
0.0
 40
0.0
 40
0.0
 40
0.0
 40
0.3689228357
 40
0.6601000641
 40
0.7755870266
 40
0.8707499757
 40
0.9455373442
 40
1.0
 40
1.0
 40
1.0
 40
1.0
 10
3.4839724441
 20
0.6409630072
 30
0.0
 10
3.4841364102
 20
0.6383365012
 30
0.0
 10
3.4844532311
 20
0.6336384608
 30
0.0
 10
3.4849129844
 20
0.6281245013
 30
0.0
 10
3.4852934688
 20
0.6245650344
 30
0.0
 10
3.4855538883
 20
0.6225452226
 30
0.0
 10
3.4858127359
 20
0.6209655425
 30
0.0
 10
3.4860116818
 20
0.6200635907
 30
0.0
 10
3.486122484
 20
0.6196912309
 30
0.0
  0
SPLINE
  5
481
100
AcDbEntity
  8
0
100
AcDbSpline
 62
7
  6
CONTINUOUS
 70
0
 71
3
 72
10
 73
6
 74
0
 42
0.0000001
 43
0.0000001
 44
0.0000000001
 40
0.0
 40
0.0
 40
0.0
 40
0.0
 40
0.3822933661
 40
0.6704288931
 40
1.0
 40
1.0
 40
1.0
 40
1.0
 10
3.486122484
 20
0.6196912309
 30
0.0
 10
3.4861626787
 20
0.6195561536
 30
0.0
 10
3.4862426289
 20
0.6193167406
 30
0.0
 10
3.4863842614
 20
0.6189957786
 30
0.0
 10
3.4865524736
 20
0.6187713967
 30
0.0
 10
3.4866739097
 20
0.6187676155
 30
0.0
  0
SPLINE
  5
482
100
AcDbEntity
  8
0
100
AcDbSpline
 62
7
  6
CONTINUOUS
 70
0
 71
3
 72
15
 73
11
 74
0
 42
0.0000001
 43
0.0000001
 44
0.0000000001
 40
0.0
 40
0.0
 40
0.0
 40
0.0
 40
0.0316794836
 40
0.0552108096
 40
0.0851962094
 40
0.1658914726
 40
0.275162868
 40
0.4132914449
 40
0.5802526519
 40
1.0
 40
1.0
 40
1.0
 40
1.0
 10
3.5687772212
 20
0.6350644568
 30
0.0
 10
3.568705244
 20
0.6350633348
 30
0.0
 10
3.5685883982
 20
0.6351481316
 30
0.0
 10
3.5684812419
 20
0.6353052659
 30
0.0
 10
3.568340642
 20
0.6355784975
 30
0.0
 10
3.5681790916
 20
0.6360521552
 30
0.0
 10
3.5679934618
 20
0.6367747512
 30
0.0
 10
3.5678073693
 20
0.6376980041
 30
0.0
 10
3.5675358272
 20
0.6393227199
 30
0.0
 10
3.5673654557
 20
0.640645433
 30
0.0
 10
3.5672536159
 20
0.6415926543
 30
0.0
  0
SPLINE
  5
483
100
AcDbEntity
  8
0
100
AcDbSpline
 62
7
  6
CONTINUOUS
 70
0
 71
3
 72
31
 73
27
 74
0
 42
0.0000001
 43
0.0000001
 44
0.0000000001
 40
0.0
 40
0.0
 40
0.0
 40
0.0
 40
0.0136392322
 40
0.030866315
 40
0.0757819814
 40
0.1336440607
 40
0.2023639794
 40
0.2797800204
 40
0.3637420675
 40
0.4516989195
 40
0.5408590115
 40
0.6284609214
 40
0.7118384556
 40
0.7885471397
 40
0.8236610146
 40
0.8562348395
 40
0.8859855991
 40
0.9126632399
 40
0.9361031504
 40
0.9561550833
 40
0.9726716806
 40
0.9855354446
 40
0.9905702598
 40
0.9946612845
 40
0.9978031376
 40
1.0
 40
1.0
 40
1.0
 40
1.0
 10
3.5672536159
 20
0.6415926543
 30
0.0
 10
3.5670624442
 20
0.6432117734
 30
0.0
 10
3.5667004084
 20
0.6468841455
 30
0.0
 10
3.5659871188
 20
0.6559148271
 30
0.0
 10
3.5651459561
 20
0.6702360667
 30
0.0
 10
3.5641865109
 20
0.690713584
 30
0.0
 10
3.5632168658
 20
0.7150794157
 30
0.0
 10
3.5622398651
 20
0.7425668505
 30
0.0
 10
3.5612611984
 20
0.772355067
 30
0.0
 10
3.5602812949
 20
0.8035477656
 30
0.0
 10
3.5593014855
 20
0.8351757684
 30
0.0
 10
3.5583217716
 20
0.8662561257
 30
0.0
 10
3.5573410993
 20
0.8958473036
 30
0.0
 10
3.5565046773
 20
0.9191656185
 30
0.0
 10
3.5558248773
 20
0.9364126722
 30
0.0
 10
3.5553307642
 20
0.9480495198
 30
0.0
 10
3.5548371421
 20
0.9586769802
 30
0.0
 10
3.5543434194
 20
0.9682113341
 30
0.0
 10
3.5538508669
 20
0.976584633
 30
0.0
 10
3.5533613155
 20
0.983741252
 30
0.0
 10
3.5528748397
 20
0.9896301467
 30
0.0
 10
3.5524496183
 20
0.9937228821
 30
0.0
 10
3.5520935299
 20
0.9963272239
 30
0.0
 10
3.5518511981
 20
0.9977742503
 30
0.0
 10
3.5516112594
 20
0.9988752006
 30
0.0
 10
3.551426106
 20
0.9994889582
 30
0.0
 10
3.551320894
 20
0.9997295621
 30
0.0
  0
SPLINE
  5
484
100
AcDbEntity
  8
0
100
AcDbSpline
 62
7
  6
CONTINUOUS
 70
0
 71
3
 72
15
 73
11
 74
0
 42
0.0000001
 43
0.0000001
 44
0.0000000001
 40
0.0
 40
0.0
 40
0.0
 40
0.0
 40
0.030044553
 40
0.0526901327
 40
0.0818859265
 40
0.1614870427
 40
0.27035219
 40
0.408738877
 40
0.5766001208
 40
1.0
 40
1.0
 40
1.0
 40
1.0
 10
3.5553724812
 20
1.0001861634
 30
0.0
 10
3.5554472194
 20
1.0001912708
 30
0.0
 10
3.555573288
 20
1.0001041175
 30
0.0
 10
3.5556849944
 20
0.9999377821
 30
0.0
 10
3.5558342009
 20
0.9996430559
 30
0.0
 10
3.5560038423
 20
0.9991267701
 30
0.0
 10
3.5561993351
 20
0.9983350596
 30
0.0
 10
3.556395087
 20
0.9973184134
 30
0.0
 10
3.5566813313
 20
0.995521596
 30
0.0
 10
3.5568603473
 20
0.9940577964
 30
0.0
 10
3.5569779491
 20
0.9930086705
 30
0.0
  0
SPLINE
  5
485
100
AcDbEntity
  8
0
100
AcDbSpline
 62
7
  6
CONTINUOUS
 70
0
 71
3
 72
29
 73
25
 74
0
 42
0.0000001
 43
0.0000001
 44
0.0000000001
 40
0.0
 40
0.0
 40
0.0
 40
0.0
 40
0.0140950548
 40
0.0317009984
 40
0.0769200201
 40
0.1344866195
 40
0.2026820636
 40
0.2793455176
 40
0.3622177866
 40
0.448949258
 40
0.5369737561
 40
0.6236506183
 40
0.706312827
 40
0.7825413531
 40
0.8502880221
 40
0.8803378292
 40
0.907487518
 40
0.9314773512
 40
0.9521364352
 40
0.9693874242
 40
0.9831594775
 40
0.9933843706
 40
0.9971459131
 40
1.0
 40
1.0
 40
1.0
 40
1.0
 10
3.5569779491
 20
0.9930086705
 30
0.0
 10
3.5571649953
 20
0.9913400309
 30
0.0
 10
3.557520819
 20
0.987579931
 30
0.0
 10
3.5582205065
 20
0.9784433087
 30
0.0
 10
3.5590521793
 20
0.964124688
 30
0.0
 10
3.560001465
 20
0.9437784456
 30
0.0
 10
3.5609555748
 20
0.9196829639
 30
0.0
 10
3.5619177742
 20
0.8925712645
 30
0.0
 10
3.5628829253
 20
0.8632502433
 30
0.0
 10
3.5638471854
 20
0.8325751202
 30
0.0
 10
3.5648116348
 20
0.801446557
 30
0.0
 10
3.5657760955
 20
0.7708029841
 30
0.0
 10
3.5667393501
 20
0.7415652885
 30
0.0
 10
3.5677010762
 20
0.7145839348
 30
0.0
 10
3.5685265395
 20
0.6938693096
 30
0.0
 10
3.5692008588
 20
0.679000186
 30
0.0
 10
3.5696849691
 20
0.6693404934
 30
0.0
 10
3.5701680516
 20
0.6608009458
 30
0.0
 10
3.5706504376
 20
0.6534427825
 30
0.0
 10
3.5711287079
 20
0.6473042691
 30
0.0
 10
3.5716038365
 20
0.6424136575
 30
0.0
 10
3.572018538
 20
0.6391312148
 30
0.0
 10
3.5723730258
 20
0.6371564345
 30
0.0
 10
3.5725529509
 20
0.6363880912
 30
0.0
 10
3.5726497776
 20
0.6360621737
 30
0.0
  0
LINE
  5
486
100
AcDbEntity
  8
0
100
AcDbLine
 62
7
  6
CONTINUOUS
 10
3.5726953424
 20
0.6359146413
 11
3.5729393576
 21
0.6353242776
  0
SPLINE
  5
487
100
AcDbEntity
  8
0
100
AcDbSpline
 62
7
  6
CONTINUOUS
 70
0
 71
3
 72
15
 73
11
 74
0
 42
0.0000001
 43
0.0000001
 44
0.0000000001
 40
0.0
 40
0.0
 40
0.0
 40
0.0
 40
0.0290797814
 40
0.0515749747
 40
0.0806237405
 40
0.1597450587
 40
0.2680300255
 40
0.406121734
 40
0.5743539437
 40
1.0
 40
1.0
 40
1.0
 40
1.0
 10
3.5330541827
 20
0.6362368559
 30
0.0
 10
3.5329704629
 20
0.6362372018
 30
0.0
 10
3.5328380656
 20
0.6363484803
 30
0.0
 10
3.5327195524
 20
0.6365418639
 30
0.0
 10
3.5325599911
 20
0.6368861555
 30
0.0
 10
3.5323779421
 20
0.6374822986
 30
0.0
 10
3.5321682012
 20
0.6383964568
 30
0.0
 10
3.5319582025
 20
0.6395716863
 30
0.0
 10
3.5316512613
 20
0.6416567975
 30
0.0
 10
3.5314597486
 20
0.6433562554
 30
0.0
 10
3.5313336718
 20
0.6445751845
 30
0.0
  0
SPLINE
  5
488
100
AcDbEntity
  8
0
100
AcDbSpline
 62
7
  6
CONTINUOUS
 70
0
 71
3
 72
27
 73
23
 74
0
 42
0.0000001
 43
0.0000001
 44
0.0000000001
 40
0.0
 40
0.0
 40
0.0
 40
0.0
 40
0.0149544378
 40
0.0332739507
 40
0.0793769801
 40
0.1370942071
 40
0.2050974866
 40
0.2813040698
 40
0.3633825092
 40
0.4490344581
 40
0.535913353
 40
0.6215414483
 40
0.7034344349
 40
0.7791425907
 40
0.8465508092
 40
0.9038711651
 40
0.9282198212
 40
0.9494243137
 40
0.9672906619
 40
0.9817085421
 40
0.9926249098
 40
1.0
 40
1.0
 40
1.0
 40
1.0
 10
3.5313336718
 20
0.6445751845
 30
0.0
 10
3.5311524026
 20
0.6463277214
 30
0.0
 10
3.5308055465
 20
0.6502329446
 30
0.0
 10
3.5301234369
 20
0.6595601488
 30
0.0
 10
3.5293078985
 20
0.67392792
 30
0.0
 10
3.5283712497
 20
0.6941500421
 30
0.0
 10
3.5274331614
 20
0.7179221409
 30
0.0
 10
3.5264890908
 20
0.7445660447
 30
0.0
 10
3.5255420021
 20
0.7732903722
 30
0.0
 10
3.5245930184
 20
0.8032726536
 30
0.0
 10
3.5236435569
 20
0.8336733346
 30
0.0
 10
3.5226949825
 20
0.8636309598
 30
0.0
 10
3.5217489709
 20
0.8922718847
 30
0.0
 10
3.5208036688
 20
0.9187650135
 30
0.0
 10
3.5198599146
 20
0.9423610511
 30
0.0
 10
3.5190444225
 20
0.9599062472
 30
0.0
 10
3.5183728366
 20
0.9720079171
 30
0.0
 10
3.5178991591
 20
0.9794649949
 30
0.0
 10
3.5174264463
 20
0.9857490248
 30
0.0
 10
3.5169597234
 20
0.9908184766
 30
0.0
 10
3.5164963483
 20
0.9946432195
 30
0.0
 10
3.5161413058
 20
0.9967730561
 30
0.0
 10
3.5159299158
 20
0.9976158611
 30
0.0
  0
LINE
  5
489
100
AcDbEntity
  8
0
100
AcDbLine
 62
7
  6
CONTINUOUS
 10
3.5159299158
 20
0.9976158611
 11
3.5155296459
 21
0.9987673726
  0
SPLINE
  5
48A
100
AcDbEntity
  8
0
100
AcDbSpline
 62
7
  6
CONTINUOUS
 70
0
 71
3
 72
14
 73
10
 74
0
 42
0.0000001
 43
0.0000001
 44
0.0000000001
 40
0.0
 40
0.0
 40
0.0
 40
0.0
 40
0.0279266173
 40
0.0503636937
 40
0.0795765079
 40
0.159428509
 40
0.2686332938
 40
0.5756109292
 40
1.0
 40
1.0
 40
1.0
 40
1.0
 10
3.5196807695
 20
0.9990469277
 30
0.0
 10
3.5197755816
 20
0.9990453953
 30
0.0
 10
3.5199206811
 20
0.9989046218
 30
0.0
 10
3.5200481128
 20
0.9986754174
 30
0.0
 10
3.5202234356
 20
0.998259802
 30
0.0
 10
3.5204226219
 20
0.9975466934
 30
0.0
 10
3.5207695867
 20
0.9958967939
 30
0.0
 10
3.5211671025
 20
0.993068999
 30
0.0
 10
3.5214311642
 20
0.990599619
 30
0.0
 10
3.5215696426
 20
0.9891652801
 30
0.0
  0
SPLINE
  5
48B
100
AcDbEntity
  8
0
100
AcDbSpline
 62
7
  6
CONTINUOUS
 70
0
 71
3
 72
28
 73
24
 74
0
 42
0.0000001
 43
0.0000001
 44
0.0000000001
 40
0.0
 40
0.0
 40
0.0
 40
0.0
 40
0.0354218179
 40
0.0838984759
 40
0.1438428689
 40
0.213536905
 40
0.2911485301
 40
0.3744341773
 40
0.4609116878
 40
0.5480735763
 40
0.6334438117
 40
0.7146851094
 40
0.7894781959
 40
0.8554811685
 40
0.884547358
 40
0.9107713504
 40
0.9340043977
 40
0.9540964356
 40
0.9708891547
 40
0.9842238386
 40
0.9939486001
 40
0.9974282637
 40
1.0
 40
1.0
 40
1.0
 40
1.0
 10
3.5215696426
 20
0.9891652801
 30
0.0
 10
3.5219697007
 20
0.9850215368
 30
0.0
 10
3.5226740374
 20
0.9751844076
 30
0.0
 10
3.5235984309
 20
0.9583045549
 30
0.0
 10
3.5245345344
 20
0.9373917703
 30
0.0
 10
3.5254807381
 20
0.9130527342
 30
0.0
 10
3.5264272437
 20
0.8859685563
 30
0.0
 10
3.5273752603
 20
0.8569108648
 30
0.0
 10
3.5283256367
 20
0.826730261
 30
0.0
 10
3.5292764926
 20
0.7963045615
 30
0.0
 10
3.5302265691
 20
0.7664945344
 30
0.0
 10
3.5311744732
 20
0.7381388542
 30
0.0
 10
3.5321187672
 20
0.7120605848
 30
0.0
 10
3.5329317639
 20
0.6921136439
 30
0.0
 10
3.5335980098
 20
0.6778739841
 30
0.0
 10
3.5340753761
 20
0.6686577235
 30
0.0
 10
3.5345511932
 20
0.6604975973
 30
0.0
 10
3.5350251943
 20
0.6534480454
 30
0.0
 10
3.5354943785
 20
0.647564085
 30
0.0
 10
3.5359601554
 20
0.642903871
 30
0.0
 10
3.5363658144
 20
0.6398090184
 30
0.0
 10
3.5367176788
 20
0.6379884222
 30
0.0
 10
3.5368959865
 20
0.6372984792
 30
0.0
 10
3.5369929717
 20
0.6370122143
 30
0.0
  0
LINE
  5
48C
100
AcDbEntity
  8
0
100
AcDbLine
 62
7
  6
CONTINUOUS
 10
3.5369929717
 20
0.6370122143
 11
3.5372106552
 21
0.636503066
  0
SPLINE
  5
48D
100
AcDbEntity
  8
0
100
AcDbSpline
 62
7
  6
CONTINUOUS
 70
0
 71
3
 72
15
 73
11
 74
0
 42
0.0000001
 43
0.0000001
 44
0.0000000001
 40
0.0
 40
0.0
 40
0.0
 40
0.0
 40
0.0264088668
 40
0.0485169351
 40
0.0775830131
 40
0.157452581
 40
0.266832827
 40
0.4058470079
 40
0.5744592372
 40
1.0
 40
1.0
 40
1.0
 40
1.0
 10
3.4973781491
 20
0.63733358
 30
0.0
 10
3.4972701197
 20
0.6373341741
 30
0.0
 10
3.4971087422
 20
0.6375114057
 30
0.0
 10
3.4969708165
 20
0.6377839097
 30
0.0
 10
3.4967759423
 20
0.6382903518
 30
0.0
 10
3.4965563196
 20
0.639153825
 30
0.0
 10
3.4963011401
 20
0.6404740619
 30
0.0
 10
3.4960459974
 20
0.6421605164
 30
0.0
 10
3.4956723296
 20
0.6451367533
 30
0.0
 10
3.4954387926
 20
0.6475563925
 30
0.0
 10
3.4952854219
 20
0.649290387
 30
0.0
  0
SPLINE
  5
48E
100
AcDbEntity
  8
0
100
AcDbSpline
 62
7
  6
CONTINUOUS
 70
0
 71
3
 72
29
 73
25
 74
0
 42
0.0000001
 43
0.0000001
 44
0.0000000001
 40
0.0
 40
0.0
 40
0.0
 40
0.0
 40
0.0379776776
 40
0.0887625375
 40
0.1505942633
 40
0.2216987595
 40
0.3003092403
 40
0.384208069
 40
0.4708949787
 40
0.5578863408
 40
0.6427395995
 40
0.7231470445
 40
0.7968444188
 40
0.8615944043
 40
0.889984573
 40
0.9154914529
 40
0.9379622807
 40
0.957247045
 40
0.9732098716
 40
0.9857227529
 40
0.9906477101
 40
0.9946670359
 40
0.9977790592
 40
1.0
 40
1.0
 40
1.0
 40
1.0
 10
3.4952854219
 20
0.649290387
 30
0.0
 10
3.4948966292
 20
0.6536860376
 30
0.0
 10
3.4941988914
 20
0.6639776668
 30
0.0
 10
3.4932797889
 20
0.681451702
 30
0.0
 10
3.4923486243
 20
0.7027791552
 30
0.0
 10
3.4914087435
 20
0.7273418402
 30
0.0
 10
3.4904676313
 20
0.7544702991
 30
0.0
 10
3.4895249319
 20
0.7834102763
 30
0.0
 10
3.4885809495
 20
0.8133245256
 30
0.0
 10
3.4876364655
 20
0.843349712
 30
0.0
 10
3.4866910791
 20
0.8726448629
 30
0.0
 10
3.4857477748
 20
0.900394566
 30
0.0
 10
3.4848089588
 20
0.9258070731
 30
0.0
 10
3.483999969
 20
0.94517602
 30
0.0
 10
3.4833356117
 20
0.9589462273
 30
0.0
 10
3.4828603552
 20
0.9678071091
 30
0.0
 10
3.4823866033
 20
0.9756083534
 30
0.0
 10
3.4819156772
 20
0.9822985954
 30
0.0
 10
3.4814476844
 20
0.9878284295
 30
0.0
 10
3.4810388289
 20
0.9916886702
 30
0.0
 10
3.4806967502
 20
0.9941584016
 30
0.0
 10
3.4804629603
 20
0.9955402505
 30
0.0
 10
3.4802310002
 20
0.9966017605
 30
0.0
 10
3.4800525011
 20
0.9971975266
 30
0.0
 10
3.4799531328
 20
0.9974356902
 30
0.0
  0
SPLINE
  5
48F
100
AcDbEntity
  8
0
100
AcDbSpline
 62
7
  6
CONTINUOUS
 70
0
 71
3
 72
14
 73
10
 74
0
 42
0.0000001
 43
0.0000001
 44
0.0000000001
 40
0.0
 40
0.0
 40
0.0
 40
0.0
 40
0.0310549606
 40
0.05431853
 40
0.0839911276
 40
0.163966312
 40
0.2725912966
 40
0.5777750797
 40
1.0
 40
1.0
 40
1.0
 40
1.0
 10
3.483992191
 20
0.9979515357
 30
0.0
 10
3.4840694352
 20
0.9979492342
 30
0.0
 10
3.4841907678
 20
0.9978530935
 30
0.0
 10
3.4843032515
 20
0.9976814964
 30
0.0
 10
3.4844509421
 20
0.997382736
 30
0.0
 10
3.4846209905
 20
0.9968663196
 30
0.0
 10
3.4849149667
 20
0.9956723149
 30
0.0
 10
3.4852517958
 20
0.9936172773
 30
0.0
 10
3.4854746941
 20
0.991821038
 30
0.0
 10
3.4855918663
 20
0.9907769091
 30
0.0
  0
SPLINE
  5
490
100
AcDbEntity
  8
0
100
AcDbSpline
 62
7
  6
CONTINUOUS
 70
0
 71
3
 72
29
 73
25
 74
0
 42
0.0000001
 43
0.0000001
 44
0.0000000001
 40
0.0
 40
0.0
 40
0.0
 40
0.0
 40
0.0142046609
 40
0.0318918602
 40
0.0771535826
 40
0.1345553843
 40
0.2026276643
 40
0.2791998396
 40
0.3619200777
 40
0.4484105471
 40
0.5362076844
 40
0.6227290114
 40
0.7053648437
 40
0.7815470573
 40
0.8492082155
 40
0.8792768972
 40
0.9065259451
 40
0.9307165501
 40
0.9516109374
 40
0.9690310885
 40
0.9829224746
 40
0.9932507427
 40
0.9970724159
 40
1.0
 40
1.0
 40
1.0
 40
1.0
 10
3.4855918663
 20
0.9907769091
 30
0.0
 10
3.4857781533
 20
0.9891168933
 30
0.0
 10
3.4861322586
 20
0.9853827656
 30
0.0
 10
3.4868285429
 20
0.9763362592
 30
0.0
 10
3.4876568161
 20
0.962206613
 30
0.0
 10
3.4886069906
 20
0.942150914
 30
0.0
 10
3.4895579889
 20
0.9184095822
 30
0.0
 10
3.4905161497
 20
0.8916891702
 30
0.0
 10
3.4914782322
 20
0.8628016563
 30
0.0
 10
3.4924413198
 20
0.8325934688
 30
0.0
 10
3.4934033408
 20
0.8019380256
 30
0.0
 10
3.4943648725
 20
0.7717360884
 30
0.0
 10
3.4953242469
 20
0.7429006712
 30
0.0
 10
3.4962832189
 20
0.716284466
 30
0.0
 10
3.4971076522
 20
0.6958493028
 30
0.0
 10
3.4977798826
 20
0.6811674111
 30
0.0
 10
3.4982629728
 20
0.6715943609
 30
0.0
 10
3.4987443437
 20
0.6631015793
 30
0.0
 10
3.4992240747
 20
0.655766725
 30
0.0
 10
3.4997013828
 20
0.6496455994
 30
0.0
 10
3.5001756817
 20
0.6447719026
 30
0.0
 10
3.5005904127
 20
0.641498794
 30
0.0
 10
3.500943824
 20
0.6395216271
 30
0.0
 10
3.5011230025
 20
0.6387474765
 30
0.0
 10
3.5012187775
 20
0.6384167895
 30
0.0
  0
LINE
  5
491
100
AcDbEntity
  8
0
100
AcDbLine
 62
7
  6
CONTINUOUS
 10
3.5012669208
 20
0.6382568984
 11
3.5015297702
 21
0.6376081834
  0
SPLINE
  5
492
100
AcDbEntity
  8
0
100
AcDbSpline
 62
7
  6
CONTINUOUS
 70
0
 71
3
 72
15
 73
11
 74
0
 42
0.0000001
 43
0.0000001
 44
0.0000000001
 40
0.0
 40
0.0
 40
0.0
 40
0.0
 40
0.0302575664
 40
0.0533676114
 40
0.0830149192
 40
0.1632198235
 40
0.2722457187
 40
0.4104226525
 40
0.577814038
 40
1.0
 40
1.0
 40
1.0
 40
1.0
 10
3.4616639109
 20
0.6384606731
 30
0.0
 10
3.4615815269
 20
0.6384629403
 30
0.0
 10
3.4614529941
 20
0.6385709024
 30
0.0
 10
3.4613356107
 20
0.638758542
 30
0.0
 10
3.4611794958
 20
0.6390886482
 30
0.0
 10
3.4610005178
 20
0.6396575896
 30
0.0
 10
3.4607945749
 20
0.6405260294
 30
0.0
 10
3.4605881051
 20
0.64163646
 30
0.0
 10
3.4602863219
 20
0.6435958356
 30
0.0
 10
3.4600975314
 20
0.6451910432
 30
0.0
 10
3.4599736381
 20
0.6463342945
 30
0.0
  0
LINE
  5
493
100
AcDbEntity
  8
0
100
AcDbLine
 62
7
  6
CONTINUOUS
 10
3.4599736381
 20
0.6463342945
 11
3.4593939391
 21
0.6525749849
  0
LINE
  5
494
100
AcDbEntity
  8
0
100
AcDbLine
 62
7
  6
CONTINUOUS
 10
3.4593939391
 20
0.6525749849
 11
3.4582354248
 21
0.6701908698
  0
SPLINE
  5
495
100
AcDbEntity
  8
0
100
AcDbSpline
 62
7
  6
CONTINUOUS
 70
0
 71
3
 72
9
 73
5
 74
0
 42
0.0000001
 43
0.0000001
 44
0.0000000001
 40
0.0
 40
0.0
 40
0.0
 40
0.0
 40
0.4513571121
 40
1.0
 40
1.0
 40
1.0
 40
1.0
 10
3.4582354248
 20
0.6701908698
 30
0.0
 10
3.4577931982
 20
0.6781386355
 30
0.0
 10
3.4569613688
 20
0.6957553387
 30
0.0
 10
3.456264081
 20
0.7133774115
 30
0.0
 10
3.4559030008
 20
0.7230464469
 30
0.0
  0
SPLINE
  5
496
100
AcDbEntity
  8
0
100
AcDbSpline
 62
7
  6
CONTINUOUS
 70
0
 71
3
 72
12
 73
8
 74
0
 42
0.0000001
 43
0.0000001
 44
0.0000000001
 40
0.0
 40
0.0
 40
0.0
 40
0.0
 40
0.0545384686
 40
0.1287345849
 40
0.3377296627
 40
0.6282131568
 40
1.0
 40
1.0
 40
1.0
 40
1.0
 10
3.4658125
 20
0.6387456317
 30
0.0
 10
3.4657434226
 20
0.6388681206
 30
0.0
 10
3.4656156603
 20
0.6391763737
 30
0.0
 10
3.4653643228
 20
0.6400103017
 30
0.0
 10
3.4650736085
 20
0.6414633848
 30
0.0
 10
3.4647407664
 20
0.6436847601
 30
0.0
 10
3.4645419196
 20
0.645381243
 30
0.0
 10
3.4644386381
 20
0.6463342945
 30
0.0
  0
LINE
  5
497
100
AcDbEntity
  8
0
100
AcDbLine
 62
7
  6
CONTINUOUS
 10
3.4644386381
 20
0.6463342945
 11
3.4638589391
 21
0.6525749849
  0
LINE
  5
498
100
AcDbEntity
  8
0
100
AcDbLine
 62
7
  6
CONTINUOUS
 10
3.4638589391
 20
0.6525749849
 11
3.4627004248
 21
0.6701908699
  0
SPLINE
  5
499
100
AcDbEntity
  8
0
100
AcDbSpline
 62
7
  6
CONTINUOUS
 70
0
 71
3
 72
9
 73
5
 74
0
 42
0.0000001
 43
0.0000001
 44
0.0000000001
 40
0.0
 40
0.0
 40
0.0
 40
0.0
 40
0.4513571121
 40
1.0
 40
1.0
 40
1.0
 40
1.0
 10
3.4627004248
 20
0.6701908699
 30
0.0
 10
3.4622581982
 20
0.6781386355
 30
0.0
 10
3.4614263688
 20
0.6957553387
 30
0.0
 10
3.460729081
 20
0.7133774115
 30
0.0
 10
3.4603680008
 20
0.7230464469
 30
0.0
  0
LINE
  5
49A
100
AcDbEntity
  8
0
100
AcDbLine
 62
7
  6
CONTINUOUS
 10
3.4591884678
 20
0.756485089
 11
3.4538832595
 21
0.9166858158
  0
LINE
  5
49B
100
AcDbEntity
  8
0
100
AcDbLine
 62
7
  6
CONTINUOUS
 10
3.4538832595
 20
0.9166858158
 11
3.4522360801
 21
0.9551882958
  0
SPLINE
  5
49C
100
AcDbEntity
  8
0
100
AcDbSpline
 62
7
  6
CONTINUOUS
 70
0
 71
3
 72
12
 73
8
 74
0
 42
0.0000001
 43
0.0000001
 44
0.0000000001
 40
0.0
 40
0.0
 40
0.0
 40
0.0
 40
0.0526345518
 40
0.1254779599
 40
0.3333842182
 40
0.6249436376
 40
1.0
 40
1.0
 40
1.0
 40
1.0
 10
3.4770006127
 20
0.6193189547
 30
0.0
 10
3.47693212
 20
0.6194410894
 30
0.0
 10
3.4768071252
 20
0.6197527315
 30
0.0
 10
3.4765614336
 20
0.6206049833
 30
0.0
 10
3.4762794466
 20
0.622104078
 30
0.0
 10
3.4759562915
 20
0.6244076405
 30
0.0
 10
3.4757637507
 20
0.6261711127
 30
0.0
 10
3.4756635167
 20
0.6271638659
 30
0.0
  0
LINE
  5
49D
100
AcDbEntity
  8
0
100
AcDbLine
 62
7
  6
CONTINUOUS
 10
3.4756635167
 20
0.6271638659
 11
3.4745824549
 21
0.641236791
  0
SPLINE
  5
49E
100
AcDbEntity
  8
0
100
AcDbSpline
 62
7
  6
CONTINUOUS
 70
0
 71
3
 72
16
 73
12
 74
0
 42
0.0000001
 43
0.0000001
 44
0.0000000001
 40
0.0
 40
0.0
 40
0.0
 40
0.0
 40
0.0377085772
 40
0.0826727438
 40
0.191686309
 40
0.3209294209
 40
0.463137887
 40
0.6103037801
 40
0.7541322104
 40
0.8865177093
 40
1.0
 40
1.0
 40
1.0
 40
1.0
 10
3.4745824549
 20
0.641236791
 30
0.0
 10
3.4743318536
 20
0.6452570937
 30
0.0
 10
3.473848382
 20
0.6540753467
 30
0.0
 10
3.4729024005
 20
0.6745299118
 30
0.0
 10
3.4717704156
 20
0.7047633945
 30
0.0
 10
3.4704647511
 20
0.7453844728
 30
0.0
 10
3.4691531791
 20
0.790082837
 30
0.0
 10
3.4678383232
 20
0.8363397244
 30
0.0
 10
3.466524885
 20
0.8815469597
 30
0.0
 10
3.465217576
 20
0.9231545672
 30
0.0
 10
3.4642673421
 20
0.9494017652
 30
0.0
 10
3.4637638412
 20
0.9615137094
 30
0.0
  0
SPLINE
  5
49F
100
AcDbEntity
  8
0
100
AcDbSpline
 62
7
  6
CONTINUOUS
 70
0
 71
3
 72
13
 73
9
 74
0
 42
0.0000001
 43
0.0000001
 44
0.0000000001
 40
0.0
 40
0.0
 40
0.0
 40
0.0
 40
0.3695983883
 40
0.6610041191
 40
0.7764452695
 40
0.8714515807
 40
0.9459601318
 40
1.0
 40
1.0
 40
1.0
 40
1.0
 10
3.462143129
 20
0.9942456675
 30
0.0
 10
3.4619803045
 20
0.996855206
 30
0.0
 10
3.4616653052
 20
1.0015207015
 30
0.0
 10
3.4612026933
 20
1.0069946751
 30
0.0
 10
3.4608120562
 20
1.0105234561
 30
0.0
 10
3.4605438542
 20
1.0125218215
 30
0.0
 10
3.4602788851
 20
1.014080916
 30
0.0
 10
3.4600777763
 20
1.0149693989
 30
0.0
 10
3.4599672069
 20
1.0153353487
 30
0.0
  0
LINE
  5
4A0
100
AcDbEntity
  8
0
100
AcDbLine
 62
7
  6
CONTINUOUS
 10
3.4599672069
 20
1.0153353487
 11
3.4595856486
 21
1.0161536152
  0
SPLINE
  5
4A1
100
AcDbEntity
  8
0
100
AcDbSpline
 62
7
  6
CONTINUOUS
 70
0
 71
3
 72
13
 73
9
 74
0
 42
0.0000001
 43
0.0000001
 44
0.0000000001
 40
0.0
 40
0.0
 40
0.0
 40
0.0
 40
0.4157354693
 40
0.5812711717
 40
0.7185608569
 40
0.8277922276
 40
0.9095761367
 40
1.0
 40
1.0
 40
1.0
 40
1.0
 10
5.2511947726
 20
0.6463012884
 30
0.0
 10
5.2510997925
 20
0.6456445128
 30
0.0
 10
5.2509551275
 20
0.6447282767
 30
0.0
 10
5.2507232185
 20
0.6436031038
 30
0.0
 10
5.2505657621
 20
0.6429678026
 30
0.0
 10
5.2504033542
 20
0.6424591461
 30
0.0
 10
5.2502382347
 20
0.6420687019
 30
0.0
 10
5.2500406703
 20
0.6417842125
 30
0.0
 10
5.2498963336
 20
0.6417844973
 30
0.0
  0
SPLINE
  5
4A2
100
AcDbEntity
  8
0
100
AcDbSpline
 62
7
  6
CONTINUOUS
 70
0
 71
3
 72
11
 73
7
 74
0
 42
0.0000001
 43
0.0000001
 44
0.0000000001
 40
0.0
 40
0.0
 40
0.0
 40
0.0
 40
0.3642115447
 40
0.65177191
 40
0.8631254945
 40
1.0
 40
1.0
 40
1.0
 40
1.0
 10
5.2355695919
 20
0.627399957
 30
0.0
 10
5.2354904884
 20
0.6268114407
 30
0.0
 10
5.2353422317
 20
0.6257595201
 30
0.0
 10
5.2351036976
 20
0.6243708544
 30
0.0
 10
5.2348634955
 20
0.623364447
 30
0.0
 10
5.2346730505
 20
0.6228225966
 30
0.0
 10
5.2345586153
 20
0.6226310117
 30
0.0
  0
SPLINE
  5
4A3
100
AcDbEntity
  8
0
100
AcDbSpline
 62
7
  6
CONTINUOUS
 70
0
 71
3
 72
14
 73
10
 74
0
 42
0.0000001
 43
0.0000001
 44
0.0000000001
 40
0.0
 40
0.0
 40
0.0
 40
0.0
 40
0.0285218298
 40
0.0512875194
 40
0.0807900522
 40
0.1610266408
 40
0.2702883684
 40
0.5766356993
 40
1.0
 40
1.0
 40
1.0
 40
1.0
 10
5.2248986051
 20
0.622102477
 30
0.0
 10
5.2249769711
 20
0.6221049171
 30
0.0
 10
5.2250959263
 20
0.6222198878
 30
0.0
 10
5.2252037062
 20
0.6224068492
 30
0.0
 10
5.2253515156
 20
0.6227437016
 30
0.0
 10
5.2255224042
 20
0.6233203992
 30
0.0
 10
5.2258220601
 20
0.6246515178
 30
0.0
 10
5.2261703184
 20
0.6269327009
 30
0.0
 10
5.2264009245
 20
0.6289254493
 30
0.0
 10
5.2265213412
 20
0.6300829943
 30
0.0
  0
LINE
  5
4A4
100
AcDbEntity
  8
0
100
AcDbLine
 62
7
  6
CONTINUOUS
 10
5.2265213412
 20
0.6300829943
 11
5.2276050935
 21
0.6439408428
  0
SPLINE
  5
4A5
100
AcDbEntity
  8
0
100
AcDbSpline
 62
7
  6
CONTINUOUS
 70
0
 71
3
 72
17
 73
13
 74
0
 42
0.0000001
 43
0.0000001
 44
0.0000000001
 40
0.0
 40
0.0
 40
0.0
 40
0.0
 40
0.0450285984
 40
0.097571273
 40
0.2215646084
 40
0.3635605643
 40
0.5139023901
 40
0.6623568126
 40
0.7988129892
 40
0.9139742501
 40
0.961052874
 40
1.0
 40
1.0
 40
1.0
 40
1.0
 10
5.228143616
 20
0.6532644193
 30
0.0
 10
5.2284147655
 20
0.6583378201
 30
0.0
 10
5.2289416066
 20
0.6693344738
 30
0.0
 10
5.229975384
 20
0.6943126333
 30
0.0
 10
5.2312119869
 20
0.730232098
 30
0.0
 10
5.2326446896
 20
0.7771854723
 30
0.0
 10
5.2340817556
 20
0.8268999311
 30
0.0
 10
5.2355177285
 20
0.875989128
 30
0.0
 10
5.2369475028
 20
0.9211071425
 30
0.0
 10
5.2381881761
 20
0.9547871424
 30
0.0
 10
5.2392311491
 20
0.9774635122
 30
0.0
 10
5.2397644748
 20
0.9871555632
 30
0.0
 10
5.2400430465
 20
0.991541185
 30
0.0
  0
LINE
  5
4A6
100
AcDbEntity
  8
0
100
AcDbLine
 62
7
  6
CONTINUOUS
 10
5.2400430465
 20
0.991541185
 11
5.2411256579
 21
1.0053171195
  0
SPLINE
  5
4A7
100
AcDbEntity
  8
0
100
AcDbSpline
 62
7
  6
CONTINUOUS
 70
0
 71
3
 72
12
 73
8
 74
0
 42
0.0000001
 43
0.0000001
 44
0.0000000001
 40
0.0
 40
0.0
 40
0.0
 40
0.0
 40
0.3746546579
 40
0.6660760732
 40
0.8741165298
 40
0.9471305455
 40
1.0
 40
1.0
 40
1.0
 40
1.0
 10
5.2411256579
 20
1.0053171195
 30
0.0
 10
5.2412256965
 20
1.0062794908
 30
0.0
 10
5.2414182485
 20
1.00798933
 30
0.0
 10
5.2417414412
 20
1.010223087
 30
0.0
 10
5.242022897
 20
1.0116772856
 30
0.0
 10
5.2422664664
 20
1.0125045906
 30
0.0
 10
5.2423898735
 20
1.0128073779
 30
0.0
 10
5.242457161
 20
1.0129261833
 30
0.0
  0
SPLINE
  5
4A8
100
AcDbEntity
  8
0
100
AcDbSpline
 62
7
  6
CONTINUOUS
 70
0
 71
3
 72
15
 73
11
 74
0
 42
0.0000001
 43
0.0000001
 44
0.0000000001
 40
0.0
 40
0.0
 40
0.0
 40
0.0
 40
0.0290325909
 40
0.0515727236
 40
0.0807642615
 40
0.1603771565
 40
0.2691951764
 40
0.4075477688
 40
0.5755020165
 40
1.0
 40
1.0
 40
1.0
 40
1.0
 10
5.2521362429
 20
1.0128879114
 30
0.0
 10
5.2520542198
 20
1.0128904654
 30
0.0
 10
5.2519213514
 20
1.0127820527
 30
0.0
 10
5.2518061522
 20
1.0125912898
 30
0.0
 10
5.2516503914
 20
1.0122506134
 30
0.0
 10
5.2514750871
 20
1.0116608582
 30
0.0
 10
5.2512738597
 20
1.0107585779
 30
0.0
 10
5.251073556
 20
1.0096022432
 30
0.0
 10
5.2507811366
 20
1.0075571456
 30
0.0
 10
5.250598749
 20
1.0058920865
 30
0.0
 10
5.2504785578
 20
1.0046982461
 30
0.0
  0
LINE
  5
4A9
100
AcDbEntity
  8
0
100
AcDbLine
 62
7
  6
CONTINUOUS
 10
5.2504785578
 20
1.0046982461
 11
5.2493757329
 21
0.9903716844
  0
SPLINE
  5
4AA
100
AcDbEntity
  8
0
100
AcDbSpline
 62
7
  6
CONTINUOUS
 70
0
 71
3
 72
17
 73
13
 74
0
 42
0.0000001
 43
0.0000001
 44
0.0000000001
 40
0.0
 40
0.0
 40
0.0
 40
0.0
 40
0.0399760727
 40
0.088239737
 40
0.2060085254
 40
0.344950836
 40
0.4952034067
 40
0.6461032467
 40
0.7869504045
 40
0.907762337
 40
0.957899508
 40
1.0
 40
1.0
 40
1.0
 40
1.0
 10
5.2493757329
 20
0.9903716844
 30
0.0
 10
5.2490902821
 20
0.985816162
 30
0.0
 10
5.2485434701
 20
0.9757555121
 30
0.0
 10
5.247480872
 20
0.9522573984
 30
0.0
 10
5.2462168794
 20
0.9174578993
 30
0.0
 10
5.2447576923
 20
0.8710138405
 30
0.0
 10
5.2432935728
 20
0.820785251
 30
0.0
 10
5.2418292559
 20
0.7703390971
 30
0.0
 10
5.2403704124
 20
0.7232558368
 30
0.0
 10
5.2391055881
 20
0.6876770827
 30
0.0
 10
5.2380526226
 20
0.6633738458
 30
0.0
 10
5.2375104507
 20
0.6528558572
 30
0.0
 10
5.2372254713
 20
0.6480572895
 30
0.0
  0
LINE
  5
4AB
100
AcDbEntity
  8
0
100
AcDbLine
 62
7
  6
CONTINUOUS
 10
5.2372254713
 20
0.6480572895
 11
5.2361097951
 21
0.6325658886
  0
LINE
  5
4AC
100
AcDbEntity
  8
0
100
AcDbLine
 62
7
  6
CONTINUOUS
 10
5.2361097951
 20
0.6325658886
 11
5.2355695919
 21
0.627399957
  0
SPLINE
  5
4AD
100
AcDbEntity
  8
0
100
AcDbSpline
 62
7
  6
CONTINUOUS
 70
0
 71
3
 72
15
 73
11
 74
0
 42
0.0000001
 43
0.0000001
 44
0.0000000001
 40
0.0
 40
0.0
 40
0.0
 40
0.0
 40
0.0288777742
 40
0.0514093985
 40
0.0806085722
 40
0.160251838
 40
0.2690995647
 40
0.4074762059
 40
0.5754510405
 40
1.0
 40
1.0
 40
1.0
 40
1.0
 10
5.2164362738
 20
1.013999531
 30
0.0
 10
5.216357499
 20
1.0140019838
 30
0.0
 10
5.2162301245
 20
1.0138968296
 30
0.0
 10
5.2161189408
 20
1.0137133082
 30
0.0
 10
5.2159677556
 20
1.0133845685
 30
0.0
 10
5.2157963636
 20
1.0128156732
 30
0.0
 10
5.2155985975
 20
1.0119449844
 30
0.0
 10
5.2154008816
 20
1.010829051
 30
0.0
 10
5.2151116094
 20
1.0088551395
 30
0.0
 10
5.2149310907
 20
1.0072477176
 30
0.0
 10
5.2148124895
 20
1.0060951289
 30
0.0
  0
LINE
  5
4AE
100
AcDbEntity
  8
0
100
AcDbLine
 62
7
  6
CONTINUOUS
 10
5.2148124895
 20
1.0060951289
 11
5.2137308717
 21
0.9922559713
  0
SPLINE
  5
4AF
100
AcDbEntity
  8
0
100
AcDbSpline
 62
7
  6
CONTINUOUS
 70
0
 71
3
 72
19
 73
15
 74
0
 42
0.0000001
 43
0.0000001
 44
0.0000000001
 40
0.0
 40
0.0
 40
0.0
 40
0.0
 40
0.0474707851
 40
0.103466276
 40
0.2363829893
 40
0.3879832264
 40
0.5459864137
 40
0.6976010142
 40
0.7671266539
 40
0.830564194
 40
0.8866037601
 40
0.9341387541
 40
0.9721798515
 40
1.0
 40
1.0
 40
1.0
 40
1.0
 10
5.2131893886
 20
0.9829308108
 30
0.0
 10
5.2128893722
 20
0.9773388685
 30
0.0
 10
5.2123118236
 20
0.9651467197
 30
0.0
 10
5.2111849779
 20
0.9372840166
 30
0.0
 10
5.2098409778
 20
0.8971369259
 30
0.0
 10
5.2082857579
 20
0.8449573685
 30
0.0
 10
5.2067272143
 20
0.7905712017
 30
0.0
 10
5.205398137
 20
0.7458644892
 30
0.0
 10
5.2042982367
 20
0.7123117081
 30
0.0
 10
5.2035002358
 20
0.6900298383
 30
0.0
 10
5.2027057324
 20
0.6703439314
 30
0.0
 10
5.201918337
 20
0.6536561173
 30
0.0
 10
5.2011324584
 20
0.6403022788
 30
0.0
 10
5.2005384105
 20
0.6325540086
 30
0.0
 10
5.2002081821
 20
0.6292888064
 30
0.0
  0
SPLINE
  5
4B0
100
AcDbEntity
  8
0
100
AcDbSpline
 62
7
  6
CONTINUOUS
 70
0
 71
3
 72
12
 73
8
 74
0
 42
0.0000001
 43
0.0000001
 44
0.0000000001
 40
0.0
 40
0.0
 40
0.0
 40
0.0
 40
0.373482967
 40
0.6644671381
 40
0.8728595001
 40
0.9463771141
 40
1.0
 40
1.0
 40
1.0
 40
1.0
 10
5.2002081821
 20
0.6292888064
 30
0.0
 10
5.2001096288
 20
0.6283143392
 30
0.0
 10
5.199920785
 20
0.6265816113
 30
0.0
 10
5.1996043897
 20
0.6243150047
 30
0.0
 10
5.1993267223
 20
0.6228356895
 30
0.0
 10
5.1990827292
 20
0.6219901859
 30
0.0
 10
5.198957576
 20
0.6216791004
 30
0.0
 10
5.1988890206
 20
0.6215563201
 30
0.0
  0
SPLINE
  5
4B1
100
AcDbEntity
  8
0
100
AcDbSpline
 62
7
  6
CONTINUOUS
 70
0
 71
3
 72
15
 73
11
 74
0
 42
0.0000001
 43
0.0000001
 44
0.0000000001
 40
0.0
 40
0.0
 40
0.0
 40
0.0
 40
0.0298281839
 40
0.0528367383
 40
0.0824386926
 40
0.1626297984
 40
0.2716747701
 40
0.4099048419
 40
0.5773969408
 40
1.0
 40
1.0
 40
1.0
 40
1.0
 10
5.1891985839
 20
0.6209908558
 30
0.0
 10
5.1892811037
 20
0.6209934253
 30
0.0
 10
5.1894086396
 20
0.6211056265
 30
0.0
 10
5.1895227723
 20
0.6212971588
 30
0.0
 10
5.1896748235
 20
0.6216353037
 30
0.0
 10
5.1898469512
 20
0.6222161028
 30
0.0
 10
5.1900437794
 20
0.6231016472
 30
0.0
 10
5.1902397379
 20
0.6242329623
 30
0.0
 10
5.1905253084
 20
0.6262287521
 30
0.0
 10
5.1907037234
 20
0.6278526609
 30
0.0
 10
5.1908213237
 20
0.6290164344
 30
0.0
  0
LINE
  5
4B2
100
AcDbEntity
  8
0
100
AcDbLine
 62
7
  6
CONTINUOUS
 10
5.1908213237
 20
0.6290164344
 11
5.1919007367
 21
0.6429526176
  0
SPLINE
  5
4B3
100
AcDbEntity
  8
0
100
AcDbSpline
 62
7
  6
CONTINUOUS
 70
0
 71
3
 72
17
 73
13
 74
0
 42
0.0000001
 43
0.0000001
 44
0.0000000001
 40
0.0
 40
0.0
 40
0.0
 40
0.0
 40
0.0450283489
 40
0.0975702792
 40
0.2215631225
 40
0.3635591383
 40
0.5139012254
 40
0.6623560484
 40
0.798812639
 40
0.9139742396
 40
0.9610529457
 40
1.0
 40
1.0
 40
1.0
 40
1.0
 10
5.1924435896
 20
0.6523291043
 30
0.0
 10
5.1927164483
 20
0.6574312741
 30
0.0
 10
5.1932436639
 20
0.6684903911
 30
0.0
 10
5.1942743585
 20
0.6936105679
 30
0.0
 10
5.1955121052
 20
0.7297340359
 30
0.0
 10
5.1969447612
 20
0.776954242
 30
0.0
 10
5.1983816574
 20
0.8269512957
 30
0.0
 10
5.1998178262
 20
0.8763195709
 30
0.0
 10
5.2012473247
 20
0.9216941575
 30
0.0
 10
5.2024882679
 20
0.9555657299
 30
0.0
 10
5.2035314911
 20
0.9783711501
 30
0.0
 10
5.2040641524
 20
0.9881184298
 30
0.0
 10
5.2043424199
 20
0.992529064
 30
0.0
  0
LINE
  5
4B4
100
AcDbEntity
  8
0
100
AcDbLine
 62
7
  6
CONTINUOUS
 10
5.2043424199
 20
0.992529064
 11
5.2054256386
 21
1.0063836378
  0
SPLINE
  5
4B5
100
AcDbEntity
  8
0
100
AcDbSpline
 62
7
  6
CONTINUOUS
 70
0
 71
3
 72
12
 73
8
 74
0
 42
0.0000001
 43
0.0000001
 44
0.0000000001
 40
0.0
 40
0.0
 40
0.0
 40
0.0
 40
0.3772255021
 40
0.6694978049
 40
0.8766565321
 40
0.9485920114
 40
1.0
 40
1.0
 40
1.0
 40
1.0
 10
5.2054256386
 20
1.0063836378
 30
0.0
 10
5.2055270942
 20
1.0073620195
 30
0.0
 10
5.2057223274
 20
1.0090973487
 30
0.0
 10
5.206050718
 20
1.0113590176
 30
0.0
 10
5.2063358605
 20
1.0128244137
 30
0.0
 10
5.2065826951
 20
1.0136500431
 30
0.0
 10
5.2067074114
 20
1.0139488206
 30
0.0
 10
5.2067757668
 20
1.0140641306
 30
0.0
  0
SPLINE
  5
4B6
100
AcDbEntity
  8
0
100
AcDbSpline
 62
7
  6
CONTINUOUS
 70
0
 71
3
 72
10
 73
6
 74
0
 42
0.0000001
 43
0.0000001
 44
0.0000000001
 40
0.0
 40
0.0
 40
0.0
 40
0.0
 40
0.5810361279
 40
0.8143566973
 40
1.0
 40
1.0
 40
1.0
 40
1.0
 10
5.16473631
 20
0.8961839312
 30
0.0
 10
5.1653268227
 20
0.9150418258
 30
0.0
 10
5.1661957914
 20
0.9414714696
 30
0.0
 10
5.1675589258
 20
0.9739144802
 30
0.0
 10
5.168265903
 20
0.9875011482
 30
0.0
 10
5.1686452778
 20
0.9935173225
 30
0.0
  0
LINE
  5
4B7
100
AcDbEntity
  8
0
100
AcDbLine
 62
7
  6
CONTINUOUS
 10
5.1686452778
 20
0.9935173225
 11
5.1697256397
 21
1.0074503905
  0
SPLINE
  5
4B8
100
AcDbEntity
  8
0
100
AcDbSpline
 62
7
  6
CONTINUOUS
 70
0
 71
3
 72
12
 73
8
 74
0
 42
0.0000001
 43
0.0000001
 44
0.0000000001
 40
0.0
 40
0.0
 40
0.0
 40
0.0
 40
0.3734990908
 40
0.664512157
 40
0.87291838
 40
0.9464219459
 40
1.0
 40
1.0
 40
1.0
 40
1.0
 10
5.1697256397
 20
1.0074503905
 30
0.0
 10
5.1698239358
 20
1.0084185646
 30
0.0
 10
5.170012496
 20
1.0101401124
 30
0.0
 10
5.1703284904
 20
1.0123920127
 30
0.0
 10
5.1706053659
 20
1.0138616264
 30
0.0
 10
5.1708477908
 20
1.014701538
 30
0.0
 10
5.1709718091
 20
1.0150105475
 30
0.0
 10
5.171039655
 20
1.0151325492
 30
0.0
  0
SPLINE
  5
4B9
100
AcDbEntity
  8
0
100
AcDbSpline
 62
7
  6
CONTINUOUS
 70
0
 71
3
 72
15
 73
11
 74
0
 42
0.0000001
 43
0.0000001
 44
0.0000000001
 40
0.0
 40
0.0
 40
0.0
 40
0.0
 40
0.029017136
 40
0.0515639541
 40
0.0807623072
 40
0.1603822122
 40
0.2691975758
 40
0.4075420805
 40
0.5754888316
 40
1.0
 40
1.0
 40
1.0
 40
1.0
 10
5.1807362599
 20
1.0151111519
 30
0.0
 10
5.1806566584
 20
1.0151136305
 30
0.0
 10
5.1805277401
 20
1.0150083557
 30
0.0
 10
5.1804155283
 20
1.0148233824
 30
0.0
 10
5.1802635717
 20
1.0144928403
 30
0.0
 10
5.1800919707
 20
1.0139205899
 30
0.0
 10
5.1798945781
 20
1.0130449298
 30
0.0
 10
5.1796977129
 20
1.0119226011
 30
0.0
 10
5.1794100397
 20
1.0099373642
 30
0.0
 10
5.1792305833
 20
1.0083208345
 30
0.0
 10
5.1791124808
 20
1.0071617287
 30
0.0
  0
LINE
  5
4BA
100
AcDbEntity
  8
0
100
AcDbLine
 62
7
  6
CONTINUOUS
 10
5.1791124808
 20
1.0071617287
 11
5.1780316251
 21
0.9932438982
  0
SPLINE
  5
4BB
100
AcDbEntity
  8
0
100
AcDbSpline
 62
7
  6
CONTINUOUS
 70
0
 71
3
 72
19
 73
15
 74
0
 42
0.0000001
 43
0.0000001
 44
0.0000000001
 40
0.0
 40
0.0
 40
0.0
 40
0.0
 40
0.04687643
 40
0.1020546618
 40
0.2328993721
 40
0.3823018359
 40
0.5385780427
 40
0.6895134509
 40
0.7592474562
 40
0.8233213977
 40
0.8804596605
 40
0.929568103
 40
0.9696643996
 40
1.0
 40
1.0
 40
1.0
 40
1.0
 10
5.1774893705
 20
0.9838657913
 30
0.0
 10
5.1771947852
 20
0.978350082
 30
0.0
 10
5.1766276411
 20
0.9663378906
 30
0.0
 10
5.1755210119
 20
0.9389169879
 30
0.0
 10
5.1741987418
 20
0.8994147246
 30
0.0
 10
5.1726690743
 20
0.848000827
 30
0.0
 10
5.1711359887
 20
0.7942186575
 30
0.0
 10
5.1698299281
 20
0.749821345
 30
0.0
 10
5.1687521775
 20
0.7162865939
 30
0.0
 10
5.1679672894
 20
0.6938005485
 30
0.0
 10
5.1671834137
 20
0.673746505
 30
0.0
 10
5.1664060768
 20
0.6565197829
 30
0.0
 10
5.1656389075
 20
0.6424549761
 30
0.0
 10
5.165059379
 20
0.6341748792
 30
0.0
 10
5.1647382689
 20
0.6306148097
 30
0.0
  0
LINE
  5
4BC
100
AcDbEntity
  8
0
100
AcDbLine
 62
7
  6
CONTINUOUS
 10
5.2511947726
 20
0.6462580764
 11
5.2517784492
 21
0.6512817877
  0
SPLINE
  5
4BD
100
AcDbEntity
  8
0
100
AcDbSpline
 62
7
  6
CONTINUOUS
 70
0
 71
3
 72
27
 73
23
 74
0
 42
0.0000001
 43
0.0000001
 44
0.0000000001
 40
0.0
 40
0.0
 40
0.0
 40
0.0
 40
0.0351087271
 40
0.0829462259
 40
0.1422142682
 40
0.2113652651
 40
0.288350926
 40
0.3709443932
 40
0.4568270494
 40
0.5436192026
 40
0.6288654308
 40
0.7101147813
 40
0.7849624501
 40
0.8513847407
 40
0.9076081959
 40
0.9313583316
 40
0.9519190326
 40
0.9691186632
 40
0.9828912498
 40
0.9931932882
 40
0.997033654
 40
1.0
 40
1.0
 40
1.0
 40
1.0
 10
5.2517784492
 20
0.6512817877
 30
0.0
 10
5.2521722882
 20
0.6552594112
 30
0.0
 10
5.2528758668
 20
0.6646783431
 30
0.0
 10
5.2537981365
 20
0.6808428064
 30
0.0
 10
5.2547275069
 20
0.7008882387
 30
0.0
 10
5.2556635207
 20
0.7242545149
 30
0.0
 10
5.2566043296
 20
0.7502781438
 30
0.0
 10
5.2575486946
 20
0.7782076286
 30
0.0
 10
5.2584939793
 20
0.8072541495
 30
0.0
 10
5.2594384106
 20
0.8366028627
 30
0.0
 10
5.2603830847
 20
0.8654238027
 30
0.0
 10
5.2613266715
 20
0.8928841628
 30
0.0
 10
5.2622681365
 20
0.9182002034
 30
0.0
 10
5.2632058924
 20
0.9406650319
 30
0.0
 10
5.264018483
 20
0.9573124584
 30
0.0
 10
5.2646887157
 20
0.9687386181
 30
0.0
 10
5.2651608999
 20
0.9757256195
 30
0.0
 10
5.2656303404
 20
0.9815741383
 30
0.0
 10
5.2660968484
 20
0.9862499376
 30
0.0
 10
5.2665049729
 20
0.9894033044
 30
0.0
 10
5.266852109
 20
0.9913201696
 30
0.0
 10
5.2670282421
 20
0.9920756833
 30
0.0
 10
5.2671219602
 20
0.9924001329
 30
0.0
  0
LINE
  5
4BE
100
AcDbEntity
  8
0
100
AcDbLine
 62
7
  6
CONTINUOUS
 10
5.2671728338
 20
0.9925693493
 11
5.2674286682
 21
0.9932104005
  0
LINE
  5
4BF
100
AcDbEntity
  8
0
100
AcDbLine
 62
7
  6
CONTINUOUS
 10
5.2618819251
 20
0.6281984559
 11
5.2624661157
 21
0.6336085015
  0
LINE
  5
4C0
100
AcDbEntity
  8
0
100
AcDbLine
 62
7
  6
CONTINUOUS
 10
5.2624661157
 20
0.6336085015
 11
5.2636097407
 21
0.650003364
  0
SPLINE
  5
4C1
100
AcDbEntity
  8
0
100
AcDbSpline
 62
7
  6
CONTINUOUS
 70
0
 71
3
 72
17
 73
13
 74
0
 42
0.0000001
 43
0.0000001
 44
0.0000000001
 40
0.0
 40
0.0
 40
0.0
 40
0.0
 40
0.0428094364
 40
0.0935313592
 40
0.2151330547
 40
0.356286974
 40
0.5070770369
 40
0.6569093656
 40
0.7952470104
 40
0.9123566091
 40
0.9602916951
 40
1.0
 40
1.0
 40
1.0
 40
1.0
 10
5.2636097407
 20
0.650003364
 30
0.0
 10
5.2638872499
 20
0.6548492507
 30
0.0
 10
5.2644249701
 20
0.6654406022
 30
0.0
 10
5.2654812408
 20
0.6898100812
 30
0.0
 10
5.2667374315
 20
0.7253310549
 30
0.0
 10
5.2681903918
 20
0.7721972169
 30
0.0
 10
5.2696492348
 20
0.8222655346
 30
0.0
 10
5.2711070354
 20
0.8720144492
 30
0.0
 10
5.2725595946
 20
0.9179429305
 30
0.0
 10
5.2738183676
 20
0.9523185687
 30
0.0
 10
5.274878062
 20
0.9755098286
 30
0.0
 10
5.2754202388
 20
0.9854325315
 30
0.0
 10
5.2757036958
 20
0.9899258127
 30
0.0
  0
LINE
  5
4C2
100
AcDbEntity
  8
0
100
AcDbLine
 62
7
  6
CONTINUOUS
 10
5.2757036958
 20
0.9899258127
 11
5.276855792
 21
1.0045343464
  0
SPLINE
  5
4C3
100
AcDbEntity
  8
0
100
AcDbSpline
 62
7
  6
CONTINUOUS
 70
0
 71
3
 72
12
 73
8
 74
0
 42
0.0000001
 43
0.0000001
 44
0.0000000001
 40
0.0
 40
0.0
 40
0.0
 40
0.0
 40
0.3730051801
 40
0.6639925469
 40
0.8724157661
 40
0.9460799454
 40
1.0
 40
1.0
 40
1.0
 40
1.0
 10
5.276855792
 20
1.0045343464
 30
0.0
 10
5.276952818
 20
1.0054495175
 30
0.0
 10
5.2771393932
 20
1.0070775482
 30
0.0
 10
5.2774516569
 20
1.0092069005
 30
0.0
 10
5.2777248606
 20
1.010596822
 30
0.0
 10
5.2779615407
 20
1.01139147
 30
0.0
 10
5.2780817861
 20
1.0116842132
 30
0.0
 10
5.2781469901
 20
1.011800173
 30
0.0
  0
LINE
  5
4C4
100
AcDbEntity
  8
0
100
AcDbLine
 62
7
  6
CONTINUOUS
 10
5.2860743612
 20
1.0025826219
 11
5.2855318125
 21
0.996189493
  0
SPLINE
  5
4C5
100
AcDbEntity
  8
0
100
AcDbSpline
 62
7
  6
CONTINUOUS
 70
0
 71
3
 72
19
 73
15
 74
0
 42
0.0000001
 43
0.0000001
 44
0.0000000001
 40
0.0
 40
0.0
 40
0.0
 40
0.0
 40
0.0434313423
 40
0.0962660847
 40
0.2254273477
 40
0.3763656548
 40
0.536039041
 40
0.690668067
 40
0.7618696943
 40
0.8269189677
 40
0.884388183
 40
0.9330614683
 40
0.9718633855
 40
1.0
 40
1.0
 40
1.0
 40
1.0
 10
5.2849971494
 20
0.9882111641
 30
0.0
 10
5.2846827757
 20
0.9830495568
 30
0.0
 10
5.284084821
 20
0.9716028483
 30
0.0
 10
5.282910164
 20
0.9447878466
 30
0.0
 10
5.2815241564
 20
0.9051705323
 30
0.0
 10
5.2799242851
 20
0.8528332865
 30
0.0
 10
5.2783192437
 20
0.7974624323
 30
0.0
 10
5.2769510901
 20
0.7515825658
 30
0.0
 10
5.2758178388
 20
0.7169673408
 30
0.0
 10
5.2749941385
 20
0.6939166004
 30
0.0
 10
5.2741732303
 20
0.6735501059
 30
0.0
 10
5.2733611675
 20
0.6563108842
 30
0.0
 10
5.2725541839
 20
0.6425693771
 30
0.0
 10
5.2719412409
 20
0.6346210224
 30
0.0
 10
5.271594317
 20
0.6312889354
 30
0.0
  0
SPLINE
  5
4C6
100
AcDbEntity
  8
0
100
AcDbSpline
 62
7
  6
CONTINUOUS
 70
0
 71
3
 72
12
 73
8
 74
0
 42
0.0000001
 43
0.0000001
 44
0.0000000001
 40
0.0
 40
0.0
 40
0.0
 40
0.0
 40
0.3733587089
 40
0.6643194177
 40
0.8727741264
 40
0.9463403273
 40
1.0
 40
1.0
 40
1.0
 40
1.0
 10
5.271594317
 20
0.6312889354
 30
0.0
 10
5.2714956776
 20
0.6303415373
 30
0.0
 10
5.2713060705
 20
0.6286568889
 30
0.0
 10
5.2709882668
 20
0.6264534415
 30
0.0
 10
5.2707105541
 20
0.6250155402
 30
0.0
 10
5.2704691479
 20
0.6241937765
 30
0.0
 10
5.2703462394
 20
0.6238914255
 30
0.0
 10
5.2702792876
 20
0.6237720171
 30
0.0
  0
SPLINE
  5
4C7
100
AcDbEntity
  8
0
100
AcDbSpline
 62
7
  6
CONTINUOUS
 70
0
 71
3
 72
13
 73
9
 74
0
 42
0.0000001
 43
0.0000001
 44
0.0000000001
 40
0.0
 40
0.0
 40
0.0
 40
0.0
 40
0.0915703253
 40
0.1730771119
 40
0.2819112286
 40
0.4188190612
 40
0.5841083595
 40
1.0
 40
1.0
 40
1.0
 40
1.0
 10
5.2605985934
 20
0.6232140972
 30
0.0
 10
5.2607262771
 20
0.623218073
 30
0.0
 10
5.260899037
 20
0.6234634789
 30
0.0
 10
5.2610430312
 20
0.6238076904
 30
0.0
 10
5.2611845926
 20
0.6242499745
 30
0.0
 10
5.2613230541
 20
0.6248038078
 30
0.0
 10
5.2615289439
 20
0.6257856777
 30
0.0
 10
5.2616588645
 20
0.6265858594
 30
0.0
 10
5.2617421825
 20
0.6271600372
 30
0.0
  0
SPLINE
  5
4C8
100
AcDbEntity
  8
0
100
AcDbSpline
 62
9
  6
CONTINUOUS
 70
0
 71
3
 72
12
 73
8
 74
0
 42
0.0000001
 43
0.0000001
 44
0.0000000001
 40
0.0
 40
0.0
 40
0.0
 40
0.0
 40
0.2862775196
 40
0.4286644675
 40
0.5640634559
 40
0.8033823762
 40
1.0
 40
1.0
 40
1.0
 40
1.0
 10
2.4440420904
 20
0.3816316646
 30
0.0
 10
2.4418984319
 20
0.3816004522
 30
0.0
 10
2.4386706324
 20
0.3819118912
 30
0.0
 10
2.434577033
 20
0.3829810943
 30
0.0
 10
2.4309744635
 20
0.3844344785
 30
0.0
 10
2.4274233027
 20
0.3869531293
 30
0.0
 10
2.425554104
 20
0.3897863082
 30
0.0
 10
2.4251219485
 20
0.3911938995
 30
0.0
  0
SPLINE
  5
4C9
100
AcDbEntity
  8
0
100
AcDbSpline
 62
7
  6
CONTINUOUS
 70
0
 71
3
 72
11
 73
7
 74
0
 42
0.0000001
 43
0.0000001
 44
0.0000000001
 40
0.0
 40
0.0
 40
0.0
 40
0.0
 40
0.249986555
 40
0.5000067047
 40
0.7500315635
 40
1.0
 40
1.0
 40
1.0
 40
1.0
 10
3.0397362586
 20
1.3584192547
 30
0.0
 10
3.0318864328
 20
1.3584192547
 30
0.0
 10
3.0161625885
 20
1.3572140545
 30
0.0
 10
2.9931089338
 20
1.352093416
 30
0.0
 10
2.9708403593
 20
1.3442964357
 30
0.0
 10
2.9565458678
 20
1.3377575899
 30
0.0
 10
2.949525279
 20
1.3342472955
 30
0.0
  0
SPLINE
  5
4CA
100
AcDbEntity
  8
0
100
AcDbSpline
 62
7
  6
CONTINUOUS
 70
0
 71
3
 72
11
 73
7
 74
0
 42
0.0000001
 43
0.0000001
 44
0.0000000001
 40
0.0
 40
0.0
 40
0.0
 40
0.0
 40
0.2499684358
 40
0.4999932947
 40
0.7500134446
 40
1.0
 40
1.0
 40
1.0
 40
1.0
 10
3.1299472381
 20
1.3342472955
 30
0.0
 10
3.1229266494
 20
1.3377575899
 30
0.0
 10
3.1086321579
 20
1.3442964358
 30
0.0
 10
3.0863635836
 20
1.3520934168
 30
0.0
 10
3.0633099287
 20
1.3572140553
 30
0.0
 10
3.0475860844
 20
1.3584192547
 30
0.0
 10
3.0397362586
 20
1.3584192547
 30
0.0
  0
SPLINE
  5
4CB
100
AcDbEntity
  8
0
100
AcDbSpline
 62
9
  6
CONTINUOUS
 70
0
 71
3
 72
21
 73
17
 74
0
 42
0.0000001
 43
0.0000001
 44
0.0000000001
 40
0.0
 40
0.0
 40
0.0
 40
0.0
 40
0.2220981754
 40
0.4209559517
 40
0.5935665349
 40
0.7375139265
 40
0.798263975
 40
0.8512932925
 40
0.8964236173
 40
0.9335163264
 40
0.9624933472
 40
0.9832816669
 40
0.9905822392
 40
0.9958082426
 40
0.9989505418
 40
1.0
 40
1.0
 40
1.0
 40
1.0
 10
2.4440420522
 20
1.2542060801
 30
0.0
 10
2.4442485108
 20
1.2581207817
 30
0.0
 10
2.444611752
 20
1.2655420565
 30
0.0
 10
2.4450503771
 20
1.2760096998
 30
0.0
 10
2.4453756372
 20
1.2851012232
 30
0.0
 10
2.4455786332
 20
1.2917579566
 30
0.0
 10
2.4457009548
 20
1.2963051077
 30
0.0
 10
2.4457708884
 20
1.29910957
 30
0.0
 10
2.4458266544
 20
1.3014947196
 30
0.0
 10
2.4458707568
 20
1.3034610526
 30
0.0
 10
2.445902618
 20
1.3049832521
 30
0.0
 10
2.4459243477
 20
1.3060122526
 30
0.0
 10
2.445933764
 20
1.3065705337
 30
0.0
 10
2.4459421124
 20
1.3068959498
 30
0.0
 10
2.4459395399
 20
1.3069755789
 30
0.0
 10
2.445946668
 20
1.3071393706
 30
0.0
 10
2.445944601
 20
1.3071209628
 30
0.0
  0
SPLINE
  5
4CC
100
AcDbEntity
  8
0
100
AcDbSpline
 62
7
  6
CONTINUOUS
 70
0
 71
3
 72
11
 73
7
 74
0
 42
0.0000001
 43
0.0000001
 44
0.0000000001
 40
0.0
 40
0.0
 40
0.0
 40
0.0
 40
0.2499772022
 40
0.5000008304
 40
0.7500154037
 40
1.0
 40
1.0
 40
1.0
 40
1.0
 10
2.949525279
 20
1.1730912138
 30
0.0
 10
2.9565461151
 20
1.1695807957
 30
0.0
 10
2.9708407582
 20
1.1630416669
 30
0.0
 10
2.9931095688
 20
1.155245212
 30
0.0
 10
3.0161628412
 20
1.1501241148
 30
0.0
 10
3.031886493
 20
1.1489192547
 30
0.0
 10
3.0397362586
 20
1.1489192547
 30
0.0
  0
SPLINE
  5
4CD
100
AcDbEntity
  8
0
100
AcDbSpline
 62
7
  6
CONTINUOUS
 70
0
 71
3
 72
11
 73
7
 74
0
 42
0.0000001
 43
0.0000001
 44
0.0000000001
 40
0.0
 40
0.0
 40
0.0
 40
0.0
 40
0.2264793747
 40
0.4659076187
 40
0.7239597766
 40
1.0
 40
1.0
 40
1.0
 40
1.0
 10
2.9044197892
 20
1.1489192547
 30
0.0
 10
2.908377309
 20
1.1489192547
 30
0.0
 10
2.9165563072
 20
1.1502147991
 30
0.0
 10
2.9281648163
 20
1.155499072
 30
0.0
 10
2.9392352721
 20
1.1633462813
 30
0.0
 10
2.9461145139
 20
1.1696804487
 30
0.0
 10
2.949525279
 20
1.1730912138
 30
0.0
  0
SPLINE
  5
4CE
100
AcDbEntity
  8
0
100
AcDbSpline
 62
7
  6
CONTINUOUS
 70
0
 71
3
 72
10
 73
6
 74
0
 42
0.0000001
 43
0.0000001
 44
0.0000000001
 40
0.0
 40
0.0
 40
0.0
 40
0.0
 40
0.2290752233
 40
0.6135483068
 40
1.0
 40
1.0
 40
1.0
 40
1.0
 10
3.1828770464
 20
10.7246363629
 30
0.0
 10
3.1876674373
 20
10.7240350676
 30
0.0
 10
3.2004538621
 20
10.7220766088
 30
0.0
 10
3.2210117404
 20
10.7173169024
 30
0.0
 10
3.2363914222
 20
10.7119660153
 30
0.0
 10
3.2439097821
 20
10.7088409082
 30
0.0
  0
SPLINE
  5
4CF
100
AcDbEntity
  8
0
100
AcDbSpline
 62
7
  6
CONTINUOUS
 70
0
 71
3
 72
10
 73
6
 74
0
 42
0.0000001
 43
0.0000001
 44
0.0000000001
 40
0.0
 40
0.0
 40
0.0
 40
0.0
 40
0.2290710757
 40
0.6135462277
 40
1.0
 40
1.0
 40
1.0
 40
1.0
 10
2.964127386
 20
10.7246363175
 30
0.0
 10
2.9689176639
 20
10.7240350327
 30
0.0
 10
2.9817039765
 20
10.7220765919
 30
0.0
 10
3.0022617495
 20
10.7173169319
 30
0.0
 10
3.0176414295
 20
10.7119660331
 30
0.0
 10
3.0251597821
 20
10.7088409082
 30
0.0
  0
SPLINE
  5
4D0
100
AcDbEntity
  8
0
100
AcDbSpline
 62
7
  6
CONTINUOUS
 70
0
 71
3
 72
16
 73
12
 74
0
 42
0.0000001
 43
0.0000001
 44
0.0000000001
 40
0.0
 40
0.0
 40
0.0
 40
0.0
 40
0.0136004304
 40
0.033557936
 40
0.093150947
 40
0.1793064855
 40
0.2919018472
 40
0.4306211653
 40
0.5951180996
 40
0.7850331251
 40
1.0
 40
1.0
 40
1.0
 40
1.0
 10
2.7999409869
 20
0.6149116888
 30
0.0
 10
2.7998989611
 20
0.6149834242
 30
0.0
 10
2.7998253796
 20
0.6151768099
 30
0.0
 10
2.7996797619
 20
0.615726905
 30
0.0
 10
2.7995156245
 20
0.6167287043
 30
0.0
 10
2.7993260743
 20
0.6182959597
 30
0.0
 10
2.7991356193
 20
0.6203506101
 30
0.0
 10
2.7989425012
 20
0.6228850567
 30
0.0
 10
2.7987487017
 20
0.6258934247
 30
0.0
 10
2.7985541474
 20
0.6293686043
 30
0.0
 10
2.7984316947
 20
0.6318406328
 30
0.0
 10
2.7983697953
 20
0.6331532649
 30
0.0
  0
LINE
  5
4D1
100
AcDbEntity
  8
0
100
AcDbLine
 62
7
  6
CONTINUOUS
 10
2.7983697953
 20
0.6331532649
 11
2.7968547859
 21
0.6777544474
  0
LINE
  5
4D2
100
AcDbEntity
  8
0
100
AcDbLine
 62
7
  6
CONTINUOUS
 10
2.7964760786
 20
0.6923634248
 11
2.7960970866
 21
0.7081068848
  0
LINE
  5
4D3
100
AcDbEntity
  8
0
100
AcDbLine
 62
7
  6
CONTINUOUS
 10
2.7942061659
 20
0.7986142609
 11
2.7938244827
 21
0.8179192547
  0
SPLINE
  5
4D4
100
AcDbEntity
  8
0
100
AcDbSpline
 62
7
  6
CONTINUOUS
 70
0
 71
3
 72
13
 73
9
 74
0
 42
0.0000001
 43
0.0000001
 44
0.0000000001
 40
0.0
 40
0.0
 40
0.0
 40
0.0
 40
0.0444655377
 40
0.1115617054
 40
0.2017628253
 40
0.3151738683
 40
0.6115061101
 40
1.0
 40
1.0
 40
1.0
 40
1.0
 10
3.1802388263
 20
1.0781569005
 30
0.0
 10
3.1801507506
 20
1.0782071188
 30
0.0
 10
3.1799083387
 20
1.0782920065
 30
0.0
 10
3.1794619239
 20
1.0784004537
 30
0.0
 10
3.1788537523
 20
1.0785096606
 30
0.0
 10
3.17772547
 20
1.078671593
 30
0.0
 10
3.1759148768
 20
1.0788630606
 30
0.0
 10
3.1743587479
 20
1.0789918448
 30
0.0
 10
3.1734754795
 20
1.0790588929
 30
0.0
  0
SPLINE
  5
4D5
100
AcDbEntity
  8
0
100
AcDbSpline
 62
7
  6
CONTINUOUS
 70
0
 71
3
 72
13
 73
9
 74
0
 42
0.0000001
 43
0.0000001
 44
0.0000000001
 40
0.0
 40
0.0
 40
0.0
 40
0.0
 40
0.0435799419
 40
0.1100759831
 40
0.1999379136
 40
0.3132553297
 40
0.6101001223
 40
1.0
 40
1.0
 40
1.0
 40
1.0
 10
2.899225287
 20
1.0885646455
 30
0.0
 10
2.8993118862
 20
1.088614426
 30
0.0
 10
2.8995524847
 20
1.0886984007
 30
0.0
 10
2.8999969855
 20
1.0888068751
 30
0.0
 10
2.9006058835
 20
1.0889170967
 30
0.0
 10
2.9017399312
 20
1.0890820034
 30
0.0
 10
2.9035638254
 20
1.089278288
 30
0.0
 10
2.9051323296
 20
1.0894100456
 30
0.0
 10
2.9060233822
 20
1.0894784009
 30
0.0
  0
LINE
  5
4D6
100
AcDbEntity
  8
0
100
AcDbLine
 62
7
  6
CONTINUOUS
 10
2.9060233822
 20
1.0894784009
 11
2.9180272969
 21
1.0901749784
  0
SPLINE
  5
4D7
100
AcDbEntity
  8
0
100
AcDbSpline
 62
7
  6
CONTINUOUS
 70
0
 71
3
 72
15
 73
11
 74
0
 42
0.0000001
 43
0.0000001
 44
0.0000000001
 40
0.0
 40
0.0
 40
0.0
 40
0.0
 40
0.0896140567
 40
0.2055361592
 40
0.3406260376
 40
0.4865472314
 40
0.6342889466
 40
0.7746975565
 40
0.8992114392
 40
1.0
 40
1.0
 40
1.0
 40
1.0
 10
2.9180272969
 20
1.0901749784
 30
0.0
 10
2.9250682685
 20
1.0905057374
 30
0.0
 10
2.9412247886
 20
1.091097642
 30
0.0
 10
2.9680055407
 20
1.0918882654
 30
0.0
 10
2.999216921
 20
1.0926835146
 30
0.0
 10
3.0329316352
 20
1.0934840457
 30
0.0
 10
3.0670648028
 20
1.0942858852
 30
0.0
 10
3.0995138165
 20
1.0950826851
 30
0.0
 10
3.1282684745
 20
1.0958762641
 30
0.0
 10
3.1459803842
 20
1.0964686294
 30
0.0
 10
3.1539017773
 20
1.0967844062
 30
0.0
  0
SPLINE
  5
4D8
100
AcDbEntity
  8
0
100
AcDbSpline
 62
7
  6
CONTINUOUS
 70
0
 71
3
 72
14
 73
10
 74
0
 42
0.0000001
 43
0.0000001
 44
0.0000000001
 40
0.0
 40
0.0
 40
0.0
 40
0.0
 40
0.0387172755
 40
0.1017601136
 40
0.1896605611
 40
0.3025398532
 40
0.4402452838
 40
0.6025535327
 40
1.0
 40
1.0
 40
1.0
 40
1.0
 10
2.7749352242
 20
0.6149217457
 30
0.0
 10
2.7748648575
 20
0.6150470444
 30
0.0
 10
2.7747561957
 20
0.6154139942
 30
0.0
 10
2.7746144688
 20
0.6161013283
 30
0.0
 10
2.7744726299
 20
0.6170717292
 30
0.0
 10
2.7743273963
 20
0.6183192638
 30
0.0
 10
2.774181615
 20
0.6198450875
 30
0.0
 10
2.7739716442
 20
0.6224252643
 30
0.0
 10
2.773836833
 20
0.6244986782
 30
0.0
 10
2.7737486121
 20
0.6259712237
 30
0.0
  0
LINE
  5
4D9
100
AcDbEntity
  8
0
100
AcDbLine
 62
7
  6
CONTINUOUS
 10
2.7733697953
 20
0.6331532649
 11
2.7718549268
 21
0.6777544508
  0
LINE
  5
4DA
100
AcDbEntity
  8
0
100
AcDbLine
 62
7
  6
CONTINUOUS
 10
2.7714762869
 20
0.6923634296
 11
2.7710970866
 21
0.7081068848
  0
LINE
  5
4DB
100
AcDbEntity
  8
0
100
AcDbLine
 62
7
  6
CONTINUOUS
 10
2.7699607281
 20
0.7606981165
 11
2.7692090696
 21
0.7986143183
  0
LINE
  5
4DC
100
AcDbEntity
  8
0
100
AcDbLine
 62
7
  6
CONTINUOUS
 10
2.7692090696
 20
0.7986143183
 11
2.7688244827
 21
0.8179192547
  0
SPLINE
  5
4DD
100
AcDbEntity
  8
0
100
AcDbSpline
 62
7
  6
CONTINUOUS
 70
0
 71
3
 72
14
 73
10
 74
0
 42
0.0000001
 43
0.0000001
 44
0.0000000001
 40
0.0
 40
0.0
 40
0.0
 40
0.0
 40
0.039575652
 40
0.1031851346
 40
0.1912961146
 40
0.3040249332
 40
0.441387011
 40
0.6033440206
 40
1.0
 40
1.0
 40
1.0
 40
1.0
 10
2.7661486753
 20
0.6301635302
 30
0.0
 10
2.7660763135
 20
0.6302927455
 30
0.0
 10
2.7659626468
 20
0.6306668072
 30
0.0
 10
2.7658150392
 20
0.6313652769
 30
0.0
 10
2.7656669097
 20
0.6323451541
 30
0.0
 10
2.7655154706
 20
0.6336013224
 30
0.0
 10
2.7653634685
 20
0.6351359961
 30
0.0
 10
2.7651447812
 20
0.6377312138
 30
0.0
 10
2.765004428
 20
0.6398170818
 30
0.0
 10
2.7649125207
 20
0.6412985731
 30
0.0
  0
SPLINE
  5
4DE
100
AcDbEntity
  8
0
100
AcDbSpline
 62
7
  6
CONTINUOUS
 70
0
 71
3
 72
10
 73
6
 74
0
 42
0.0000001
 43
0.0000001
 44
0.0000000001
 40
0.0
 40
0.0
 40
0.0
 40
0.0
 40
0.1861788688
 40
0.4165102423
 40
1.0
 40
1.0
 40
1.0
 40
1.0
 10
2.7649125207
 20
0.6412985731
 30
0.0
 10
2.7647573445
 20
0.6437999238
 30
0.0
 10
2.7644616613
 20
0.649398983
 30
0.0
 10
2.7638812519
 20
0.6628475682
 30
0.0
 10
2.7635187201
 20
0.6737967038
 30
0.0
 10
2.7632773085
 20
0.6816473661
 30
0.0
  0
LINE
  5
4DF
100
AcDbEntity
  8
0
100
AcDbLine
 62
7
  6
CONTINUOUS
 10
2.7632773085
 20
0.6816473661
 11
2.7632411927
 21
0.6828274073
  0
LINE
  5
4E0
100
AcDbEntity
  8
0
100
AcDbLine
 62
7
  6
CONTINUOUS
 10
2.7616462816
 20
0.7444767297
 11
2.7612363577
 21
0.7626580922
  0
LINE
  5
4E1
100
AcDbEntity
  8
0
100
AcDbLine
 62
7
  6
CONTINUOUS
 10
2.7612363577
 20
0.7626580922
 11
2.7604149162
 21
0.8006569365
  0
SPLINE
  5
4E2
100
AcDbEntity
  8
0
100
AcDbSpline
 62
7
  6
CONTINUOUS
 70
0
 71
3
 72
19
 73
15
 74
0
 42
0.0000001
 43
0.0000001
 44
0.0000000001
 40
0.0
 40
0.0
 40
0.0
 40
0.0
 40
0.2294977621
 40
0.4302987705
 40
0.6015009235
 40
0.7425934802
 40
0.8531034221
 40
0.8967548342
 40
0.9326087952
 40
0.960642349
 40
0.9809161083
 40
0.9882093562
 40
0.9936866046
 40
1.0
 40
1.0
 40
1.0
 40
1.0
 10
2.7559172171
 20
0.9798168108
 30
0.0
 10
2.7558338846
 20
0.9818174951
 30
0.0
 10
2.7556695552
 20
0.9855683704
 30
0.0
 10
2.7554076867
 20
0.9908101017
 30
0.0
 10
2.7551469845
 20
0.995279459
 30
0.0
 10
2.7548876469
 20
0.9989595029
 30
0.0
 10
2.7546610649
 20
1.0015259169
 30
0.0
 10
2.7544716563
 20
1.0031732516
 30
0.0
 10
2.7543426218
 20
1.0041024249
 30
0.0
 10
2.7542132
 20
1.0048264578
 30
0.0
 10
2.7541023494
 20
1.0052970853
 30
0.0
 10
2.7540027385
 20
1.0055720209
 30
0.0
 10
2.7539345953
 20
1.0057156803
 30
0.0
 10
2.7538510746
 20
1.0058116719
 30
0.0
 10
2.7537960295
 20
1.0058095562
 30
0.0
  0
SPLINE
  5
4E3
100
AcDbEntity
  8
0
100
AcDbSpline
 62
7
  6
CONTINUOUS
 70
0
 71
3
 72
13
 73
9
 74
0
 42
0.0000001
 43
0.0000001
 44
0.0000000001
 40
0.0
 40
0.0
 40
0.0
 40
0.0
 40
0.0433176455
 40
0.1094294017
 40
0.1989145192
 40
0.3119814431
 40
0.6090875246
 40
1.0
 40
1.0
 40
1.0
 40
1.0
 10
2.7536526203
 20
1.0056828414
 30
0.0
 10
2.753597227
 20
1.0055870952
 30
0.0
 10
2.7535041071
 20
1.0053205715
 30
0.0
 10
2.7533847118
 20
1.0048276962
 30
0.0
 10
2.7532640722
 20
1.0041515417
 30
0.0
 10
2.7530841624
 20
1.0028884924
 30
0.0
 10
2.7528714652
 20
1.0008532175
 30
0.0
 10
2.7527286147
 20
0.9991021636
 30
0.0
 10
2.7526542547
 20
0.9981067085
 30
0.0
  0
SPLINE
  5
4E4
100
AcDbEntity
  8
0
100
AcDbSpline
 62
7
  6
CONTINUOUS
 70
0
 71
3
 72
16
 73
12
 74
0
 42
0.0000001
 43
0.0000001
 44
0.0000000001
 40
0.0
 40
0.0
 40
0.0
 40
0.0
 40
0.0087253786
 40
0.022958905
 40
0.0724951469
 40
0.15177665
 40
0.2612091276
 40
0.4008722109
 40
0.5707471535
 40
0.7706124624
 40
1.0
 40
1.0
 40
1.0
 40
1.0
 10
2.7631693153
 20
0.6300285426
 30
0.0
 10
2.7631361476
 20
0.6300307726
 30
0.0
 10
2.7630591223
 20
0.6300900092
 30
0.0
 10
2.7629326965
 20
0.6303339144
 30
0.0
 10
2.7627871688
 20
0.6308655676
 30
0.0
 10
2.7626247156
 20
0.6317563218
 30
0.0
 10
2.7624579331
 20
0.6329976963
 30
0.0
 10
2.7622890413
 20
0.6345846168
 30
0.0
 10
2.7621190593
 20
0.6365181651
 30
0.0
 10
2.7619484415
 20
0.6387943667
 30
0.0
 10
2.7618416332
 20
0.6404263119
 30
0.0
 10
2.7617875207
 20
0.6412985731
 30
0.0
  0
SPLINE
  5
4E5
100
AcDbEntity
  8
0
100
AcDbSpline
 62
7
  6
CONTINUOUS
 70
0
 71
3
 72
10
 73
6
 74
0
 42
0.0000001
 43
0.0000001
 44
0.0000000001
 40
0.0
 40
0.0
 40
0.0
 40
0.0
 40
0.1861788688
 40
0.4165102423
 40
1.0
 40
1.0
 40
1.0
 40
1.0
 10
2.7617875207
 20
0.6412985731
 30
0.0
 10
2.7616323445
 20
0.6437999238
 30
0.0
 10
2.7613366613
 20
0.649398983
 30
0.0
 10
2.7607562519
 20
0.6628475682
 30
0.0
 10
2.7603937201
 20
0.6737967038
 30
0.0
 10
2.7601523085
 20
0.6816473661
 30
0.0
  0
LINE
  5
4E6
100
AcDbEntity
  8
0
100
AcDbLine
 62
7
  6
CONTINUOUS
 10
2.7601523085
 20
0.6816473661
 11
2.7601188543
 21
0.6827400637
  0
LINE
  5
4E7
100
AcDbEntity
  8
0
100
AcDbLine
 62
7
  6
CONTINUOUS
 10
2.7585212816
 20
0.7444767297
 11
2.7581113577
 21
0.7626580922
  0
LINE
  5
4E8
100
AcDbEntity
  8
0
100
AcDbLine
 62
7
  6
CONTINUOUS
 10
2.7581113577
 20
0.7626580922
 11
2.7572899162
 21
0.8006569365
  0
SPLINE
  5
4E9
100
AcDbEntity
  8
0
100
AcDbSpline
 62
7
  6
CONTINUOUS
 70
0
 71
3
 72
14
 73
10
 74
0
 42
0.0000001
 43
0.0000001
 44
0.0000000001
 40
0.0
 40
0.0
 40
0.0
 40
0.0
 40
0.381535759
 40
0.5403062797
 40
0.6771765098
 40
0.7918468316
 40
0.8840296464
 40
0.9534655695
 40
1.0
 40
1.0
 40
1.0
 40
1.0
 10
2.7527922171
 20
0.9798168108
 30
0.0
 10
2.7526575871
 20
0.9830490692
 30
0.0
 10
2.7524522391
 20
0.9876258741
 30
0.0
 10
2.7521373031
 20
0.9933590682
 30
0.0
 10
2.7519166933
 20
0.9968312259
 30
0.0
 10
2.7516969903
 20
0.9997373259
 30
0.0
 10
2.7514806127
 20
1.0020705469
 30
0.0
 10
2.7512658282
 20
1.0038218408
 30
0.0
 10
2.7511008632
 20
1.004793344
 30
0.0
 10
2.751002162
 20
1.0051753674
 30
0.0
  0
LINE
  5
4EA
100
AcDbEntity
  8
0
100
AcDbLine
 62
7
  6
CONTINUOUS
 10
2.751002162
 20
1.0051753674
 11
2.7508155625
 21
1.0056919206
  0
SPLINE
  5
4EB
100
AcDbEntity
  8
0
100
AcDbSpline
 62
7
  6
CONTINUOUS
 70
0
 71
3
 72
12
 73
8
 74
0
 42
0.0000001
 43
0.0000001
 44
0.0000000001
 40
0.0
 40
0.0
 40
0.0
 40
0.0
 40
0.0470677737
 40
0.1159405427
 40
0.3207319813
 40
0.6155458702
 40
1.0
 40
1.0
 40
1.0
 40
1.0
 10
3.1802446139
 20
1.1159889666
 30
0.0
 10
3.1801721659
 20
1.1159474422
 30
0.0
 10
3.1799781446
 20
1.115874319
 30
0.0
 10
3.1794284185
 20
1.11572874
 30
0.0
 10
3.1784314112
 20
1.1155632472
 30
0.0
 10
3.1768751334
 20
1.1153726059
 30
0.0
 10
3.1756748383
 20
1.1152609157
 30
0.0
 10
3.1749952741
 20
1.1152024771
 30
0.0
  0
LINE
  5
4EC
100
AcDbEntity
  8
0
100
AcDbLine
 62
7
  6
CONTINUOUS
 10
3.1720074655
 20
1.1149733092
 11
3.1593093288
 21
1.1142803502
  0
SPLINE
  5
4ED
100
AcDbEntity
  8
0
100
AcDbSpline
 62
7
  6
CONTINUOUS
 70
0
 71
3
 72
13
 73
9
 74
0
 42
0.0000001
 43
0.0000001
 44
0.0000000001
 40
0.0
 40
0.0
 40
0.0
 40
0.0
 40
0.0451862743
 40
0.1128093356
 40
0.2033272232
 40
0.3168432143
 40
0.6127550454
 40
1.0
 40
1.0
 40
1.0
 40
1.0
 10
2.8992421717
 20
1.1263930504
 30
0.0
 10
2.8993321325
 20
1.1263431274
 30
0.0
 10
2.8995770364
 20
1.1262583412
 30
0.0
 10
2.9000266162
 20
1.1261502151
 30
0.0
 10
2.900636152
 20
1.1260415776
 30
0.0
 10
2.9017630325
 20
1.1258810099
 30
0.0
 10
2.9035676299
 20
1.1256913492
 30
0.0
 10
2.9051178324
 20
1.1255636445
 30
0.0
 10
2.9059970376
 20
1.1254971164
 30
0.0
  0
SPLINE
  5
4EE
100
AcDbEntity
  8
0
100
AcDbSpline
 62
7
  6
CONTINUOUS
 70
0
 71
3
 72
13
 73
9
 74
0
 42
0.0000001
 43
0.0000001
 44
0.0000000001
 40
0.0
 40
0.0
 40
0.0
 40
0.0
 40
0.045249552
 40
0.1128904773
 40
0.2034064473
 40
0.316910994
 40
0.6127891564
 40
1.0
 40
1.0
 40
1.0
 40
1.0
 10
3.1802302874
 20
1.1368079626
 30
0.0
 10
3.1801404686
 20
1.1367574893
 30
0.0
 10
3.1798955364
 20
1.136671977
 30
0.0
 10
3.1794458582
 20
1.1365635443
 30
0.0
 10
3.1788362632
 20
1.136455079
 30
0.0
 10
3.1777093732
 20
1.1362953424
 30
0.0
 10
3.1759047708
 20
1.1361073768
 30
0.0
 10
3.1743546402
 20
1.1359807267
 30
0.0
 10
3.1734754795
 20
1.1359146164
 30
0.0
  0
LINE
  5
4EF
100
AcDbEntity
  8
0
100
AcDbLine
 62
7
  6
CONTINUOUS
 10
3.1734754795
 20
1.1359146164
 11
3.1615160935
 21
1.1352219494
  0
SPLINE
  5
4F0
100
AcDbEntity
  8
0
100
AcDbSpline
 62
7
  6
CONTINUOUS
 70
0
 71
3
 72
16
 73
12
 74
0
 42
0.0000001
 43
0.0000001
 44
0.0000000001
 40
0.0
 40
0.0
 40
0.0
 40
0.0
 40
0.0940024161
 40
0.2170923975
 40
0.3602114329
 40
0.5128185739
 40
0.6636684521
 40
0.8016405769
 40
0.9165688372
 40
0.9626691374
 40
1.0
 40
1.0
 40
1.0
 40
1.0
 10
3.1615160935
 20
1.1352219494
 30
0.0
 10
3.1537170319
 20
1.134852274
 30
0.0
 10
3.1356962255
 20
1.1342051845
 30
0.0
 10
3.1057895434
 20
1.1333488058
 30
0.0
 10
3.0710134364
 20
1.1324827654
 30
0.0
 10
3.0339311838
 20
1.1316124126
 30
0.0
 10
2.9972764473
 20
1.1307434916
 30
0.0
 10
2.9637522533
 20
1.1298777298
 30
0.0
 10
2.9389283151
 20
1.1291281945
 30
0.0
 10
2.9224648348
 20
1.1284921571
 30
0.0
 10
2.9155425873
 20
1.1281650213
 30
0.0
 10
2.9124466559
 20
1.1279932584
 30
0.0
  0
LINE
  5
4F1
100
AcDbEntity
  8
0
100
AcDbLine
 62
7
  6
CONTINUOUS
 10
2.9112660643
 20
1.127926353
 11
2.9021902912
 21
1.1272375912
  0
LINE
  5
4F2
100
AcDbEntity
  8
0
100
AcDbLine
 62
7
  6
CONTINUOUS
 10
2.9021902912
 20
1.1272375912
 11
2.8998873574
 21
1.1268923745
  0
LINE
  5
4F3
100
AcDbEntity
  8
0
100
AcDbLine
 62
7
  6
CONTINUOUS
 10
2.8998873574
 20
1.1268923745
 11
2.8991112586
 21
1.1265391031
  0
SPLINE
  5
4F4
100
AcDbEntity
  8
0
100
AcDbSpline
 62
7
  6
CONTINUOUS
 70
0
 71
3
 72
13
 73
9
 74
0
 42
0.0000001
 43
0.0000001
 44
0.0000000001
 40
0.0
 40
0.0
 40
0.0
 40
0.0
 40
0.0434265177
 40
0.1097747964
 40
0.1995317886
 40
0.3128004039
 40
0.6097376758
 40
1.0
 40
1.0
 40
1.0
 40
1.0
 10
2.8992223478
 20
1.1472433936
 30
0.0
 10
2.8993078011
 20
1.1471930034
 30
0.0
 10
2.8995467007
 20
1.1471083412
 30
0.0
 10
2.8999885593
 20
1.1469996199
 30
0.0
 10
2.9005947373
 20
1.1468895921
 30
0.0
 10
2.9017248808
 20
1.1467254424
 30
0.0
 10
2.9035437509
 20
1.1465307737
 30
0.0
 10
2.9051081105
 20
1.1464000577
 30
0.0
 10
2.9059970376
 20
1.1463321164
 30
0.0
  0
LINE
  5
4F5
100
AcDbEntity
  8
0
100
AcDbLine
 62
7
  6
CONTINUOUS
 10
2.9021902911
 20
1.1480681777
 11
2.8998873573
 21
1.1477208472
  0
LINE
  5
4F6
100
AcDbEntity
  8
0
100
AcDbLine
 62
7
  6
CONTINUOUS
 10
2.8998873573
 20
1.1477208472
 11
2.8991112586
 21
1.1473741031
  0
SPLINE
  5
4F7
100
AcDbEntity
  8
0
100
AcDbSpline
 62
7
  6
CONTINUOUS
 70
0
 71
3
 72
14
 73
10
 74
0
 42
0.0000001
 43
0.0000001
 44
0.0000000001
 40
0.0
 40
0.0
 40
0.0
 40
0.0
 40
0.0416560956
 40
0.1068944345
 40
0.1960939975
 40
0.3092859196
 40
0.4463969995
 40
0.607312188
 40
1.0
 40
1.0
 40
1.0
 40
1.0
 10
3.1674668166
 20
1.1063385479
 30
0.0
 10
3.1673468041
 20
1.106404832
 30
0.0
 10
3.1670078253
 20
1.1065123844
 30
0.0
 10
3.166378916
 20
1.1066512314
 30
0.0
 10
3.1655081797
 20
1.1067911375
 30
0.0
 10
3.1644001298
 20
1.1069336856
 30
0.0
 10
3.1630541107
 20
1.1070768717
 30
0.0
 10
3.1607901225
 20
1.1072826181
 30
0.0
 10
3.1589727256
 20
1.1074150512
 30
0.0
 10
3.1576831921
 20
1.1075015855
 30
0.0
  0
SPLINE
  5
4F8
100
AcDbEntity
  8
0
100
AcDbSpline
 62
7
  6
CONTINUOUS
 70
0
 71
3
 72
13
 73
9
 74
0
 42
0.0000001
 43
0.0000001
 44
0.0000000001
 40
0.0
 40
0.0
 40
0.0
 40
0.0
 40
0.0449489425
 40
0.1124100804
 40
0.202835769
 40
0.3163256199
 40
0.6123745792
 40
1.0
 40
1.0
 40
1.0
 40
1.0
 10
3.1802328939
 20
1.0989951295
 30
0.0
 10
3.1801434255
 20
1.0990449142
 30
0.0
 10
3.1798992649
 20
1.0991294371
 30
0.0
 10
3.1794506493
 20
1.0992375333
 30
0.0
 10
3.1788415347
 20
1.0993464083
 30
0.0
 10
3.1777142403
 20
1.0995077138
 30
0.0
 10
3.1759078773
 20
1.099698593
 30
0.0
 10
3.1743558991
 20
1.0998270425
 30
0.0
 10
3.1734754795
 20
1.0998938929
 30
0.0
  0
SPLINE
  5
4F9
100
AcDbEntity
  8
0
100
AcDbSpline
 62
7
  6
CONTINUOUS
 70
0
 71
3
 72
13
 73
9
 74
0
 42
0.0000001
 43
0.0000001
 44
0.0000000001
 40
0.0
 40
0.0
 40
0.0
 40
0.0
 40
0.0435711578
 40
0.1100734498
 40
0.1999443323
 40
0.3132689613
 40
0.610116409
 40
1.0
 40
1.0
 40
1.0
 40
1.0
 10
2.8992250264
 20
1.1093982437
 30
0.0
 10
2.8993114079
 20
1.1094475989
 30
0.0
 10
2.8995511217
 20
1.1095310068
 30
0.0
 10
2.8999939546
 20
1.1096390827
 30
0.0
 10
2.9006005263
 20
1.10974916
 30
0.0
 10
2.9017301997
 20
1.1099141494
 30
0.0
 10
2.9035470005
 20
1.1101109191
 30
0.0
 10
2.9051094406
 20
1.1102429594
 30
0.0
 10
2.9059970376
 20
1.1103113929
 30
0.0
  0
LINE
  5
4FA
100
AcDbEntity
  8
0
100
AcDbLine
 62
7
  6
CONTINUOUS
 10
2.9059970376
 20
1.1103113929
 11
2.9179564192
 21
1.1110070167
  0
SPLINE
  5
4FB
100
AcDbEntity
  8
0
100
AcDbSpline
 62
7
  6
CONTINUOUS
 70
0
 71
3
 72
16
 73
12
 74
0
 42
0.0000001
 43
0.0000001
 44
0.0000000001
 40
0.0
 40
0.0
 40
0.0
 40
0.0
 40
0.0939704738
 40
0.2170114376
 40
0.3600763816
 40
0.5126394755
 40
0.6634700684
 40
0.8014604863
 40
0.9164539997
 40
0.962605699
 40
1.0
 40
1.0
 40
1.0
 40
1.0
 10
2.9179564192
 20
1.1110070167
 30
0.0
 10
2.9257508453
 20
1.1113734163
 30
0.0
 10
2.943760037
 20
1.1120182131
 30
0.0
 10
2.9736472543
 20
1.1128775247
 30
0.0
 10
3.0084016897
 20
1.1137413407
 30
0.0
 10
3.0454640516
 20
1.1146118752
 30
0.0
 10
3.0821050286
 20
1.1154807109
 30
0.0
 10
3.1156254639
 20
1.1163442672
 30
0.0
 10
3.1404537141
 20
1.1170973546
 30
0.0
 10
3.1569277644
 20
1.1177299625
 30
0.0
 10
3.1638578549
 20
1.1180532101
 30
0.0
 10
3.166958231
 20
1.1182246658
 30
0.0
  0
LINE
  5
4FC
100
AcDbEntity
  8
0
100
AcDbLine
 62
7
  6
CONTINUOUS
 10
3.1682064568
 20
1.1182953629
 11
3.1772822238
 21
1.1189992548
  0
LINE
  5
4FD
100
AcDbEntity
  8
0
100
AcDbLine
 62
7
  6
CONTINUOUS
 10
3.1772822238
 20
1.1189992548
 11
3.1795851591
 21
1.1193496623
  0
LINE
  5
4FE
100
AcDbEntity
  8
0
100
AcDbLine
 62
7
  6
CONTINUOUS
 10
3.1795851591
 20
1.1193496623
 11
3.1803612586
 21
1.1196869062
  0
SPLINE
  5
4FF
100
AcDbEntity
  8
0
100
AcDbSpline
 62
7
  6
CONTINUOUS
 70
0
 71
3
 72
14
 73
10
 74
0
 42
0.0000001
 43
0.0000001
 44
0.0000000001
 40
0.0
 40
0.0
 40
0.0
 40
0.0
 40
0.0382329046
 40
0.1008712662
 40
0.1884212057
 40
0.3010011112
 40
0.4386220672
 40
0.6012496786
 40
1.0
 40
1.0
 40
1.0
 40
1.0
 10
2.9119876157
 20
1.1167481895
 30
0.0
 10
2.9121167091
 20
1.1168251646
 30
0.0
 10
2.9125014887
 20
1.1169433466
 30
0.0
 10
2.9132232834
 20
1.1170974423
 30
0.0
 10
2.9142465063
 20
1.1172516889
 30
0.0
 10
2.9155643374
 20
1.1174098391
 30
0.0
 10
2.9171797682
 20
1.1175685685
 30
0.0
 10
2.919918099
 20
1.1177971616
 30
0.0
 10
2.922120301
 20
1.1179437761
 30
0.0
 10
2.9236849048
 20
1.1180400212
 30
0.0
  0
SPLINE
  5
500
100
AcDbEntity
  8
0
100
AcDbSpline
 62
7
  6
CONTINUOUS
 70
0
 71
3
 72
25
 73
21
 74
0
 42
0.0000001
 43
0.0000001
 44
0.0000000001
 40
0.0
 40
0.0
 40
0.0
 40
0.0
 40
0.0424207843
 40
0.0963038706
 40
0.2326172824
 40
0.3949825486
 40
0.4804867056
 40
0.5658374944
 40
0.6488124941
 40
0.7272830167
 40
0.799149204
 40
0.8623529911
 40
0.915100556
 40
0.9371937799
 40
0.95626305
 40
0.9721854768
 40
0.9848498865
 40
0.9941508799
 40
0.9975110216
 40
1.0
 40
1.0
 40
1.0
 40
1.0
 10
2.9236849048
 20
1.1180400212
 30
0.0
 10
2.9271233344
 20
1.1182515331
 30
0.0
 10
2.934934544
 20
1.1186441706
 30
0.0
 10
2.9538097344
 20
1.1194060552
 30
0.0
 10
2.982427412
 20
1.1202953094
 30
0.0
 10
3.0136149884
 20
1.1211334654
 30
0.0
 10
3.0406662487
 20
1.1218341185
 30
0.0
 10
3.0612724583
 20
1.1223689994
 30
0.0
 10
3.0813072868
 20
1.1229038691
 30
0.0
 10
3.100246674
 20
1.1234376253
 30
0.0
 10
3.1175798681
 20
1.1239690758
 30
0.0
 10
3.1328231373
 20
1.1244976089
 30
0.0
 10
3.144024217
 20
1.1249584561
 30
0.0
 10
3.151641118
 20
1.1253383717
 30
0.0
 10
3.1562692238
 20
1.1256053246
 30
0.0
 10
3.1601304931
 20
1.1258698091
 30
0.0
 10
3.1631959669
 20
1.1261325733
 30
0.0
 10
3.1652408729
 20
1.1263614465
 30
0.0
 10
3.1664553436
 20
1.1265586025
 30
0.0
 10
3.1669203767
 20
1.126658597
 30
0.0
 10
3.1671149535
 20
1.1267133225
 30
0.0
  0
LINE
  5
501
100
AcDbEntity
  8
0
100
AcDbLine
 62
7
  6
CONTINUOUS
 10
3.1671149535
 20
1.1267133225
 11
3.1676463213
 21
1.1270114587
  0
SPLINE
  5
502
100
AcDbEntity
  8
0
100
AcDbSpline
 62
7
  6
CONTINUOUS
 70
0
 71
3
 72
13
 73
9
 74
0
 42
0.0000001
 43
0.0000001
 44
0.0000000001
 40
0.0
 40
0.0
 40
0.0
 40
0.0
 40
0.0426644812
 40
0.1086544394
 40
0.1983654525
 40
0.3118130368
 40
0.6094455583
 40
1.0
 40
1.0
 40
1.0
 40
1.0
 10
3.1675194587
 20
1.1271602922
 30
0.0
 10
3.1674159945
 20
1.1272203878
 30
0.0
 10
3.1671242764
 20
1.1273195823
 30
0.0
 10
3.1665839037
 20
1.1274470834
 30
0.0
 10
3.1658392038
 20
1.127575815
 30
0.0
 10
3.1644481702
 20
1.1277680681
 30
0.0
 10
3.1622107704
 20
1.127995529
 30
0.0
 10
3.1602869275
 20
1.1281487169
 30
0.0
 10
3.1591945381
 20
1.1282284346
 30
0.0
  0
SPLINE
  5
503
100
AcDbEntity
  8
0
100
AcDbSpline
 62
7
  6
CONTINUOUS
 70
0
 71
3
 72
13
 73
9
 74
0
 42
0.0000001
 43
0.0000001
 44
0.0000000001
 40
0.0
 40
0.0
 40
0.0
 40
0.0
 40
0.0427091371
 40
0.1085942533
 40
0.1981001466
 40
0.3113090724
 40
0.6086582195
 40
1.0
 40
1.0
 40
1.0
 40
1.0
 10
3.1802564422
 20
1.1198083299
 30
0.0
 10
3.1801722122
 20
1.1198577612
 30
0.0
 10
3.1799353928
 20
1.1199408534
 30
0.0
 10
3.179496357
 20
1.1200490757
 30
0.0
 10
3.1788914638
 20
1.1201597759
 30
0.0
 10
3.1777603264
 20
1.120326583
 30
0.0
 10
3.1759368175
 20
1.1205260422
 30
0.0
 10
3.1743676872
 20
1.1206597111
 30
0.0
 10
3.1734754795
 20
1.1207288929
 30
0.0
  0
SPLINE
  5
504
100
AcDbEntity
  8
0
100
AcDbSpline
 62
7
  6
CONTINUOUS
 70
0
 71
3
 72
13
 73
9
 74
0
 42
0.0000001
 43
0.0000001
 44
0.0000000001
 40
0.0
 40
0.0
 40
0.0
 40
0.0
 40
0.0435472665
 40
0.1099765302
 40
0.1997789473
 40
0.3130598181
 40
0.609927454
 40
1.0
 40
1.0
 40
1.0
 40
1.0
 10
2.8992234962
 20
1.1302365398
 30
0.0
 10
2.8993091898
 20
1.130287029
 30
0.0
 10
2.8995484586
 20
1.1303718736
 30
0.0
 10
2.8999908111
 20
1.1304806378
 30
0.0
 10
2.9005972104
 20
1.1305905552
 30
0.0
 10
2.9017271695
 20
1.1307543168
 30
0.0
 10
2.9035451958
 20
1.1309483193
 30
0.0
 10
2.9051086991
 20
1.1310786265
 30
0.0
 10
2.9059970376
 20
1.1311463929
 30
0.0
  0
LINE
  5
505
100
AcDbEntity
  8
0
100
AcDbLine
 62
7
  6
CONTINUOUS
 10
2.9059970376
 20
1.1311463929
 11
2.9179564214
 21
1.1318407494
  0
SPLINE
  5
506
100
AcDbEntity
  8
0
100
AcDbSpline
 62
7
  6
CONTINUOUS
 70
0
 71
3
 72
15
 73
11
 74
0
 42
0.0000001
 43
0.0000001
 44
0.0000000001
 40
0.0
 40
0.0
 40
0.0
 40
0.0
 40
0.0894217381
 40
0.205125625
 40
0.3400130021
 40
0.4857913301
 40
0.6334845762
 40
0.7740119992
 40
0.8987402691
 40
1.0
 40
1.0
 40
1.0
 40
1.0
 10
2.9179564214
 20
1.1318407494
 30
0.0
 10
2.9249725903
 20
1.1321717436
 30
0.0
 10
2.9410746961
 20
1.1327633907
 30
0.0
 10
2.9677706235
 20
1.133551435
 30
0.0
 10
2.9988949531
 20
1.1343457063
 30
0.0
 10
3.0325325353
 20
1.1351449597
 30
0.0
 10
3.0666132647
 20
1.135944426
 30
0.0
 10
3.0990401641
 20
1.136741693
 30
0.0
 10
3.1278186129
 20
1.1375332872
 30
0.0
 10
3.1455603964
 20
1.1381184408
 30
0.0
 10
3.1535077848
 20
1.1384385471
 30
0.0
  0
LINE
  5
507
100
AcDbEntity
  8
0
100
AcDbLine
 62
7
  6
CONTINUOUS
 10
3.1535077848
 20
1.1384385471
 11
3.1670000744
 21
1.139067438
  0
LINE
  5
508
100
AcDbEntity
  8
0
100
AcDbLine
 62
7
  6
CONTINUOUS
 10
3.1682064524
 20
1.1391357617
 11
3.1772822251
 21
1.1398206276
  0
LINE
  5
509
100
AcDbEntity
  8
0
100
AcDbLine
 62
7
  6
CONTINUOUS
 10
3.1772822251
 20
1.1398206276
 11
3.1795851594
 21
1.1401645075
  0
LINE
  5
50A
100
AcDbEntity
  8
0
100
AcDbLine
 62
7
  6
CONTINUOUS
 10
3.1795851594
 20
1.1401645075
 11
3.1803612586
 21
1.1405219062
  0
LINE
  5
50B
100
AcDbEntity
  8
0
100
AcDbLine
 62
7
  6
CONTINUOUS
 10
2.9119806407
 20
1.1375816017
 11
2.913829848
 21
1.1380211028
  0
LINE
  5
50C
100
AcDbEntity
  8
0
100
AcDbLine
 62
7
  6
CONTINUOUS
 10
2.913829848
 20
1.1380211028
 11
2.9221043329
 21
1.1387737447
  0
SPLINE
  5
50D
100
AcDbEntity
  8
0
100
AcDbSpline
 62
7
  6
CONTINUOUS
 70
0
 71
3
 72
11
 73
7
 74
0
 42
0.0000001
 43
0.0000001
 44
0.0000000001
 40
0.0
 40
0.0
 40
0.0
 40
0.0
 40
0.1845596485
 40
0.4210525434
 40
0.6974702389
 40
1.0
 40
1.0
 40
1.0
 40
1.0
 10
2.9285029221
 20
1.1391479498
 30
0.0
 10
2.9341734507
 20
1.1394458151
 30
0.0
 10
2.9471172409
 20
1.139985982
 30
0.0
 10
2.9685641701
 20
1.1407068322
 30
0.0
 10
2.9936424122
 20
1.1414328343
 30
0.0
 10
3.0114485527
 20
1.141907566
 30
0.0
 10
3.0207532845
 20
1.1421516514
 30
0.0
  0
SPLINE
  5
50E
100
AcDbEntity
  8
0
100
AcDbSpline
 62
7
  6
CONTINUOUS
 70
0
 71
3
 72
11
 73
7
 74
0
 42
0.0000001
 43
0.0000001
 44
0.0000000001
 40
0.0
 40
0.0
 40
0.0
 40
0.0
 40
0.3081249223
 40
0.5865435072
 40
0.8214540079
 40
1.0
 40
1.0
 40
1.0
 40
1.0
 10
3.0643493094
 20
1.1432873472
 30
0.0
 10
3.0735247692
 20
1.143529597
 30
0.0
 10
3.090990797
 20
1.1440010163
 30
0.0
 10
3.1154502356
 20
1.1447275411
 30
0.0
 10
3.1360477675
 20
1.1454446051
 30
0.0
 10
3.1483529706
 20
1.1459856265
 30
0.0
 10
3.1536629166
 20
1.1462900015
 30
0.0
  0
SPLINE
  5
50F
100
AcDbEntity
  8
0
100
AcDbSpline
 62
7
  6
CONTINUOUS
 70
0
 71
3
 72
17
 73
13
 74
0
 42
0.0000001
 43
0.0000001
 44
0.0000000001
 40
0.0
 40
0.0
 40
0.0
 40
0.0
 40
0.2219981482
 40
0.4170506964
 40
0.5846782698
 40
0.7244138941
 40
0.8358415614
 40
0.9187112512
 40
0.9494198477
 40
0.9730230722
 40
0.9896847519
 40
1.0
 40
1.0
 40
1.0
 40
1.0
 10
3.1536629166
 20
1.1462900015
 30
0.0
 10
3.1547046974
 20
1.1463497181
 30
0.0
 10
3.1566614808
 20
1.1464677531
 30
0.0
 10
3.1594033592
 20
1.1466556214
 30
0.0
 10
3.1617575171
 20
1.1468428394
 30
0.0
 10
3.1637174907
 20
1.147028599
 30
0.0
 10
3.1652765599
 20
1.1472129834
 30
0.0
 10
3.166322917
 20
1.147374717
 30
0.0
 10
3.1669525502
 20
1.1475118437
 30
0.0
 10
3.1672749103
 20
1.1476037313
 30
0.0
 10
3.1674933924
 20
1.147691982
 30
0.0
 10
3.1676033664
 20
1.1477672692
 30
0.0
 10
3.1676285671
 20
1.1478086919
 30
0.0
  0
SPLINE
  5
510
100
AcDbEntity
  8
0
100
AcDbSpline
 62
9
  6
CONTINUOUS
 70
0
 71
3
 72
18
 73
14
 74
0
 42
0.0000001
 43
0.0000001
 44
0.0000000001
 40
0.0
 40
0.0
 40
0.0
 40
0.0
 40
0.0042078615
 40
0.0167666086
 40
0.0375800606
 40
0.0665521372
 40
0.1035868609
 40
0.1485883596
 40
0.2621086719
 40
0.4061013013
 40
0.5785699755
 40
0.777278598
 40
1.0
 40
1.0
 40
1.0
 40
1.0
 10
2.4269443218
 20
1.290594067
 30
0.0
 10
2.4269404966
 20
1.2905296761
 30
0.0
 10
2.4269434038
 20
1.2902724257
 30
0.0
 10
2.426926577
 20
1.2896966788
 30
0.0
 10
2.4269118119
 20
1.2887410103
 30
0.0
 10
2.4268816651
 20
1.2874104638
 30
0.0
 10
2.4268424822
 20
1.2857092017
 30
0.0
 10
2.426765874
 20
1.2827123957
 30
0.0
 10
2.4266327291
 20
1.2780768927
 30
0.0
 10
2.4264147669
 20
1.2714890609
 30
0.0
 10
2.4261048724
 20
1.2635977749
 30
0.0
 10
2.425680507
 20
1.2545034042
 30
0.0
 10
2.4253250466
 20
1.2480527698
 30
0.0
 10
2.425121948
 20
1.2446446053
 30
0.0
  0
SPLINE
  5
511
100
AcDbEntity
  8
0
100
AcDbSpline
 62
7
  6
CONTINUOUS
 70
0
 71
3
 72
13
 73
9
 74
0
 42
0.0000001
 43
0.0000001
 44
0.0000000001
 40
0.0
 40
0.0
 40
0.0
 40
0.0
 40
0.0453016233
 40
0.1129811306
 40
0.2035205272
 40
0.3170330326
 40
0.6128807641
 40
1.0
 40
1.0
 40
1.0
 40
1.0
 10
3.1802296477
 20
1.1406709627
 30
0.0
 10
3.1801396877
 20
1.1407214043
 30
0.0
 10
3.1798945722
 20
1.1408068945
 30
0.0
 10
3.1794446637
 20
1.1409152965
 30
0.0
 10
3.1788349702
 20
1.1410237207
 30
0.0
 10
3.1777081864
 20
1.1411833686
 30
0.0
 10
3.1759040304
 20
1.1413712274
 30
0.0
 10
3.1743543393
 20
1.1414978145
 30
0.0
 10
3.1734754795
 20
1.1415638929
 30
0.0
  0
SPLINE
  5
512
100
AcDbEntity
  8
0
100
AcDbSpline
 62
7
  6
CONTINUOUS
 70
0
 71
3
 72
14
 73
10
 74
0
 42
0.0000001
 43
0.0000001
 44
0.0000000001
 40
0.0
 40
0.0
 40
0.0
 40
0.0
 40
0.0264083104
 40
0.0788995092
 40
0.1600742907
 40
0.2703143445
 40
0.4095972114
 40
0.5777760188
 40
1.0
 40
1.0
 40
1.0
 40
1.0
 10
2.9118310702
 20
1.0567217547
 30
0.0
 10
2.9118450041
 20
1.0567873923
 30
0.0
 10
2.9120438469
 20
1.0569082822
 30
0.0
 10
2.912412713
 20
1.057025492
 30
0.0
 10
2.9130281221
 20
1.0571627974
 30
0.0
 10
2.9138535706
 20
1.0572963928
 30
0.0
 10
2.9149076159
 20
1.0574344847
 30
0.0
 10
2.9167502314
 20
1.0576339323
 30
0.0
 10
2.9182456352
 20
1.0577597728
 30
0.0
 10
2.9193152868
 20
1.057842167
 30
0.0
  0
SPLINE
  5
513
100
AcDbEntity
  8
0
100
AcDbSpline
 62
7
  6
CONTINUOUS
 70
0
 71
3
 72
26
 73
22
 74
0
 42
0.0000001
 43
0.0000001
 44
0.0000000001
 40
0.0
 40
0.0
 40
0.0
 40
0.0
 40
0.0361260736
 40
0.08494731
 40
0.1451863619
 40
0.215065783
 40
0.292619066
 40
0.3756262899
 40
0.461770637
 40
0.548603979
 40
0.6336607191
 40
0.7145424382
 40
0.7889327939
 40
0.8547818601
 40
0.9101966713
 40
0.9335064357
 40
0.9536447505
 40
0.9704488465
 40
0.983823552
 40
0.9936944781
 40
1.0
 40
1.0
 40
1.0
 40
1.0
 10
2.9193152868
 20
1.057842167
 30
0.0
 10
2.9222915195
 20
1.0580714233
 30
0.0
 10
2.9292995996
 20
1.0584789282
 30
0.0
 10
2.9412840156
 20
1.0590169357
 30
0.0
 10
2.9560598343
 20
1.059558598
 30
0.0
 10
2.9732107407
 20
1.0601060907
 30
0.0
 10
2.9922437995
 20
1.0606550383
 30
0.0
 10
3.0126212583
 20
1.061205611
 30
0.0
 10
3.0337657789
 20
1.061756436
 30
0.0
 10
3.0550797
 20
1.0623073599
 30
0.0
 10
3.0759586409
 20
1.0628579927
 30
0.0
 10
3.0958090894
 20
1.0634076198
 30
0.0
 10
3.1140718351
 20
1.0639561672
 30
0.0
 10
3.1302292898
 20
1.064501957
 30
0.0
 10
3.142166011
 20
1.0649757351
 30
0.0
 10
3.1503255533
 20
1.0653667841
 30
0.0
 10
3.1552967177
 20
1.0656412792
 30
0.0
 10
3.1594450921
 20
1.0659153043
 30
0.0
 10
3.1627445377
 20
1.0661832546
 30
0.0
 10
3.1651701462
 20
1.0664512437
 30
0.0
 10
3.1664950629
 20
1.0666537946
 30
0.0
 10
3.1669996078
 20
1.0667837678
 30
0.0
  0
LINE
  5
514
100
AcDbEntity
  8
0
100
AcDbLine
 62
7
  6
CONTINUOUS
 10
3.1669996078
 20
1.0667837678
 11
3.1675240603
 21
1.0669724051
  0
SPLINE
  5
515
100
AcDbEntity
  8
0
100
AcDbSpline
 62
7
  6
CONTINUOUS
 70
0
 71
3
 72
24
 73
20
 74
0
 42
0.0000001
 43
0.0000001
 44
0.0000000001
 40
0.0
 40
0.0
 40
0.0
 40
0.0
 40
0.1174835202
 40
0.2654676007
 40
0.4302965408
 40
0.5143272176
 40
0.5968320792
 40
0.6759201367
 40
0.7497564988
 40
0.8166457608
 40
0.8749785214
 40
0.923463469
 40
0.9436427212
 40
0.9609480074
 40
0.9753031722
 40
0.9866363781
 40
0.9948805184
 40
0.9978291452
 40
1.0
 40
1.0
 40
1.0
 40
1.0
 10
3.1435745603
 20
1.1041167547
 30
0.0
 10
3.1345172926
 20
1.1037143525
 30
0.0
 10
3.1140429917
 20
1.10300017
 30
0.0
 10
3.0808509042
 20
1.1020434806
 30
0.0
 10
3.0502367672
 20
1.1012473116
 30
0.0
 10
3.0246739438
 20
1.1005856289
 30
0.0
 10
3.0057257439
 20
1.1000864445
 30
0.0
 10
2.9875645028
 20
1.0995878963
 30
0.0
 10
2.9706087754
 20
1.0990901125
 30
0.0
 10
2.9552553949
 20
1.0985946013
 30
0.0
 10
2.9418594861
 20
1.0981006388
 30
0.0
 10
2.9320683528
 20
1.0976717735
 30
0.0
 10
2.9254434826
 20
1.0973172952
 30
0.0
 10
2.9214507426
 20
1.0970684914
 30
0.0
 10
2.9181418141
 20
1.0968221827
 30
0.0
 10
2.9155348319
 20
1.0965774318
 30
0.0
 10
2.9138084787
 20
1.0963642574
 30
0.0
 10
2.9127937707
 20
1.0961798297
 30
0.0
 10
2.912409173
 20
1.0960863413
 30
0.0
 10
2.912249633
 20
1.0960352377
 30
0.0
  0
SPLINE
  5
516
100
AcDbEntity
  8
0
100
AcDbSpline
 62
7
  6
CONTINUOUS
 70
0
 71
3
 72
14
 73
10
 74
0
 42
0.0000001
 43
0.0000001
 44
0.0000000001
 40
0.0
 40
0.0
 40
0.0
 40
0.0
 40
0.3832088372
 40
0.5435984894
 40
0.6819212292
 40
0.7972433725
 40
0.8887507669
 40
0.9562774214
 40
1.0
 40
1.0
 40
1.0
 40
1.0
 10
3.1435571626
 20
1.1067217547
 30
0.0
 10
3.1465787912
 20
1.1068556755
 30
0.0
 10
3.1508645567
 20
1.1070604769
 30
0.0
 10
3.1562377161
 20
1.1073737314
 30
0.0
 10
3.1594983666
 20
1.1075935233
 30
0.0
 10
3.1622136459
 20
1.1078121994
 30
0.0
 10
3.1643692963
 20
1.1080268279
 30
0.0
 10
3.1659542489
 20
1.1082406145
 30
0.0
 10
3.1668201066
 20
1.108404012
 30
0.0
 10
3.1671499978
 20
1.1085053118
 30
0.0
  0
SPLINE
  5
517
100
AcDbEntity
  8
0
100
AcDbSpline
 62
7
  6
CONTINUOUS
 70
0
 71
3
 72
18
 73
14
 74
0
 42
0.0000001
 43
0.0000001
 44
0.0000000001
 40
0.0
 40
0.0
 40
0.0
 40
0.0
 40
0.2269742135
 40
0.4271659596
 40
0.599130271
 40
0.7414312157
 40
0.8527002533
 40
0.9323782083
 40
0.9604331802
 40
0.9807280864
 40
0.9880361918
 40
0.9935382428
 40
1.0
 40
1.0
 40
1.0
 40
1.0
 10
3.1435571626
 20
1.1041167547
 30
0.0
 10
3.1453892174
 20
1.1041979527
 30
0.0
 10
3.1488368095
 20
1.1043586321
 30
0.0
 10
3.1536708172
 20
1.1046141786
 30
0.0
 10
3.1578196276
 20
1.1048693272
 30
0.0
 10
3.1612486573
 20
1.1051212772
 30
0.0
 10
3.1639296709
 20
1.1053723683
 30
0.0
 10
3.165686122
 20
1.1055897245
 30
0.0
 10
3.1667041235
 20
1.1057807436
 30
0.0
 10
3.1671394489
 20
1.1058888831
 30
0.0
 10
3.1673924559
 20
1.1059859893
 30
0.0
 10
3.1675260237
 20
1.1060527604
 30
0.0
 10
3.1676117113
 20
1.1061352334
 30
0.0
 10
3.1676084528
 20
1.1061873398
 30
0.0
  0
SPLINE
  5
518
100
AcDbEntity
  8
0
100
AcDbSpline
 62
7
  6
CONTINUOUS
 70
0
 71
3
 72
16
 73
12
 74
0
 42
0.0000001
 43
0.0000001
 44
0.0000000001
 40
0.0
 40
0.0
 40
0.0
 40
0.0
 40
0.1032297994
 40
0.2313053628
 40
0.3755204992
 40
0.526292107
 40
0.6734817229
 40
0.807225934
 40
0.9185485763
 40
0.9634027105
 40
1.0
 40
1.0
 40
1.0
 40
1.0
 10
3.1539017773
 20
1.1140541031
 30
0.0
 10
3.1455988407
 20
1.1137144358
 30
0.0
 10
3.1269884956
 20
1.1131072978
 30
0.0
 10
3.0967708525
 20
1.1122820975
 30
0.0
 10
3.0627248891
 20
1.1114513005
 30
0.0
 10
3.0271399574
 20
1.1106186381
 30
0.0
 10
2.9923980738
 20
1.1097872794
 30
0.0
 10
2.9608327366
 20
1.1089597458
 30
0.0
 10
2.9375051495
 20
1.1082423969
 30
0.0
 10
2.9219988357
 20
1.1076360506
 30
0.0
 10
2.9154492942
 20
1.1073250077
 30
0.0
 10
2.9125077573
 20
1.1071621786
 30
0.0
  0
LINE
  5
519
100
AcDbEntity
  8
0
100
AcDbLine
 62
7
  6
CONTINUOUS
 10
2.9125077573
 20
1.1071621786
 11
2.9022020783
 21
1.1064025863
  0
LINE
  5
51A
100
AcDbEntity
  8
0
100
AcDbLine
 62
7
  6
CONTINUOUS
 10
2.9022020783
 20
1.1064025863
 11
2.8998903529
 21
1.1060560655
  0
LINE
  5
51B
100
AcDbEntity
  8
0
100
AcDbLine
 62
7
  6
CONTINUOUS
 10
2.8998903529
 20
1.1060560655
 11
2.8991112586
 21
1.1057041031
  0
LINE
  5
51C
100
AcDbEntity
  8
0
100
AcDbLine
 62
7
  6
CONTINUOUS
 10
3.1539017773
 20
1.0967844062
 11
3.1669525144
 21
1.0973927776
  0
SPLINE
  5
51D
100
AcDbEntity
  8
0
100
AcDbSpline
 62
7
  6
CONTINUOUS
 70
0
 71
3
 72
11
 73
7
 74
0
 42
0.0000001
 43
0.0000001
 44
0.0000000001
 40
0.0
 40
0.0
 40
0.0
 40
0.0
 40
0.3438994286
 40
0.6260443111
 40
0.845113106
 40
1.0
 40
1.0
 40
1.0
 40
1.0
 10
3.1669525144
 20
1.0973927776
 30
0.0
 10
3.1683380812
 20
1.0974686751
 30
0.0
 10
3.1708598147
 20
1.0976173959
 30
0.0
 10
3.1742614252
 20
1.097861333
 30
0.0
 10
3.1768976113
 20
1.0981031267
 30
0.0
 10
3.1783963947
 20
1.0982865138
 30
0.0
 10
3.1790125647
 20
1.0983910404
 30
0.0
  0
LINE
  5
51E
100
AcDbEntity
  8
0
100
AcDbLine
 62
7
  6
CONTINUOUS
 10
3.1790125647
 20
1.0983910404
 11
3.180022808
 21
1.0986197914
  0
LINE
  5
51F
100
AcDbEntity
  8
0
100
AcDbLine
 62
7
  6
CONTINUOUS
 10
3.180022808
 20
1.0986197914
 11
3.1803612586
 21
1.0988519062
  0
SPLINE
  5
520
100
AcDbEntity
  8
0
100
AcDbSpline
 62
9
  6
CONTINUOUS
 70
0
 71
3
 72
18
 73
14
 74
0
 42
0.0000001
 43
0.0000001
 44
0.0000000001
 40
0.0
 40
0.0
 40
0.0
 40
0.0
 40
0.0041918947
 40
0.0167186073
 40
0.0375070583
 40
0.0664841979
 40
0.1035770072
 40
0.1487074113
 40
0.2624868544
 40
0.4064343656
 40
0.5790450993
 40
0.777902798
 40
1.0
 40
1.0
 40
1.0
 40
1.0
 10
2.4459446014
 20
0.3287175465
 30
0.0
 10
2.4459386261
 20
0.3287912956
 30
0.0
 10
2.4459446158
 20
0.3290869047
 30
0.0
 10
2.4459210179
 20
0.3297482789
 30
0.0
 10
2.4459050594
 20
0.330847877
 30
0.0
 10
2.4458697858
 20
0.3323805272
 30
0.0
 10
2.4458269938
 20
0.3343428768
 30
0.0
 10
2.4457455723
 20
0.3378015312
 30
0.0
 10
2.4456073159
 20
0.3431454725
 30
0.0
 10
2.4453755611
 20
0.3507378157
 30
0.0
 10
2.4450503628
 20
0.3598296117
 30
0.0
 10
2.4446116943
 20
0.3702974673
 30
0.0
 10
2.4442484527
 20
0.3777189034
 30
0.0
 10
2.4440419926
 20
0.3816336803
 30
0.0
  0
SPLINE
  5
521
100
AcDbEntity
  8
0
100
AcDbSpline
 62
7
  6
CONTINUOUS
 70
0
 71
3
 72
16
 73
12
 74
0
 42
0.0000001
 43
0.0000001
 44
0.0000000001
 40
0.0
 40
0.0
 40
0.0
 40
0.0
 40
0.009232221
 40
0.023800856
 40
0.0738342124
 40
0.1535232438
 40
0.2632086554
 40
0.4028585738
 40
0.5723326323
 40
0.7714476088
 40
1.0
 40
1.0
 40
1.0
 40
1.0
 10
3.1676084528
 20
1.1087923398
 30
0.0
 10
3.1676065155
 20
1.1088233187
 30
0.0
 10
3.1675559405
 20
1.1088955488
 30
0.0
 10
3.1673397787
 20
1.1090170945
 30
0.0
 10
3.1668691911
 20
1.1091548923
 30
0.0
 10
3.166081105
 20
1.1093098883
 30
0.0
 10
3.1649850763
 20
1.1094684087
 30
0.0
 10
3.1635864772
 20
1.1096291963
 30
0.0
 10
3.1618852081
 20
1.1097910179
 30
0.0
 10
3.1598841661
 20
1.1099535216
 30
0.0
 10
3.1584498775
 20
1.110055137
 30
0.0
 10
3.1576831921
 20
1.1101065855
 30
0.0
  0
LINE
  5
522
100
AcDbEntity
  8
0
100
AcDbLine
 62
7
  6
CONTINUOUS
 10
2.9125464658
 20
1.1188646138
 11
2.9120080234
 21
1.119051216
  0
SPLINE
  5
523
100
AcDbEntity
  8
0
100
AcDbSpline
 62
7
  6
CONTINUOUS
 70
0
 71
3
 72
16
 73
12
 74
0
 42
0.0000001
 43
0.0000001
 44
0.0000000001
 40
0.0
 40
0.0
 40
0.0
 40
0.0
 40
0.0209860194
 40
0.041474466
 40
0.0693767572
 40
0.147951199
 40
0.2572009684
 40
0.3972025873
 40
0.5679331629
 40
0.7691423254
 40
1.0
 40
1.0
 40
1.0
 40
1.0
 10
2.9118660629
 20
1.1192019271
 30
0.0
 10
2.9118601681
 20
1.1192855578
 30
0.0
 10
2.9120512535
 20
1.1193957767
 30
0.0
 10
2.9122911546
 20
1.1194835093
 30
0.0
 10
2.9127919462
 20
1.1196198284
 30
0.0
 10
2.9136333857
 20
1.1197693089
 30
0.0
 10
2.9149350295
 20
1.1199455506
 30
0.0
 10
2.9166024009
 20
1.1201208524
 30
0.0
 10
2.9186404104
 20
1.1202986758
 30
0.0
 10
2.9210418442
 20
1.1204766888
 30
0.0
 10
2.9227643789
 20
1.1205883959
 30
0.0
 10
2.9236849048
 20
1.1206450212
 30
0.0
  0
SPLINE
  5
524
100
AcDbEntity
  8
0
100
AcDbSpline
 62
7
  6
CONTINUOUS
 70
0
 71
3
 72
25
 73
21
 74
0
 42
0.0000001
 43
0.0000001
 44
0.0000000001
 40
0.0
 40
0.0
 40
0.0
 40
0.0
 40
0.0424207843
 40
0.0963038706
 40
0.2326172824
 40
0.3949825486
 40
0.4804867056
 40
0.5658374944
 40
0.6488124941
 40
0.7272830167
 40
0.799149204
 40
0.8623529911
 40
0.915100556
 40
0.9371937799
 40
0.95626305
 40
0.9721854768
 40
0.9848498865
 40
0.9941508799
 40
0.9975110216
 40
1.0
 40
1.0
 40
1.0
 40
1.0
 10
2.9236849048
 20
1.1206450212
 30
0.0
 10
2.9271233344
 20
1.1208565331
 30
0.0
 10
2.934934544
 20
1.1212491706
 30
0.0
 10
2.9538097344
 20
1.1220110552
 30
0.0
 10
2.982427412
 20
1.1229003094
 30
0.0
 10
3.0136149884
 20
1.1237384654
 30
0.0
 10
3.0406662487
 20
1.1244391185
 30
0.0
 10
3.0612724583
 20
1.1249739994
 30
0.0
 10
3.0813072868
 20
1.1255088691
 30
0.0
 10
3.100246674
 20
1.1260426253
 30
0.0
 10
3.1175798681
 20
1.1265740758
 30
0.0
 10
3.1328231373
 20
1.1271026089
 30
0.0
 10
3.144024217
 20
1.1275634561
 30
0.0
 10
3.151641118
 20
1.1279433717
 30
0.0
 10
3.1562692238
 20
1.1282103246
 30
0.0
 10
3.1601304931
 20
1.1284748091
 30
0.0
 10
3.1631959669
 20
1.1287375733
 30
0.0
 10
3.1652408729
 20
1.1289664465
 30
0.0
 10
3.1664553436
 20
1.1291636025
 30
0.0
 10
3.1669203767
 20
1.129263597
 30
0.0
 10
3.1671149535
 20
1.1293183225
 30
0.0
  0
LINE
  5
525
100
AcDbEntity
  8
0
100
AcDbLine
 62
7
  6
CONTINUOUS
 10
3.1671149535
 20
1.1293183225
 11
3.1675152538
 21
1.129468996
  0
SPLINE
  5
526
100
AcDbEntity
  8
0
100
AcDbSpline
 62
7
  6
CONTINUOUS
 70
0
 71
3
 72
13
 73
9
 74
0
 42
0.0000001
 43
0.0000001
 44
0.0000000001
 40
0.0
 40
0.0
 40
0.0
 40
0.0
 40
0.3794831352
 40
0.6745029138
 40
0.7894028884
 40
0.8820881019
 40
0.9522687328
 40
1.0
 40
1.0
 40
1.0
 40
1.0
 10
2.9280231037
 20
1.1383559322
 30
0.0
 10
2.9260248555
 20
1.1384623348
 30
0.0
 10
2.9224740084
 20
1.1386674207
 30
0.0
 10
2.9183217444
 20
1.1389686435
 30
0.0
 10
2.915683552
 20
1.1392216734
 30
0.0
 10
2.9142284153
 20
1.1393930291
 30
0.0
 10
2.9131313715
 20
1.1395630766
 30
0.0
 10
2.912521724
 20
1.1396942491
 30
0.0
 10
2.9122820197
 20
1.1397710101
 30
0.0
  0
SPLINE
  5
527
100
AcDbEntity
  8
0
100
AcDbSpline
 62
7
  6
CONTINUOUS
 70
0
 71
3
 72
12
 73
8
 74
0
 42
0.0000001
 43
0.0000001
 44
0.0000000001
 40
0.0
 40
0.0
 40
0.0
 40
0.0
 40
0.0913682974
 40
0.1727448294
 40
0.2813488823
 40
0.583187874
 40
1.0
 40
1.0
 40
1.0
 40
1.0
 10
2.9118595176
 20
1.1400422274
 30
0.0
 10
2.911859932
 20
1.1401060533
 30
0.0
 10
2.9119808938
 20
1.1401951557
 30
0.0
 10
2.9121517314
 20
1.1402700111
 30
0.0
 10
2.9124831588
 20
1.1403793382
 30
0.0
 10
2.9130452721
 20
1.1405013988
 30
0.0
 10
2.9135418221
 20
1.140583409
 30
0.0
 10
2.913829848
 20
1.1406261028
 30
0.0
  0
LINE
  5
528
100
AcDbEntity
  8
0
100
AcDbLine
 62
7
  6
CONTINUOUS
 10
2.913829848
 20
1.1406261028
 11
2.9221043329
 21
1.1413787447
  0
SPLINE
  5
529
100
AcDbEntity
  8
0
100
AcDbSpline
 62
7
  6
CONTINUOUS
 70
0
 71
3
 72
11
 73
7
 74
0
 42
0.0000001
 43
0.0000001
 44
0.0000000001
 40
0.0
 40
0.0
 40
0.0
 40
0.0
 40
0.1845596485
 40
0.4210525434
 40
0.6974702389
 40
1.0
 40
1.0
 40
1.0
 40
1.0
 10
2.9285029221
 20
1.1417529498
 30
0.0
 10
2.9341734507
 20
1.1420508151
 30
0.0
 10
2.9471172409
 20
1.142590982
 30
0.0
 10
2.9685641701
 20
1.1433118322
 30
0.0
 10
2.9936424122
 20
1.1440378343
 30
0.0
 10
3.0114485527
 20
1.144512566
 30
0.0
 10
3.0207532845
 20
1.1447566514
 30
0.0
  0
SPLINE
  5
52A
100
AcDbEntity
  8
0
100
AcDbSpline
 62
7
  6
CONTINUOUS
 70
0
 71
3
 72
11
 73
7
 74
0
 42
0.0000001
 43
0.0000001
 44
0.0000000001
 40
0.0
 40
0.0
 40
0.0
 40
0.0
 40
0.3081249223
 40
0.5865435072
 40
0.8214540079
 40
1.0
 40
1.0
 40
1.0
 40
1.0
 10
3.0643493094
 20
1.1458923472
 30
0.0
 10
3.0735247692
 20
1.146134597
 30
0.0
 10
3.090990797
 20
1.1466060163
 30
0.0
 10
3.1154502356
 20
1.1473325411
 30
0.0
 10
3.1360477675
 20
1.1480496051
 30
0.0
 10
3.1483529706
 20
1.1485906265
 30
0.0
 10
3.1536629166
 20
1.1488950015
 30
0.0
  0
SPLINE
  5
52B
100
AcDbEntity
  8
0
100
AcDbSpline
 62
7
  6
CONTINUOUS
 70
0
 71
3
 72
14
 73
10
 74
0
 42
0.0000001
 43
0.0000001
 44
0.0000000001
 40
0.0
 40
0.0
 40
0.0
 40
0.0
 40
0.0243297484
 40
0.0744231624
 40
0.153806925
 40
0.2631203918
 40
0.4025211771
 40
0.5720119495
 40
1.0
 40
1.0
 40
1.0
 40
1.0
 10
3.1676454289
 20
1.0671187599
 30
0.0
 10
3.1676441269
 20
1.0671817541
 30
0.0
 10
3.1674560472
 20
1.0673189953
 30
0.0
 10
3.1670973984
 20
1.0674294426
 30
0.0
 10
3.1664833664
 20
1.0675749783
 30
0.0
 10
3.1656492109
 20
1.0677095662
 30
0.0
 10
3.1645735412
 20
1.0678518574
 30
0.0
 10
3.162676954
 20
1.0680560133
 30
0.0
 10
3.1611343823
 20
1.0681846446
 30
0.0
 10
3.1600292188
 20
1.0682689842
 30
0.0
  0
LINE
  5
52C
100
AcDbEntity
  8
0
100
AcDbLine
 62
7
  6
CONTINUOUS
 10
2.9124784814
 20
1.0772003629
 11
2.9119579522
 21
1.0773853564
  0
SPLINE
  5
52D
100
AcDbEntity
  8
0
100
AcDbSpline
 62
7
  6
CONTINUOUS
 70
0
 71
3
 72
15
 73
11
 74
0
 42
0.0000001
 43
0.0000001
 44
0.0000000001
 40
0.0
 40
0.0
 40
0.0
 40
0.0
 40
0.024731717
 40
0.0461800502
 40
0.074716027
 40
0.1539921213
 40
0.2634006696
 40
0.402925673
 40
0.5723770842
 40
1.0
 40
1.0
 40
1.0
 40
1.0
 10
3.1676454425
 20
1.0645137599
 30
0.0
 10
3.1676466103
 20
1.0644572928
 30
0.0
 10
3.1675475083
 20
1.064373162
 30
0.0
 10
3.1674000915
 20
1.0643036417
 30
0.0
 10
3.1671183142
 20
1.064202542
 30
0.0
 10
3.1666369324
 20
1.0640898977
 30
0.0
 10
3.1658977975
 20
1.0639584677
 30
0.0
 10
3.1649516175
 20
1.0638272654
 30
0.0
 10
3.163280235
 20
1.0636349152
 30
0.0
 10
3.1619218692
 20
1.0635147288
 30
0.0
 10
3.1609485191
 20
1.0634357233
 30
0.0
  0
SPLINE
  5
52E
100
AcDbEntity
  8
0
100
AcDbSpline
 62
7
  6
CONTINUOUS
 70
0
 71
3
 72
26
 73
22
 74
0
 42
0.0000001
 43
0.0000001
 44
0.0000000001
 40
0.0
 40
0.0
 40
0.0
 40
0.0
 40
0.0346015113
 40
0.0820729073
 40
0.1410144087
 40
0.2097817092
 40
0.2864198011
 40
0.3687972455
 40
0.4545543973
 40
0.5412746065
 40
0.626485212
 40
0.7077827055
 40
0.7828782692
 40
0.8496349189
 40
0.9061374092
 40
0.9300135026
 40
0.9507684304
 40
0.9682586697
 40
0.9823461393
 40
0.9929427886
 40
1.0
 40
1.0
 40
1.0
 40
1.0
 10
3.1609485191
 20
1.0634357233
 30
0.0
 10
3.1580927472
 20
1.0632039239
 30
0.0
 10
3.1513080221
 20
1.0627957543
 30
0.0
 10
3.1396438373
 20
1.0622590434
 30
0.0
 10
3.1251480225
 20
1.0617169003
 30
0.0
 10
3.1082360092
 20
1.0611698307
 30
0.0
 10
3.0893825087
 20
1.0606206367
 30
0.0
 10
3.0691216712
 20
1.0600705246
 30
0.0
 10
3.0480257154
 20
1.0595195503
 30
0.0
 10
3.0266950871
 20
1.0589684925
 30
0.0
 10
3.005733858
 20
1.0584175297
 30
0.0
 10
2.9857355307
 20
1.0578672103
 30
0.0
 10
2.9672658245
 20
1.0573186045
 30
0.0
 10
2.9508502124
 20
1.0567721727
 30
0.0
 10
2.9386757625
 20
1.0562991273
 30
0.0
 10
2.9303105409
 20
1.0559084522
 30
0.0
 10
2.925173865
 20
1.0556332768
 30
0.0
 10
2.9208492389
 20
1.055359185
 30
0.0
 10
2.9173668292
 20
1.055089091
 30
0.0
 10
2.9147529482
 20
1.0548201353
 30
0.0
 10
2.9133032771
 20
1.0546147513
 30
0.0
 10
2.9127323169
 20
1.0544902839
 30
0.0
  0
LINE
  5
52F
100
AcDbEntity
  8
0
100
AcDbLine
 62
7
  6
CONTINUOUS
 10
2.9127323169
 20
1.0544902839
 11
2.9119616156
 21
1.0542482194
  0
SPLINE
  5
530
100
AcDbEntity
  8
0
100
AcDbSpline
 62
7
  6
CONTINUOUS
 70
0
 71
3
 72
14
 73
10
 74
0
 42
0.0000001
 43
0.0000001
 44
0.0000000001
 40
0.0
 40
0.0
 40
0.0
 40
0.0
 40
0.0243091329
 40
0.0741890737
 40
0.1533385086
 40
0.2624706491
 40
0.4017998258
 40
0.5713771516
 40
1.0
 40
1.0
 40
1.0
 40
1.0
 10
2.911826572
 20
1.0749303976
 30
0.0
 10
2.911826953
 20
1.0748690337
 30
0.0
 10
2.9120074219
 20
1.0747325013
 30
0.0
 10
2.9123562888
 20
1.074624115
 30
0.0
 10
2.9129523368
 20
1.0744802331
 30
0.0
 10
2.9137641515
 20
1.0743476711
 30
0.0
 10
2.9148119567
 20
1.0742072912
 30
0.0
 10
2.9166621007
 20
1.0740059569
 30
0.0
 10
2.9181674341
 20
1.0738791752
 30
0.0
 10
2.919246235
 20
1.0737960314
 30
0.0
  0
LINE
  5
531
100
AcDbEntity
  8
0
100
AcDbLine
 62
7
  6
CONTINUOUS
 10
3.1670339284
 20
1.0648371109
 11
3.1675176484
 21
1.064660509
  0
SPLINE
  5
532
100
AcDbEntity
  8
0
100
AcDbSpline
 62
7
  6
CONTINUOUS
 70
0
 71
3
 72
16
 73
12
 74
0
 42
0.0000001
 43
0.0000001
 44
0.0000000001
 40
0.0
 40
0.0
 40
0.0
 40
0.0
 40
0.0084424701
 40
0.0223356021
 40
0.0715648912
 40
0.1511518849
 40
0.2612272231
 40
0.4015266157
 40
0.5716898
 40
0.7713192528
 40
1.0
 40
1.0
 40
1.0
 40
1.0
 10
2.9118265884
 20
1.0775355462
 30
0.0
 10
2.9118264367
 20
1.0775692352
 30
0.0
 10
2.9118839373
 20
1.0776512439
 30
0.0
 10
2.912136602
 20
1.0777821195
 30
0.0
 10
2.9126918216
 20
1.0779338177
 30
0.0
 10
2.9136280445
 20
1.0781017694
 30
0.0
 10
2.9149346846
 20
1.0782751658
 30
0.0
 10
2.9166033071
 20
1.0784506076
 30
0.0
 10
2.9186313428
 20
1.0786274422
 30
0.0
 10
2.9210129029
 20
1.078805004
 30
0.0
 10
2.9227184685
 20
1.0789162333
 30
0.0
 10
2.9236292688
 20
1.0789725605
 30
0.0
  0
SPLINE
  5
533
100
AcDbEntity
  8
0
100
AcDbSpline
 62
7
  6
CONTINUOUS
 70
0
 71
3
 72
27
 73
23
 74
0
 42
0.0000001
 43
0.0000001
 44
0.0000000001
 40
0.0
 40
0.0
 40
0.0
 40
0.0
 40
0.0424897408
 40
0.0966515781
 40
0.23403526
 40
0.3134993859
 40
0.3973364455
 40
0.4833148123
 40
0.569110429
 40
0.6523939711
 40
0.7309413399
 40
0.8026119493
 40
0.8655297126
 40
0.8931522734
 40
0.9179671833
 40
0.9398161298
 40
0.9585413949
 40
0.973993081
 40
0.9860836846
 40
0.9947621698
 40
0.9978109616
 40
1.0
 40
1.0
 40
1.0
 40
1.0
 10
2.9236292688
 20
1.0789725605
 30
0.0
 10
2.9270761801
 20
1.0791857302
 30
0.0
 10
2.934922329
 20
1.0795805463
 30
0.0
 10
2.9539289273
 20
1.0803471888
 30
0.0
 10
2.9759460235
 20
1.081028011
 30
0.0
 10
3.0003755318
 20
1.0817132581
 30
0.0
 10
3.0206294622
 20
1.0822505148
 30
0.0
 10
3.0413981387
 20
1.0827884876
 30
0.0
 10
3.0621218263
 20
1.0833261359
 30
0.0
 10
3.0822413309
 20
1.0838636013
 30
0.0
 10
3.1012123918
 20
1.0843998204
 30
0.0
 10
3.1185274635
 20
1.0849351991
 30
0.0
 10
3.1317037204
 20
1.0853960628
 30
0.0
 10
3.1410720437
 20
1.0857732085
 30
0.0
 10
3.1471039001
 20
1.0860432114
 30
0.0
 10
3.1524118757
 20
1.0863122068
 30
0.0
 10
3.1569576807
 20
1.0865800742
 30
0.0
 10
3.1607091942
 20
1.0868453157
 30
0.0
 10
3.1636410764
 20
1.0871092636
 30
0.0
 10
3.1655647426
 20
1.0873386604
 30
0.0
 10
3.1666780215
 20
1.0875384001
 30
0.0
 10
3.1670926113
 20
1.0876394378
 30
0.0
 10
3.1672613682
 20
1.0876958042
 30
0.0
  0
SPLINE
  5
534
100
AcDbEntity
  8
0
100
AcDbSpline
 62
7
  6
CONTINUOUS
 70
0
 71
3
 72
15
 73
11
 74
0
 42
0.0000001
 43
0.0000001
 44
0.0000000001
 40
0.0
 40
0.0
 40
0.0
 40
0.0
 40
0.0232905433
 40
0.0733969079
 40
0.153102506
 40
0.2628113707
 40
0.4025489298
 40
0.5722282466
 40
0.7715690029
 40
1.0
 40
1.0
 40
1.0
 40
1.0
 10
3.1676446768
 20
1.0879573555
 30
0.0
 10
3.1676400194
 20
1.0880336764
 30
0.0
 10
3.1673852206
 20
1.0881828526
 30
0.0
 10
3.1669365173
 20
1.0883084428
 30
0.0
 10
3.1661467277
 20
1.0884711438
 30
0.0
 10
3.1650849542
 20
1.0886232735
 30
0.0
 10
3.1637150369
 20
1.0887834211
 30
0.0
 10
3.1620534051
 20
1.0889423186
 30
0.0
 10
3.1600981042
 20
1.0891026126
 30
0.0
 10
3.1586973915
 20
1.0892028678
 30
0.0
 10
3.1579491763
 20
1.089253686
 30
0.0
  0
SPLINE
  5
535
100
AcDbEntity
  8
0
100
AcDbSpline
 62
7
  6
CONTINUOUS
 70
0
 71
3
 72
15
 73
11
 74
0
 42
0.0000001
 43
0.0000001
 44
0.0000000001
 40
0.0
 40
0.0
 40
0.0
 40
0.0
 40
0.0222985207
 40
0.0431967025
 40
0.0714630997
 40
0.1506497896
 40
0.2602757876
 40
0.4002541353
 40
0.5703762718
 40
1.0
 40
1.0
 40
1.0
 40
1.0
 10
3.1676446995
 20
1.0853523554
 30
0.0
 10
3.1676490225
 20
1.0852815226
 30
0.0
 10
3.1675020117
 20
1.0851813111
 30
0.0
 10
3.1673045873
 20
1.0851022894
 30
0.0
 10
3.166906103
 20
1.0849812605
 30
0.0
 10
3.1662326659
 20
1.0848482582
 30
0.0
 10
3.1651955505
 20
1.0846916333
 30
0.0
 10
3.1638696231
 20
1.0845357584
 30
0.0
 10
3.1615261177
 20
1.0843068417
 30
0.0
 10
3.1596227454
 20
1.0841639732
 30
0.0
 10
3.1582587067
 20
1.0840700287
 30
0.0
  0
SPLINE
  5
536
100
AcDbEntity
  8
0
100
AcDbSpline
 62
7
  6
CONTINUOUS
 70
0
 71
3
 72
26
 73
22
 74
0
 42
0.0000001
 43
0.0000001
 44
0.0000000001
 40
0.0
 40
0.0
 40
0.0
 40
0.0
 40
0.0390415025
 40
0.0902106717
 40
0.1521307313
 40
0.2230681064
 40
0.3011314896
 40
0.3841571938
 40
0.4698855754
 40
0.5559490543
 40
0.6399759681
 40
0.7196890601
 40
0.792885869
 40
0.8575676126
 40
0.911893438
 40
0.9347236156
 40
0.9544472657
 40
0.9709164517
 40
0.9840429484
 40
0.993756695
 40
1.0
 40
1.0
 40
1.0
 40
1.0
 10
3.1582587067
 20
1.0840700287
 30
0.0
 10
3.1550651987
 20
1.0838500845
 30
0.0
 10
3.147678928
 20
1.0834503167
 30
0.0
 10
3.135216842
 20
1.0829184899
 30
0.0
 10
3.1201375885
 20
1.0823829895
 30
0.0
 10
3.1028522831
 20
1.0818430809
 30
0.0
 10
3.0838357439
 20
1.0813022104
 30
0.0
 10
3.0636060599
 20
1.0807600353
 30
0.0
 10
3.0427202163
 20
1.0802175709
 30
0.0
 10
3.02175226
 20
1.0796749537
 30
0.0
 10
3.0012776696
 20
1.0791323988
 30
0.0
 10
2.9818583955
 20
1.0785908843
 30
0.0
 10
2.9640258563
 20
1.0780509275
 30
0.0
 10
2.9482758515
 20
1.0775138887
 30
0.0
 10
2.9366555286
 20
1.0770472539
 30
0.0
 10
2.9287215566
 20
1.0766620872
 30
0.0
 10
2.923889557
 20
1.0763917094
 30
0.0
 10
2.9198550002
 20
1.0761218223
 30
0.0
 10
2.9166418218
 20
1.0758576245
 30
0.0
 10
2.9142731445
 20
1.0755937046
 30
0.0
 10
2.9129766792
 20
1.0753937493
 30
0.0
 10
2.9124808167
 20
1.0752666263
 30
0.0
  0
LINE
  5
537
100
AcDbEntity
  8
0
100
AcDbLine
 62
7
  6
CONTINUOUS
 10
2.9124808167
 20
1.0752666263
 11
2.9119567127
 21
1.0750807127
  0
SPLINE
  5
538
100
AcDbEntity
  8
0
100
AcDbSpline
 62
7
  6
CONTINUOUS
 70
0
 71
3
 72
16
 73
12
 74
0
 42
0.0000001
 43
0.0000001
 44
0.0000000001
 40
0.0
 40
0.0
 40
0.0
 40
0.0
 40
0.0795224161
 40
0.1561288495
 40
0.295251265
 40
0.4220444179
 40
0.5421428192
 40
0.6586800948
 40
0.773308357
 40
0.8869162996
 40
1.0
 40
1.0
 40
1.0
 40
1.0
 10
3.4022362586
 20
0.5929192547
 30
0.0
 10
3.4042659123
 20
0.5929192547
 30
0.0
 10
3.4082611291
 20
0.5933997642
 30
0.0
 10
3.4154494065
 20
0.5958079492
 30
0.0
 10
3.4227615135
 20
0.600919482
 30
0.0
 10
3.429081462
 20
0.6085730948
 30
0.0
 10
3.4335233319
 20
0.6167652222
 30
0.0
 10
3.4366476495
 20
0.6251915442
 30
0.0
 10
3.4388009162
 20
0.6337376286
 30
0.0
 10
3.440196779
 20
0.6423451
 30
0.0
 10
3.4407108697
 20
0.6481131601
 30
0.0
 10
3.4408753135
 20
0.6509947114
 30
0.0
  0
SPLINE
  5
539
100
AcDbEntity
  8
0
100
AcDbSpline
 62
7
  6
CONTINUOUS
 70
0
 71
3
 72
16
 73
12
 74
0
 42
0.0000001
 43
0.0000001
 44
0.0000000001
 40
0.0
 40
0.0
 40
0.0
 40
0.0
 40
0.1126914729
 40
0.2260078766
 40
0.3404770018
 40
0.4570294969
 40
0.5773642734
 40
0.704632021
 40
0.8442161549
 40
0.920807989
 40
1.0
 40
1.0
 40
1.0
 40
1.0
 10
3.4406580277
 20
0.6698052204
 30
0.0
 10
3.4404355465
 20
0.6725537875
 30
0.0
 10
3.4398119685
 20
0.6780537673
 30
0.0
 10
3.4382821275
 20
0.6862518314
 30
0.0
 10
3.4360162692
 20
0.694381243
 30
0.0
 10
3.432807616
 20
0.7023805992
 30
0.0
 10
3.4283260305
 20
0.7101304198
 30
0.0
 10
3.4220520653
 20
0.7173234427
 30
0.0
 10
3.4149175633
 20
0.7220685144
 30
0.0
 10
3.4079949512
 20
0.7242802981
 30
0.0
 10
3.4041740845
 20
0.7247212031
 30
0.0
 10
3.4022362586
 20
0.7247212031
 30
0.0
  0
SPLINE
  5
53A
100
AcDbEntity
  8
0
100
AcDbSpline
 62
7
  6
CONTINUOUS
 70
0
 71
3
 72
17
 73
13
 74
0
 42
0.0000001
 43
0.0000001
 44
0.0000000001
 40
0.0
 40
0.0
 40
0.0
 40
0.0
 40
0.0784941938
 40
0.1549279527
 40
0.2270763992
 40
0.2955945483
 40
0.3609452133
 40
0.4239029238
 40
0.5446940588
 40
0.6612953751
 40
0.7754635561
 40
1.0
 40
1.0
 40
1.0
 40
1.0
 10
3.3397362792
 20
0.7247212031
 30
0.0
 10
3.337961334
 20
0.7247212031
 30
0.0
 10
3.3344514687
 20
0.7243491434
 30
0.0
 10
3.3294991783
 20
0.722899307
 30
0.0
 10
3.3250832042
 20
0.7207008067
 30
0.0
 10
3.3212682417
 20
0.7180021805
 30
0.0
 10
3.3179758879
 20
0.7149916816
 30
0.0
 10
3.3142686974
 20
0.7107384626
 30
0.0
 10
3.3105449054
 20
0.7050172193
 30
0.0
 10
3.3072101402
 20
0.6977786042
 30
0.0
 10
3.3039676502
 20
0.6879914347
 30
0.0
 10
3.3025310162
 20
0.6804297459
 30
0.0
 10
3.3018929234
 20
0.6753926852
 30
0.0
  0
SPLINE
  5
53B
100
AcDbEntity
  8
0
100
AcDbSpline
 62
7
  6
CONTINUOUS
 70
0
 71
3
 72
17
 73
13
 74
0
 42
0.0000001
 43
0.0000001
 44
0.0000000001
 40
0.0
 40
0.0
 40
0.0
 40
0.0
 40
0.1132271534
 40
0.2269315916
 40
0.3415931682
 40
0.4580803368
 40
0.5780157855
 40
0.7045223516
 40
0.7721540933
 40
0.8438033803
 40
0.9203658802
 40
1.0
 40
1.0
 40
1.0
 40
1.0
 10
3.301016874
 20
0.6525652478
 30
0.0
 10
3.3011506254
 20
0.6496178254
 30
0.0
 10
3.3016086199
 20
0.6437170136
 30
0.0
 10
3.3029349412
 20
0.6349064898
 30
0.0
 10
3.3050297417
 20
0.6261543017
 30
0.0
 10
3.3081107691
 20
0.6175155886
 30
0.0
 10
3.3125248092
 20
0.6091091702
 30
0.0
 10
3.3177066652
 20
0.6026685265
 30
0.0
 10
3.3230529095
 20
0.5982306795
 30
0.0
 10
3.3279265814
 20
0.5953584707
 30
0.0
 10
3.3335805102
 20
0.5934205603
 30
0.0
 10
3.337661151
 20
0.5929192547
 30
0.0
 10
3.3397362445
 20
0.5929192547
 30
0.0
  0
SPLINE
  5
53C
100
AcDbEntity
  8
0
100
AcDbSpline
 62
7
  6
CONTINUOUS
 70
0
 71
3
 72
33
 73
29
 74
0
 42
0.0000001
 43
0.0000001
 44
0.0000000001
 40
0.0
 40
0.0
 40
0.0
 40
0.0
 40
0.0312994368
 40
0.047078482
 40
0.0627617892
 40
0.094087727
 40
0.1253582316
 40
0.1566142849
 40
0.1878461882
 40
0.2190819026
 40
0.25030442
 40
0.3127287923
 40
0.3751524064
 40
0.4375741599
 40
0.4999970027
 40
0.5624216053
 40
0.6248450307
 40
0.6872705075
 40
0.7496960913
 40
0.7809189868
 40
0.8121550308
 40
0.843386901
 40
0.8746430516
 40
0.9059131176
 40
0.9372386519
 40
0.9529219375
 40
0.9687008811
 40
1.0
 40
1.0
 40
1.0
 40
1.0
 10
3.4022362834
 20
0.7247212031
 30
0.0
 10
3.4045099657
 20
0.7247212031
 30
0.0
 10
3.4079524577
 20
0.7253888736
 30
0.0
 10
3.4121265129
 20
0.7272420671
 30
0.0
 10
3.4160025925
 20
0.7296753065
 30
0.0
 10
3.4202144655
 20
0.7335616455
 30
0.0
 10
3.4243968699
 20
0.7389726272
 30
0.0
 10
3.4278353561
 20
0.7448690333
 30
0.0
 10
3.4306868195
 20
0.7510603847
 30
0.0
 10
3.4330372767
 20
0.757453688
 30
0.0
 10
3.435633155
 20
0.7661508597
 30
0.0
 10
3.4380132253
 20
0.7772534687
 30
0.0
 10
3.4398509302
 20
0.7907415148
 30
0.0
 10
3.4408767805
 20
0.8043134899
 30
0.0
 10
3.4412083221
 20
0.8179185971
 30
0.0
 10
3.4408777377
 20
0.8315238923
 30
0.0
 10
3.4398504715
 20
0.8450961365
 30
0.0
 10
3.4380137863
 20
0.858584645
 30
0.0
 10
3.4356334318
 20
0.8696874942
 30
0.0
 10
3.4330371048
 20
0.8783846666
 30
0.0
 10
3.4306868982
 20
0.8847781039
 30
0.0
 10
3.4278356671
 20
0.8909696029
 30
0.0
 10
3.4243971311
 20
0.8968659589
 30
0.0
 10
3.4202144533
 20
0.9022766961
 30
0.0
 10
3.4160022356
 20
0.9061625373
 30
0.0
 10
3.4121262049
 20
0.9085957474
 30
0.0
 10
3.4079523552
 20
0.9104492718
 30
0.0
 10
3.4045099178
 20
0.9111173062
 30
0.0
 10
3.4022362586
 20
0.9111173062
 30
0.0
  0
SPLINE
  5
53D
100
AcDbEntity
  8
0
100
AcDbSpline
 62
7
  6
CONTINUOUS
 70
0
 71
3
 72
33
 73
29
 74
0
 42
0.0000001
 43
0.0000001
 44
0.0000000001
 40
0.0
 40
0.0
 40
0.0
 40
0.0
 40
0.0312992909
 40
0.0470789519
 40
0.0627626124
 40
0.0940881493
 40
0.1253586755
 40
0.1566147994
 40
0.18784667
 40
0.2190824034
 40
0.2503049758
 40
0.3127292446
 40
0.3751529362
 40
0.4375746999
 40
0.4999974157
 40
0.5624220151
 40
0.6248453973
 40
0.687270772
 40
0.7496964173
 40
0.7809192154
 40
0.8121551326
 40
0.8433870231
 40
0.8746433674
 40
0.9059131162
 40
0.9372380438
 40
0.952921698
 40
0.9687011991
 40
1.0
 40
1.0
 40
1.0
 40
1.0
 10
3.3397362791
 20
0.9111173062
 30
0.0
 10
3.337462616
 20
0.9111173062
 30
0.0
 10
3.3340201543
 20
0.910449067
 30
0.0
 10
3.3298462638
 20
0.9085954923
 30
0.0
 10
3.3259700913
 20
0.9061623876
 30
0.0
 10
3.3217578687
 20
0.9022764747
 30
0.0
 10
3.3175751754
 20
0.8968657527
 30
0.0
 10
3.3141366114
 20
0.890969402
 30
0.0
 10
3.3112854754
 20
0.884777914
 30
0.0
 10
3.3089353689
 20
0.8783845143
 30
0.0
 10
3.3063394413
 20
0.8696874042
 30
0.0
 10
3.3039591889
 20
0.8585848652
 30
0.0
 10
3.302121783
 20
0.8450968374
 30
0.0
 10
3.3010954904
 20
0.8315249527
 30
0.0
 10
3.3007643155
 20
0.8179198866
 30
0.0
 10
3.3010949339
 20
0.8043146747
 30
0.0
 10
3.3021216108
 20
0.790742438
 30
0.0
 10
3.3039589451
 20
0.7772540643
 30
0.0
 10
3.3063392787
 20
0.7661512925
 30
0.0
 10
3.3089352611
 20
0.7574540664
 30
0.0
 10
3.3112852626
 20
0.7510605961
 30
0.0
 10
3.3141363586
 20
0.7448690528
 30
0.0
 10
3.3175748745
 20
0.7389727213
 30
0.0
 10
3.3217577773
 20
0.7335622071
 30
0.0
 10
3.3259705244
 20
0.7296770426
 30
0.0
 10
3.3298466388
 20
0.7272440056
 30
0.0
 10
3.3340202359
 20
0.7253899645
 30
0.0
 10
3.3374626149
 20
0.7247212031
 30
0.0
 10
3.3397362424
 20
0.7247212031
 30
0.0
  0
SPLINE
  5
53E
100
AcDbEntity
  8
0
100
AcDbSpline
 62
7
  6
CONTINUOUS
 70
0
 71
3
 72
18
 73
14
 74
0
 42
0.0000001
 43
0.0000001
 44
0.0000000001
 40
0.0
 40
0.0
 40
0.0
 40
0.0
 40
0.0805788137
 40
0.1195796414
 40
0.1569760688
 40
0.2277821113
 40
0.2942866813
 40
0.4191609656
 40
0.5384341649
 40
0.6550645312
 40
0.7704501234
 40
0.8852918957
 40
1.0
 40
1.0
 40
1.0
 40
1.0
 10
3.4022362586
 20
0.9111173062
 30
0.0
 10
3.4046718853
 20
0.9111173062
 30
0.0
 10
3.4083045196
 20
0.9116390425
 30
0.0
 10
3.4128072082
 20
0.9131569571
 30
0.0
 10
3.4168287345
 20
0.9150851621
 30
0.0
 10
3.4211910009
 20
0.9181258511
 30
0.0
 10
3.4268447223
 20
0.9237197973
 30
0.0
 10
3.4320562564
 20
0.9316487689
 30
0.0
 10
3.4362151137
 20
0.9417726841
 30
0.0
 10
3.4388861277
 20
0.9520754379
 30
0.0
 10
3.4404630205
 20
0.9624548749
 30
0.0
 10
3.4411658198
 20
0.9728674259
 30
0.0
 10
3.4411128058
 20
0.9798133263
 30
0.0
 10
3.440955588
 20
0.9832770006
 30
0.0
  0
SPLINE
  5
53F
100
AcDbEntity
  8
0
100
AcDbSpline
 62
7
  6
CONTINUOUS
 70
0
 71
3
 72
16
 73
12
 74
0
 42
0.0000001
 43
0.0000001
 44
0.0000000001
 40
0.0
 40
0.0
 40
0.0
 40
0.0
 40
0.1126935535
 40
0.2260114254
 40
0.3404812803
 40
0.4570336669
 40
0.5773670657
 40
0.7046322766
 40
0.8442140725
 40
0.9208062107
 40
1.0
 40
1.0
 40
1.0
 40
1.0
 10
3.4406594373
 20
0.9879872707
 30
0.0
 10
3.4404372338
 20
0.9907365156
 30
0.0
 10
3.4398141182
 20
0.9962378524
 30
0.0
 10
3.4382849245
 20
1.0044379937
 30
0.0
 10
3.4360196104
 20
1.0125695235
 30
0.0
 10
3.4328113279
 20
1.0205710314
 30
0.0
 10
3.4283299526
 20
1.0283231183
 30
0.0
 10
3.4220557056
 20
1.0355184575
 30
0.0
 10
3.4149202969
 20
1.040265418
 30
0.0
 10
3.4079963079
 20
1.0424781572
 30
0.0
 10
3.4041745513
 20
1.0429192547
 30
0.0
 10
3.4022362586
 20
1.0429192547
 30
0.0
  0
SPLINE
  5
540
100
AcDbEntity
  8
0
100
AcDbSpline
 62
7
  6
CONTINUOUS
 70
0
 71
3
 72
15
 73
11
 74
0
 42
0.0000001
 43
0.0000001
 44
0.0000000001
 40
0.0
 40
0.0
 40
0.0
 40
0.0
 40
0.0779676796
 40
0.1542472301
 40
0.2265879581
 40
0.2954319566
 40
0.4243418075
 40
0.5456710147
 40
0.7762033259
 40
1.0
 40
1.0
 40
1.0
 40
1.0
 10
3.3397362801
 20
1.0429192547
 30
0.0
 10
3.3380831685
 20
1.0429192547
 30
0.0
 10
3.3348072961
 20
1.0425950932
 30
0.0
 10
3.3301527914
 20
1.0413244292
 30
0.0
 10
3.3259475116
 20
1.0393842155
 30
0.0
 10
3.3211476473
 20
1.0362322452
 30
0.0
 10
3.3162089814
 20
1.0315218934
 30
0.0
 10
3.3102796071
 20
1.0231784387
 30
0.0
 10
3.3054169443
 20
1.0118512433
 30
0.0
 10
3.3032616262
 20
1.0024295289
 30
0.0
 10
3.3024952313
 20
0.9977467753
 30
0.0
  0
SPLINE
  5
541
100
AcDbEntity
  8
0
100
AcDbSpline
 62
7
  6
CONTINUOUS
 70
0
 71
3
 72
9
 73
5
 74
0
 42
0.0000001
 43
0.0000001
 44
0.0000000001
 40
0.0
 40
0.0
 40
0.0
 40
0.0
 40
0.2506318387
 40
1.0
 40
1.0
 40
1.0
 40
1.0
 10
3.3024952313
 20
0.9977467753
 30
0.0
 10
3.3023197749
 20
0.996674718
 30
0.0
 10
3.3016814695
 20
0.9923872889
 30
0.0
 10
3.3012805112
 20
0.9880655834
 30
0.0
 10
3.3010959786
 20
0.9848228233
 30
0.0
  0
SPLINE
  5
542
100
AcDbEntity
  8
0
100
AcDbSpline
 62
7
  6
CONTINUOUS
 70
0
 71
3
 72
9
 73
5
 74
0
 42
0.0000001
 43
0.0000001
 44
0.0000000001
 40
0.0
 40
0.0
 40
0.0
 40
0.0
 40
0.4996810404
 40
1.0
 40
1.0
 40
1.0
 40
1.0
 10
3.3010959786
 20
0.9848228233
 30
0.0
 10
3.3008739894
 20
0.9809218449
 30
0.0
 10
3.3007666863
 20
0.9730929307
 30
0.0
 10
3.3013152753
 20
0.9652808283
 30
0.0
 10
3.3017761728
 20
0.961395794
 30
0.0
  0
SPLINE
  5
543
100
AcDbEntity
  8
0
100
AcDbSpline
 62
7
  6
CONTINUOUS
 70
0
 71
3
 72
9
 73
5
 74
0
 42
0.0000001
 43
0.0000001
 44
0.0000000001
 40
0.0
 40
0.0
 40
0.0
 40
0.0
 40
0.248732544
 40
1.0
 40
1.0
 40
1.0
 40
1.0
 10
3.3017761728
 20
0.961395794
 30
0.0
 10
3.3019423151
 20
0.9599953335
 30
0.0
 10
3.3027083042
 20
0.954377878
 30
0.0
 10
3.3038931653
 20
0.9488105543
 30
0.0
 10
3.3050898076
 20
0.9447225056
 30
0.0
  0
SPLINE
  5
544
100
AcDbEntity
  8
0
100
AcDbSpline
 62
7
  6
CONTINUOUS
 70
0
 71
3
 72
16
 73
12
 74
0
 42
0.0000001
 43
0.0000001
 44
0.0000000001
 40
0.0
 40
0.0
 40
0.0
 40
0.0
 40
0.2217274857
 40
0.4530678715
 40
0.5760307973
 40
0.6404189625
 40
0.707187291
 40
0.7765416139
 40
0.8490203597
 40
0.924088573
 40
1.0
 40
1.0
 40
1.0
 40
1.0
 10
3.3050898076
 20
0.9447225056
 30
0.0
 10
3.3061648426
 20
0.9410499001
 30
0.0
 10
3.308872881
 20
0.9336804553
 30
0.0
 10
3.3140552518
 20
0.9250801432
 30
0.0
 10
3.3190176704
 20
0.9197823864
 30
0.0
 10
3.3224156869
 20
0.9170004762
 30
0.0
 10
3.3252986602
 20
0.9150748245
 30
0.0
 10
3.3285084746
 20
0.9134246852
 30
0.0
 10
3.3320397342
 20
0.9121498738
 30
0.0
 10
3.335817295
 20
0.9113225955
 30
0.0
 10
3.3384261159
 20
0.9111173062
 30
0.0
 10
3.3397362432
 20
0.9111173062
 30
0.0
  0
SPLINE
  5
545
100
AcDbEntity
  8
0
100
AcDbSpline
 62
7
  6
CONTINUOUS
 70
0
 71
3
 72
15
 73
11
 74
0
 42
0.0000001
 43
0.0000001
 44
0.0000000001
 40
0.0
 40
0.0
 40
0.0
 40
0.0
 40
0.0224924071
 40
0.0719054564
 40
0.1512297503
 40
0.261037357
 40
0.4012820306
 40
0.571525613
 40
0.7712708023
 40
1.0
 40
1.0
 40
1.0
 40
1.0
 10
2.9118283811
 20
1.0957634366
 30
0.0
 10
2.9118301454
 20
1.0956850517
 30
0.0
 10
2.9120990259
 20
1.0955279516
 30
0.0
 10
2.9125676914
 20
1.0954018111
 30
0.0
 10
2.9134052024
 20
1.0952324474
 30
0.0
 10
2.9145333747
 20
1.0950765518
 30
0.0
 10
2.9159928838
 20
1.0949113178
 30
0.0
 10
2.9177626973
 20
1.0947476053
 30
0.0
 10
2.9198436489
 20
1.0945821779
 30
0.0
 10
2.9213335564
 20
1.0944787335
 30
0.0
 10
2.9221291417
 20
1.0944263049
 30
0.0
  0
SPLINE
  5
546
100
AcDbEntity
  8
0
100
AcDbSpline
 62
7
  6
CONTINUOUS
 70
0
 71
3
 72
15
 73
11
 74
0
 42
0.0000001
 43
0.0000001
 44
0.0000000001
 40
0.0
 40
0.0
 40
0.0
 40
0.0
 40
0.0227511265
 40
0.0437699961
 40
0.0720692463
 40
0.15120209
 40
0.2608452364
 40
0.4009253463
 40
0.5710870549
 40
1.0
 40
1.0
 40
1.0
 40
1.0
 10
2.9118283905
 20
1.0983684365
 30
0.0
 10
2.9118267973
 20
1.0984391658
 30
0.0
 10
2.9119710712
 20
1.0985360246
 30
0.0
 10
2.9121659642
 20
1.0986154707
 30
0.0
 10
2.9125549571
 20
1.0987345005
 30
0.0
 10
2.9132128878
 20
1.0988664519
 30
0.0
 10
2.914226123
 20
1.0990208657
 30
0.0
 10
2.9155220421
 20
1.0991748242
 30
0.0
 10
2.9178098724
 20
1.0994006649
 30
0.0
 10
2.9196674546
 20
1.0995419199
 30
0.0
 10
2.9209979661
 20
1.0996348426
 30
0.0
  0
SPLINE
  5
547
100
AcDbEntity
  8
0
100
AcDbSpline
 62
7
  6
CONTINUOUS
 70
0
 71
3
 72
16
 73
12
 74
0
 42
0.0000001
 43
0.0000001
 44
0.0000000001
 40
0.0
 40
0.0
 40
0.0
 40
0.0
 40
0.0332061174
 40
0.0753397552
 40
0.1831677799
 40
0.3158665564
 40
0.4639653666
 40
0.6170073208
 40
0.7640736631
 40
0.8948851731
 40
1.0
 40
1.0
 40
1.0
 40
1.0
 10
2.9209979661
 20
1.0996348426
 30
0.0
 10
2.9234569285
 20
1.0998065762
 30
0.0
 10
2.9290406053
 20
1.100128342
 30
0.0
 10
2.9426231145
 20
1.1007551238
 30
0.0
 10
2.9635930815
 20
1.1014917397
 30
0.0
 10
2.9924289852
 20
1.1023393187
 30
0.0
 10
3.0246224646
 20
1.1031921323
 30
0.0
 10
3.0578826921
 20
1.1040474247
 30
0.0
 10
3.0898593913
 20
1.1048991729
 30
0.0
 10
3.1182769925
 20
1.1057461881
 30
0.0
 10
3.1357793804
 20
1.1063754254
 30
0.0
 10
3.1435745603
 20
1.1067217547
 30
0.0
  0
SPLINE
  5
548
100
AcDbEntity
  8
0
100
AcDbSpline
 62
7
  6
CONTINUOUS
 70
0
 71
3
 72
13
 73
9
 74
0
 42
0.0000001
 43
0.0000001
 44
0.0000000001
 40
0.0
 40
0.0
 40
0.0
 40
0.0
 40
0.0438706534
 40
0.1105415911
 40
0.200491024
 40
0.3138218442
 40
0.6104989778
 40
1.0
 40
1.0
 40
1.0
 40
1.0
 10
3.1802457988
 20
1.0743176927
 30
0.0
 10
3.1801595235
 20
1.074267604
 30
0.0
 10
3.179920039
 20
1.0741831525
 30
0.0
 10
3.179477913
 20
1.0740748229
 30
0.0
 10
3.1788731965
 20
1.0739653196
 30
0.0
 10
3.1777481575
 20
1.0738022649
 30
0.0
 10
3.1759397456
 20
1.0736089873
 30
0.0
 10
3.1743848311
 20
1.0734791319
 30
0.0
 10
3.1735016884
 20
1.0734116178
 30
0.0
  0
LINE
  5
549
100
AcDbEntity
  8
0
100
AcDbLine
 62
7
  6
CONTINUOUS
 10
3.1735016884
 20
1.0734116178
 11
3.1615867524
 21
1.0727185612
  0
SPLINE
  5
54A
100
AcDbEntity
  8
0
100
AcDbSpline
 62
7
  6
CONTINUOUS
 70
0
 71
3
 72
15
 73
11
 74
0
 42
0.0000001
 43
0.0000001
 44
0.0000000001
 40
0.0
 40
0.0
 40
0.0
 40
0.0
 40
0.0938862739
 40
0.2168948883
 40
0.359969719
 40
0.5125697288
 40
0.6634465969
 40
0.801474523
 40
0.9164794947
 40
1.0
 40
1.0
 40
1.0
 40
1.0
 10
3.1615867524
 20
1.0727185612
 30
0.0
 10
3.1537962782
 20
1.0723504318
 30
0.0
 10
3.1357895687
 20
1.0717043439
 30
0.0
 10
3.1058992028
 20
1.0708459582
 30
0.0
 10
3.0711296607
 20
1.0699808026
 30
0.0
 10
3.034044685
 20
1.0691100449
 30
0.0
 10
2.9973790508
 20
1.0682408954
 30
0.0
 10
2.963837096
 20
1.0673754044
 30
0.0
 10
2.9358924954
 20
1.0665300983
 30
0.0
 10
2.9194128938
 20
1.065869544
 30
0.0
 10
2.9124854362
 20
1.0654857851
 30
0.0
  0
LINE
  5
54B
100
AcDbEntity
  8
0
100
AcDbLine
 62
7
  6
CONTINUOUS
 10
2.9124854362
 20
1.0654857851
 11
2.9115922883
 21
1.0654355754
  0
LINE
  5
54C
100
AcDbEntity
  8
0
100
AcDbLine
 62
7
  6
CONTINUOUS
 10
2.9115922883
 20
1.0654355754
 11
2.9023176142
 21
1.0647586928
  0
LINE
  5
54D
100
AcDbEntity
  8
0
100
AcDbLine
 62
7
  6
CONTINUOUS
 10
2.9023176142
 20
1.0647586928
 11
2.8999248391
 21
1.0644133885
  0
LINE
  5
54E
100
AcDbEntity
  8
0
100
AcDbLine
 62
7
  6
CONTINUOUS
 10
2.8999248391
 20
1.0644133885
 11
2.8991112586
 21
1.0640341031
  0
SPLINE
  5
54F
100
AcDbEntity
  8
0
100
AcDbSpline
 62
7
  6
CONTINUOUS
 70
0
 71
3
 72
13
 73
9
 74
0
 42
0.0000001
 43
0.0000001
 44
0.0000000001
 40
0.0
 40
0.0
 40
0.0
 40
0.0
 40
0.0444737802
 40
0.1115946555
 40
0.2018189352
 40
0.3152447617
 40
0.6115700904
 40
1.0
 40
1.0
 40
1.0
 40
1.0
 10
2.8992342322
 20
1.0847303087
 30
0.0
 10
2.8993225351
 20
1.0846804733
 30
0.0
 10
2.8995650995
 20
1.0845960708
 30
0.0
 10
2.9000116715
 20
1.0844878521
 30
0.0
 10
2.9006198993
 20
1.0843785811
 30
0.0
 10
2.9017480802
 20
1.0842162147
 30
0.0
 10
2.9035582553
 20
1.0840237837
 30
0.0
 10
2.9051140214
 20
1.0838943969
 30
0.0
 10
2.9059970376
 20
1.0838271164
 30
0.0
  0
LINE
  5
550
100
AcDbEntity
  8
0
100
AcDbLine
 62
7
  6
CONTINUOUS
 10
2.7908565115
 20
1.0141248366
 11
2.7915484375
 21
1.0202674113
  0
LINE
  5
551
100
AcDbEntity
  8
0
100
AcDbLine
 62
7
  6
CONTINUOUS
 10
2.7938244827
 20
0.8179192547
 11
2.7934744728
 21
0.8356264854
  0
LINE
  5
552
100
AcDbEntity
  8
0
100
AcDbLine
 62
7
  6
CONTINUOUS
 10
2.7913935619
 20
0.9344314564
 11
2.7910463986
 21
0.948489429
  0
SPLINE
  5
553
100
AcDbEntity
  8
0
100
AcDbSpline
 62
7
  6
CONTINUOUS
 70
0
 71
3
 72
9
 73
5
 74
0
 42
0.0000001
 43
0.0000001
 44
0.0000000001
 40
0.0
 40
0.0
 40
0.0
 40
0.0
 40
0.5757068056
 40
1.0
 40
1.0
 40
1.0
 40
1.0
 10
2.7903522877
 20
0.973524471
 30
0.0
 10
2.790145974
 20
0.9802955138
 30
0.0
 10
2.7897556417
 20
0.9920557008
 30
0.0
 10
2.7892479424
 20
1.0038122618
 30
0.0
 10
2.7889626023
 20
1.0087966435
 30
0.0
  0
LINE
  5
554
100
AcDbEntity
  8
0
100
AcDbLine
 62
7
  6
CONTINUOUS
 10
2.7889626023
 20
1.0087966435
 11
2.7886160397
 21
1.0141243858
  0
LINE
  5
555
100
AcDbEntity
  8
0
100
AcDbLine
 62
7
  6
CONTINUOUS
 10
2.7886160397
 20
1.0141243858
 11
2.7879240944
 21
1.0202673452
  0
LINE
  5
556
100
AcDbEntity
  8
0
100
AcDbLine
 62
7
  6
CONTINUOUS
 10
2.7879240944
 20
1.0202673452
 11
2.7875744827
 21
1.0210442547
  0
SPLINE
  5
557
100
AcDbEntity
  8
0
100
AcDbSpline
 62
7
  6
CONTINUOUS
 70
0
 71
3
 72
14
 73
10
 74
0
 42
0.0000001
 43
0.0000001
 44
0.0000000001
 40
0.0
 40
0.0
 40
0.0
 40
0.0
 40
0.023601545
 40
0.073428799
 40
0.1527183277
 40
0.2620159092
 40
0.401432384
 40
0.5709514218
 40
1.0
 40
1.0
 40
1.0
 40
1.0
 10
2.7787987586
 20
1.0058342227
 30
0.0
 10
2.7788653524
 20
1.0058327283
 30
0.0
 10
2.7790061163
 20
1.0056225202
 30
0.0
 10
2.7791191982
 20
1.0052362065
 30
0.0
 10
2.7792696531
 20
1.0045643948
 30
0.0
 10
2.7794086814
 20
1.0036552817
 30
0.0
 10
2.7795559192
 20
1.0024816101
 30
0.0
 10
2.7797675112
 20
1.0004106039
 30
0.0
 10
2.7799005579
 20
0.998725788
 30
0.0
 10
2.7799875869
 20
0.9975180163
 30
0.0
  0
SPLINE
  5
558
100
AcDbEntity
  8
0
100
AcDbSpline
 62
7
  6
CONTINUOUS
 70
0
 71
3
 72
10
 73
6
 74
0
 42
0.0000001
 43
0.0000001
 44
0.0000000001
 40
0.0
 40
0.0
 40
0.0
 40
0.0
 40
0.1800170862
 40
0.4082744081
 40
1.0
 40
1.0
 40
1.0
 40
1.0
 10
2.7799875869
 20
0.9975180163
 30
0.0
 10
2.7801410999
 20
0.9953875938
 30
0.0
 10
2.7804294618
 20
0.9905516098
 30
0.0
 10
2.7809954853
 20
0.9786998038
 30
0.0
 10
2.7813421595
 20
0.9689763374
 30
0.0
 10
2.781573425
 20
0.96195918
 30
0.0
  0
SPLINE
  5
559
100
AcDbEntity
  8
0
100
AcDbSpline
 62
7
  6
CONTINUOUS
 70
0
 71
3
 72
17
 73
13
 74
0
 42
0.0000001
 43
0.0000001
 44
0.0000000001
 40
0.0
 40
0.0
 40
0.0
 40
0.0
 40
0.2123495008
 40
0.4015258562
 40
0.5663592465
 40
0.7058986221
 40
0.8195331846
 40
0.9066964793
 40
0.9401869044
 40
0.9668772513
 40
0.9867804271
 40
1.0
 40
1.0
 40
1.0
 40
1.0
 10
2.788717411
 20
0.6681794129
 30
0.0
 10
2.7888117164
 20
0.6654883401
 30
0.0
 10
2.7889982273
 20
0.6604001455
 30
0.0
 10
2.7892928204
 20
0.6532243631
 30
0.0
 10
2.7895865857
 20
0.6469727224
 30
0.0
 10
2.7898787668
 20
0.6416800404
 30
0.0
 10
2.7901691978
 20
0.6373741493
 30
0.0
 10
2.7904230868
 20
0.634413476
 30
0.0
 10
2.790637059
 20
0.6325574318
 30
0.0
 10
2.7907810922
 20
0.631551534
 30
0.0
 10
2.7909239722
 20
0.6308072707
 30
0.0
 10
2.7910344522
 20
0.630399582
 30
0.0
 10
2.7911001978
 20
0.6302453803
 30
0.0
  0
LINE
  5
55A
100
AcDbEntity
  8
0
100
AcDbLine
 62
7
  6
CONTINUOUS
 10
2.7658565108
 20
1.0141248271
 11
2.7665539473
 21
1.0202674097
  0
LINE
  5
55B
100
AcDbEntity
  8
0
100
AcDbLine
 62
7
  6
CONTINUOUS
 10
2.7665539473
 20
1.0202674097
 11
2.7668980274
 21
1.0210442547
  0
LINE
  5
55C
100
AcDbEntity
  8
0
100
AcDbLine
 62
7
  6
CONTINUOUS
 10
2.7688244827
 20
0.8179192547
 11
2.7684397458
 21
0.8372317209
  0
LINE
  5
55D
100
AcDbEntity
  8
0
100
AcDbLine
 62
7
  6
CONTINUOUS
 10
2.7665515653
 20
0.9277450821
 11
2.7661723666
 21
0.9434875911
  0
SPLINE
  5
55E
100
AcDbEntity
  8
0
100
AcDbSpline
 62
7
  6
CONTINUOUS
 70
0
 71
3
 72
10
 73
6
 74
0
 42
0.0000001
 43
0.0000001
 44
0.0000000001
 40
0.0
 40
0.0
 40
0.0
 40
0.0
 40
0.5825640006
 40
0.8130706243
 40
1.0
 40
1.0
 40
1.0
 40
1.0
 10
2.765415212
 20
0.9714368961
 30
0.0
 10
2.7651919953
 20
0.978903291
 30
0.0
 10
2.7648550491
 20
0.9893234051
 30
0.0
 10
2.7643173878
 20
1.0021343583
 30
0.0
 10
2.7640434115
 20
1.0074799499
 30
0.0
 10
2.7639000398
 20
1.009872497
 30
0.0
  0
LINE
  5
55F
100
AcDbEntity
  8
0
100
AcDbLine
 62
7
  6
CONTINUOUS
 10
2.7639000398
 20
1.009872497
 11
2.7635212747
 21
1.015317577
  0
SPLINE
  5
560
100
AcDbEntity
  8
0
100
AcDbSpline
 62
7
  6
CONTINUOUS
 70
0
 71
3
 72
11
 73
7
 74
0
 42
0.0000001
 43
0.0000001
 44
0.0000000001
 40
0.0
 40
0.0
 40
0.0
 40
0.0
 40
0.371740114
 40
0.6624707661
 40
0.8716126973
 40
1.0
 40
1.0
 40
1.0
 40
1.0
 10
2.7635212747
 20
1.015317577
 30
0.0
 10
2.7634643063
 20
1.016003582
 30
0.0
 10
2.7633538265
 20
1.0172250086
 30
0.0
 10
2.7631732559
 20
1.0188303865
 30
0.0
 10
2.7629916411
 20
1.0199773073
 30
0.0
 10
2.7628545245
 20
1.020592093
 30
0.0
 10
2.7627637215
 20
1.0208118091
 30
0.0
  0
SPLINE
  5
561
100
AcDbEntity
  8
0
100
AcDbSpline
 62
7
  6
CONTINUOUS
 70
0
 71
3
 72
11
 73
7
 74
0
 42
0.0000001
 43
0.0000001
 44
0.0000000001
 40
0.0
 40
0.0
 40
0.0
 40
0.0
 40
0.3717400147
 40
0.6624706242
 40
0.8716125849
 40
1.0
 40
1.0
 40
1.0
 40
1.0
 10
2.7760212787
 20
0.6205209323
 30
0.0
 10
2.77596431
 20
0.6198349273
 30
0.0
 10
2.7758538293
 20
0.6186135006
 30
0.0
 10
2.7756732565
 20
0.6170081226
 30
0.0
 10
2.7754916387
 20
0.6158612017
 30
0.0
 10
2.7753545196
 20
0.615246416
 30
0.0
 10
2.7752637154
 20
0.6150267002
 30
0.0
  0
LINE
  5
562
100
AcDbEntity
  8
0
100
AcDbLine
 62
7
  6
CONTINUOUS
 10
2.7731480345
 20
0.8179192547
 11
2.7735240113
 21
0.7986059437
  0
LINE
  5
563
100
AcDbEntity
  8
0
100
AcDbLine
 62
7
  6
CONTINUOUS
 10
2.7754209791
 20
0.7080922536
 11
2.7757995472
 21
0.6923498544
  0
LINE
  5
564
100
AcDbEntity
  8
0
100
AcDbLine
 62
7
  6
CONTINUOUS
 10
2.7761783892
 20
0.677741999
 11
2.776374494
 21
0.6706712538
  0
LINE
  5
565
100
AcDbEntity
  8
0
100
AcDbLine
 62
7
  6
CONTINUOUS
 10
2.776374494
 20
0.6706712538
 11
2.7765573292
 21
0.6644008098
  0
SPLINE
  5
566
100
AcDbEntity
  8
0
100
AcDbSpline
 62
7
  6
CONTINUOUS
 70
0
 71
3
 72
10
 73
6
 74
0
 42
0.0000001
 43
0.0000001
 44
0.0000000001
 40
0.0
 40
0.0
 40
0.0
 40
0.0
 40
0.5825652452
 40
0.8130715258
 40
1.0
 40
1.0
 40
1.0
 40
1.0
 10
2.7765573292
 20
0.6644008098
 30
0.0
 10
2.7767807429
 20
0.6569344827
 30
0.0
 10
2.7771176927
 20
0.6465144675
 30
0.0
 10
2.7776551466
 20
0.6337036395
 30
0.0
 10
2.7779290869
 20
0.6283581176
 30
0.0
 10
2.7780724556
 20
0.6259656069
 30
0.0
  0
LINE
  5
567
100
AcDbEntity
  8
0
100
AcDbLine
 62
7
  6
CONTINUOUS
 10
2.7780724556
 20
0.6259656069
 11
2.778451233
 21
0.6205206645
  0
SPLINE
  5
568
100
AcDbEntity
  8
0
100
AcDbSpline
 62
7
  6
CONTINUOUS
 70
0
 71
3
 72
11
 73
7
 74
0
 42
0.0000001
 43
0.0000001
 44
0.0000000001
 40
0.0
 40
0.0
 40
0.0
 40
0.0
 40
0.3717441867
 40
0.6624761828
 40
0.8716167052
 40
1.0
 40
1.0
 40
1.0
 40
1.0
 10
2.778451233
 20
0.6205206645
 30
0.0
 10
2.7785082056
 20
0.6198346783
 30
0.0
 10
2.7786186947
 20
0.6186132888
 30
0.0
 10
2.7787992803
 20
0.6170079657
 30
0.0
 10
2.7789809053
 20
0.6158610991
 30
0.0
 10
2.7791180249
 20
0.6152463473
 30
0.0
 10
2.7792088311
 20
0.6150266503
 30
0.0
  0
LINE
  5
569
100
AcDbEntity
  8
0
100
AcDbLine
 62
7
  6
CONTINUOUS
 10
2.7510212927
 20
0.6205209318
 11
2.7506425037
 21
0.6168606062
  0
LINE
  5
56A
100
AcDbEntity
  8
0
100
AcDbLine
 62
7
  6
CONTINUOUS
 10
2.7506425037
 20
0.6168606062
 11
2.750263719
 21
0.6150267005
  0
LINE
  5
56B
100
AcDbEntity
  8
0
100
AcDbLine
 62
7
  6
CONTINUOUS
 10
2.7504209813
 20
0.7080921577
 11
2.750799345
 21
0.6923497662
  0
LINE
  5
56C
100
AcDbEntity
  8
0
100
AcDbLine
 62
7
  6
CONTINUOUS
 10
2.7511782528
 20
0.6777419278
 11
2.7513768743
 21
0.6705854057
  0
LINE
  5
56D
100
AcDbEntity
  8
0
100
AcDbLine
 62
7
  6
CONTINUOUS
 10
2.7513768743
 20
0.6705854057
 11
2.7515573307
 21
0.6644007574
  0
LINE
  5
56E
100
AcDbEntity
  8
0
100
AcDbLine
 62
7
  6
CONTINUOUS
 10
2.7523149741
 20
0.6420048876
 11
2.7530724441
 21
0.6259655883
  0
LINE
  5
56F
100
AcDbEntity
  8
0
100
AcDbLine
 62
7
  6
CONTINUOUS
 10
2.7530724441
 20
0.6259655883
 11
2.7534512279
 21
0.6205206425
  0
SPLINE
  5
570
100
AcDbEntity
  8
0
100
AcDbSpline
 62
7
  6
CONTINUOUS
 70
0
 71
3
 72
11
 73
7
 74
0
 42
0.0000001
 43
0.0000001
 44
0.0000000001
 40
0.0
 40
0.0
 40
0.0
 40
0.0
 40
0.3717445908
 40
0.6624767518
 40
0.8716171472
 40
1.0
 40
1.0
 40
1.0
 40
1.0
 10
2.7534512279
 20
0.6205206425
 30
0.0
 10
2.7535082019
 20
0.6198346579
 30
0.0
 10
2.7536186937
 20
0.6186132717
 30
0.0
 10
2.7537992824
 20
0.6170079535
 30
0.0
 10
2.7539809068
 20
0.6158610915
 30
0.0
 10
2.754118024
 20
0.6152463424
 30
0.0
 10
2.7542088289
 20
0.6150266466
 30
0.0
  0
SPLINE
  5
571
100
AcDbEntity
  8
0
100
AcDbSpline
 62
7
  6
CONTINUOUS
 70
0
 71
3
 72
11
 73
7
 74
0
 42
0.0000001
 43
0.0000001
 44
0.0000000001
 40
0.0
 40
0.0
 40
0.0
 40
0.0
 40
0.3717399624
 40
0.6624706047
 40
0.8716126013
 40
1.0
 40
1.0
 40
1.0
 40
1.0
 10
2.8010213063
 20
0.6205209316
 30
0.0
 10
2.8009643335
 20
0.6198349266
 30
0.0
 10
2.8008538438
 20
0.6186135
 30
0.0
 10
2.800673257
 20
0.6170081226
 30
0.0
 10
2.8004916319
 20
0.615861202
 30
0.0
 10
2.8003545108
 20
0.6152464164
 30
0.0
 10
2.8002637067
 20
0.6150267004
 30
0.0
  0
SPLINE
  5
572
100
AcDbEntity
  8
0
100
AcDbSpline
 62
7
  6
CONTINUOUS
 70
0
 71
3
 72
13
 73
9
 74
0
 42
0.0000001
 43
0.0000001
 44
0.0000000001
 40
0.0
 40
0.0
 40
0.0
 40
0.0
 40
0.0435385115
 40
0.1099990727
 40
0.1998369396
 40
0.3131438151
 40
0.6100122587
 40
1.0
 40
1.0
 40
1.0
 40
1.0
 10
3.1802482588
 20
1.0951568805
 30
0.0
 10
3.1801621653
 20
1.0951071462
 30
0.0
 10
3.1799226809
 20
1.0950232723
 30
0.0
 10
3.1794801149
 20
1.0949149639
 30
0.0
 10
3.1788736475
 20
1.0948049225
 30
0.0
 10
3.1777438366
 20
1.094640289
 30
0.0
 10
3.1759264374
 20
1.0944443612
 30
0.0
 10
3.1743634538
 20
1.0943128498
 30
0.0
 10
3.1734754795
 20
1.0942446164
 30
0.0
  0
LINE
  5
573
100
AcDbEntity
  8
0
100
AcDbLine
 62
7
  6
CONTINUOUS
 10
3.1734754795
 20
1.0942446164
 11
3.1615160972
 21
1.093549394
  0
SPLINE
  5
574
100
AcDbEntity
  8
0
100
AcDbSpline
 62
7
  6
CONTINUOUS
 70
0
 71
3
 72
16
 73
12
 74
0
 42
0.0000001
 43
0.0000001
 44
0.0000000001
 40
0.0
 40
0.0
 40
0.0
 40
0.0
 40
0.0939959943
 40
0.217076871
 40
0.3601857164
 40
0.5127846047
 40
0.6636309022
 40
0.8016065409
 40
0.9165471944
 40
0.9626571886
 40
1.0
 40
1.0
 40
1.0
 40
1.0
 10
3.1615160972
 20
1.093549394
 30
0.0
 10
3.1537178488
 20
1.0931823998
 30
0.0
 10
3.1356992422
 20
1.092537071
 30
0.0
 10
3.1057963207
 20
1.0916778847
 30
0.0
 10
3.0710242685
 20
1.0908134784
 30
0.0
 10
3.0339457843
 20
1.0899426338
 30
0.0
 10
2.9972936419
 20
1.089073819
 30
0.0
 10
2.9637701489
 20
1.0882086149
 30
0.0
 10
2.9389454062
 20
1.0874580472
 30
0.0
 10
2.9224799238
 20
1.0868229473
 30
0.0
 10
2.9155561838
 20
1.0864968814
 30
0.0
 10
2.9124594161
 20
1.0863251847
 30
0.0
  0
LINE
  5
575
100
AcDbEntity
  8
0
100
AcDbLine
 62
7
  6
CONTINUOUS
 10
2.9112660635
 20
1.0862575585
 11
2.902190291
 21
1.0855645488
  0
LINE
  5
576
100
AcDbEntity
  8
0
100
AcDbLine
 62
7
  6
CONTINUOUS
 10
2.902190291
 20
1.0855645488
 11
2.8998873573
 21
1.0852178749
  0
LINE
  5
577
100
AcDbEntity
  8
0
100
AcDbLine
 62
7
  6
CONTINUOUS
 10
2.8998873573
 20
1.0852178749
 11
2.8991112586
 21
1.0848691031
  0
SPLINE
  5
578
100
AcDbEntity
  8
0
100
AcDbSpline
 62
7
  6
CONTINUOUS
 70
0
 71
3
 72
16
 73
12
 74
0
 42
0.0000001
 43
0.0000001
 44
0.0000000001
 40
0.0
 40
0.0
 40
0.0
 40
0.0
 40
0.0084875987
 40
0.0223495327
 40
0.0712387071
 40
0.1501931233
 40
0.2597222062
 40
0.3997905205
 40
0.5700944127
 40
0.7702861828
 40
1.0
 40
1.0
 40
1.0
 40
1.0
 10
2.7912987586
 20
0.6300125254
 30
0.0
 10
2.7913313086
 20
0.6300125253
 30
0.0
 10
2.7914102698
 20
0.6300672529
 30
0.0
 10
2.7915372331
 20
0.6303082777
 30
0.0
 10
2.7916839227
 20
0.6308375428
 30
0.0
 10
2.7918468494
 20
0.6317311757
 30
0.0
 10
2.7920144763
 20
0.63298133
 30
0.0
 10
2.7921841304
 20
0.6345823966
 30
0.0
 10
2.7923551248
 20
0.6365331622
 30
0.0
 10
2.792526852
 20
0.6388285508
 30
0.0
 10
2.7926343405
 20
0.6404737733
 30
0.0
 10
2.7926887856
 20
0.6413530454
 30
0.0
  0
SPLINE
  5
579
100
AcDbEntity
  8
0
100
AcDbSpline
 62
7
  6
CONTINUOUS
 70
0
 71
3
 72
16
 73
12
 74
0
 42
0.0000001
 43
0.0000001
 44
0.0000000001
 40
0.0
 40
0.0
 40
0.0
 40
0.0
 40
0.0084875987
 40
0.0223495327
 40
0.0712387071
 40
0.1501931233
 40
0.2597222062
 40
0.3997905205
 40
0.5700944127
 40
0.7702861828
 40
1.0
 40
1.0
 40
1.0
 40
1.0
 10
2.7881737586
 20
0.6300125254
 30
0.0
 10
2.7881412085
 20
0.6300125253
 30
0.0
 10
2.7880622473
 20
0.6300672529
 30
0.0
 10
2.7879352841
 20
0.6303082777
 30
0.0
 10
2.7877885945
 20
0.6308375428
 30
0.0
 10
2.7876256678
 20
0.6317311757
 30
0.0
 10
2.7874580409
 20
0.63298133
 30
0.0
 10
2.7872883867
 20
0.6345823966
 30
0.0
 10
2.7871173923
 20
0.6365331622
 30
0.0
 10
2.7869456651
 20
0.6388285508
 30
0.0
 10
2.7868381766
 20
0.6404737733
 30
0.0
 10
2.7867837315
 20
0.6413530454
 30
0.0
  0
SPLINE
  5
57A
100
AcDbEntity
  8
0
100
AcDbSpline
 62
7
  6
CONTINUOUS
 70
0
 71
3
 72
10
 73
6
 74
0
 42
0.0000001
 43
0.0000001
 44
0.0000000001
 40
0.0
 40
0.0
 40
0.0
 40
0.0
 40
0.1873918383
 40
0.4182216765
 40
1.0
 40
1.0
 40
1.0
 40
1.0
 10
2.7867837315
 20
0.6413530454
 30
0.0
 10
2.7866334962
 20
0.643779304
 30
0.0
 10
2.7863464257
 20
0.649197195
 30
0.0
 10
2.7857836733
 20
0.662157367
 30
0.0
 10
2.7854299757
 20
0.6726930866
 30
0.0
 10
2.7851953375
 20
0.6802364484
 30
0.0
  0
SPLINE
  5
57B
100
AcDbEntity
  8
0
100
AcDbSpline
 62
7
  6
CONTINUOUS
 70
0
 71
3
 72
14
 73
10
 74
0
 42
0.0000001
 43
0.0000001
 44
0.0000000001
 40
0.0
 40
0.0
 40
0.0
 40
0.0
 40
0.3765170145
 40
0.5345507236
 40
0.671586117
 40
0.7869930362
 40
0.8802869166
 40
0.9513094666
 40
1.0
 40
1.0
 40
1.0
 40
1.0
 10
2.7780519699
 20
0.9732562189
 30
0.0
 10
2.7779024114
 20
0.9772336857
 30
0.0
 10
2.7776740734
 20
0.9828800822
 30
0.0
 10
2.7773266583
 20
0.9899711473
 30
0.0
 10
2.7770824867
 20
0.9943036306
 30
0.0
 10
2.7768392185
 20
0.9979503942
 30
0.0
 10
2.7765986542
 20
1.0008980745
 30
0.0
 10
2.7763599515
 20
1.0031368372
 30
0.0
 10
2.7761769695
 20
1.0043907014
 30
0.0
 10
2.7760699923
 20
1.0048941846
 30
0.0
  0
LINE
  5
57C
100
AcDbEntity
  8
0
100
AcDbLine
 62
7
  6
CONTINUOUS
 10
2.7760699923
 20
1.0048941846
 11
2.7758184454
 21
1.0057062495
  0
SPLINE
  5
57D
100
AcDbEntity
  8
0
100
AcDbSpline
 62
7
  6
CONTINUOUS
 70
0
 71
3
 72
13
 73
9
 74
0
 42
0.0000001
 43
0.0000001
 44
0.0000000001
 40
0.0
 40
0.0
 40
0.0
 40
0.0
 40
0.0446153355
 40
0.1118237519
 40
0.2020935695
 40
0.3155284172
 40
0.6117729872
 40
1.0
 40
1.0
 40
1.0
 40
1.0
 10
2.8992354994
 20
1.1055630324
 30
0.0
 10
2.8993240054
 20
1.1055129264
 30
0.0
 10
2.8995669721
 20
1.1054281223
 30
0.0
 10
2.9000140999
 20
1.1053197675
 30
0.0
 10
2.9006226099
 20
1.1052106632
 30
0.0
 10
2.9017506791
 20
1.1050489437
 30
0.0
 10
2.9035601186
 20
1.1048577049
 30
0.0
 10
2.9051150954
 20
1.1047290531
 30
0.0
 10
2.9059975586
 20
1.1046620767
 30
0.0
  0
SPLINE
  5
57E
100
AcDbEntity
  8
0
100
AcDbSpline
 62
7
  6
CONTINUOUS
 70
0
 71
3
 72
11
 73
7
 74
0
 42
0.0000001
 43
0.0000001
 44
0.0000000001
 40
0.0
 40
0.0
 40
0.0
 40
0.0
 40
0.1254486584
 40
0.334172431
 40
0.6259209732
 40
1.0
 40
1.0
 40
1.0
 40
1.0
 10
2.8993648314
 20
1.0469437305
 30
0.0
 10
2.8996368952
 20
1.0470441239
 30
0.0
 10
2.9003989576
 20
1.0471970881
 30
0.0
 10
2.9018278035
 20
1.0474101971
 30
0.0
 10
2.9038395577
 20
1.0476257376
 30
0.0
 10
2.9053727864
 20
1.0477573105
 30
0.0
 10
2.9062349273
 20
1.0478243915
 30
0.0
  0
LINE
  5
57F
100
AcDbEntity
  8
0
100
AcDbLine
 62
7
  6
CONTINUOUS
 10
2.9062349273
 20
1.0478243915
 11
2.9183269257
 21
1.0485225113
  0
SPLINE
  5
580
100
AcDbEntity
  8
0
100
AcDbSpline
 62
7
  6
CONTINUOUS
 70
0
 71
3
 72
13
 73
9
 74
0
 42
0.0000001
 43
0.0000001
 44
0.0000000001
 40
0.0
 40
0.0
 40
0.0
 40
0.0
 40
0.096885427
 40
0.2145302855
 40
0.4882991175
 40
0.7682191431
 40
0.8932780771
 40
1.0
 40
1.0
 40
1.0
 40
1.0
 10
2.926373677
 20
1.0488641167
 30
0.0
 10
2.9334111726
 20
1.0491418056
 30
0.0
 10
2.9489975244
 20
1.0496681371
 30
0.0
 10
2.9844797802
 20
1.0506693407
 30
0.0
 10
3.0332680593
 20
1.0518238399
 30
0.0
 10
3.0825954347
 20
1.0529746247
 30
0.0
 10
3.1197798165
 20
1.0539632285
 30
0.0
 10
3.1366209905
 20
1.0544824229
 30
0.0
 10
3.1443741895
 20
1.0547560114
 30
0.0
  0
SPLINE
  5
581
100
AcDbEntity
  8
0
100
AcDbSpline
 62
7
  6
CONTINUOUS
 70
0
 71
3
 72
11
 73
7
 74
0
 42
0.0000001
 43
0.0000001
 44
0.0000000001
 40
0.0
 40
0.0
 40
0.0
 40
0.0
 40
0.3443842604
 40
0.6287578475
 40
0.84862732
 40
1.0
 40
1.0
 40
1.0
 40
1.0
 10
3.1443741895
 20
1.0547560114
 30
0.0
 10
3.1481566134
 20
1.0548894824
 30
0.0
 10
3.1550617472
 20
1.0551490325
 30
0.0
 10
3.1643791432
 20
1.055567653
 30
0.0
 10
3.1715720588
 20
1.0559825115
 30
0.0
 10
3.175641128
 20
1.0563008787
 30
0.0
 10
3.1772940166
 20
1.0564892121
 30
0.0
  0
LINE
  5
582
100
AcDbEntity
  8
0
100
AcDbLine
 62
7
  6
CONTINUOUS
 10
3.1772940166
 20
1.0564892121
 11
3.1795881561
 21
1.0568358993
  0
LINE
  5
583
100
AcDbEntity
  8
0
100
AcDbLine
 62
7
  6
CONTINUOUS
 10
3.1795881561
 20
1.0568358993
 11
3.1803612586
 21
1.0571819062
  0
SPLINE
  5
584
100
AcDbEntity
  8
0
100
AcDbSpline
 62
7
  6
CONTINUOUS
 70
0
 71
3
 72
13
 73
9
 74
0
 42
0.0000001
 43
0.0000001
 44
0.0000000001
 40
0.0
 40
0.0
 40
0.0
 40
0.0
 40
0.0436202962
 40
0.1100588555
 40
0.1998096608
 40
0.3130055345
 40
0.6097447947
 40
1.0
 40
1.0
 40
1.0
 40
1.0
 10
2.7670302786
 20
1.0209285305
 30
0.0
 10
2.7670801052
 20
1.0208416837
 30
0.0
 10
2.7671641873
 20
1.0206007871
 30
0.0
 10
2.7672724961
 20
1.020155846
 30
0.0
 10
2.7673823171
 20
1.0195466448
 30
0.0
 10
2.767546368
 20
1.0184115703
 30
0.0
 10
2.7677412932
 20
1.0165845559
 30
0.0
 10
2.7678720381
 20
1.0150130979
 30
0.0
 10
2.7679399318
 20
1.0141198897
 30
0.0
  0
LINE
  5
585
100
AcDbEntity
  8
0
100
AcDbLine
 62
7
  6
CONTINUOUS
 10
2.7679399318
 20
1.0141198897
 11
2.7686348282
 21
1.0020081718
  0
LINE
  5
586
100
AcDbEntity
  8
0
100
AcDbLine
 62
7
  6
CONTINUOUS
 10
2.7686348282
 20
1.0020081718
 11
2.7700232137
 21
0.961543849
  0
LINE
  5
587
100
AcDbEntity
  8
0
100
AcDbLine
 62
7
  6
CONTINUOUS
 10
2.7703706185
 20
0.9484772096
 11
2.7707178736
 21
0.9344184958
  0
LINE
  5
588
100
AcDbEntity
  8
0
100
AcDbLine
 62
7
  6
CONTINUOUS
 10
2.7728035525
 20
0.8356192831
 11
2.7731480345
 21
0.8179192547
  0
SPLINE
  5
589
100
AcDbEntity
  8
0
100
AcDbSpline
 62
7
  6
CONTINUOUS
 70
0
 71
3
 72
9
 73
5
 74
0
 42
0.0000001
 43
0.0000001
 44
0.0000000001
 40
0.0
 40
0.0
 40
0.0
 40
0.0
 40
0.2527600888
 40
1.0
 40
1.0
 40
1.0
 40
1.0
 10
2.6354774637
 20
1.0632931191
 30
0.0
 10
2.6348136782
 20
1.0617298445
 30
0.0
 10
2.6322616896
 20
1.0555141679
 30
0.0
 10
2.6300273996
 20
1.0491651643
 30
0.0
 10
2.6285896823
 20
1.0443545012
 30
0.0
  0
SPLINE
  5
58A
100
AcDbEntity
  8
0
100
AcDbSpline
 62
7
  6
CONTINUOUS
 70
0
 71
3
 72
11
 73
7
 74
0
 42
0.0000001
 43
0.0000001
 44
0.0000000001
 40
0.0
 40
0.0
 40
0.0
 40
0.0
 40
0.2536736942
 40
0.5039603554
 40
0.7521720415
 40
1.0
 40
1.0
 40
1.0
 40
1.0
 10
2.6285896823
 20
1.0443545012
 30
0.0
 10
2.627458035
 20
1.0405679616
 30
0.0
 10
2.625494291
 20
1.0329555329
 30
0.0
 10
2.6235698749
 20
1.0213804241
 30
0.0
 10
2.6227445367
 20
1.0097646836
 30
0.0
 10
2.6229750203
 20
1.002025064
 30
0.0
 10
2.6232770689
 20
0.9981759429
 30
0.0
  0
SPLINE
  5
58B
100
AcDbEntity
  8
0
100
AcDbSpline
 62
7
  6
CONTINUOUS
 70
0
 71
3
 72
9
 73
5
 74
0
 42
0.0000001
 43
0.0000001
 44
0.0000000001
 40
0.0
 40
0.0
 40
0.0
 40
0.0
 40
0.2486176097
 40
1.0
 40
1.0
 40
1.0
 40
1.0
 10
2.6232770689
 20
0.9981759429
 30
0.0
 10
2.6233981448
 20
0.9966330256
 30
0.0
 10
2.6240046759
 20
0.9904367639
 30
0.0
 10
2.6250794113
 20
0.9842882332
 30
0.0
 10
2.6261196238
 20
0.9797279633
 30
0.0
  0
SPLINE
  5
58C
100
AcDbEntity
  8
0
100
AcDbSpline
 62
7
  6
CONTINUOUS
 70
0
 71
3
 72
9
 73
5
 74
0
 42
0.0000001
 43
0.0000001
 44
0.0000000001
 40
0.0
 40
0.0
 40
0.0
 40
0.0
 40
0.2475564928
 40
1.0
 40
1.0
 40
1.0
 40
1.0
 10
2.6261196238
 20
0.9797279633
 30
0.0
 10
2.6264795213
 20
0.9781501806
 30
0.0
 10
2.6280460537
 20
0.9718026128
 30
0.0
 10
2.6300370038
 20
0.9655628983
 30
0.0
 10
2.6317210806
 20
0.9609413521
 30
0.0
  0
SPLINE
  5
58D
100
AcDbEntity
  8
0
100
AcDbSpline
 62
7
  6
CONTINUOUS
 70
0
 71
3
 72
12
 73
8
 74
0
 42
0.0000001
 43
0.0000001
 44
0.0000000001
 40
0.0
 40
0.0
 40
0.0
 40
0.0
 40
0.0864729935
 40
0.1867532346
 40
0.4249541063
 40
0.7025198943
 40
1.0
 40
1.0
 40
1.0
 40
1.0
 10
2.6354774637
 20
0.9514315044
 30
0.0
 10
2.6357242284
 20
0.9508503513
 30
0.0
 10
2.6361472483
 20
0.949548341
 30
0.0
 10
2.6367558347
 20
0.9465013222
 30
0.0
 10
2.6370036113
 20
0.9419893053
 30
0.0
 10
2.6366134432
 20
0.9360559322
 30
0.0
 10
2.6359285425
 20
0.9319055315
 30
0.0
 10
2.6354774637
 20
0.9297808693
 30
0.0
  0
SPLINE
  5
58E
100
AcDbEntity
  8
0
100
AcDbSpline
 62
7
  6
CONTINUOUS
 70
0
 71
3
 72
11
 73
7
 74
0
 42
0.0000001
 43
0.0000001
 44
0.0000000001
 40
0.0
 40
0.0
 40
0.0
 40
0.0
 40
0.2500038621
 40
0.4999999918
 40
0.7499961239
 40
1.0
 40
1.0
 40
1.0
 40
1.0
 10
2.6354774637
 20
0.9297808693
 30
0.0
 10
2.631575749
 20
0.9114030924
 30
0.0
 10
2.6252229796
 20
0.8743059725
 30
0.0
 10
2.6217600628
 20
0.8179192563
 30
0.0
 10
2.6252229778
 20
0.7615325388
 30
0.0
 10
2.6315757488
 20
0.724435418
 30
0.0
 10
2.6354774637
 20
0.70605764
 30
0.0
  0
SPLINE
  5
58F
100
AcDbEntity
  8
0
100
AcDbSpline
 62
7
  6
CONTINUOUS
 70
0
 71
3
 72
12
 73
8
 74
0
 42
0.0000001
 43
0.0000001
 44
0.0000000001
 40
0.0
 40
0.0
 40
0.0
 40
0.0
 40
0.2974823823
 40
0.5750499819
 40
0.8132489986
 40
0.9135277602
 40
1.0
 40
1.0
 40
1.0
 40
1.0
 10
2.6354774637
 20
0.70605764
 30
0.0
 10
2.6359285459
 20
0.7039329616
 30
0.0
 10
2.6366134628
 20
0.6997825333
 30
0.0
 10
2.6370036141
 20
0.6938491409
 30
0.0
 10
2.6367558162
 20
0.6893371381
 30
0.0
 10
2.6361472431
 20
0.6862901471
 30
0.0
 10
2.6357242263
 20
0.6849881529
 30
0.0
 10
2.6354774637
 20
0.6844070049
 30
0.0
  0
SPLINE
  5
590
100
AcDbEntity
  8
0
100
AcDbSpline
 62
7
  6
CONTINUOUS
 70
0
 71
3
 72
9
 73
5
 74
0
 42
0.0000001
 43
0.0000001
 44
0.0000000001
 40
0.0
 40
0.0
 40
0.0
 40
0.0
 40
0.2541327384
 40
1.0
 40
1.0
 40
1.0
 40
1.0
 10
2.6354774637
 20
0.6844070049
 30
0.0
 10
2.6344901076
 20
0.6820816927
 30
0.0
 10
2.6307683681
 20
0.67286512
 30
0.0
 10
2.6277691297
 20
0.6633414135
 30
0.0
 10
2.6261201134
 20
0.6561126881
 30
0.0
  0
SPLINE
  5
591
100
AcDbEntity
  8
0
100
AcDbSpline
 62
7
  6
CONTINUOUS
 70
0
 71
3
 72
10
 73
6
 74
0
 42
0.0000001
 43
0.0000001
 44
0.0000000001
 40
0.0
 40
0.0
 40
0.0
 40
0.0
 40
0.5020405793
 40
0.7510223957
 40
1.0
 40
1.0
 40
1.0
 40
1.0
 10
2.6261201134
 20
0.6561126881
 30
0.0
 10
2.6247409602
 20
0.65006695
 30
0.0
 10
2.6232904661
 20
0.6408603728
 30
0.0
 10
2.6227906985
 20
0.628509536
 30
0.0
 10
2.6230364837
 20
0.6223556976
 30
0.0
 10
2.6232770689
 20
0.6192898287
 30
0.0
  0
SPLINE
  5
592
100
AcDbEntity
  8
0
100
AcDbSpline
 62
7
  6
CONTINUOUS
 70
0
 71
3
 72
9
 73
5
 74
0
 42
0.0000001
 43
0.0000001
 44
0.0000000001
 40
0.0
 40
0.0
 40
0.0
 40
0.0
 40
0.4962339222
 40
1.0
 40
1.0
 40
1.0
 40
1.0
 10
2.6232770689
 20
0.6192898287
 30
0.0
 10
2.623643894
 20
0.6146152347
 30
0.0
 10
2.6249346943
 20
0.6052313938
 30
0.0
 10
2.6272261851
 20
0.5960465129
 30
0.0
 10
2.6285891811
 20
0.5914856858
 30
0.0
  0
SPLINE
  5
593
100
AcDbEntity
  8
0
100
AcDbSpline
 62
7
  6
CONTINUOUS
 70
0
 71
3
 72
9
 73
5
 74
0
 42
0.0000001
 43
0.0000001
 44
0.0000000001
 40
0.0
 40
0.0
 40
0.0
 40
0.0
 40
0.2473504587
 40
1.0
 40
1.0
 40
1.0
 40
1.0
 10
2.6285891811
 20
0.5914856858
 30
0.0
 10
2.6290651283
 20
0.5898930819
 30
0.0
 10
2.6310917803
 20
0.5834851522
 30
0.0
 10
2.6335006723
 20
0.5772009114
 30
0.0
 10
2.6354774637
 20
0.5725453903
 30
0.0
  0
SPLINE
  5
594
100
AcDbEntity
  8
0
100
AcDbSpline
 62
7
  6
CONTINUOUS
 70
0
 71
3
 72
9
 73
5
 74
0
 42
0.0000001
 43
0.0000001
 44
0.0000000001
 40
0.0
 40
0.0
 40
0.0
 40
0.0
 40
0.2523151354
 40
1.0
 40
1.0
 40
1.0
 40
1.0
 10
2.7293120775
 20
0.591483925
 30
0.0
 10
2.7297720972
 20
0.5930231671
 30
0.0
 10
2.7315018473
 20
0.5991508793
 30
0.0
 10
2.7328280454
 20
0.6053948785
 30
0.0
 10
2.7335535877
 20
0.6100998418
 30
0.0
  0
SPLINE
  5
595
100
AcDbEntity
  8
0
100
AcDbSpline
 62
7
  6
CONTINUOUS
 70
0
 71
3
 72
9
 73
5
 74
0
 42
0.0000001
 43
0.0000001
 44
0.0000000001
 40
0.0
 40
0.0
 40
0.0
 40
0.0
 40
0.4959653472
 40
1.0
 40
1.0
 40
1.0
 40
1.0
 10
2.7346247232
 20
0.6376624666
 30
0.0
 10
2.7342396232
 20
0.6425699948
 30
0.0
 10
2.7328546659
 20
0.6524251825
 30
0.0
 10
2.73037252
 20
0.6620552926
 30
0.0
 10
2.7288968054
 20
0.6668353893
 30
0.0
  0
SPLINE
  5
596
100
AcDbEntity
  8
0
100
AcDbSpline
 62
7
  6
CONTINUOUS
 70
0
 71
3
 72
12
 73
8
 74
0
 42
0.0000001
 43
0.0000001
 44
0.0000000001
 40
0.0
 40
0.0
 40
0.0
 40
0.0
 40
0.0864728354
 40
0.1867528229
 40
0.4249534851
 40
0.7025195076
 40
1.0
 40
1.0
 40
1.0
 40
1.0
 10
2.7224243207
 20
0.6844070049
 30
0.0
 10
2.7221775564
 20
0.6849881569
 30
0.0
 10
2.7217545407
 20
0.6862901656
 30
0.0
 10
2.7211459672
 20
0.6893371819
 30
0.0
 10
2.7208981704
 20
0.6938491941
 30
0.0
 10
2.7212883222
 20
0.6997825731
 30
0.0
 10
2.7219732413
 20
0.7039329752
 30
0.0
 10
2.7224243207
 20
0.70605764
 30
0.0
  0
SPLINE
  5
597
100
AcDbEntity
  8
0
100
AcDbSpline
 62
7
  6
CONTINUOUS
 70
0
 71
3
 72
11
 73
7
 74
0
 42
0.0000001
 43
0.0000001
 44
0.0000000001
 40
0.0
 40
0.0
 40
0.0
 40
0.0
 40
0.2500038614
 40
0.499999991
 40
0.7499961232
 40
1.0
 40
1.0
 40
1.0
 40
1.0
 10
2.7224243207
 20
0.70605764
 30
0.0
 10
2.7263260353
 20
0.7244354169
 30
0.0
 10
2.7326788052
 20
0.7615325366
 30
0.0
 10
2.7361417216
 20
0.8179192528
 30
0.0
 10
2.7326788061
 20
0.8743059703
 30
0.0
 10
2.7263260356
 20
0.9114030913
 30
0.0
 10
2.7224243207
 20
0.9297808693
 30
0.0
  0
SPLINE
  5
598
100
AcDbEntity
  8
0
100
AcDbSpline
 62
7
  6
CONTINUOUS
 70
0
 71
3
 72
12
 73
8
 74
0
 42
0.0000001
 43
0.0000001
 44
0.0000000001
 40
0.0
 40
0.0
 40
0.0
 40
0.0
 40
0.2974819977
 40
0.5750493611
 40
0.813248585
 40
0.9135276012
 40
1.0
 40
1.0
 40
1.0
 40
1.0
 10
2.7224243207
 20
0.9297808693
 30
0.0
 10
2.721973239
 20
0.931905545
 30
0.0
 10
2.7212883405
 20
0.936055972
 30
0.0
 10
2.7208981729
 20
0.9419893585
 30
0.0
 10
2.7211459506
 20
0.946501366
 30
0.0
 10
2.7217545366
 20
0.9495483596
 30
0.0
 10
2.7221775577
 20
0.9508503553
 30
0.0
 10
2.7224243207
 20
0.9514315044
 30
0.0
  0
SPLINE
  5
599
100
AcDbEntity
  8
0
100
AcDbSpline
 62
7
  6
CONTINUOUS
 70
0
 71
3
 72
9
 73
5
 74
0
 42
0.0000001
 43
0.0000001
 44
0.0000000001
 40
0.0
 40
0.0
 40
0.0
 40
0.0
 40
0.5037662499
 40
1.0
 40
1.0
 40
1.0
 40
1.0
 10
2.7293120775
 20
0.9703700392
 30
0.0
 10
2.7306751093
 20
0.9749307917
 30
0.0
 10
2.7329666927
 20
0.9841155195
 30
0.0
 10
2.7342576368
 20
0.9934992131
 30
0.0
 10
2.7346245434
 20
0.998173737
 30
0.0
  0
SPLINE
  5
59A
100
AcDbEntity
  8
0
100
AcDbSpline
 62
7
  6
CONTINUOUS
 70
0
 71
3
 72
9
 73
5
 74
0
 42
0.0000001
 43
0.0000001
 44
0.0000000001
 40
0.0
 40
0.0
 40
0.0
 40
0.0
 40
0.2480012512
 40
1.0
 40
1.0
 40
1.0
 40
1.0
 10
2.733553969
 20
1.0257361975
 30
0.0
 10
2.7333133298
 20
1.0272968879
 30
0.0
 10
2.7322269202
 20
1.033571862
 30
0.0
 10
2.7306836869
 20
1.0397649239
 30
0.0
 10
2.7293126272
 20
1.0443527426
 30
0.0
  0
SPLINE
  5
59B
100
AcDbEntity
  8
0
100
AcDbSpline
 62
9
  6
CONTINUOUS
 70
0
 71
3
 72
18
 73
14
 74
0
 42
0.0000001
 43
0.0000001
 44
0.0000000001
 40
0.0
 40
0.0
 40
0.0
 40
0.0
 40
0.2227130064
 40
0.421420175
 40
0.5938914134
 40
0.7378877022
 40
0.8514104113
 40
0.8964125767
 40
0.9334476976
 40
0.9624199654
 40
0.9832334663
 40
0.9957921835
 40
1.0
 40
1.0
 40
1.0
 40
1.0
 10
2.4251219497
 20
0.3911938956
 30
0.0
 10
2.4253250412
 20
0.3877858602
 30
0.0
 10
2.4256804978
 20
0.3813353778
 30
0.0
 10
2.426104836
 20
0.3722411201
 30
0.0
 10
2.4264148001
 20
0.3643497633
 30
0.0
 10
2.4266325906
 20
0.3577617987
 30
0.0
 10
2.4267661639
 20
0.3531261984
 30
0.0
 10
2.426842122
 20
0.3501293327
 30
0.0
 10
2.4268826884
 20
0.3484280672
 30
0.0
 10
2.4269092366
 20
0.3470974707
 30
0.0
 10
2.4269322031
 20
0.3461418912
 30
0.0
 10
2.4269345493
 20
0.3455659823
 30
0.0
 10
2.4269467012
 20
0.3453089021
 30
0.0
 10
2.4269443218
 20
0.3452444422
 30
0.0
  0
SPLINE
  5
59C
100
AcDbEntity
  8
0
100
AcDbSpline
 62
9
  6
CONTINUOUS
 70
0
 71
3
 72
19
 73
15
 74
0
 42
0.0000001
 43
0.0000001
 44
0.0000000001
 40
0.0
 40
0.0
 40
0.0
 40
0.0
 40
0.054136286
 40
0.1115313037
 40
0.1717795577
 40
0.2344534401
 40
0.3652448151
 40
0.4999997461
 40
0.6347549208
 40
0.7655462337
 40
0.8282196942
 40
0.8884675778
 40
0.9458627027
 40
1.0
 40
1.0
 40
1.0
 40
1.0
 10
2.4251219548
 20
1.2446446127
 30
0.0
 10
2.4242057051
 20
1.2292687787
 30
0.0
 10
2.4229151918
 20
1.1975553775
 30
0.0
 10
2.4221586872
 20
1.148683032
 30
0.0
 10
2.4222013237
 20
1.0973769519
 30
0.0
 10
2.4229067888
 20
1.0251923689
 30
0.0
 10
2.4241739218
 20
0.9318146366
 30
0.0
 10
2.4250741966
 20
0.817919406
 30
0.0
 10
2.4241739386
 20
0.7040241929
 30
0.0
 10
2.4229068048
 20
0.6106465291
 30
0.0
 10
2.4222013105
 20
0.5384621894
 30
0.0
 10
2.4221586582
 20
0.4871563042
 30
0.0
 10
2.4229151693
 20
0.4382837458
 30
0.0
 10
2.4242057023
 20
0.406570027
 30
0.0
 10
2.4251219574
 20
0.3911939052
 30
0.0
  0
SPLINE
  5
59D
100
AcDbEntity
  8
0
100
AcDbSpline
 62
9
  6
CONTINUOUS
 70
0
 71
3
 72
23
 73
19
 74
0
 42
0.0000001
 43
0.0000001
 44
0.0000000001
 40
0.0
 40
0.0
 40
0.0
 40
0.0
 40
0.054157449
 40
0.1116073398
 40
0.1718895729
 40
0.2345596975
 40
0.2991818377
 40
0.365291828
 40
0.4323964016
 40
0.5000002366
 40
0.5676040644
 40
0.6347086158
 40
0.7008185721
 40
0.7654406695
 40
0.828110731
 40
0.8883928745
 40
0.9458426595
 40
1.0
 40
1.0
 40
1.0
 40
1.0
 10
2.4440420037
 20
0.3816336801
 30
0.0
 10
2.4431074282
 20
0.3973603014
 30
0.0
 10
2.4417712392
 20
0.4298052404
 30
0.0
 10
2.440926203
 20
0.4798031697
 30
0.0
 10
2.4408606635
 20
0.5322834248
 30
0.0
 10
2.4412938906
 20
0.5868472641
 30
0.0
 10
2.4419409111
 20
0.6431041333
 30
0.0
 10
2.4425750904
 20
0.7006512152
 30
0.0
 10
2.4430416848
 20
0.759067494
 30
0.0
 10
2.4431917757
 20
0.8179200853
 30
0.0
 10
2.4430416726
 20
0.8767726701
 30
0.0
 10
2.4425750765
 20
0.9351889304
 30
0.0
 10
2.4419408858
 20
0.9927359834
 30
0.0
 10
2.4412938771
 20
1.048992812
 30
0.0
 10
2.4408606584
 20
1.1035565946
 30
0.0
 10
2.4409262139
 20
1.1560367744
 30
0.0
 10
2.4417712677
 20
1.206034615
 30
0.0
 10
2.4431074718
 20
1.238479491
 30
0.0
 10
2.4440420564
 20
1.2542060802
 30
0.0
  0
SPLINE
  5
59E
100
AcDbEntity
  8
0
100
AcDbSpline
 62
9
  6
CONTINUOUS
 70
0
 71
3
 72
12
 73
8
 74
0
 42
0.0000001
 43
0.0000001
 44
0.0000000001
 40
0.0
 40
0.0
 40
0.0
 40
0.0
 40
0.2857024499
 40
0.4279538867
 40
0.5633336392
 40
0.8029360141
 40
1.0
 40
1.0
 40
1.0
 40
1.0
 10
2.4440420903
 20
1.2542068486
 30
0.0
 10
2.4419027626
 20
1.2542379975
 30
0.0
 10
2.4386804128
 20
1.253928117
 30
0.0
 10
2.4345915446
 20
1.252862669
 30
0.0
 10
2.4309872403
 20
1.2514110683
 30
0.0
 10
2.4274301024
 20
1.2488920978
 30
0.0
 10
2.4255550847
 20
1.2460553796
 30
0.0
 10
2.4251219537
 20
1.2446446088
 30
0.0
  0
SPLINE
  5
59F
100
AcDbEntity
  8
0
100
AcDbSpline
 62
9
  6
CONTINUOUS
 70
0
 71
3
 72
26
 73
22
 74
0
 42
0.0000001
 43
0.0000001
 44
0.0000000001
 40
0.0
 40
0.0
 40
0.0
 40
0.0
 40
0.2220981206
 40
0.4209558762
 40
0.5935664815
 40
0.6692219607
 40
0.7375139837
 40
0.7982640266
 40
0.8512933409
 40
0.8964236678
 40
0.9335163648
 40
0.9490238886
 40
0.9624933639
 40
0.9739156645
 40
0.9832816623
 40
0.9905822276
 40
0.9958082283
 40
0.9976404128
 40
0.998950531
 40
0.9997374407
 40
1.0
 40
1.0
 40
1.0
 40
1.0
 10
2.4440420522
 20
1.2542060801
 30
0.0
 10
2.4442485108
 20
1.2581207812
 30
0.0
 10
2.4446117494
 20
1.2655420603
 30
0.0
 10
2.4450503833
 20
1.2760096847
 30
0.0
 10
2.4453325227
 20
1.2838966434
 30
0.0
 10
2.4455092311
 20
1.2894812601
 30
0.0
 10
2.4456145321
 20
1.2930927416
 30
0.0
 10
2.4457009633
 20
1.2963052312
 30
0.0
 10
2.4457708645
 20
1.2991091962
 30
0.0
 10
2.4458267215
 20
1.3014958128
 30
0.0
 10
2.4458652598
 20
1.3032203772
 30
0.0
 10
2.445890261
 20
1.3043862685
 30
0.0
 10
2.4459051962
 20
1.305099188
 30
0.0
 10
2.4459174113
 20
1.3057037069
 30
0.0
 10
2.445927489
 20
1.3061994542
 30
0.0
 10
2.4459342786
 20
1.3065856369
 30
0.0
 10
2.4459403958
 20
1.306839364
 30
0.0
 10
2.4459412599
 20
1.3069865962
 30
0.0
 10
2.4459455407
 20
1.3070566749
 30
0.0
 10
2.4459409247
 20
1.3070970122
 30
0.0
 10
2.4459468025
 20
1.3071168846
 30
0.0
 10
2.4459446014
 20
1.3071209628
 30
0.0
  0
SPLINE
  5
5A0
100
AcDbEntity
  8
0
100
AcDbSpline
 62
7
  6
CONTINUOUS
 70
0
 71
3
 72
13
 73
9
 74
0
 42
0.0000001
 43
0.0000001
 44
0.0000000001
 40
0.0
 40
0.0
 40
0.0
 40
0.0
 40
0.0440728072
 40
0.1109167597
 40
0.2009818071
 40
0.3143611008
 40
0.6109185684
 40
1.0
 40
1.0
 40
1.0
 40
1.0
 10
2.8992300359
 20
1.0677338504
 30
0.0
 10
2.8993174631
 20
1.0677835175
 30
0.0
 10
2.8995587477
 20
1.0678675406
 30
0.0
 10
2.9000036501
 20
1.0679757286
 30
0.0
 10
2.9006111423
 20
1.0680853597
 30
0.0
 10
2.9017400055
 20
1.0682488537
 30
0.0
 10
2.9035531785
 20
1.0684431173
 30
0.0
 10
2.9051119559
 20
1.0685736231
 30
0.0
 10
2.9059970376
 20
1.0686413929
 30
0.0
  0
LINE
  5
5A1
100
AcDbEntity
  8
0
100
AcDbLine
 62
7
  6
CONTINUOUS
 10
2.9059970376
 20
1.0686413929
 11
2.9179564206
 21
1.0693361918
  0
SPLINE
  5
5A2
100
AcDbEntity
  8
0
100
AcDbSpline
 62
7
  6
CONTINUOUS
 70
0
 71
3
 72
16
 73
12
 74
0
 42
0.0000001
 43
0.0000001
 44
0.0000000001
 40
0.0
 40
0.0
 40
0.0
 40
0.0
 40
0.0940012976
 40
0.2170903372
 40
0.360208185
 40
0.5128144052
 40
0.6636639138
 40
0.8016365106
 40
0.9165663117
 40
0.9626677503
 40
1.0
 40
1.0
 40
1.0
 40
1.0
 10
2.9179564206
 20
1.0693361918
 30
0.0
 10
2.9257554422
 20
1.0697036604
 30
0.0
 10
2.9437759802
 20
1.070349325
 30
0.0
 10
2.9736821361
 20
1.0712081006
 30
0.0
 10
3.0084577937
 20
1.0720728354
 30
0.0
 10
3.0455395849
 20
1.0729436643
 30
0.0
 10
3.0821940141
 20
1.0738124961
 30
0.0
 10
3.1157181309
 20
1.0746780422
 30
0.0
 10
3.1405421522
 20
1.0754280717
 30
0.0
 10
3.1570058746
 20
1.0760637055
 30
0.0
 10
3.1639283103
 20
1.0763903651
 30
0.0
 10
3.1670243378
 20
1.0765621081
 30
0.0
  0
LINE
  5
5A3
100
AcDbEntity
  8
0
100
AcDbLine
 62
7
  6
CONTINUOUS
 10
3.1682064532
 20
1.0766291041
 11
3.1772822261
 21
1.0773198116
  0
LINE
  5
5A4
100
AcDbEntity
  8
0
100
AcDbLine
 62
7
  6
CONTINUOUS
 10
3.1772822261
 20
1.0773198116
 11
3.1795851598
 21
1.0776656957
  0
LINE
  5
5A5
100
AcDbEntity
  8
0
100
AcDbLine
 62
7
  6
CONTINUOUS
 10
3.1795851598
 20
1.0776656957
 11
3.1803612586
 21
1.0780169062
  0
SPLINE
  5
5A6
100
AcDbEntity
  8
0
100
AcDbSpline
 62
7
  6
CONTINUOUS
 70
0
 71
3
 72
10
 73
6
 74
0
 42
0.0000001
 43
0.0000001
 44
0.0000000001
 40
0.0
 40
0.0
 40
0.0
 40
0.0
 40
0.3864521639
 40
0.770925714
 40
1.0
 40
1.0
 40
1.0
 40
1.0
 10
2.835562735
 20
10.7088409082
 30
0.0
 10
2.8430810938
 20
10.7119660186
 30
0.0
 10
2.858460775
 20
10.7173169087
 30
0.0
 10
2.8790186292
 20
10.7220766072
 30
0.0
 10
2.8918050289
 20
10.7240350619
 30
0.0
 10
2.8965953944
 20
10.7246363546
 30
0.0
  0
SPLINE
  5
5A7
100
AcDbEntity
  8
0
100
AcDbSpline
 62
7
  6
CONTINUOUS
 70
0
 71
3
 72
10
 73
6
 74
0
 42
0.0000001
 43
0.0000001
 44
0.0000000001
 40
0.0
 40
0.0
 40
0.0
 40
0.0
 40
0.3864541173
 40
0.7709296136
 40
1.0
 40
1.0
 40
1.0
 40
1.0
 10
3.054312735
 20
10.7088409082
 30
0.0
 10
3.0618310902
 20
10.7119660266
 30
0.0
 10
3.0772107709
 20
10.7173169207
 30
0.0
 10
3.0977685236
 20
10.722076583
 30
0.0
 10
3.1105548166
 20
10.7240350261
 30
0.0
 10
3.1153450755
 20
10.7246363107
 30
0.0
  0
ELLIPSE
  5
5A8
100
AcDbEntity
  8
0
100
AcDbEllipse
 62
7
  6
CONTINUOUS
 10
3.0397362586
 20
1.1361173062
 30
0.0
 11
0.140625
 21
-0.0
 31
0.0
 40
1.0
 41
-2.4171185741
 42
-0.7244740795
  0
ENDSEC
  0
SECTION
  2
OBJECTS
  0
DICTIONARY
  5
C
100
AcDbDictionary
280
0
281
1
  3
ACAD_GROUP
350
D
  3
ACAD_MLINESTYLE
350
17
  3
ACAD_LAYOUT
350
1A
  3
ACAD_PLOTSETTINGS
350
19
  3
ACAD_PLOTSTYLENAME
350
E
  0
DICTIONARY
  5
D
102
{ACAD_REACTORS
330
C
102
}
100
AcDbDictionary
280
0
281
1
  0
ACDBDICTIONARYWDFLT
  5
E
102
{ACAD_REACTORS
330
C
102
}
100
AcDbDictionary
281
1
  3
Normal
350
F
100
AcDbDictionaryWithDefault
340
F
  0
DICTIONARY
  5
17
102
{ACAD_REACTORS
330
C
102
}
100
AcDbDictionary
280
0
281
1
  3
Standard
350
18
  0
DICTIONARY
  5
19
102
{ACAD_REACTORS
330
C
102
}
100
AcDbDictionary
281
1
  0
DICTIONARY
  5
1A
102
{ACAD_REACTORS
330
C
102
}
100
AcDbDictionary
281
1
  3
Model
350
5A9
  3
Layout1
350
5AA
  0
ACDBPLACEHOLDER
  5
F
102
{ACAD_REACTORS
330
E
102
}
  0
MLINESTYLE
  5
18
102
{ACAD_REACTORS
330
17
102
}
100
AcDbMlineStyle
  2
STANDARD
 70
0
  3

 62
256
 51
90.0
 52
90.0
 71
2
 49
0.5
 62
256
  6
BYLAYER
 49
-0.5
 62
256
  6
BYLAYER
  0
LAYOUT
  5
5A9
102
{ACAD_REACTORS
330
1A
102
}
100
AcDbPlotSettings
  1

  2
none_device
  4

  6

 40
0.0
 41
0.0
 42
0.0
 43
0.0
 44
215.9
 45
279.4
 46
0.0
 47
0.0
 48
0.0
 49
0.0
140
0.0
141
0.0
142
1.0
143
1.0
 70
1024
 72
0
 73
0
 74
0
  7

 75
0
147
1.0
148
0.0
149
0.0
100
AcDbLayout
  1
Model
 70
0
 71
0
 10
0.0
 20
0.0
 11
8.5
 21
11.0
 12
0.0
 22
0.0
 32
0.0
 14
0.0
 24
0.0
 34
0.0
 15
0.0
 25
0.0
 35
0.0
146
0.0
 13
0.0
 23
0.0
 33
0.0
 16
1.0
 26
0.0
 36
0.0
 17
0.0
 27
1.0
 37
0.0
 76
0
330
23B
345
0
346
0
  0
LAYOUT
  5
5AA
102
{ACAD_REACTORS
330
1A
102
}
100
AcDbPlotSettings
  1

  2
none_device
  4

  6

 40
0.0
 41
0.0
 42
0.0
 43
0.0
 44
215.9
 45
279.4
 46
0.0
 47
0.0
 48
0.0
 49
0.0
140
0.0
141
0.0
142
1.0
143
1.0
 70
0
 72
0
 73
0
 74
0
  7

 75
0
147
1.0
148
0.0
149
0.0
100
AcDbLayout
  1
Layout1
 70
0
 71
1
 10
0.0
 20
0.0
 11
8.5
 21
11.0
 12
0.0
 22
0.0
 32
0.0
 14
0.0
 24
0.0
 34
0.0
 15
0.0
 25
0.0
 35
0.0
146
0.0
 13
0.0
 23
0.0
 33
0.0
 16
1.0
 26
0.0
 36
0.0
 17
0.0
 27
1.0
 37
0.0
 76
0
330
23C
345
0
346
0
  0
ENDSEC
  0
EOF
