999
DXF file: C:\Prowork\plots\493x-1_front.dxf
999
Pro/ENGINEER 2018500 by Parametric Technology Corporation
  0
SECTION
  2
HEADER
  9
$ACADVER
  1
AC1032
  9
$DWGCODEPAGE
  3
ANSI_1252
  9
$EXTMAX
 10
8.5
 20
11.0
 30
0.0
  9
$EXTMIN
 10
0.0
 20
0.0
 30
0.0
  9
$LIMMIN
 10
0.0
 20
0.0
  9
$LIMMAX
 10
8.5
 20
11.0
  9
$VIEWCTR
 10
4.25
 20
5.5
  9
$VIEWSIZE
 40
11.0
  9
$CLAYER
  8
0
  9
$LTSCALE
 40
0.717037037
  9
$CELTYPE
  6
BYLAYER
  9
$DIMSCALE
 40
1.0
  9
$DIMASZ
 40
0.1
  9
$DIMEXO
 40
0.0625
  9
$DIMDLI
 40
0.4954074074
  9
$DIMEXE
 40
0.125
  9
$DIMCEN
 40
0.1173333333
  9
$DIMLFAC
 40
1.0
  9
$DIMBLK
  1
_FILLED
  9
$DIMALT
 70
1
  9
$DIMALTD
 70
2
  9
$DIMALTTD
 70
2
  9
$DIMALTF
 40
25.4
  9
$DIMTXT
 40
0.08
  9
$DIMTOL
 70
1
  9
$DIMLIM
 70
0
  9
$DIMTFAC
 40
1.0
  9
$DIMTP
 40
0.001
  9
$DIMTM
 40
0.001
  9
$DIMGAP
 40
0.09
  9
$DIMDSEP
 70
46
  9
$AUNITS
 70
0
  9
$PDMODE
 70
3
  9
$PDSIZE
 40
0.06
  9
$HANDSEED
  5
458
  9
$TILEMODE
 70
1
  9
$MEASUREMENT
 70
0
  9
$INSUNITS
 70
1
  0
ENDSEC
  0
SECTION
  2
CLASSES
  0
CLASS
  1
ACDBDICTIONARYWDFLT
  2
AcDbDictionaryWithDefault
  3
AutoCAD 2000
 90
0
 91
1
280
0
281
0
  0
CLASS
  1
ACDBPLACEHOLDER
  2
AcDbPlaceHolder
  3
AutoCAD 2000
 90
0
 91
1
280
0
281
0
  0
CLASS
  1
LAYOUT
  2
AcDbLayout
  3
AutoCAD 2000
 90
0
 91
0
280
0
281
0
  0
ENDSEC
  0
SECTION
  2
TABLES
  0
TABLE
  2
VPORT
  5
8
100
AcDbSymbolTable
 70
2
  0
VPORT
  5
1F4
100
AcDbSymbolTableRecord
100
AcDbViewportTableRecord
  2
*ACTIVE
 70
0
 10
0.0
 20
0.0
 11
1.0
 21
1.0
 12
4.25
 22
5.5
 13
0.0
 23
0.0
 14
1.0
 24
1.0
 15
0.0
 25
0.0
 16
0.0
 26
0.0
 36
1.0
 17
0.0
 27
0.0
 37
0.0
 40
11.0
 41
0.7727272727
 42
50.0
 43
0.0
 44
0.0
 50
0.0
 51
0.0
 71
0
 72
100
 73
1
 74
1
 75
0
 76
0
 77
0
 78
0
  0
ENDTAB
  0
TABLE
  2
LTYPE
  5
5
100
AcDbSymbolTable
 70
6
  0
LTYPE
  5
14
100
AcDbSymbolTableRecord
100
AcDbLinetypeTableRecord
  2
BYBLOCK
 70
0
  3

 72
65
 73
0
 40
0.0
  0
LTYPE
  5
15
100
AcDbSymbolTableRecord
100
AcDbLinetypeTableRecord
  2
BYLAYER
 70
0
  3

 72
65
 73
0
 40
0.0
  0
LTYPE
  5
16
100
AcDbSymbolTableRecord
100
AcDbLinetypeTableRecord
  2
CONTINUOUS
 70
64
  3
Solid line
 72
65
 73
0
 40
0.0
  0
LTYPE
  5
1F5
100
AcDbSymbolTableRecord
100
AcDbLinetypeTableRecord
  2
CENTER
 70
64
  3
____ _ ____ _ ____ _ ____ _ ____ _ ____ _ ____
 72
65
 73
4
 40
0.6
 49
0.375
 74
0
 49
-0.075
 74
0
 49
0.075
 74
0
 49
-0.075
 74
0
  0
LTYPE
  5
1F6
100
AcDbSymbolTableRecord
100
AcDbLinetypeTableRecord
  2
HIDDEN
 70
64
  3
- - - - - - - - - - - - - - - - - - - -
 72
65
 73
2
 40
0.2
 49
0.1
 74
0
 49
-0.1
 74
0
  0
LTYPE
  5
1F7
100
AcDbSymbolTableRecord
100
AcDbLinetypeTableRecord
  2
PHANTOM
 70
64
  3
_____ _ _ _____ _ _ _____ _ _ _____
 72
65
 73
6
 40
0.8
 49
0.45
 74
0
 49
-0.05
 74
0
 49
0.1
 74
0
 49
-0.05
 74
0
 49
0.1
 74
0
 49
-0.05
 74
0
  0
LTYPE
  5
1F8
100
AcDbSymbolTableRecord
100
AcDbLinetypeTableRecord
  2
DOT
 70
64
  3
. . . . . . . . . . . . . . . . . . . .
 72
65
 73
2
 40
0.2
 49
0.1
 74
0
 49
-0.1
 74
0
  0
LTYPE
  5
1F9
100
AcDbSymbolTableRecord
100
AcDbLinetypeTableRecord
  2
DASHED
 70
64
  3
- - - - - - - - - - - - - - - - - - - -
 72
65
 73
2
 40
0.2
 49
0.1
 74
0
 49
-0.1
 74
0
  0
ENDTAB
  0
TABLE
  2
LAYER
  5
2
100
AcDbSymbolTable
 70
36
  0
LAYER
  5
10
100
AcDbSymbolTableRecord
100
AcDbLayerTableRecord
  2
0
 70
0
 62
7
  6
CONTINUOUS
370
-3
390
F
  0
LAYER
  5
1FA
100
AcDbSymbolTableRecord
100
AcDbLayerTableRecord
  2
DEFAULT_1
 70
0
 62
7
  6
CENTER
370
-3
390
F
  0
LAYER
  5
1FB
100
AcDbSymbolTableRecord
100
AcDbLayerTableRecord
  2
DEFAULT_2
 70
0
 62
8
  6
HIDDEN
370
-3
390
F
  0
LAYER
  5
1FC
100
AcDbSymbolTableRecord
100
AcDbLayerTableRecord
  2
DEFAULT_3
 70
0
 62
7
  6
PHANTOM
370
-3
390
F
  0
LAYER
  5
1FD
100
AcDbSymbolTableRecord
100
AcDbLayerTableRecord
  2
1-134
 70
0
 62
7
  6
CONTINUOUS
370
-3
390
F
  0
LAYER
  5
1FE
100
AcDbSymbolTableRecord
100
AcDbLayerTableRecord
  2
1-134_1
 70
0
 62
7
  6
CONTINUOUS
370
-3
390
F
  0
LAYER
  5
1FF
100
AcDbSymbolTableRecord
100
AcDbLayerTableRecord
  2
1-257_1
 70
0
 62
7
  6
CONTINUOUS
370
-3
390
F
  0
LAYER
  5
200
100
AcDbSymbolTableRecord
100
AcDbLayerTableRecord
  2
1-257_2
 70
0
 62
7
  6
CONTINUOUS
370
-3
390
F
  0
LAYER
  5
201
100
AcDbSymbolTableRecord
100
AcDbLayerTableRecord
  2
10182
 70
0
 62
7
  6
CONTINUOUS
370
-3
390
F
  0
LAYER
  5
202
100
AcDbSymbolTableRecord
100
AcDbLayerTableRecord
  2
10182_1
 70
0
 62
7
  6
CONTINUOUS
370
-3
390
F
  0
LAYER
  5
203
100
AcDbSymbolTableRecord
100
AcDbLayerTableRecord
  2
10182_2
 70
0
 62
7
  6
CONTINUOUS
370
-3
390
F
  0
LAYER
  5
204
100
AcDbSymbolTableRecord
100
AcDbLayerTableRecord
  2
403X-1
 70
0
 62
7
  6
CONTINUOUS
370
-3
390
F
  0
LAYER
  5
205
100
AcDbSymbolTableRecord
100
AcDbLayerTableRecord
  2
403X-1_1
 70
0
 62
7
  6
CONTINUOUS
370
-3
390
F
  0
LAYER
  5
206
100
AcDbSymbolTableRecord
100
AcDbLayerTableRecord
  2
432
 70
0
 62
7
  6
CONTINUOUS
370
-3
390
F
  0
LAYER
  5
207
100
AcDbSymbolTableRecord
100
AcDbLayerTableRecord
  2
432_1
 70
0
 62
7
  6
CONTINUOUS
370
-3
390
F
  0
LAYER
  5
208
100
AcDbSymbolTableRecord
100
AcDbLayerTableRecord
  2
441
 70
0
 62
7
  6
CONTINUOUS
370
-3
390
F
  0
LAYER
  5
209
100
AcDbSymbolTableRecord
100
AcDbLayerTableRecord
  2
441_1
 70
0
 62
7
  6
CONTINUOUS
370
-3
390
F
  0
LAYER
  5
20A
100
AcDbSymbolTableRecord
100
AcDbLayerTableRecord
  2
50359
 70
0
 62
7
  6
CONTINUOUS
370
-3
390
F
  0
LAYER
  5
20B
100
AcDbSymbolTableRecord
100
AcDbLayerTableRecord
  2
50359_1
 70
0
 62
7
  6
CONTINUOUS
370
-3
390
F
  0
LAYER
  5
20C
100
AcDbSymbolTableRecord
100
AcDbLayerTableRecord
  2
50362
 70
0
 62
7
  6
CONTINUOUS
370
-3
390
F
  0
LAYER
  5
20D
100
AcDbSymbolTableRecord
100
AcDbLayerTableRecord
  2
50362_1
 70
0
 62
7
  6
CONTINUOUS
370
-3
390
F
  0
LAYER
  5
20E
100
AcDbSymbolTableRecord
100
AcDbLayerTableRecord
  2
50680
 70
0
 62
7
  6
CONTINUOUS
370
-3
390
F
  0
LAYER
  5
20F
100
AcDbSymbolTableRecord
100
AcDbLayerTableRecord
  2
50680_1
 70
0
 62
7
  6
CONTINUOUS
370
-3
390
F
  0
LAYER
  5
210
100
AcDbSymbolTableRecord
100
AcDbLayerTableRecord
  2
50680_2
 70
0
 62
7
  6
CONTINUOUS
370
-3
390
F
  0
LAYER
  5
211
100
AcDbSymbolTableRecord
100
AcDbLayerTableRecord
  2
50729
 70
0
 62
7
  6
CONTINUOUS
370
-3
390
F
  0
LAYER
  5
212
100
AcDbSymbolTableRecord
100
AcDbLayerTableRecord
  2
50729_1
 70
0
 62
7
  6
CONTINUOUS
370
-3
390
F
  0
LAYER
  5
213
100
AcDbSymbolTableRecord
100
AcDbLayerTableRecord
  2
50733
 70
0
 62
7
  6
CONTINUOUS
370
-3
390
F
  0
LAYER
  5
214
100
AcDbSymbolTableRecord
100
AcDbLayerTableRecord
  2
50733_1
 70
0
 62
7
  6
CONTINUOUS
370
-3
390
F
  0
LAYER
  5
215
100
AcDbSymbolTableRecord
100
AcDbLayerTableRecord
  2
50733_2
 70
0
 62
7
  6
CONTINUOUS
370
-3
390
F
  0
LAYER
  5
216
100
AcDbSymbolTableRecord
100
AcDbLayerTableRecord
  2
50733_3
 70
0
 62
7
  6
CONTINUOUS
370
-3
390
F
  0
LAYER
  5
217
100
AcDbSymbolTableRecord
100
AcDbLayerTableRecord
  2
50733_4
 70
0
 62
7
  6
CONTINUOUS
370
-3
390
F
  0
LAYER
  5
218
100
AcDbSymbolTableRecord
100
AcDbLayerTableRecord
  2
50733_5
 70
0
 62
7
  6
CONTINUOUS
370
-3
390
F
  0
LAYER
  5
219
100
AcDbSymbolTableRecord
100
AcDbLayerTableRecord
  2
50733_6
 70
0
 62
7
  6
CONTINUOUS
370
-3
390
F
  0
LAYER
  5
21A
100
AcDbSymbolTableRecord
100
AcDbLayerTableRecord
  2
50733_7
 70
0
 62
7
  6
CONTINUOUS
370
-3
390
F
  0
LAYER
  5
21B
100
AcDbSymbolTableRecord
100
AcDbLayerTableRecord
  2
50737
 70
0
 62
7
  6
CONTINUOUS
370
-3
390
F
  0
LAYER
  5
21C
100
AcDbSymbolTableRecord
100
AcDbLayerTableRecord
  2
50737_1
 70
0
 62
7
  6
CONTINUOUS
370
-3
390
F
  0
LAYER
  5
21D
100
AcDbSymbolTableRecord
100
AcDbLayerTableRecord
  2
50741
 70
0
 62
7
  6
CONTINUOUS
370
-3
390
F
  0
LAYER
  5
21E
100
AcDbSymbolTableRecord
100
AcDbLayerTableRecord
  2
50741_1
 70
0
 62
7
  6
CONTINUOUS
370
-3
390
F
  0
LAYER
  5
21F
100
AcDbSymbolTableRecord
100
AcDbLayerTableRecord
  2
50742
 70
0
 62
7
  6
CONTINUOUS
370
-3
390
F
  0
LAYER
  5
220
100
AcDbSymbolTableRecord
100
AcDbLayerTableRecord
  2
50742_1
 70
0
 62
7
  6
CONTINUOUS
370
-3
390
F
  0
LAYER
  5
221
100
AcDbSymbolTableRecord
100
AcDbLayerTableRecord
  2
50743
 70
0
 62
7
  6
CONTINUOUS
370
-3
390
F
  0
LAYER
  5
222
100
AcDbSymbolTableRecord
100
AcDbLayerTableRecord
  2
50743_1
 70
0
 62
7
  6
CONTINUOUS
370
-3
390
F
  0
LAYER
  5
223
100
AcDbSymbolTableRecord
100
AcDbLayerTableRecord
  2
50846
 70
0
 62
7
  6
CONTINUOUS
370
-3
390
F
  0
LAYER
  5
224
100
AcDbSymbolTableRecord
100
AcDbLayerTableRecord
  2
6-034
 70
0
 62
7
  6
CONTINUOUS
370
-3
390
F
  0
LAYER
  5
225
100
AcDbSymbolTableRecord
100
AcDbLayerTableRecord
  2
6-034_1
 70
0
 62
7
  6
CONTINUOUS
370
-3
390
F
  0
LAYER
  5
226
100
AcDbSymbolTableRecord
100
AcDbLayerTableRecord
  2
91022
 70
0
 62
7
  6
CONTINUOUS
370
-3
390
F
  0
LAYER
  5
227
100
AcDbSymbolTableRecord
100
AcDbLayerTableRecord
  2
91022_1
 70
0
 62
7
  6
CONTINUOUS
370
-3
390
F
  0
LAYER
  5
228
100
AcDbSymbolTableRecord
100
AcDbLayerTableRecord
  2
92087
 70
0
 62
7
  6
CONTINUOUS
370
-3
390
F
  0
LAYER
  5
229
100
AcDbSymbolTableRecord
100
AcDbLayerTableRecord
  2
92087_1
 70
0
 62
7
  6
CONTINUOUS
370
-3
390
F
  0
LAYER
  5
22A
100
AcDbSymbolTableRecord
100
AcDbLayerTableRecord
  2
92087_2
 70
0
 62
7
  6
CONTINUOUS
370
-3
390
F
  0
LAYER
  5
22B
100
AcDbSymbolTableRecord
100
AcDbLayerTableRecord
  2
92087_3
 70
0
 62
7
  6
CONTINUOUS
370
-3
390
F
  0
LAYER
  5
22C
100
AcDbSymbolTableRecord
100
AcDbLayerTableRecord
  2
92087_4
 70
0
 62
7
  6
CONTINUOUS
370
-3
390
F
  0
LAYER
  5
22D
100
AcDbSymbolTableRecord
100
AcDbLayerTableRecord
  2
92087_5
 70
0
 62
7
  6
CONTINUOUS
370
-3
390
F
  0
LAYER
  5
22E
100
AcDbSymbolTableRecord
100
AcDbLayerTableRecord
  2
92087_6
 70
0
 62
7
  6
CONTINUOUS
370
-3
390
F
  0
LAYER
  5
22F
100
AcDbSymbolTableRecord
100
AcDbLayerTableRecord
  2
92087_7
 70
0
 62
7
  6
CONTINUOUS
370
-3
390
F
  0
LAYER
  5
230
100
AcDbSymbolTableRecord
100
AcDbLayerTableRecord
  2
ALL_ASSEMBLY_MEMBERS
 70
0
 62
7
  6
CONTINUOUS
370
-3
390
F
  0
LAYER
  5
231
100
AcDbSymbolTableRecord
100
AcDbLayerTableRecord
  2
COLOR147
 70
0
 62
7
  6
CONTINUOUS
370
-3
390
F
  0
LAYER
  5
232
100
AcDbSymbolTableRecord
100
AcDbLayerTableRecord
  2
COLOR148
 70
0
 62
7
  6
CONTINUOUS
370
-3
390
F
  0
LAYER
  5
233
100
AcDbSymbolTableRecord
100
AcDbLayerTableRecord
  2
COLOR32
 70
0
 62
7
  6
CONTINUOUS
370
-3
390
F
  0
LAYER
  5
234
100
AcDbSymbolTableRecord
100
AcDbLayerTableRecord
  2
COLOR54
 70
0
 62
7
  6
CONTINUOUS
370
-3
390
F
  0
LAYER
  5
235
100
AcDbSymbolTableRecord
100
AcDbLayerTableRecord
  2
COLOR66
 70
0
 62
7
  6
CONTINUOUS
370
-3
390
F
  0
LAYER
  5
236
100
AcDbSymbolTableRecord
100
AcDbLayerTableRecord
  2
DEFAULT_COORDINATE_SYSTEM
 70
0
 62
7
  6
CONTINUOUS
370
-3
390
F
  0
LAYER
  5
237
100
AcDbSymbolTableRecord
100
AcDbLayerTableRecord
  2
DEFAULT_DATUM_AXES
 70
0
 62
7
  6
CONTINUOUS
370
-3
390
F
  0
LAYER
  5
238
100
AcDbSymbolTableRecord
100
AcDbLayerTableRecord
  2
DEFAULT_DATUM_PLANES
 70
0
 62
7
  6
CONTINUOUS
370
-3
390
F
  0
LAYER
  5
239
100
AcDbSymbolTableRecord
100
AcDbLayerTableRecord
  2
DEFAULT_SURFACES
 70
0
 62
7
  6
CONTINUOUS
370
-3
390
F
  0
LAYER
  5
23A
100
AcDbSymbolTableRecord
100
AcDbLayerTableRecord
  2
INTF_10182
 70
0
 62
7
  6
CONTINUOUS
370
-3
390
F
  0
LAYER
  5
23B
100
AcDbSymbolTableRecord
100
AcDbLayerTableRecord
  2
INTF_432
 70
0
 62
7
  6
CONTINUOUS
370
-3
390
F
  0
LAYER
  5
23C
100
AcDbSymbolTableRecord
100
AcDbLayerTableRecord
  2
INTF_441
 70
0
 62
7
  6
CONTINUOUS
370
-3
390
F
  0
LAYER
  5
23D
100
AcDbSymbolTableRecord
100
AcDbLayerTableRecord
  2
INTF_50359
 70
0
 62
7
  6
CONTINUOUS
370
-3
390
F
  0
LAYER
  5
23E
100
AcDbSymbolTableRecord
100
AcDbLayerTableRecord
  2
INTF_50362
 70
0
 62
7
  6
CONTINUOUS
370
-3
390
F
  0
LAYER
  5
23F
100
AcDbSymbolTableRecord
100
AcDbLayerTableRecord
  2
INTF_50680
 70
0
 62
7
  6
CONTINUOUS
370
-3
390
F
  0
LAYER
  5
240
100
AcDbSymbolTableRecord
100
AcDbLayerTableRecord
  2
INTF_50729
 70
0
 62
7
  6
CONTINUOUS
370
-3
390
F
  0
LAYER
  5
241
100
AcDbSymbolTableRecord
100
AcDbLayerTableRecord
  2
INTF_50733
 70
0
 62
7
  6
CONTINUOUS
370
-3
390
F
  0
LAYER
  5
242
100
AcDbSymbolTableRecord
100
AcDbLayerTableRecord
  2
INTF_50737
 70
0
 62
7
  6
CONTINUOUS
370
-3
390
F
  0
LAYER
  5
243
100
AcDbSymbolTableRecord
100
AcDbLayerTableRecord
  2
INTF_50741
 70
0
 62
7
  6
CONTINUOUS
370
-3
390
F
  0
LAYER
  5
244
100
AcDbSymbolTableRecord
100
AcDbLayerTableRecord
  2
INTF_50742
 70
0
 62
7
  6
CONTINUOUS
370
-3
390
F
  0
LAYER
  5
245
100
AcDbSymbolTableRecord
100
AcDbLayerTableRecord
  2
INTF_50743
 70
0
 62
7
  6
CONTINUOUS
370
-3
390
F
  0
LAYER
  5
246
100
AcDbSymbolTableRecord
100
AcDbLayerTableRecord
  2
INTF_50846
 70
0
 62
7
  6
CONTINUOUS
370
-3
390
F
  0
LAYER
  5
247
100
AcDbSymbolTableRecord
100
AcDbLayerTableRecord
  2
INTF_91022
 70
0
 62
7
  6
CONTINUOUS
370
-3
390
F
  0
LAYER
  5
248
100
AcDbSymbolTableRecord
100
AcDbLayerTableRecord
  2
INTF_92087
 70
0
 62
7
  6
CONTINUOUS
370
-3
390
F
  0
LAYER
  5
249
100
AcDbSymbolTableRecord
100
AcDbLayerTableRecord
  2
INTF_BLANK
 70
0
 62
7
  6
CONTINUOUS
370
-3
390
F
  0
LAYER
  5
24A
100
AcDbSymbolTableRecord
100
AcDbLayerTableRecord
  2
QUILT
 70
0
 62
7
  6
CONTINUOUS
370
-3
390
F
  0
LAYER
  5
24B
100
AcDbSymbolTableRecord
100
AcDbLayerTableRecord
  2
SURFACES
 70
0
 62
7
  6
CONTINUOUS
370
-3
390
F
  0
LAYER
  5
24C
100
AcDbSymbolTableRecord
100
AcDbLayerTableRecord
  2
WETTED_SURFACES
 70
0
 62
7
  6
CONTINUOUS
370
-3
390
F
  0
LAYER
  5
24D
100
AcDbSymbolTableRecord
100
AcDbLayerTableRecord
  2
WETTED_SURFACES_1
 70
0
 62
7
  6
CONTINUOUS
370
-3
390
F
  0
LAYER
  5
24E
100
AcDbSymbolTableRecord
100
AcDbLayerTableRecord
  2
_BLACK_HOLE
 70
0
 62
7
  6
CONTINUOUS
370
-3
390
F
  0
ENDTAB
  0
TABLE
  2
STYLE
  5
3
100
AcDbSymbolTable
 70
1
  0
STYLE
  5
11
100
AcDbSymbolTableRecord
100
AcDbTextStyleTableRecord
  2
STANDARD
 70
0
 40
0.0
 41
0.8
 50
0.0
 71
0
 42
0.2
  3
txt
  4

  0
STYLE
  5
24F
100
AcDbSymbolTableRecord
100
AcDbTextStyleTableRecord
  2
TEXTSTYLE_1
 70
0
 40
0.0
 41
0.8
 50
0.0
 71
0
 42
0.2
  3
gdt
  4

  0
ENDTAB
  0
TABLE
  2
VIEW
  5
6
100
AcDbSymbolTable
 70
0
  0
ENDTAB
  0
TABLE
  2
UCS
  5
7
100
AcDbSymbolTable
 70
0
  0
ENDTAB
  0
TABLE
  2
APPID
  5
9
100
AcDbSymbolTable
 70
1
  0
APPID
  5
250
100
AcDbSymbolTableRecord
100
AcDbRegAppTableRecord
  2
ACAD
 70
0
  0
ENDTAB
  0
TABLE
  2
BLOCK_RECORD
  5
1
100
AcDbSymbolTable
 70
0
  0
BLOCK_RECORD
  5
251
100
AcDbSymbolTableRecord
100
AcDbBlockTableRecord
  2
*Model_Space
  0
BLOCK_RECORD
  5
252
100
AcDbSymbolTableRecord
100
AcDbBlockTableRecord
  2
*Paper_Space
  0
BLOCK_RECORD
  5
253
100
AcDbSymbolTableRecord
100
AcDbBlockTableRecord
  2
_FILLED
  0
ENDTAB
  0
TABLE
  2
DIMSTYLE
  5
A
100
AcDbSymbolTable
 70
1
100
AcDbDimStyleTable
 71
0
  0
DIMSTYLE
105
254
100
AcDbSymbolTableRecord
100
AcDbDimStyleTableRecord
  2
STANDARD
 70
0
  3

  4

 40
1.0
 41
0.1
 42
0.0625
 43
0.38
 44
0.125
 45
0.0
 46
0.0
 47
0.001
 48
0.001
140
0.08
141
0.09
142
0.0
143
25.4
144
1.0
145
0.0
146
1.0
147
0.09
 71
1.0
 72
0.0
 73
1
 74
1
 75
0
 76
0
 77
0
 78
4
 79
1
170
1
171
2
172
0
173
0
174
0
175
0
176
0
177
0
178
0
270
2
179
3
271
3
272
3
273
2
274
2
275
0
280
0
281
0
282
0
283
1
284
4
285
0
286
0
287
3
288
0
340
11
278
46
341
253
342
253
343
253
344
253
  0
ENDTAB
  0
ENDSEC
  0
SECTION
  2
BLOCKS
  0
BLOCK
  5
20
100
AcDbEntity
  8
0
100
AcDbBlockBegin
  2
*Model_Space
 70
0
 10
0.0
 20
0.0
 30
0.0
  3
*Model_Space
  1

  0
ENDBLK
  5
21
100
AcDbEntity
  8
0
100
AcDbBlockEnd
  0
BLOCK
  5
1C
100
AcDbEntity
  8
0
100
AcDbBlockBegin
  2
*Paper_Space
 70
0
 10
0.0
 20
0.0
 30
0.0
  3
*Paper_Space
  1

  0
ENDBLK
  5
1D
100
AcDbEntity
  8
0
100
AcDbBlockEnd
  0
BLOCK
  5
255
100
AcDbEntity
  8
0
100
AcDbBlockBegin
  2
_FILLED
 70
64
 10
0.0
 20
0.0
  3
_FILLED
  1

  0
SOLID
  5
256
100
AcDbEntity
  8
0
  6
BYBLOCK
 62
0
100
AcDbTrace
 10
0.0
 20
0.0
 11
-1.0
 21
0.2
 12
-1.0
 22
-0.2
 13
-1.0
 23
-0.2
  0
ENDBLK
  5
257
100
AcDbEntity
  8
0
  6
BYBLOCK
 62
0
100
AcDbBlockEnd
  0
ENDSEC
  0
SECTION
  2
ENTITIES
  0
MTEXT
  5
258
100
AcDbEntity
  8
0
100
AcDbMText
 62
7
  6
CONTINUOUS
  7
STANDARD
 71
1
 72
1
 10
7.2220496894
 20
0.4226086957
 30
0.0
 11
1.0
 21
0.0
 31
0.0
 73
2
 44
0.9
  1
SCALE: .50
 40
0.08
 41
0.64
  0
LINE
  5
259
100
AcDbEntity
  8
0
100
AcDbLine
 62
7
  6
CONTINUOUS
 10
0.0
 20
0.0
 11
8.5
 21
0.0
  0
LINE
  5
25A
100
AcDbEntity
  8
0
100
AcDbLine
 62
7
  6
CONTINUOUS
 10
0.0
 20
0.0
 11
0.0
 21
11.0
  0
LINE
  5
25B
100
AcDbEntity
  8
0
100
AcDbLine
 62
7
  6
CONTINUOUS
 10
8.5
 20
0.0
 11
8.5
 21
11.0
  0
LINE
  5
25C
100
AcDbEntity
  8
0
100
AcDbLine
 62
7
  6
CONTINUOUS
 10
0.0
 20
11.0
 11
8.5
 21
11.0
  0
LINE
  5
25D
100
AcDbEntity
  8
0
100
AcDbLine
 62
7
  6
CONTINUOUS
 10
2.4621395938
 20
0.3831668889
 11
2.5982103774
 21
0.2470961053
  0
LINE
  5
25E
100
AcDbEntity
  8
0
100
AcDbLine
 62
7
  6
CONTINUOUS
 10
2.7139130864
 20
1.1127515425
 11
3.1916769757
 21
1.1127515425
  0
LINE
  5
25F
100
AcDbEntity
  8
0
100
AcDbLine
 62
7
  6
CONTINUOUS
 10
4.7139130864
 20
1.1127515425
 11
5.1916769757
 21
1.1127515425
  0
LINE
  5
260
100
AcDbEntity
  8
0
100
AcDbLine
 62
7
  6
CONTINUOUS
 10
5.130295031
 20
1.1427515425
 11
4.7752950311
 21
1.1427515425
  0
LINE
  5
261
100
AcDbEntity
  8
0
100
AcDbLine
 62
7
  6
CONTINUOUS
 10
3.130295031
 20
1.1427515425
 11
2.7752950311
 21
1.1427515425
  0
LINE
  5
262
100
AcDbEntity
  8
0
100
AcDbLine
 62
7
  6
CONTINUOUS
 10
2.7753148808
 20
1.3577515425
 11
2.8122950311
 21
1.3577515425
  0
LINE
  5
263
100
AcDbEntity
  8
0
100
AcDbLine
 62
7
  6
CONTINUOUS
 10
3.0932950311
 20
1.3577515425
 11
3.1302751813
 21
1.3577515425
  0
LINE
  5
264
100
AcDbEntity
  8
0
100
AcDbLine
 62
7
  6
CONTINUOUS
 10
4.7753148808
 20
1.3577515425
 11
4.8122950311
 21
1.3577515425
  0
LINE
  5
265
100
AcDbEntity
  8
0
100
AcDbLine
 62
7
  6
CONTINUOUS
 10
5.0932950311
 20
1.3577515425
 11
5.1302751813
 21
1.3577515425
  0
LINE
  5
266
100
AcDbEntity
  8
0
100
AcDbLine
 62
7
  6
CONTINUOUS
 10
2.8229118113
 20
1.1420009479
 11
2.8250969411
 21
1.1407371427
  0
LINE
  5
267
100
AcDbEntity
  8
0
100
AcDbLine
 62
7
  6
CONTINUOUS
 10
3.0911800617
 20
1.1244249125
 11
3.0804701972
 21
1.1306198663
  0
LINE
  5
268
100
AcDbEntity
  8
0
100
AcDbLine
 62
7
  6
CONTINUOUS
 10
3.3073560488
 20
0.2470724694
 11
2.9901839702
 21
0.564244548
  0
LINE
  5
269
100
AcDbEntity
  8
0
100
AcDbLine
 62
7
  6
CONTINUOUS
 10
2.4621159579
 20
1.0923125603
 11
2.779288068
 21
0.7751404502
  0
LINE
  5
26A
100
AcDbEntity
  8
0
100
AcDbLine
 62
7
  6
CONTINUOUS
 10
5.0932950311
 20
1.4277515425
 11
4.8122950311
 21
1.4277515425
  0
LINE
  5
26B
100
AcDbEntity
  8
0
100
AcDbLine
 62
7
  6
CONTINUOUS
 10
3.0932950311
 20
1.4277515425
 11
2.8122950311
 21
1.4277515425
  0
LINE
  5
26C
100
AcDbEntity
  8
0
100
AcDbLine
 62
7
  6
CONTINUOUS
 10
2.8579681432
 20
1.1288714554
 11
2.8652243425
 21
1.1227515425
  0
LINE
  5
26D
100
AcDbEntity
  8
0
100
AcDbLine
 62
7
  6
CONTINUOUS
 10
3.4434741042
 20
0.3831905248
 11
3.1263019952
 21
0.7003626338
  0
LINE
  5
26E
100
AcDbEntity
  8
0
100
AcDbLine
 62
7
  6
CONTINUOUS
 10
2.5982340133
 20
1.2284306157
 11
2.9154060911
 21
0.9112585379
  0
LINE
  5
26F
100
AcDbEntity
  8
0
100
AcDbLine
 62
7
  6
CONTINUOUS
 10
4.8229118113
 20
1.1420009479
 11
4.8250969411
 21
1.1407371427
  0
LINE
  5
270
100
AcDbEntity
  8
0
100
AcDbLine
 62
7
  6
CONTINUOUS
 10
3.4434504683
 20
1.0923361962
 11
3.3073796847
 21
1.2284069798
  0
LINE
  5
271
100
AcDbEntity
  8
0
100
AcDbLine
 62
7
  6
CONTINUOUS
 10
3.091320031
 20
1.1243399199
 11
3.0911801306
 21
1.1244889938
  0
LINE
  5
272
100
AcDbEntity
  8
0
100
AcDbLine
 62
7
  6
CONTINUOUS
 10
5.0911800617
 20
1.1244249125
 11
5.0804701972
 21
1.1306198663
  0
LINE
  5
273
100
AcDbEntity
  8
0
100
AcDbLine
 62
7
  6
CONTINUOUS
 10
4.4621395938
 20
0.3831668889
 11
4.5982103774
 21
0.2470961053
  0
LINE
  5
274
100
AcDbEntity
  8
0
100
AcDbLine
 62
7
  6
CONTINUOUS
 10
4.8579681432
 20
1.1288714554
 11
4.8652243425
 21
1.1227515425
  0
LINE
  5
275
100
AcDbEntity
  8
0
100
AcDbLine
 62
7
  6
CONTINUOUS
 10
5.3073560488
 20
0.2470724694
 11
4.9901839702
 21
0.564244548
  0
LINE
  5
276
100
AcDbEntity
  8
0
100
AcDbLine
 62
7
  6
CONTINUOUS
 10
4.4621159579
 20
1.0923125603
 11
4.779288068
 21
0.7751404502
  0
LINE
  5
277
100
AcDbEntity
  8
0
100
AcDbLine
 62
7
  6
CONTINUOUS
 10
5.4434741042
 20
0.3831905248
 11
5.1263019952
 21
0.7003626338
  0
LINE
  5
278
100
AcDbEntity
  8
0
100
AcDbLine
 62
7
  6
CONTINUOUS
 10
4.5982340133
 20
1.2284306157
 11
4.9154060911
 21
0.9112585379
  0
LINE
  5
279
100
AcDbEntity
  8
0
100
AcDbLine
 62
7
  6
CONTINUOUS
 10
5.4434504683
 20
1.0923361962
 11
5.3073796847
 21
1.2284069798
  0
LINE
  5
27A
100
AcDbEntity
  8
0
100
AcDbLine
 62
7
  6
CONTINUOUS
 10
5.091320031
 20
1.1243399199
 11
5.0911801306
 21
1.1244889938
  0
LINE
  5
27B
100
AcDbEntity
  8
0
100
AcDbLine
 62
7
  6
CONTINUOUS
 10
2.8250957004
 20
1.1410384848
 11
2.8250969411
 21
1.1407371427
  0
LINE
  5
27C
100
AcDbEntity
  8
0
100
AcDbLine
 62
7
  6
CONTINUOUS
 10
2.7027950311
 20
0.7377515425
 11
2.7027950311
 21
0.8516334872
  0
LINE
  5
27D
100
AcDbEntity
  8
0
100
AcDbLine
 62
7
  6
CONTINUOUS
 10
2.7086200209
 20
10.802673196
 11
2.7086200209
 21
10.635829889
  0
LINE
  5
27E
100
AcDbEntity
  8
0
100
AcDbLine
 62
7
  6
CONTINUOUS
 10
2.7360450311
 20
10.8217515425
 11
2.7360450311
 21
10.8667515425
  0
LINE
  5
27F
100
AcDbEntity
  8
0
100
AcDbLine
 62
7
  6
CONTINUOUS
 10
2.7752950311
 20
1.3577515425
 11
2.7752950311
 21
1.1427515425
  0
LINE
  5
280
100
AcDbEntity
  8
0
100
AcDbLine
 62
7
  6
CONTINUOUS
 10
2.8122950311
 20
1.3577515425
 11
2.8122950311
 21
1.4277515425
  0
LINE
  5
281
100
AcDbEntity
  8
0
100
AcDbLine
 62
7
  6
CONTINUOUS
 10
2.8142700311
 20
1.1346952399
 11
2.8142700311
 21
1.1127515425
  0
LINE
  5
282
100
AcDbEntity
  8
0
100
AcDbLine
 62
7
  6
CONTINUOUS
 10
2.8180839271
 20
10.635829889
 11
2.8180839271
 21
10.802673196
  0
LINE
  5
283
100
AcDbEntity
  8
0
100
AcDbLine
 62
7
  6
CONTINUOUS
 10
2.8315450311
 20
10.6167515425
 11
2.8315450311
 21
10.5852515425
  0
LINE
  5
284
100
AcDbEntity
  8
0
100
AcDbLine
 62
7
  6
CONTINUOUS
 10
2.8433311249
 20
10.802673196
 11
2.8433311249
 21
10.635829889
  0
LINE
  5
285
100
AcDbEntity
  8
0
100
AcDbLine
 62
7
  6
CONTINUOUS
 10
2.8579681432
 20
1.1288714554
 11
2.8579681432
 21
1.1166316297
  0
LINE
  5
286
100
AcDbEntity
  8
0
100
AcDbLine
 62
7
  6
CONTINUOUS
 10
2.8590450311
 20
10.5852515425
 11
2.8590450311
 21
1.4277515425
  0
LINE
  5
287
100
AcDbEntity
  8
0
100
AcDbLine
 62
7
  6
CONTINUOUS
 10
3.0465450311
 20
10.5852515425
 11
3.0465450311
 21
1.4277515425
  0
LINE
  5
288
100
AcDbEntity
  8
0
100
AcDbLine
 62
7
  6
CONTINUOUS
 10
3.0622589372
 20
10.635829889
 11
3.0622589372
 21
10.802673196
  0
LINE
  5
289
100
AcDbEntity
  8
0
100
AcDbLine
 62
7
  6
CONTINUOUS
 10
3.0740450311
 20
10.6167515425
 11
3.0740450311
 21
10.5852515425
  0
LINE
  5
28A
100
AcDbEntity
  8
0
100
AcDbLine
 62
7
  6
CONTINUOUS
 10
3.0875061351
 20
10.8026731961
 11
3.0875061351
 21
10.635829889
  0
LINE
  5
28B
100
AcDbEntity
  8
0
100
AcDbLine
 62
7
  6
CONTINUOUS
 10
3.0913200311
 20
1.1427515425
 11
3.0913200311
 21
1.1366540102
  0
LINE
  5
28C
100
AcDbEntity
  8
0
100
AcDbLine
 62
7
  6
CONTINUOUS
 10
3.0913200311
 20
1.1242646132
 11
3.0913200311
 21
1.1127515425
  0
LINE
  5
28D
100
AcDbEntity
  8
0
100
AcDbLine
 62
7
  6
CONTINUOUS
 10
3.0932950311
 20
1.4277515425
 11
3.0932950311
 21
1.3577515425
  0
LINE
  5
28E
100
AcDbEntity
  8
0
100
AcDbLine
 62
7
  6
CONTINUOUS
 10
3.1302950311
 20
1.3577515425
 11
3.1302950311
 21
1.1427515425
  0
LINE
  5
28F
100
AcDbEntity
  8
0
100
AcDbLine
 62
7
  6
CONTINUOUS
 10
3.1695450311
 20
10.8667515425
 11
3.1695450311
 21
10.8217515425
  0
LINE
  5
290
100
AcDbEntity
  8
0
100
AcDbLine
 62
7
  6
CONTINUOUS
 10
3.1969700412
 20
10.635829889
 11
3.1969700412
 21
10.8026731961
  0
LINE
  5
291
100
AcDbEntity
  8
0
100
AcDbLine
 62
7
  6
CONTINUOUS
 10
3.2027950311
 20
0.8516334872
 11
3.2027950311
 21
0.7377515425
  0
LINE
  5
292
100
AcDbEntity
  8
0
100
AcDbLine
 62
7
  6
CONTINUOUS
 10
3.0804701972
 20
1.1306198663
 11
3.0804693762
 21
1.1303162676
  0
LINE
  5
293
100
AcDbEntity
  8
0
100
AcDbLine
 62
7
  6
CONTINUOUS
 10
4.7027950311
 20
0.7377515425
 11
4.7027950311
 21
0.8516334872
  0
LINE
  5
294
100
AcDbEntity
  8
0
100
AcDbLine
 62
7
  6
CONTINUOUS
 10
4.7086200209
 20
10.802673196
 11
4.7086200209
 21
10.635829889
  0
LINE
  5
295
100
AcDbEntity
  8
0
100
AcDbLine
 62
7
  6
CONTINUOUS
 10
4.7360450311
 20
10.8217515425
 11
4.7360450311
 21
10.8667515425
  0
LINE
  5
296
100
AcDbEntity
  8
0
100
AcDbLine
 62
7
  6
CONTINUOUS
 10
4.8250957004
 20
1.1410384848
 11
4.8250969411
 21
1.1407371427
  0
LINE
  5
297
100
AcDbEntity
  8
0
100
AcDbLine
 62
7
  6
CONTINUOUS
 10
4.7752950311
 20
1.3577515425
 11
4.7752950311
 21
1.1427515425
  0
LINE
  5
298
100
AcDbEntity
  8
0
100
AcDbLine
 62
7
  6
CONTINUOUS
 10
4.8122950311
 20
1.3577515425
 11
4.8122950311
 21
1.4277515425
  0
LINE
  5
299
100
AcDbEntity
  8
0
100
AcDbLine
 62
7
  6
CONTINUOUS
 10
4.8142700311
 20
1.1346952399
 11
4.8142700311
 21
1.1127515425
  0
LINE
  5
29A
100
AcDbEntity
  8
0
100
AcDbLine
 62
7
  6
CONTINUOUS
 10
4.8180839271
 20
10.635829889
 11
4.8180839271
 21
10.802673196
  0
LINE
  5
29B
100
AcDbEntity
  8
0
100
AcDbLine
 62
7
  6
CONTINUOUS
 10
4.8315450311
 20
10.6167515425
 11
4.8315450311
 21
10.5852515425
  0
LINE
  5
29C
100
AcDbEntity
  8
0
100
AcDbLine
 62
7
  6
CONTINUOUS
 10
4.8433311249
 20
10.802673196
 11
4.8433311249
 21
10.635829889
  0
LINE
  5
29D
100
AcDbEntity
  8
0
100
AcDbLine
 62
7
  6
CONTINUOUS
 10
4.8579681432
 20
1.1288714554
 11
4.8579681432
 21
1.1166316297
  0
LINE
  5
29E
100
AcDbEntity
  8
0
100
AcDbLine
 62
7
  6
CONTINUOUS
 10
4.8590450311
 20
10.5852515425
 11
4.8590450311
 21
1.4277515425
  0
LINE
  5
29F
100
AcDbEntity
  8
0
100
AcDbLine
 62
7
  6
CONTINUOUS
 10
5.0465450311
 20
10.5852515425
 11
5.0465450311
 21
1.4277515425
  0
LINE
  5
2A0
100
AcDbEntity
  8
0
100
AcDbLine
 62
7
  6
CONTINUOUS
 10
5.0622589372
 20
10.635829889
 11
5.0622589372
 21
10.802673196
  0
LINE
  5
2A1
100
AcDbEntity
  8
0
100
AcDbLine
 62
7
  6
CONTINUOUS
 10
5.0740450311
 20
10.6167515425
 11
5.0740450311
 21
10.5852515425
  0
LINE
  5
2A2
100
AcDbEntity
  8
0
100
AcDbLine
 62
7
  6
CONTINUOUS
 10
5.0875061351
 20
10.8026731961
 11
5.0875061351
 21
10.635829889
  0
LINE
  5
2A3
100
AcDbEntity
  8
0
100
AcDbLine
 62
7
  6
CONTINUOUS
 10
5.0913200311
 20
1.1427515425
 11
5.0913200311
 21
1.1366540102
  0
LINE
  5
2A4
100
AcDbEntity
  8
0
100
AcDbLine
 62
7
  6
CONTINUOUS
 10
5.0913200311
 20
1.1242646132
 11
5.0913200311
 21
1.1127515425
  0
LINE
  5
2A5
100
AcDbEntity
  8
0
100
AcDbLine
 62
7
  6
CONTINUOUS
 10
5.0932950311
 20
1.4277515425
 11
5.0932950311
 21
1.3577515425
  0
LINE
  5
2A6
100
AcDbEntity
  8
0
100
AcDbLine
 62
7
  6
CONTINUOUS
 10
5.0804701972
 20
1.1306198663
 11
5.0804693762
 21
1.1303162676
  0
LINE
  5
2A7
100
AcDbEntity
  8
0
100
AcDbLine
 62
7
  6
CONTINUOUS
 10
5.1302950311
 20
1.3577515425
 11
5.1302950311
 21
1.1427515425
  0
LINE
  5
2A8
100
AcDbEntity
  8
0
100
AcDbLine
 62
7
  6
CONTINUOUS
 10
5.1695450311
 20
10.8667515425
 11
5.1695450311
 21
10.8217515425
  0
LINE
  5
2A9
100
AcDbEntity
  8
0
100
AcDbLine
 62
7
  6
CONTINUOUS
 10
5.1969700412
 20
10.635829889
 11
5.1969700412
 21
10.8026731961
  0
LINE
  5
2AA
100
AcDbEntity
  8
0
100
AcDbLine
 62
7
  6
CONTINUOUS
 10
5.2027950311
 20
0.8516334872
 11
5.2027950311
 21
0.7377515425
  0
LINE
  5
2AB
100
AcDbEntity
  8
0
100
AcDbLine
 62
7
  6
CONTINUOUS
 10
3.091320031
 20
1.1365798312
 11
3.0912112549
 21
1.1364483797
  0
LINE
  5
2AC
100
AcDbEntity
  8
0
100
AcDbLine
 62
7
  6
CONTINUOUS
 10
2.8142700311
 20
1.1347565945
 11
2.8144140452
 21
1.134907836
  0
LINE
  5
2AD
100
AcDbEntity
  8
0
100
AcDbLine
 62
7
  6
CONTINUOUS
 10
2.5982103774
 20
1.2284069798
 11
2.4621395938
 21
1.0923361962
  0
LINE
  5
2AE
100
AcDbEntity
  8
0
100
AcDbLine
 62
7
  6
CONTINUOUS
 10
3.3073560488
 20
1.2284306157
 11
2.9901913786
 21
0.9112659454
  0
LINE
  5
2AF
100
AcDbEntity
  8
0
100
AcDbLine
 62
7
  6
CONTINUOUS
 10
2.4621159579
 20
0.3831905248
 11
2.7794978031
 21
0.70057237
  0
LINE
  5
2B0
100
AcDbEntity
  8
0
100
AcDbLine
 62
7
  6
CONTINUOUS
 10
2.8652243425
 20
1.1227515425
 11
2.8579681432
 21
1.1166316297
  0
LINE
  5
2B1
100
AcDbEntity
  8
0
100
AcDbLine
 62
7
  6
CONTINUOUS
 10
3.4434741042
 20
1.0923125603
 11
3.1263020528
 21
0.7751405089
  0
LINE
  5
2B2
100
AcDbEntity
  8
0
100
AcDbLine
 62
7
  6
CONTINUOUS
 10
2.5982340133
 20
0.2470724694
 11
2.915406096
 21
0.5642445521
  0
LINE
  5
2B3
100
AcDbEntity
  8
0
100
AcDbLine
 62
7
  6
CONTINUOUS
 10
3.3073796847
 20
0.2470961053
 11
3.4434504683
 21
0.3831668889
  0
LINE
  5
2B4
100
AcDbEntity
  8
0
100
AcDbLine
 62
7
  6
CONTINUOUS
 10
2.8250957004
 20
1.1410384848
 11
2.8158105552
 21
1.1356685977
  0
LINE
  5
2B5
100
AcDbEntity
  8
0
100
AcDbLine
 62
7
  6
CONTINUOUS
 10
3.0804693762
 20
1.1303162676
 11
3.0897854985
 21
1.1357051158
  0
LINE
  5
2B6
100
AcDbEntity
  8
0
100
AcDbLine
 62
7
  6
CONTINUOUS
 10
5.091320031
 20
1.1365798312
 11
5.0912112549
 21
1.1364483797
  0
LINE
  5
2B7
100
AcDbEntity
  8
0
100
AcDbLine
 62
7
  6
CONTINUOUS
 10
4.8142700311
 20
1.1347565945
 11
4.8144140452
 21
1.134907836
  0
LINE
  5
2B8
100
AcDbEntity
  8
0
100
AcDbLine
 62
7
  6
CONTINUOUS
 10
4.5982103774
 20
1.2284069798
 11
4.4621395938
 21
1.0923361962
  0
LINE
  5
2B9
100
AcDbEntity
  8
0
100
AcDbLine
 62
7
  6
CONTINUOUS
 10
5.3073560488
 20
1.2284306157
 11
4.9901913786
 21
0.9112659454
  0
LINE
  5
2BA
100
AcDbEntity
  8
0
100
AcDbLine
 62
7
  6
CONTINUOUS
 10
4.4621159579
 20
0.3831905248
 11
4.7794978031
 21
0.70057237
  0
LINE
  5
2BB
100
AcDbEntity
  8
0
100
AcDbLine
 62
7
  6
CONTINUOUS
 10
5.4434741042
 20
1.0923125603
 11
5.1263020528
 21
0.7751405089
  0
LINE
  5
2BC
100
AcDbEntity
  8
0
100
AcDbLine
 62
7
  6
CONTINUOUS
 10
4.5982340133
 20
0.2470724694
 11
4.915406096
 21
0.5642445521
  0
LINE
  5
2BD
100
AcDbEntity
  8
0
100
AcDbLine
 62
7
  6
CONTINUOUS
 10
4.8652243425
 20
1.1227515425
 11
4.8579681432
 21
1.1166316297
  0
LINE
  5
2BE
100
AcDbEntity
  8
0
100
AcDbLine
 62
7
  6
CONTINUOUS
 10
4.8250957004
 20
1.1410384848
 11
4.8158105553
 21
1.1356685978
  0
LINE
  5
2BF
100
AcDbEntity
  8
0
100
AcDbLine
 62
7
  6
CONTINUOUS
 10
5.0804693762
 20
1.1303162676
 11
5.0897854985
 21
1.1357051158
  0
LINE
  5
2C0
100
AcDbEntity
  8
0
100
AcDbLine
 62
7
  6
CONTINUOUS
 10
5.3073796847
 20
0.2470961053
 11
5.4434504683
 21
0.3831668889
  0
LINE
  5
2C1
100
AcDbEntity
  8
0
100
AcDbLine
 62
7
  6
CONTINUOUS
 10
5.0740450302
 20
10.5852515425
 11
4.8315450319
 21
10.5852515425
  0
LINE
  5
2C2
100
AcDbEntity
  8
0
100
AcDbLine
 62
7
  6
CONTINUOUS
 10
3.0740450302
 20
10.5852515425
 11
2.8315450319
 21
10.5852515425
  0
LINE
  5
2C3
100
AcDbEntity
  8
0
100
AcDbLine
 62
7
  6
CONTINUOUS
 10
5.1695450311
 20
10.6167515425
 11
4.7360450311
 21
10.6167515425
  0
LINE
  5
2C4
100
AcDbEntity
  8
0
100
AcDbLine
 62
7
  6
CONTINUOUS
 10
3.1695450311
 20
10.6167515425
 11
2.7360450311
 21
10.6167515425
  0
LINE
  5
2C5
100
AcDbEntity
  8
0
100
AcDbLine
 62
7
  6
CONTINUOUS
 10
2.8180839271
 20
10.635829889
 11
2.8433311249
 21
10.635829889
  0
LINE
  5
2C6
100
AcDbEntity
  8
0
100
AcDbLine
 62
7
  6
CONTINUOUS
 10
3.0622589372
 20
10.635829889
 11
3.0875061351
 21
10.635829889
  0
LINE
  5
2C7
100
AcDbEntity
  8
0
100
AcDbLine
 62
7
  6
CONTINUOUS
 10
4.8180839271
 20
10.635829889
 11
4.8433311249
 21
10.635829889
  0
LINE
  5
2C8
100
AcDbEntity
  8
0
100
AcDbLine
 62
7
  6
CONTINUOUS
 10
5.0622589372
 20
10.635829889
 11
5.0875061351
 21
10.635829889
  0
LINE
  5
2C9
100
AcDbEntity
  8
0
100
AcDbLine
 62
7
  6
CONTINUOUS
 10
5.0875061351
 20
10.802673196
 11
5.0622589372
 21
10.802673196
  0
LINE
  5
2CA
100
AcDbEntity
  8
0
100
AcDbLine
 62
7
  6
CONTINUOUS
 10
4.8433311249
 20
10.802673196
 11
4.8180839271
 21
10.802673196
  0
LINE
  5
2CB
100
AcDbEntity
  8
0
100
AcDbLine
 62
7
  6
CONTINUOUS
 10
3.0875061351
 20
10.802673196
 11
3.0622589372
 21
10.802673196
  0
LINE
  5
2CC
100
AcDbEntity
  8
0
100
AcDbLine
 62
7
  6
CONTINUOUS
 10
2.8433311249
 20
10.802673196
 11
2.8180839271
 21
10.802673196
  0
LINE
  5
2CD
100
AcDbEntity
  8
0
100
AcDbLine
 62
7
  6
CONTINUOUS
 10
2.7360450311
 20
10.8217515425
 11
2.7601399476
 21
10.8217515425
  0
LINE
  5
2CE
100
AcDbEntity
  8
0
100
AcDbLine
 62
7
  6
CONTINUOUS
 10
2.7704533278
 20
10.8217515425
 11
3.1695450311
 21
10.8217515425
  0
LINE
  5
2CF
100
AcDbEntity
  8
0
100
AcDbLine
 62
7
  6
CONTINUOUS
 10
4.7360450311
 20
10.8217515425
 11
4.7601399476
 21
10.8217515425
  0
LINE
  5
2D0
100
AcDbEntity
  8
0
100
AcDbLine
 62
7
  6
CONTINUOUS
 10
4.7704533278
 20
10.8217515425
 11
5.1695450311
 21
10.8217515425
  0
LINE
  5
2D1
100
AcDbEntity
  8
0
100
AcDbLine
 62
7
  6
CONTINUOUS
 10
5.1695450311
 20
10.8667515425
 11
4.7360450311
 21
10.8667515425
  0
LINE
  5
2D2
100
AcDbEntity
  8
0
100
AcDbLine
 62
7
  6
CONTINUOUS
 10
3.1695450311
 20
10.8667515425
 11
2.7360450311
 21
10.8667515425
  0
ARC
  5
2D3
100
AcDbEntity
  8
0
100
AcDbCircle
 62
7
  6
CONTINUOUS
 10
3.1827138142
 20
-9.4888538984
 40
10.6226938337
100
AcDbArc
 50
91.3027744605
 51
91.7518590019
  0
ARC
  5
2D4
100
AcDbEntity
  8
0
100
AcDbCircle
 62
7
  6
CONTINUOUS
 10
2.7499112954
 20
10.7023933914
 40
0.1212581829
100
AcDbArc
 50
55.7911886173
 51
58.3838534071
  0
ARC
  5
2D5
100
AcDbEntity
  8
0
100
AcDbCircle
 62
7
  6
CONTINUOUS
 10
2.7517692686
 20
10.7053942736
 40
0.1177286966
100
AcDbArc
 50
58.3882681306
 51
59.2374928021
  0
ARC
  5
2D6
100
AcDbEntity
  8
0
100
AcDbCircle
 62
7
  6
CONTINUOUS
 10
2.7536943158
 20
10.7086705437
 40
0.1139287925
100
AcDbArc
 50
59.2266471579
 51
61.5175129469
  0
ARC
  5
2D7
100
AcDbEntity
  8
0
100
AcDbCircle
 62
7
  6
CONTINUOUS
 10
2.758707026
 20
10.7192652857
 40
0.1023840608
100
AcDbArc
 50
54.5534788936
 51
60.7740832187
  0
ARC
  5
2D8
100
AcDbEntity
  8
0
100
AcDbCircle
 62
7
  6
CONTINUOUS
 10
2.7675736362
 20
10.7199395819
 40
0.1015892694
100
AcDbArc
 50
119.7331521204
 51
125.472589196
  0
ARC
  5
2D9
100
AcDbEntity
  8
0
100
AcDbCircle
 62
7
  6
CONTINUOUS
 10
2.7591303223
 20
10.7185634885
 40
0.1015892514
100
AcDbArc
 50
299.7331478883
 51
305.4725891757
  0
ARC
  5
2DA
100
AcDbEntity
  8
0
100
AcDbCircle
 62
7
  6
CONTINUOUS
 10
2.7595228075
 20
10.7211300358
 40
0.1003926875
100
AcDbArc
 50
54.3155657589
 51
57.5437359811
  0
ARC
  5
2DB
100
AcDbEntity
  8
0
100
AcDbCircle
 62
7
  6
CONTINUOUS
 10
2.7599946957
 20
10.7220334507
 40
0.0993837377
100
AcDbArc
 50
54.232725107
 51
57.4990034243
  0
ARC
  5
2DC
100
AcDbEntity
  8
0
100
AcDbCircle
 62
7
  6
CONTINUOUS
 10
2.7662827087
 20
10.7221532498
 40
0.0990267955
100
AcDbArc
 50
119.1896217073
 51
119.7198001891
  0
ARC
  5
2DD
100
AcDbEntity
  8
0
100
AcDbCircle
 62
7
  6
CONTINUOUS
 10
2.7604612385
 20
10.7225924507
 40
0.0986550858
100
AcDbArc
 50
57.54782231
 51
58.3031752831
  0
ARC
  5
2DE
100
AcDbEntity
  8
0
100
AcDbCircle
 62
7
  6
CONTINUOUS
 10
2.7606923425
 20
10.7226849404
 40
0.0984318193
100
AcDbArc
 50
60.6016107479
 51
62.1775997912
  0
ARC
  5
2DF
100
AcDbEntity
  8
0
100
AcDbCircle
 62
7
  6
CONTINUOUS
 10
2.7659854244
 20
10.7227316919
 40
0.0983782533
100
AcDbArc
 50
117.7981834326
 51
119.6081005323
  0
ARC
  5
2E0
100
AcDbEntity
  8
0
100
AcDbCircle
 62
7
  6
CONTINUOUS
 10
2.7608988141
 20
10.7234396791
 40
0.0977119545
100
AcDbArc
 50
57.5030673966
 51
58.2514829423
  0
ARC
  5
2E1
100
AcDbEntity
  8
0
100
AcDbCircle
 62
7
  6
CONTINUOUS
 10
2.7610812033
 20
10.7233488689
 40
0.0976611409
100
AcDbArc
 50
60.8199145479
 51
64.4265040169
  0
ARC
  5
2E2
100
AcDbEntity
  8
0
100
AcDbCircle
 62
7
  6
CONTINUOUS
 10
2.7612705061
 20
10.7147978804
 40
0.0972579579
100
AcDbArc
 50
295.1858825778
 51
299.7385546777
  0
ARC
  5
2E3
100
AcDbEntity
  8
0
100
AcDbCircle
 62
7
  6
CONTINUOUS
 10
2.7654255772
 20
10.7237292445
 40
0.0972329134
100
AcDbArc
 50
115.529827267
 51
119.2016016361
  0
ARC
  5
2E4
100
AcDbEntity
  8
0
100
AcDbCircle
 62
7
  6
CONTINUOUS
 10
2.7613201948
 20
10.7240068212
 40
0.0970003666
100
AcDbArc
 50
58.2959038669
 51
61.0596477977
  0
ARC
  5
2E5
100
AcDbEntity
  8
0
100
AcDbCircle
 62
7
  6
CONTINUOUS
 10
2.7614815017
 20
10.7241981358
 40
0.0967251579
100
AcDbArc
 50
62.7710709619
 51
65.0116781124
  0
ARC
  5
2E6
100
AcDbEntity
  8
0
100
AcDbCircle
 62
7
  6
CONTINUOUS
 10
2.765118088
 20
10.7244109876
 40
0.0964881478
100
AcDbArc
 50
114.984573186
 51
117.2484398564
  0
ARC
  5
2E7
100
AcDbEntity
  8
0
100
AcDbCircle
 62
7
  6
CONTINUOUS
 10
2.761714966
 20
10.7247811097
 40
0.0961417958
100
AcDbArc
 50
58.2444374919
 51
61.0368265934
  0
ARC
  5
2E8
100
AcDbEntity
  8
0
100
AcDbCircle
 62
7
  6
CONTINUOUS
 10
2.764818758
 20
10.7249897275
 40
0.0958339753
100
AcDbArc
 50
113.9048732626
 51
115.527240965
  0
ARC
  5
2E9
100
AcDbEntity
  8
0
100
AcDbCircle
 62
7
  6
CONTINUOUS
 10
2.7619236705
 20
10.713428556
 40
0.0957408546
100
AcDbArc
 50
293.9043787517
 51
295.1808887296
  0
ARC
  5
2EA
100
AcDbEntity
  8
0
100
AcDbCircle
 62
7
  6
CONTINUOUS
 10
2.7619814125
 20
10.7251943669
 40
0.0956078513
100
AcDbArc
 50
64.4357175804
 51
67.5610666167
  0
ARC
  5
2EB
100
AcDbEntity
  8
0
100
AcDbCircle
 62
7
  6
CONTINUOUS
 10
2.7645239801
 20
10.7256528538
 40
0.0951082826
100
AcDbArc
 50
112.4466408515
 51
113.9044033237
  0
ARC
  5
2EC
100
AcDbEntity
  8
0
100
AcDbCircle
 62
7
  6
CONTINUOUS
 10
2.7624448701
 20
10.7262960546
 40
0.094412675
100
AcDbArc
 50
67.5658336672
 51
70.3854001754
  0
ARC
  5
2ED
100
AcDbEntity
  8
0
100
AcDbCircle
 62
7
  6
CONTINUOUS
 10
2.7640895743
 20
10.7267563639
 40
0.0939221599
100
AcDbArc
 50
108.8983400901
 51
112.4486766929
  0
ARC
  5
2EE
100
AcDbEntity
  8
0
100
AcDbCircle
 62
7
  6
CONTINUOUS
 10
2.7626200209
 20
10.7267733233
 40
0.0939043048
100
AcDbArc
 50
70.3883118484
 51
71.0928077949
  0
ARC
  5
2EF
100
AcDbEntity
  8
0
100
AcDbCircle
 62
7
  6
CONTINUOUS
 10
2.7628692622
 20
10.7268962937
 40
0.0937264455
100
AcDbArc
 50
61.0230030377
 51
70.3883118484
  0
ARC
  5
2F0
100
AcDbEntity
  8
0
100
AcDbCircle
 62
7
  6
CONTINUOUS
 10
2.7628692622
 20
10.7268962937
 40
0.0937264455
100
AcDbArc
 50
71.0928077949
 51
77.836961317
  0
ARC
  5
2F1
100
AcDbEntity
  8
0
100
AcDbCircle
 62
7
  6
CONTINUOUS
 10
2.7630325983
 20
10.7272673915
 40
0.0933284245
100
AcDbArc
 50
61.005432239
 51
69.8195750279
  0
ARC
  5
2F2
100
AcDbEntity
  8
0
100
AcDbCircle
 62
7
  6
CONTINUOUS
 10
2.7629071978
 20
10.7276373372
 40
0.0929938538
100
AcDbArc
 50
71.0877003471
 51
76.1054509858
  0
ARC
  5
2F3
100
AcDbEntity
  8
0
100
AcDbCircle
 62
7
  6
CONTINUOUS
 10
2.7630151094
 20
10.7279750903
 40
0.0926442517
100
AcDbArc
 50
76.1054509858
 51
76.6327657467
  0
ARC
  5
2F4
100
AcDbEntity
  8
0
100
AcDbCircle
 62
7
  6
CONTINUOUS
 10
2.7636734317
 20
10.7280556412
 40
0.09255814
100
AcDbArc
 50
103.8421943166
 51
108.9151234722
  0
ARC
  5
2F5
100
AcDbEntity
  8
0
100
AcDbCircle
 62
7
  6
CONTINUOUS
 10
2.7636090281
 20
10.728104853
 40
0.0924975908
100
AcDbArc
 50
94.3241049182
 51
102.4392917514
  0
ARC
  5
2F6
100
AcDbEntity
  8
0
100
AcDbCircle
 62
7
  6
CONTINUOUS
 10
2.7633541748
 20
10.728145739
 40
0.0924220364
100
AcDbArc
 50
88.1881854272
 51
91.8049775304
  0
ARC
  5
2F7
100
AcDbEntity
  8
0
100
AcDbCircle
 62
7
  6
CONTINUOUS
 10
2.7635724962
 20
10.7283786444
 40
0.0922247387
100
AcDbArc
 50
103.3556817702
 51
103.8421943166
  0
ARC
  5
2F8
100
AcDbEntity
  8
0
100
AcDbCircle
 62
7
  6
CONTINUOUS
 10
2.7631550344
 20
10.7285569173
 40
0.0920429161
100
AcDbArc
 50
77.5492419341
 51
84.5131692761
  0
ARC
  5
2F9
100
AcDbEntity
  8
0
100
AcDbCircle
 62
7
  6
CONTINUOUS
 10
2.7633176678
 20
10.7291003451
 40
0.0914668883
100
AcDbArc
 50
91.8036346279
 51
95.1807983892
  0
ARC
  5
2FA
100
AcDbEntity
  8
0
100
AcDbCircle
 62
7
  6
CONTINUOUS
 10
2.76338665
 20
10.7291041364
 40
0.0914630914
100
AcDbArc
 50
84.7956492179
 51
88.1895369158
  0
ARC
  5
2FB
100
AcDbEntity
  8
0
100
AcDbCircle
 62
7
  6
CONTINUOUS
 10
2.763316479
 20
10.7291850588
 40
0.0913931401
100
AcDbArc
 50
76.1215264581
 51
77.7613150237
  0
ARC
  5
2FC
100
AcDbEntity
  8
0
100
AcDbCircle
 62
7
  6
CONTINUOUS
 10
2.7633808913
 20
10.729213172
 40
0.0913642362
100
AcDbArc
 50
102.0525555885
 51
103.8377374361
  0
ARC
  5
2FD
100
AcDbEntity
  8
0
100
AcDbCircle
 62
7
  6
CONTINUOUS
 10
2.7632915152
 20
10.7088808478
 40
0.0909455577
100
AcDbArc
 50
257.937563499
 51
270.03747174
  0
ARC
  5
2FE
100
AcDbEntity
  8
0
100
AcDbCircle
 62
7
  6
CONTINUOUS
 10
2.7632570536
 20
10.7298094355
 40
0.0907552214
100
AcDbArc
 50
95.1831111972
 51
102.0520613691
  0
ARC
  5
2FF
100
AcDbEntity
  8
0
100
AcDbCircle
 62
7
  6
CONTINUOUS
 10
2.7632570536
 20
10.7298094355
 40
0.0907552214
100
AcDbArc
 50
102.0520613691
 51
103.8377374354
  0
ARC
  5
300
100
AcDbEntity
  8
0
100
AcDbCircle
 62
7
  6
CONTINUOUS
 10
2.7634530839
 20
10.7298507447
 40
0.0907135019
100
AcDbArc
 50
77.7615499124
 51
84.7922080519
  0
ARC
  5
301
100
AcDbEntity
  8
0
100
AcDbCircle
 62
7
  6
CONTINUOUS
 10
2.7634652771
 20
10.729794721
 40
0.0907697251
100
AcDbArc
 50
76.1215264588
 51
77.7615499124
  0
ARC
  5
302
100
AcDbEntity
  8
0
100
AcDbCircle
 62
7
  6
CONTINUOUS
 10
2.7633520028
 20
10.7306371831
 40
0.0899531134
100
AcDbArc
 50
84.5226175929
 51
94.2824734279
  0
ARC
  5
303
100
AcDbEntity
  8
0
100
AcDbCircle
 62
7
  6
CONTINUOUS
 10
2.7635730443
 20
10.7328505101
 40
0.0878575476
100
AcDbArc
 50
94.2465721138
 51
102.4507589305
  0
ARC
  5
304
100
AcDbEntity
  8
0
100
AcDbCircle
 62
7
  6
CONTINUOUS
 10
2.7631393833
 20
10.7329343083
 40
0.0877742525
100
AcDbArc
 50
77.1789679992
 51
84.0800416181
  0
ARC
  5
305
100
AcDbEntity
  8
0
100
AcDbCircle
 62
7
  6
CONTINUOUS
 10
2.7633079231
 20
10.7344195456
 40
0.0862795541
100
AcDbArc
 50
84.0896408147
 51
85.772056425
  0
ARC
  5
306
100
AcDbEntity
  8
0
100
AcDbCircle
 62
7
  6
CONTINUOUS
 10
2.7633507307
 20
10.7348717007
 40
0.0858254741
100
AcDbArc
 50
85.778302436
 51
94.1984816223
  0
ARC
  5
307
100
AcDbEntity
  8
0
100
AcDbCircle
 62
7
  6
CONTINUOUS
 10
2.9480302541
 20
10.4962271927
 40
0.3240216575
100
AcDbArc
 50
100.0923982837
 51
101.6658104626
  0
ARC
  5
308
100
AcDbEntity
  8
0
100
AcDbCircle
 62
7
  6
CONTINUOUS
 10
2.9477118425
 20
10.497997376
 40
0.322228015
100
AcDbArc
 50
100.3319155997
 51
101.7618800099
  0
ARC
  5
309
100
AcDbEntity
  8
0
100
AcDbCircle
 62
7
  6
CONTINUOUS
 10
2.945816502
 20
10.5069239359
 40
0.3130982429
100
AcDbArc
 50
101.6648751411
 51
103.423913302
  0
ARC
  5
30A
100
AcDbEntity
  8
0
100
AcDbCircle
 62
7
  6
CONTINUOUS
 10
2.9440871845
 20
10.5144845561
 40
0.3053459201
100
AcDbArc
 50
103.1123405013
 51
104.424598863
  0
ARC
  5
30B
100
AcDbEntity
  8
0
100
AcDbCircle
 62
7
  6
CONTINUOUS
 10
2.9429614584
 20
10.5188296697
 40
0.3008549757
100
AcDbArc
 50
103.4214225441
 51
105.5978201682
  0
ARC
  5
30C
100
AcDbEntity
  8
0
100
AcDbCircle
 62
7
  6
CONTINUOUS
 10
2.9428677968
 20
10.5192807617
 40
0.3003971525
100
AcDbArc
 50
104.4272336745
 51
104.7805193598
  0
ARC
  5
30D
100
AcDbEntity
  8
0
100
AcDbCircle
 62
7
  6
CONTINUOUS
 10
2.9419014044
 20
10.5229181776
 40
0.296633555
100
AcDbArc
 50
104.7792739203
 51
105.73095045
  0
ARC
  5
30E
100
AcDbEntity
  8
0
100
AcDbCircle
 62
7
  6
CONTINUOUS
 10
2.9381962627
 20
10.5355970987
 40
0.2834237749
100
AcDbArc
 50
105.5813995927
 51
109.5549827169
  0
ARC
  5
30F
100
AcDbEntity
  8
0
100
AcDbCircle
 62
7
  6
CONTINUOUS
 10
2.8559668806
 20
10.6167515425
 40
0.2375
100
AcDbArc
 50
120.3269780968
 51
127.5738952961
  0
ARC
  5
310
100
AcDbEntity
  8
0
100
AcDbCircle
 62
7
  6
CONTINUOUS
 10
2.8559668806
 20
10.8217515425
 40
0.2375
100
AcDbArc
 50
231.520240054
 51
239.6730219033
  0
ARC
  5
311
100
AcDbEntity
  8
0
100
AcDbCircle
 62
7
  6
CONTINUOUS
 10
2.9527950311
 20
0.7377515425
 40
0.625
100
AcDbArc
 50
106.504744188
 51
73.4958431644
  0
ARC
  5
312
100
AcDbEntity
  8
0
100
AcDbCircle
 62
9
  6
CONTINUOUS
 10
2.9527950311
 20
0.7377515425
 40
0.5837863299
100
AcDbArc
 50
107.7074147269
 51
125.5063021182
  0
ARC
  5
313
100
AcDbEntity
  8
0
100
AcDbCircle
 62
9
  6
CONTINUOUS
 10
2.9527950311
 20
0.7377515425
 40
0.5837863299
100
AcDbArc
 50
144.4933422345
 51
215.5051246965
  0
ARC
  5
314
100
AcDbEntity
  8
0
100
AcDbCircle
 62
9
  6
CONTINUOUS
 10
2.9527950311
 20
0.7377515425
 40
0.5837863299
100
AcDbArc
 50
234.4928029714
 51
305.5063021182
  0
ARC
  5
315
100
AcDbEntity
  8
0
100
AcDbCircle
 62
9
  6
CONTINUOUS
 10
2.9527950311
 20
0.7377515425
 40
0.5837863299
100
AcDbArc
 50
324.4933422345
 51
35.5051246965
  0
ARC
  5
316
100
AcDbEntity
  8
0
100
AcDbCircle
 62
9
  6
CONTINUOUS
 10
2.9527950311
 20
0.7377515425
 40
0.5837863299
100
AcDbArc
 50
54.4928029714
 51
72.2934053515
  0
ARC
  5
317
100
AcDbEntity
  8
0
100
AcDbCircle
 62
9
  6
CONTINUOUS
 10
2.9527950311
 20
0.7377515425
 40
0.2654936464
100
AcDbArc
 50
336.2724907967
 51
19.6284291339
  0
ARC
  5
318
100
AcDbEntity
  8
0
100
AcDbCircle
 62
9
  6
CONTINUOUS
 10
2.9527950311
 20
0.7377515425
 40
0.2654936464
100
AcDbArc
 50
246.2724907967
 51
293.7275092033
  0
ARC
  5
319
100
AcDbEntity
  8
0
100
AcDbCircle
 62
9
  6
CONTINUOUS
 10
2.9527950311
 20
0.7377515425
 40
0.2654936464
100
AcDbArc
 50
160.3715708662
 51
203.7275092033
  0
ARC
  5
31A
100
AcDbEntity
  8
0
100
AcDbCircle
 62
7
  6
CONTINUOUS
 10
2.9527950311
 20
0.7377515425
 40
0.25
100
AcDbArc
 50
247.6586026205
 51
292.3323678777
  0
ARC
  5
31B
100
AcDbEntity
  8
0
100
AcDbCircle
 62
7
  6
CONTINUOUS
 10
2.9527950311
 20
0.7377515425
 40
0.25
100
AcDbArc
 50
337.6676321223
 51
22.3413973795
  0
ARC
  5
31C
100
AcDbEntity
  8
0
100
AcDbCircle
 62
7
  6
CONTINUOUS
 10
2.9527950311
 20
0.7377515425
 40
0.25
100
AcDbArc
 50
67.6586026205
 51
112.3323678777
  0
ARC
  5
31D
100
AcDbEntity
  8
0
100
AcDbCircle
 62
7
  6
CONTINUOUS
 10
2.9527950311
 20
0.7377515425
 40
0.25
100
AcDbArc
 50
157.6676321223
 51
202.3413973795
  0
ARC
  5
31E
100
AcDbEntity
  8
0
100
AcDbCircle
 62
9
  6
CONTINUOUS
 10
2.9527950311
 20
0.7377515425
 40
0.2449999923
100
AcDbArc
 50
338.1635381304
 51
21.8436589281
  0
ARC
  5
31F
100
AcDbEntity
  8
0
100
AcDbCircle
 62
9
  6
CONTINUOUS
 10
2.9527950311
 20
0.7377515425
 40
0.2449999923
100
AcDbArc
 50
248.1563444868
 51
291.8364611622
  0
ARC
  5
320
100
AcDbEntity
  8
0
100
AcDbCircle
 62
9
  6
CONTINUOUS
 10
2.9527950311
 20
0.7377515425
 40
0.2449999923
100
AcDbArc
 50
158.1635381304
 51
201.8436589281
  0
ARC
  5
321
100
AcDbEntity
  8
0
100
AcDbCircle
 62
9
  6
CONTINUOUS
 10
2.9527950311
 20
0.7377515425
 40
0.2449999923
100
AcDbArc
 50
68.1563444868
 51
111.8364611622
  0
CIRCLE
  5
322
100
AcDbEntity
  8
0
100
AcDbCircle
 62
7
  6
CONTINUOUS
 10
2.9527950311
 20
0.7377515425
 40
0.1775
  0
ARC
  5
323
100
AcDbEntity
  8
0
100
AcDbCircle
 62
7
  6
CONTINUOUS
 10
2.9527950454
 20
10.4500987323
 40
0.3704697469
100
AcDbArc
 50
89.0521989659
 51
90.9562344475
  0
ARC
  5
324
100
AcDbEntity
  8
0
100
AcDbCircle
 62
7
  6
CONTINUOUS
 10
2.9527951856
 20
10.4510154436
 40
0.3695524077
100
AcDbArc
 50
89.1008797304
 51
90.9109368444
  0
ARC
  5
325
100
AcDbEntity
  8
0
100
AcDbCircle
 62
7
  6
CONTINUOUS
 10
2.9529028469
 20
10.455687243
 40
0.3648802178
100
AcDbArc
 50
87.4822605091
 51
89.0546084518
  0
ARC
  5
326
100
AcDbEntity
  8
0
100
AcDbCircle
 62
7
  6
CONTINUOUS
 10
2.9526863493
 20
10.4557149539
 40
0.3648524936
100
AcDbArc
 50
90.9538861497
 51
92.5219739197
  0
ARC
  5
327
100
AcDbEntity
  8
0
100
AcDbCircle
 62
7
  6
CONTINUOUS
 10
2.9528969191
 20
10.4564117022
 40
0.3641552175
100
AcDbArc
 50
87.3974103693
 51
89.1035612718
  0
ARC
  5
328
100
AcDbEntity
  8
0
100
AcDbCircle
 62
7
  6
CONTINUOUS
 10
2.9526927698
 20
10.456429876
 40
0.3641370317
100
AcDbArc
 50
90.9083684374
 51
92.5987884258
  0
ARC
  5
329
100
AcDbEntity
  8
0
100
AcDbCircle
 62
7
  6
CONTINUOUS
 10
2.9527950271
 20
10.4600881355
 40
0.3604925318
100
AcDbArc
 50
83.7203936156
 51
96.2795079956
  0
ARC
  5
32A
100
AcDbEntity
  8
0
100
AcDbCircle
 62
7
  6
CONTINUOUS
 10
2.952795031
 20
10.4612440741
 40
0.3593462886
100
AcDbArc
 50
83.848790981
 51
96.1552349598
  0
ARC
  5
32B
100
AcDbEntity
  8
0
100
AcDbCircle
 62
7
  6
CONTINUOUS
 10
2.9533132355
 20
10.465117095
 40
0.3554399007
100
AcDbArc
 50
84.8184992546
 51
87.4007296145
  0
ARC
  5
32C
100
AcDbEntity
  8
0
100
AcDbCircle
 62
7
  6
CONTINUOUS
 10
2.9522673906
 20
10.4652809662
 40
0.355275758
100
AcDbArc
 50
92.594979705
 51
95.2701504783
  0
ARC
  5
32D
100
AcDbEntity
  8
0
100
AcDbCircle
 62
7
  6
CONTINUOUS
 10
2.9534616864
 20
10.4669169381
 40
0.35363682
100
AcDbArc
 50
83.7966049138
 51
87.4927907539
  0
ARC
  5
32E
100
AcDbEntity
  8
0
100
AcDbCircle
 62
7
  6
CONTINUOUS
 10
2.9521276166
 20
10.4669256708
 40
0.3536280555
100
AcDbArc
 50
92.511460005
 51
96.2033120825
  0
ARC
  5
32F
100
AcDbEntity
  8
0
100
AcDbCircle
 62
7
  6
CONTINUOUS
 10
2.953924498
 20
10.4722298137
 40
0.3483010451
100
AcDbArc
 50
83.811265664
 51
84.8129732889
  0
ARC
  5
330
100
AcDbEntity
  8
0
100
AcDbCircle
 62
7
  6
CONTINUOUS
 10
2.9516479821
 20
10.4724029356
 40
0.3481270035
100
AcDbArc
 50
95.2763019092
 51
96.1920188192
  0
ARC
  5
331
100
AcDbEntity
  8
0
100
AcDbCircle
 62
7
  6
CONTINUOUS
 10
2.9512883184
 20
10.4757270691
 40
0.3447834694
100
AcDbArc
 50
96.1921814328
 51
97.0195949782
  0
ARC
  5
332
100
AcDbEntity
  8
0
100
AcDbCircle
 62
7
  6
CONTINUOUS
 10
2.9543069312
 20
10.4757722262
 40
0.3447380494
100
AcDbArc
 50
82.9578950496
 51
83.810986224
  0
ARC
  5
333
100
AcDbEntity
  8
0
100
AcDbCircle
 62
7
  6
CONTINUOUS
 10
2.9527946609
 20
10.4787321553
 40
0.3419655711
100
AcDbArc
 50
83.5347261461
 51
96.469379963
  0
ARC
  5
334
100
AcDbEntity
  8
0
100
AcDbCircle
 62
7
  6
CONTINUOUS
 10
2.952633929
 20
10.4800949014
 40
0.3405933927
100
AcDbArc
 50
96.4683428969
 51
108.7184957719
  0
ARC
  5
335
100
AcDbEntity
  8
0
100
AcDbCircle
 62
7
  6
CONTINUOUS
 10
2.9531528793
 20
10.4809739451
 40
0.3396977185
100
AcDbArc
 50
71.2653523494
 51
83.5521852772
  0
ARC
  5
336
100
AcDbEntity
  8
0
100
AcDbCircle
 62
7
  6
CONTINUOUS
 10
2.9504479967
 20
10.4822565244
 40
0.3382002634
100
AcDbArc
 50
97.0134848632
 51
99.7061362909
  0
ARC
  5
337
100
AcDbEntity
  8
0
100
AcDbCircle
 62
7
  6
CONTINUOUS
 10
2.9551513792
 20
10.4823199955
 40
0.338136148
100
AcDbArc
 50
80.2890016081
 51
82.9638815182
  0
ARC
  5
338
100
AcDbEntity
  8
0
100
AcDbCircle
 62
7
  6
CONTINUOUS
 10
2.9504170834
 20
10.4823891898
 40
0.3380694823
100
AcDbArc
 50
96.7583739632
 51
97.0134848632
  0
ARC
  5
339
100
AcDbEntity
  8
0
100
AcDbCircle
 62
7
  6
CONTINUOUS
 10
2.9551731331
 20
10.4823901844
 40
0.3380684769
100
AcDbArc
 50
82.9638815182
 51
83.2409929944
  0
ARC
  5
33A
100
AcDbEntity
  8
0
100
AcDbCircle
 62
7
  6
CONTINUOUS
 10
2.9492076654
 20
10.4897429599
 40
0.3306118819
100
AcDbArc
 50
99.7129988425
 51
100.0963705206
  0
ARC
  5
33B
100
AcDbEntity
  8
0
100
AcDbCircle
 62
7
  6
CONTINUOUS
 10
2.9564452481
 20
10.4901069544
 40
0.3302425218
100
AcDbArc
 50
79.7978144976
 51
80.2823802959
  0
ARC
  5
33C
100
AcDbEntity
  8
0
100
AcDbCircle
 62
7
  6
CONTINUOUS
 10
2.949109715
 20
10.4903655728
 40
0.3299868119
100
AcDbArc
 50
99.6552786142
 51
100.0377067154
  0
ARC
  5
33D
100
AcDbEntity
  8
0
100
AcDbCircle
 62
7
  6
CONTINUOUS
 10
2.9568537323
 20
10.4924788059
 40
0.3278408469
100
AcDbArc
 50
79.6866388343
 51
79.9611949471
  0
ARC
  5
33E
100
AcDbEntity
  8
0
100
AcDbCircle
 62
7
  6
CONTINUOUS
 10
2.9487244988
 20
10.4925450133
 40
0.3277735899
100
AcDbArc
 50
100.0378025989
 51
100.335123895
  0
ARC
  5
33F
100
AcDbEntity
  8
0
100
AcDbCircle
 62
7
  6
CONTINUOUS
 10
2.9576237714
 20
10.4965521005
 40
0.3236905387
100
AcDbArc
 50
78.3399994421
 51
79.8010556178
  0
ARC
  5
340
100
AcDbEntity
  8
0
100
AcDbCircle
 62
7
  6
CONTINUOUS
 10
2.9578647281
 20
10.4979298261
 40
0.3222968973
100
AcDbArc
 50
78.2377949564
 51
79.6899732037
  0
ARC
  5
341
100
AcDbEntity
  8
0
100
AcDbCircle
 62
7
  6
CONTINUOUS
 10
2.9596620931
 20
10.5065762548
 40
0.3134656323
100
AcDbArc
 50
76.8884663444
 51
78.2372551899
  0
ARC
  5
342
100
AcDbEntity
  8
0
100
AcDbCircle
 62
7
  6
CONTINUOUS
 10
2.9597814692
 20
10.5069623167
 40
0.3130590678
100
AcDbArc
 50
76.5559614778
 51
78.3416885947
  0
ARC
  5
343
100
AcDbEntity
  8
0
100
AcDbCircle
 62
7
  6
CONTINUOUS
 10
2.961509292
 20
10.5145112624
 40
0.3053184557
100
AcDbArc
 50
75.5655814169
 51
76.8882800873
  0
ARC
  5
344
100
AcDbEntity
  8
0
100
AcDbCircle
 62
7
  6
CONTINUOUS
 10
2.9626384368
 20
10.5188658105
 40
0.3008175279
100
AcDbArc
 50
74.4096841374
 51
76.5580890545
  0
ARC
  5
345
100
AcDbEntity
  8
0
100
AcDbCircle
 62
7
  6
CONTINUOUS
 10
2.9627192648
 20
10.519269
 40
0.3004092911
100
AcDbArc
 50
75.2335396195
 51
75.5628748307
  0
ARC
  5
346
100
AcDbEntity
  8
0
100
AcDbCircle
 62
7
  6
CONTINUOUS
 10
2.963678039
 20
10.5228796988
 40
0.2966734717
100
AcDbArc
 50
74.26881096
 51
75.2348556993
  0
ARC
  5
347
100
AcDbEntity
  8
0
100
AcDbCircle
 62
7
  6
CONTINUOUS
 10
2.9673868688
 20
10.5355760404
 40
0.2834459383
100
AcDbArc
 50
70.445121913
 51
74.4264084123
  0
ARC
  5
348
100
AcDbEntity
  8
0
100
AcDbCircle
 62
7
  6
CONTINUOUS
 10
3.0496231815
 20
10.6167515425
 40
0.2375
100
AcDbArc
 50
52.4261047039
 51
59.6730219032
  0
ARC
  5
349
100
AcDbEntity
  8
0
100
AcDbCircle
 62
7
  6
CONTINUOUS
 10
3.0496231815
 20
10.8217515425
 40
0.2375
100
AcDbArc
 50
300.3269780967
 51
308.479759946
  0
ARC
  5
34A
100
AcDbEntity
  8
0
100
AcDbCircle
 62
7
  6
CONTINUOUS
 10
3.1375930332
 20
10.7192651291
 40
0.1023842503
100
AcDbArc
 50
54.553480945
 51
60.7737059913
  0
ARC
  5
34B
100
AcDbEntity
  8
0
100
AcDbCircle
 62
7
  6
CONTINUOUS
 10
3.1380164241
 20
10.7185635057
 40
0.1015892726
100
AcDbArc
 50
299.7331541526
 51
305.4725892097
  0
ARC
  5
34C
100
AcDbEntity
  8
0
100
AcDbCircle
 62
7
  6
CONTINUOUS
 10
3.1462927242
 20
10.7201978593
 40
0.1012820035
100
AcDbArc
 50
119.2048615218
 51
125.4804280709
  0
ARC
  5
34D
100
AcDbEntity
  8
0
100
AcDbCircle
 62
7
  6
CONTINUOUS
 10
3.14606702
 20
10.7211304809
 40
0.1003921891
100
AcDbArc
 50
122.4562848131
 51
125.6844737175
  0
ARC
  5
34E
100
AcDbEntity
  8
0
100
AcDbCircle
 62
7
  6
CONTINUOUS
 10
3.1457340797
 20
10.7218201348
 40
0.0996378997
100
AcDbArc
 50
121.7711555753
 51
125.7602995031
  0
ARC
  5
34F
100
AcDbEntity
  8
0
100
AcDbCircle
 62
7
  6
CONTINUOUS
 10
3.1451292793
 20
10.7225917991
 40
0.0986558833
100
AcDbArc
 50
121.6996256197
 51
122.4521953317
  0
ARC
  5
350
100
AcDbEntity
  8
0
100
AcDbCircle
 62
7
  6
CONTINUOUS
 10
3.1399673106
 20
10.7233488533
 40
0.097661158
100
AcDbArc
 50
60.819529929
 51
64.4270336851
  0
ARC
  5
351
100
AcDbEntity
  8
0
100
AcDbCircle
 62
7
  6
CONTINUOUS
 10
3.1399627053
 20
10.7233833314
 40
0.0976347434
100
AcDbArc
 50
64.4270336851
 51
64.9995516154
  0
ARC
  5
352
100
AcDbEntity
  8
0
100
AcDbCircle
 62
7
  6
CONTINUOUS
 10
3.1443117218
 20
10.7237291827
 40
0.0972329818
100
AcDbArc
 50
115.53030111
 51
119.2012512048
  0
ARC
  5
353
100
AcDbEntity
  8
0
100
AcDbCircle
 62
7
  6
CONTINUOUS
 10
3.1442721522
 20
10.7238528122
 40
0.0971072628
100
AcDbArc
 50
114.9900881463
 51
115.53030111
  0
ARC
  5
354
100
AcDbEntity
  8
0
100
AcDbCircle
 62
7
  6
CONTINUOUS
 10
3.1401422102
 20
10.7239425776
 40
0.097097439
100
AcDbArc
 50
54.1782151738
 51
61.9596273908
  0
ARC
  5
355
100
AcDbEntity
  8
0
100
AcDbCircle
 62
7
  6
CONTINUOUS
 10
3.1442705148
 20
10.7240057389
 40
0.0970016319
100
AcDbArc
 50
119.2012512048
 51
121.7069074252
  0
ARC
  5
356
100
AcDbEntity
  8
0
100
AcDbCircle
 62
7
  6
CONTINUOUS
 10
3.1439048167
 20
10.7247235125
 40
0.0962064159
100
AcDbArc
 50
118.0333536523
 51
121.7554014533
  0
ARC
  5
357
100
AcDbEntity
  8
0
100
AcDbCircle
 62
7
  6
CONTINUOUS
 10
3.1408675343
 20
10.7251943969
 40
0.0956078212
100
AcDbArc
 50
64.4362546771
 51
67.5603831305
  0
ARC
  5
358
100
AcDbEntity
  8
0
100
AcDbCircle
 62
7
  6
CONTINUOUS
 10
3.1435062452
 20
10.7254244317
 40
0.0953561103
100
AcDbArc
 50
112.4470150643
 51
115.5325872228
  0
ARC
  5
359
100
AcDbEntity
  8
0
100
AcDbCircle
 62
7
  6
CONTINUOUS
 10
3.1413613873
 20
10.7263721631
 40
0.0943307246
100
AcDbArc
 50
67.5645710987
 51
71.0886543294
  0
ARC
  5
35A
100
AcDbEntity
  8
0
100
AcDbCircle
 62
7
  6
CONTINUOUS
 10
3.1430571227
 20
10.726524361
 40
0.0941680315
100
AcDbArc
 50
108.8995462365
 51
112.4499909377
  0
ARC
  5
35B
100
AcDbEntity
  8
0
100
AcDbCircle
 62
7
  6
CONTINUOUS
 10
3.1418256862
 20
10.7268888012
 40
0.0937158883
100
AcDbArc
 50
69.8459087694
 51
77.5953240224
  0
ARC
  5
35C
100
AcDbEntity
  8
0
100
AcDbCircle
 62
7
  6
CONTINUOUS
 10
3.1419604652
 20
10.7273724072
 40
0.0932154649
100
AcDbArc
 50
61.955005754
 51
69.8212620354
  0
ARC
  5
35D
100
AcDbEntity
  8
0
100
AcDbCircle
 62
7
  6
CONTINUOUS
 10
3.1425460907
 20
10.7275476537
 40
0.0930500018
100
AcDbArc
 50
95.4876756509
 51
118.9788188546
  0
ARC
  5
35E
100
AcDbEntity
  8
0
100
AcDbCircle
 62
7
  6
CONTINUOUS
 10
3.1417932561
 20
10.7276371673
 40
0.0929940331
100
AcDbArc
 50
71.0877690842
 51
76.1043358158
  0
ARC
  5
35F
100
AcDbEntity
  8
0
100
AcDbCircle
 62
7
  6
CONTINUOUS
 10
3.1419011996
 20
10.7279750418
 40
0.0926443086
100
AcDbArc
 50
76.1043358158
 51
76.6318431321
  0
ARC
  5
360
100
AcDbEntity
  8
0
100
AcDbCircle
 62
7
  6
CONTINUOUS
 10
3.1425594749
 20
10.7280558709
 40
0.0925578988
100
AcDbArc
 50
103.841131571
 51
108.915178268
  0
ARC
  5
361
100
AcDbEntity
  8
0
100
AcDbCircle
 62
7
  6
CONTINUOUS
 10
3.1419810491
 20
10.7281048862
 40
0.0924975553
100
AcDbArc
 50
77.560726312
 51
85.6759225284
  0
ARC
  5
362
100
AcDbEntity
  8
0
100
AcDbCircle
 62
7
  6
CONTINUOUS
 10
3.1424586049
 20
10.7283786555
 40
0.0922247218
100
AcDbArc
 50
103.3548913374
 51
103.841131571
  0
ARC
  5
363
100
AcDbEntity
  8
0
100
AcDbCircle
 62
7
  6
CONTINUOUS
 10
3.1424430631
 20
10.72848946
 40
0.0921108305
100
AcDbArc
 50
95.4877988542
 51
102.4889479956
  0
ARC
  5
364
100
AcDbEntity
  8
0
100
AcDbCircle
 62
7
  6
CONTINUOUS
 10
3.1420850429
 20
10.7285219237
 40
0.0920652293
100
AcDbArc
 50
77.5346352069
 51
85.7061085619
  0
ARC
  5
365
100
AcDbEntity
  8
0
100
AcDbCircle
 62
7
  6
CONTINUOUS
 10
3.1422657469
 20
10.7290933586
 40
0.0914744202
100
AcDbArc
 50
84.0358408202
 51
95.959596001
  0
ARC
  5
366
100
AcDbEntity
  8
0
100
AcDbCircle
 62
7
  6
CONTINUOUS
 10
3.1422728405
 20
10.7291885448
 40
0.0913895432
100
AcDbArc
 50
102.2449497218
 51
103.836529131
  0
ARC
  5
367
100
AcDbEntity
  8
0
100
AcDbCircle
 62
7
  6
CONTINUOUS
 10
3.1422079156
 20
10.7292074596
 40
0.0913701171
100
AcDbArc
 50
76.1202706253
 51
77.9363345035
  0
ARC
  5
368
100
AcDbEntity
  8
0
100
AcDbCircle
 62
7
  6
CONTINUOUS
 10
3.1423296142
 20
10.7297844299
 40
0.0907804539
100
AcDbArc
 50
77.9353405018
 51
84.0306117126
  0
ARC
  5
369
100
AcDbEntity
  8
0
100
AcDbCircle
 62
7
  6
CONTINUOUS
 10
3.1423541795
 20
10.7298134142
 40
0.090750848
100
AcDbArc
 50
76.1202706253
 51
77.9353405018
  0
ARC
  5
36A
100
AcDbEntity
  8
0
100
AcDbCircle
 62
7
  6
CONTINUOUS
 10
3.1421407645
 20
10.7298208259
 40
0.0907436346
100
AcDbArc
 50
95.9634503222
 51
102.2481258265
  0
ARC
  5
36B
100
AcDbEntity
  8
0
100
AcDbCircle
 62
7
  6
CONTINUOUS
 10
3.1422380656
 20
10.7306371256
 40
0.0899531691
100
AcDbArc
 50
85.7175535115
 51
95.4773860557
  0
ARC
  5
36C
100
AcDbEntity
  8
0
100
AcDbCircle
 62
7
  6
CONTINUOUS
 10
5.1827138174
 20
-9.488853898
 40
10.6226938334
100
AcDbArc
 50
91.3027744778
 51
91.7518590192
  0
ARC
  5
36D
100
AcDbEntity
  8
0
100
AcDbCircle
 62
7
  6
CONTINUOUS
 10
4.7499112954
 20
10.7023933914
 40
0.1212581829
100
AcDbArc
 50
55.7911886172
 51
58.383853407
  0
ARC
  5
36E
100
AcDbEntity
  8
0
100
AcDbCircle
 62
7
  6
CONTINUOUS
 10
4.7517692686
 20
10.7053942736
 40
0.1177286966
100
AcDbArc
 50
58.3882681304
 51
59.237492802
  0
ARC
  5
36F
100
AcDbEntity
  8
0
100
AcDbCircle
 62
7
  6
CONTINUOUS
 10
4.7536943158
 20
10.7086705437
 40
0.1139287924
100
AcDbArc
 50
59.2266471576
 51
61.5175129469
  0
ARC
  5
370
100
AcDbEntity
  8
0
100
AcDbCircle
 62
7
  6
CONTINUOUS
 10
4.7586894043
 20
10.7192393233
 40
0.1024154308
100
AcDbArc
 50
54.5538710942
 51
60.7031446162
  0
ARC
  5
371
100
AcDbEntity
  8
0
100
AcDbCircle
 62
7
  6
CONTINUOUS
 10
4.7675736362
 20
10.7199395819
 40
0.1015892694
100
AcDbArc
 50
119.7331521214
 51
125.472589196
  0
ARC
  5
372
100
AcDbEntity
  8
0
100
AcDbCircle
 62
7
  6
CONTINUOUS
 10
4.7591303223
 20
10.7185634885
 40
0.1015892514
100
AcDbArc
 50
299.7331478883
 51
305.4725891757
  0
ARC
  5
373
100
AcDbEntity
  8
0
100
AcDbCircle
 62
7
  6
CONTINUOUS
 10
4.7595228075
 20
10.7211300358
 40
0.1003926875
100
AcDbArc
 50
54.3155657589
 51
57.5437359809
  0
ARC
  5
374
100
AcDbEntity
  8
0
100
AcDbCircle
 62
7
  6
CONTINUOUS
 10
4.7599946957
 20
10.7220334507
 40
0.0993837378
100
AcDbArc
 50
54.2327251072
 51
57.4990034243
  0
ARC
  5
375
100
AcDbEntity
  8
0
100
AcDbCircle
 62
7
  6
CONTINUOUS
 10
4.7662973909
 20
10.7221273584
 40
0.0990565599
100
AcDbArc
 50
119.2610041709
 51
119.7197510657
  0
ARC
  5
376
100
AcDbEntity
  8
0
100
AcDbCircle
 62
7
  6
CONTINUOUS
 10
4.7604612385
 20
10.7225924507
 40
0.0986550858
100
AcDbArc
 50
57.5478223098
 51
58.3031752829
  0
ARC
  5
377
100
AcDbEntity
  8
0
100
AcDbCircle
 62
7
  6
CONTINUOUS
 10
4.7606786295
 20
10.7226595502
 40
0.0984606747
100
AcDbArc
 50
60.5333919935
 51
62.1774384166
  0
ARC
  5
378
100
AcDbEntity
  8
0
100
AcDbCircle
 62
7
  6
CONTINUOUS
 10
4.7659854244
 20
10.7227316919
 40
0.0983782533
100
AcDbArc
 50
117.7981834331
 51
119.6081005322
  0
ARC
  5
379
100
AcDbEntity
  8
0
100
AcDbCircle
 62
7
  6
CONTINUOUS
 10
4.7608988141
 20
10.7234396791
 40
0.0977119544
100
AcDbArc
 50
57.5030673964
 51
58.2514829425
  0
ARC
  5
37A
100
AcDbEntity
  8
0
100
AcDbCircle
 62
7
  6
CONTINUOUS
 10
4.7610830035
 20
10.7233506502
 40
0.0976587169
100
AcDbArc
 50
60.7475186882
 51
64.5420995991
  0
ARC
  5
37B
100
AcDbEntity
  8
0
100
AcDbCircle
 62
7
  6
CONTINUOUS
 10
4.7612705061
 20
10.7147978804
 40
0.0972579579
100
AcDbArc
 50
295.1858825779
 51
299.7385546776
  0
ARC
  5
37C
100
AcDbEntity
  8
0
100
AcDbCircle
 62
7
  6
CONTINUOUS
 10
4.7654142636
 20
10.7237497568
 40
0.097209516
100
AcDbArc
 50
115.4133469963
 51
119.2743058672
  0
ARC
  5
37D
100
AcDbEntity
  8
0
100
AcDbCircle
 62
7
  6
CONTINUOUS
 10
4.7613201948
 20
10.7240068212
 40
0.0970003666
100
AcDbArc
 50
58.2959038666
 51
61.0596477978
  0
ARC
  5
37E
100
AcDbEntity
  8
0
100
AcDbCircle
 62
7
  6
CONTINUOUS
 10
4.7614964305
 20
10.7242277398
 40
0.0966920038
100
AcDbArc
 50
62.7709105042
 51
65.135884097
  0
ARC
  5
37F
100
AcDbEntity
  8
0
100
AcDbCircle
 62
7
  6
CONTINUOUS
 10
4.765098261
 20
10.724451193
 40
0.0964433263
100
AcDbArc
 50
114.8605037123
 51
117.2489039986
  0
ARC
  5
380
100
AcDbEntity
  8
0
100
AcDbCircle
 62
7
  6
CONTINUOUS
 10
4.761714966
 20
10.7247811097
 40
0.0961417958
100
AcDbArc
 50
58.244437492
 51
61.0368265936
  0
ARC
  5
381
100
AcDbEntity
  8
0
100
AcDbCircle
 62
7
  6
CONTINUOUS
 10
4.7648056001
 20
10.7250186712
 40
0.0958021825
100
AcDbArc
 50
113.9046934393
 51
115.4102266534
  0
ARC
  5
382
100
AcDbEntity
  8
0
100
AcDbCircle
 62
7
  6
CONTINUOUS
 10
4.7619236706
 20
10.713428556
 40
0.0957408546
100
AcDbArc
 50
293.9043787516
 51
295.1808887297
  0
ARC
  5
383
100
AcDbEntity
  8
0
100
AcDbCircle
 62
7
  6
CONTINUOUS
 10
4.7619856573
 20
10.7252050894
 40
0.0955963391
100
AcDbArc
 50
64.5528164827
 51
67.4449141413
  0
ARC
  5
384
100
AcDbEntity
  8
0
100
AcDbCircle
 62
7
  6
CONTINUOUS
 10
4.7645332359
 20
10.7256315266
 40
0.095131531
100
AcDbArc
 50
112.562918558
 51
113.90429477
  0
ARC
  5
385
100
AcDbEntity
  8
0
100
AcDbCircle
 62
7
  6
CONTINUOUS
 10
4.7624370306
 20
10.7262754646
 40
0.094434702
100
AcDbArc
 50
67.4487261035
 51
70.3851133589
  0
ARC
  5
386
100
AcDbEntity
  8
0
100
AcDbCircle
 62
7
  6
CONTINUOUS
 10
4.7642258126
 20
10.7263819356
 40
0.0943206016
100
AcDbArc
 50
109.8114652844
 51
112.5653712195
  0
ARC
  5
387
100
AcDbEntity
  8
0
100
AcDbCircle
 62
7
  6
CONTINUOUS
 10
4.7640888986
 20
10.7267582695
 40
0.0939201381
100
AcDbArc
 50
108.8763538259
 51
109.8106959962
  0
ARC
  5
388
100
AcDbEntity
  8
0
100
AcDbCircle
 62
7
  6
CONTINUOUS
 10
4.7626206869
 20
10.7267752161
 40
0.0939022983
100
AcDbArc
 50
70.3883070212
 51
71.1148813412
  0
ARC
  5
389
100
AcDbEntity
  8
0
100
AcDbCircle
 62
7
  6
CONTINUOUS
 10
4.7639842051
 20
10.7270791148
 40
0.0935876168
100
AcDbArc
 50
109.8106959962
 51
112.7345218367
  0
ARC
  5
38A
100
AcDbEntity
  8
0
100
AcDbCircle
 62
7
  6
CONTINUOUS
 10
4.7630325983
 20
10.7272673915
 40
0.0933284245
100
AcDbArc
 50
61.0054322392
 51
71.1098859512
  0
ARC
  5
38B
100
AcDbEntity
  8
0
100
AcDbCircle
 62
7
  6
CONTINUOUS
 10
4.7630325983
 20
10.7272673915
 40
0.0933284245
100
AcDbArc
 50
76.062225862
 51
77.5581074156
  0
ARC
  5
38C
100
AcDbEntity
  8
0
100
AcDbCircle
 62
7
  6
CONTINUOUS
 10
4.7619340038
 20
10.7275571766
 40
0.0932848262
100
AcDbArc
 50
69.7253562718
 51
77.1601958883
  0
ARC
  5
38D
100
AcDbEntity
  8
0
100
AcDbCircle
 62
7
  6
CONTINUOUS
 10
4.7629061715
 20
10.7276348056
 40
0.092996578
100
AcDbArc
 50
71.1098859512
 51
76.062225862
  0
ARC
  5
38E
100
AcDbEntity
  8
0
100
AcDbCircle
 62
7
  6
CONTINUOUS
 10
4.7630147218
 20
10.7279745232
 40
0.0926449099
100
AcDbArc
 50
76.062225862
 51
76.5988532857
  0
ARC
  5
38F
100
AcDbEntity
  8
0
100
AcDbCircle
 62
7
  6
CONTINUOUS
 10
4.7636755486
 20
10.7280491119
 40
0.0925649925
100
AcDbArc
 50
103.8842504924
 51
108.8927584232
  0
ARC
  5
390
100
AcDbEntity
  8
0
100
AcDbCircle
 62
7
  6
CONTINUOUS
 10
4.7636090281
 20
10.728104853
 40
0.0924975908
100
AcDbArc
 50
94.3241049181
 51
102.4392917515
  0
ARC
  5
391
100
AcDbEntity
  8
0
100
AcDbCircle
 62
7
  6
CONTINUOUS
 10
4.7633541748
 20
10.728145739
 40
0.0924220364
100
AcDbArc
 50
88.1881854271
 51
91.8049775304
  0
ARC
  5
392
100
AcDbEntity
  8
0
100
AcDbCircle
 62
7
  6
CONTINUOUS
 10
4.7635737573
 20
10.7283748843
 40
0.0922286935
100
AcDbArc
 50
103.3889348302
 51
103.8842504924
  0
ARC
  5
393
100
AcDbEntity
  8
0
100
AcDbCircle
 62
7
  6
CONTINUOUS
 10
4.763147012
 20
10.7284896132
 40
0.0921106788
100
AcDbArc
 50
77.5110421491
 51
84.5122049905
  0
ARC
  5
394
100
AcDbEntity
  8
0
100
AcDbCircle
 62
7
  6
CONTINUOUS
 10
4.7633176678
 20
10.7291003451
 40
0.0914668883
100
AcDbArc
 50
91.8036346279
 51
95.1807983888
  0
ARC
  5
395
100
AcDbEntity
  8
0
100
AcDbCircle
 62
7
  6
CONTINUOUS
 10
4.76338665
 20
10.7291041364
 40
0.0914630914
100
AcDbArc
 50
84.7956492184
 51
88.1895369159
  0
ARC
  5
396
100
AcDbEntity
  8
0
100
AcDbCircle
 62
7
  6
CONTINUOUS
 10
4.7633137701
 20
10.7291733866
 40
0.0914051221
100
AcDbArc
 50
76.0778986568
 51
77.7256964865
  0
ARC
  5
397
100
AcDbEntity
  8
0
100
AcDbCircle
 62
7
  6
CONTINUOUS
 10
4.7633823942
 20
10.729206504
 40
0.0913710711
100
AcDbArc
 50
102.0526041189
 51
103.879948815
  0
ARC
  5
398
100
AcDbEntity
  8
0
100
AcDbCircle
 62
7
  6
CONTINUOUS
 10
4.7632915152
 20
10.7088808478
 40
0.0909455577
100
AcDbArc
 50
257.9375634989
 51
270.0374717399
  0
ARC
  5
399
100
AcDbEntity
  8
0
100
AcDbCircle
 62
7
  6
CONTINUOUS
 10
4.7632570536
 20
10.7298094355
 40
0.0907552214
100
AcDbArc
 50
95.1831111968
 51
102.052061369
  0
ARC
  5
39A
100
AcDbEntity
  8
0
100
AcDbCircle
 62
7
  6
CONTINUOUS
 10
4.7632570536
 20
10.7298094355
 40
0.0907552214
100
AcDbArc
 50
102.052061369
 51
103.8799488159
  0
ARC
  5
39B
100
AcDbEntity
  8
0
100
AcDbCircle
 62
7
  6
CONTINUOUS
 10
4.7634530839
 20
10.7298507447
 40
0.0907135019
100
AcDbArc
 50
77.7259223709
 51
84.7922080527
  0
ARC
  5
39C
100
AcDbEntity
  8
0
100
AcDbCircle
 62
7
  6
CONTINUOUS
 10
4.7634650179
 20
10.7297929986
 40
0.090771465
100
AcDbArc
 50
76.0778986561
 51
77.7259223709
  0
ARC
  5
39D
100
AcDbEntity
  8
0
100
AcDbCircle
 62
7
  6
CONTINUOUS
 10
4.7633520028
 20
10.7306371831
 40
0.0899531134
100
AcDbArc
 50
84.5226175925
 51
94.2824734279
  0
ARC
  5
39E
100
AcDbEntity
  8
0
100
AcDbCircle
 62
7
  6
CONTINUOUS
 10
4.7635730443
 20
10.7328505101
 40
0.0878575476
100
AcDbArc
 50
94.2465721138
 51
102.4507589305
  0
ARC
  5
39F
100
AcDbEntity
  8
0
100
AcDbCircle
 62
7
  6
CONTINUOUS
 10
4.763138497
 20
10.7329273356
 40
0.0877812794
100
AcDbArc
 50
77.1477856889
 51
84.0799356242
  0
ARC
  5
3A0
100
AcDbEntity
  8
0
100
AcDbCircle
 62
7
  6
CONTINUOUS
 10
4.7633079231
 20
10.7344195456
 40
0.0862795542
100
AcDbArc
 50
84.0896408147
 51
85.7720564249
  0
ARC
  5
3A1
100
AcDbEntity
  8
0
100
AcDbCircle
 62
7
  6
CONTINUOUS
 10
4.7633507307
 20
10.7348717007
 40
0.0858254741
100
AcDbArc
 50
85.778302436
 51
94.1984816222
  0
ARC
  5
3A2
100
AcDbEntity
  8
0
100
AcDbCircle
 62
7
  6
CONTINUOUS
 10
4.9479884356
 20
10.4964500682
 40
0.3237949026
100
AcDbArc
 50
100.0920239357
 51
101.7340209679
  0
ARC
  5
3A3
100
AcDbEntity
  8
0
100
AcDbCircle
 62
7
  6
CONTINUOUS
 10
4.9476713212
 20
10.4982094197
 40
0.3220121421
100
AcDbArc
 50
100.3315892516
 51
101.8297892769
  0
ARC
  5
3A4
100
AcDbEntity
  8
0
100
AcDbCircle
 62
7
  6
CONTINUOUS
 10
4.9458147044
 20
10.5069218732
 40
0.3130998661
100
AcDbArc
 50
101.7342647733
 51
103.3536538359
  0
ARC
  5
3A5
100
AcDbEntity
  8
0
100
AcDbCircle
 62
7
  6
CONTINUOUS
 10
4.9441421492
 20
10.5142636635
 40
0.3055735413
100
AcDbArc
 50
103.0369187921
 51
104.4242625516
  0
ARC
  5
3A6
100
AcDbEntity
  8
0
100
AcDbCircle
 62
7
  6
CONTINUOUS
 10
4.9429849087
 20
10.5187481726
 40
0.3009397426
100
AcDbArc
 50
103.349489406
 51
105.6423871497
  0
ARC
  5
3A7
100
AcDbEntity
  8
0
100
AcDbCircle
 62
7
  6
CONTINUOUS
 10
4.9428677968
 20
10.5192807618
 40
0.3003971524
100
AcDbArc
 50
104.4272336746
 51
104.7805193595
  0
ARC
  5
3A8
100
AcDbEntity
  8
0
100
AcDbCircle
 62
7
  6
CONTINUOUS
 10
4.9418694437
 20
10.5230366069
 40
0.2965108907
100
AcDbArc
 50
104.7791401053
 51
105.7740867414
  0
ARC
  5
3A9
100
AcDbEntity
  8
0
100
AcDbCircle
 62
7
  6
CONTINUOUS
 10
4.9381563386
 20
10.5357183817
 40
0.2832961244
100
AcDbArc
 50
105.6274168831
 51
109.5555840829
  0
ARC
  5
3AA
100
AcDbEntity
  8
0
100
AcDbCircle
 62
7
  6
CONTINUOUS
 10
4.8559668806
 20
10.6167515425
 40
0.2375
100
AcDbArc
 50
120.3269780968
 51
127.5738952961
  0
ARC
  5
3AB
100
AcDbEntity
  8
0
100
AcDbCircle
 62
7
  6
CONTINUOUS
 10
4.8559668806
 20
10.6167515425
 40
0.2375
100
AcDbArc
 50
127.5738952961
 51
128.479759946
  0
ARC
  5
3AC
100
AcDbEntity
  8
0
100
AcDbCircle
 62
7
  6
CONTINUOUS
 10
4.8559668806
 20
10.8217515425
 40
0.2375
100
AcDbArc
 50
231.520240054
 51
239.6730219033
  0
ARC
  5
3AD
100
AcDbEntity
  8
0
100
AcDbCircle
 62
7
  6
CONTINUOUS
 10
4.9527950311
 20
0.7377515425
 40
0.625
100
AcDbArc
 50
106.504744188
 51
73.4958431644
  0
ARC
  5
3AE
100
AcDbEntity
  8
0
100
AcDbCircle
 62
9
  6
CONTINUOUS
 10
4.9527950311
 20
0.7377515425
 40
0.5837863299
100
AcDbArc
 50
107.7074147269
 51
125.5063021182
  0
ARC
  5
3AF
100
AcDbEntity
  8
0
100
AcDbCircle
 62
9
  6
CONTINUOUS
 10
4.9527950311
 20
0.7377515425
 40
0.5837863299
100
AcDbArc
 50
144.4933422346
 51
215.5051246965
  0
ARC
  5
3B0
100
AcDbEntity
  8
0
100
AcDbCircle
 62
9
  6
CONTINUOUS
 10
4.9527950311
 20
0.7377515425
 40
0.5837863299
100
AcDbArc
 50
234.4928029714
 51
305.5063021182
  0
ARC
  5
3B1
100
AcDbEntity
  8
0
100
AcDbCircle
 62
9
  6
CONTINUOUS
 10
4.9527950311
 20
0.7377515425
 40
0.5837863299
100
AcDbArc
 50
324.4933422345
 51
35.5051246965
  0
ARC
  5
3B2
100
AcDbEntity
  8
0
100
AcDbCircle
 62
9
  6
CONTINUOUS
 10
4.9527950311
 20
0.7377515425
 40
0.5837863299
100
AcDbArc
 50
54.4928029714
 51
72.2934053515
  0
ARC
  5
3B3
100
AcDbEntity
  8
0
100
AcDbCircle
 62
9
  6
CONTINUOUS
 10
4.9527950311
 20
0.7377515425
 40
0.2654936464
100
AcDbArc
 50
336.2724907967
 51
19.6284291339
  0
ARC
  5
3B4
100
AcDbEntity
  8
0
100
AcDbCircle
 62
9
  6
CONTINUOUS
 10
4.9527950311
 20
0.7377515425
 40
0.2654936464
100
AcDbArc
 50
246.2724907968
 51
293.7275092032
  0
ARC
  5
3B5
100
AcDbEntity
  8
0
100
AcDbCircle
 62
9
  6
CONTINUOUS
 10
4.9527950311
 20
0.7377515425
 40
0.2654936464
100
AcDbArc
 50
160.3715708662
 51
203.7275092033
  0
ARC
  5
3B6
100
AcDbEntity
  8
0
100
AcDbCircle
 62
7
  6
CONTINUOUS
 10
4.9527950311
 20
0.7377515425
 40
0.25
100
AcDbArc
 50
157.6676321223
 51
202.3413973795
  0
ARC
  5
3B7
100
AcDbEntity
  8
0
100
AcDbCircle
 62
7
  6
CONTINUOUS
 10
4.9527950311
 20
0.7377515425
 40
0.25
100
AcDbArc
 50
67.6586026205
 51
112.3323678777
  0
ARC
  5
3B8
100
AcDbEntity
  8
0
100
AcDbCircle
 62
7
  6
CONTINUOUS
 10
4.9527950311
 20
0.7377515425
 40
0.25
100
AcDbArc
 50
337.6676321223
 51
22.3413973795
  0
ARC
  5
3B9
100
AcDbEntity
  8
0
100
AcDbCircle
 62
7
  6
CONTINUOUS
 10
4.9527950311
 20
0.7377515425
 40
0.25
100
AcDbArc
 50
247.6586026205
 51
292.3323678777
  0
ARC
  5
3BA
100
AcDbEntity
  8
0
100
AcDbCircle
 62
9
  6
CONTINUOUS
 10
4.9527950311
 20
0.7377515425
 40
0.2449999923
100
AcDbArc
 50
338.1635381304
 51
21.8436589281
  0
ARC
  5
3BB
100
AcDbEntity
  8
0
100
AcDbCircle
 62
9
  6
CONTINUOUS
 10
4.9527950311
 20
0.7377515425
 40
0.2449999923
100
AcDbArc
 50
248.1563444869
 51
291.8364611622
  0
ARC
  5
3BC
100
AcDbEntity
  8
0
100
AcDbCircle
 62
9
  6
CONTINUOUS
 10
4.9527950311
 20
0.7377515425
 40
0.2449999923
100
AcDbArc
 50
158.1635381304
 51
201.8436589281
  0
ARC
  5
3BD
100
AcDbEntity
  8
0
100
AcDbCircle
 62
9
  6
CONTINUOUS
 10
4.9527950311
 20
0.7377515425
 40
0.2449999923
100
AcDbArc
 50
68.1563444868
 51
111.8364611622
  0
CIRCLE
  5
3BE
100
AcDbEntity
  8
0
100
AcDbCircle
 62
7
  6
CONTINUOUS
 10
4.9527950311
 20
0.7377515425
 40
0.1775
  0
ARC
  5
3BF
100
AcDbEntity
  8
0
100
AcDbCircle
 62
7
  6
CONTINUOUS
 10
4.9527950454
 20
10.4500987323
 40
0.3704697468
100
AcDbArc
 50
89.0521989659
 51
90.9562344475
  0
ARC
  5
3C0
100
AcDbEntity
  8
0
100
AcDbCircle
 62
7
  6
CONTINUOUS
 10
4.9527951856
 20
10.4510154437
 40
0.3695524076
100
AcDbArc
 50
89.1008797303
 51
90.9109368444
  0
ARC
  5
3C1
100
AcDbEntity
  8
0
100
AcDbCircle
 62
7
  6
CONTINUOUS
 10
4.9529028469
 20
10.455687243
 40
0.3648802178
100
AcDbArc
 50
87.4822605091
 51
89.0546084517
  0
ARC
  5
3C2
100
AcDbEntity
  8
0
100
AcDbCircle
 62
7
  6
CONTINUOUS
 10
4.9526863493
 20
10.4557149539
 40
0.3648524936
100
AcDbArc
 50
90.9538861498
 51
92.5219739196
  0
ARC
  5
3C3
100
AcDbEntity
  8
0
100
AcDbCircle
 62
7
  6
CONTINUOUS
 10
4.9528969191
 20
10.4564117022
 40
0.3641552175
100
AcDbArc
 50
87.3974103694
 51
89.1035612719
  0
ARC
  5
3C4
100
AcDbEntity
  8
0
100
AcDbCircle
 62
7
  6
CONTINUOUS
 10
4.9526927698
 20
10.456429876
 40
0.3641370317
100
AcDbArc
 50
90.9083684374
 51
92.5987884257
  0
ARC
  5
3C5
100
AcDbEntity
  8
0
100
AcDbCircle
 62
7
  6
CONTINUOUS
 10
4.9527950271
 20
10.4600881355
 40
0.3604925318
100
AcDbArc
 50
83.7203936156
 51
96.2795079955
  0
ARC
  5
3C6
100
AcDbEntity
  8
0
100
AcDbCircle
 62
7
  6
CONTINUOUS
 10
4.9527950346
 20
10.4612439319
 40
0.3593464318
100
AcDbArc
 50
83.7002373985
 51
96.299666263
  0
ARC
  5
3C7
100
AcDbEntity
  8
0
100
AcDbCircle
 62
7
  6
CONTINUOUS
 10
4.9533132355
 20
10.465117095
 40
0.3554399007
100
AcDbArc
 50
84.8184992545
 51
87.4007296145
  0
ARC
  5
3C8
100
AcDbEntity
  8
0
100
AcDbCircle
 62
7
  6
CONTINUOUS
 10
4.9522673906
 20
10.4652809661
 40
0.355275758
100
AcDbArc
 50
92.594979705
 51
95.2701504784
  0
ARC
  5
3C9
100
AcDbEntity
  8
0
100
AcDbCircle
 62
7
  6
CONTINUOUS
 10
4.9534641565
 20
10.4669550389
 40
0.3535986476
100
AcDbArc
 50
83.7778634144
 51
87.4929205501
  0
ARC
  5
3CA
100
AcDbEntity
  8
0
100
AcDbCircle
 62
7
  6
CONTINUOUS
 10
4.9521251285
 20
10.4669640188
 40
0.3535896354
100
AcDbArc
 50
92.5113295098
 51
96.2221751015
  0
ARC
  5
3CB
100
AcDbEntity
  8
0
100
AcDbCircle
 62
7
  6
CONTINUOUS
 10
4.9539279633
 20
10.4722656625
 40
0.3482650299
100
AcDbArc
 50
83.7925368475
 51
84.8130078682
  0
ARC
  5
3CC
100
AcDbEntity
  8
0
100
AcDbCircle
 62
7
  6
CONTINUOUS
 10
4.9516444612
 20
10.4724389578
 40
0.3480908102
100
AcDbArc
 50
95.2762700762
 51
96.2108592983
  0
ARC
  5
3CD
100
AcDbEntity
  8
0
100
AcDbCircle
 62
7
  6
CONTINUOUS
 10
4.9512787451
 20
10.4758098515
 40
0.3447001361
100
AcDbArc
 50
96.2110454619
 51
97.0447171594
  0
ARC
  5
3CE
100
AcDbEntity
  8
0
100
AcDbCircle
 62
7
  6
CONTINUOUS
 10
4.9543164337
 20
10.4758542792
 40
0.3446554488
100
AcDbArc
 50
82.9330737828
 51
83.7922309231
  0
ARC
  5
3CF
100
AcDbEntity
  8
0
100
AcDbCircle
 62
7
  6
CONTINUOUS
 10
4.9527946453
 20
10.4787332748
 40
0.3419644516
100
AcDbArc
 50
83.5184423583
 51
96.4857324256
  0
ARC
  5
3D0
100
AcDbEntity
  8
0
100
AcDbCircle
 62
7
  6
CONTINUOUS
 10
4.9526332876
 20
10.4800976172
 40
0.3405906148
100
AcDbArc
 50
96.4846869717
 51
108.7185402043
  0
ARC
  5
3D1
100
AcDbEntity
  8
0
100
AcDbCircle
 62
7
  6
CONTINUOUS
 10
4.9531537903
 20
10.4809771973
 40
0.339694346
100
AcDbArc
 50
71.2653216786
 51
83.5359076269
  0
ARC
  5
3D2
100
AcDbEntity
  8
0
100
AcDbCircle
 62
7
  6
CONTINUOUS
 10
4.9504446559
 20
10.4822753488
 40
0.3381811543
100
AcDbArc
 50
97.0388147379
 51
99.6936239564
  0
ARC
  5
3D3
100
AcDbEntity
  8
0
100
AcDbCircle
 62
7
  6
CONTINUOUS
 10
4.9551546412
 20
10.4823383115
 40
0.3381175531
100
AcDbArc
 50
80.3014895148
 51
82.9388552715
  0
ARC
  5
3D4
100
AcDbEntity
  8
0
100
AcDbCircle
 62
7
  6
CONTINUOUS
 10
4.9551751264
 20
10.4824002265
 40
0.3380582535
100
AcDbArc
 50
82.9388552715
 51
83.2212214388
  0
ARC
  5
3D5
100
AcDbEntity
  8
0
100
AcDbCircle
 62
7
  6
CONTINUOUS
 10
4.9504149204
 20
10.4824003332
 40
0.3380581448
100
AcDbArc
 50
96.7787504312
 51
97.0388147379
  0
ARC
  5
3D6
100
AcDbEntity
  8
0
100
AcDbCircle
 62
7
  6
CONTINUOUS
 10
4.9492152077
 20
10.4897000382
 40
0.3306554611
100
AcDbArc
 50
99.7002557875
 51
100.0963533915
  0
ARC
  5
3D7
100
AcDbEntity
  8
0
100
AcDbCircle
 62
7
  6
CONTINUOUS
 10
4.9564376688
 20
10.4900641383
 40
0.3302860033
100
AcDbArc
 50
79.7978360523
 51
80.2951002422
  0
ARC
  5
3D8
100
AcDbEntity
  8
0
100
AcDbCircle
 62
7
  6
CONTINUOUS
 10
4.949116816
 20
10.4903249193
 40
0.3300280809
100
AcDbArc
 50
99.6426463524
 51
100.0376905045
  0
ARC
  5
3D9
100
AcDbEntity
  8
0
100
AcDbCircle
 62
7
  6
CONTINUOUS
 10
4.9568537323
 20
10.4924788059
 40
0.3278408468
100
AcDbArc
 50
79.6866388344
 51
79.961194947
  0
ARC
  5
3DA
100
AcDbEntity
  8
0
100
AcDbCircle
 62
7
  6
CONTINUOUS
 10
4.9487244989
 20
10.4925450129
 40
0.3277735903
100
AcDbArc
 50
100.0378025991
 51
100.3351238945
  0
ARC
  5
3DB
100
AcDbEntity
  8
0
100
AcDbCircle
 62
7
  6
CONTINUOUS
 10
4.9576656501
 20
10.4967738192
 40
0.323464908
100
AcDbArc
 50
78.2720953023
 51
79.8014024387
  0
ARC
  5
3DC
100
AcDbEntity
  8
0
100
AcDbCircle
 62
7
  6
CONTINUOUS
 10
4.9579049729
 20
10.4981407145
 40
0.3220822113
100
AcDbArc
 50
78.1702671802
 51
79.6903025596
  0
ARC
  5
3DD
100
AcDbEntity
  8
0
100
AcDbCircle
 62
7
  6
CONTINUOUS
 10
4.959660062
 20
10.5065594113
 40
0.3134825178
100
AcDbArc
 50
76.962606611
 51
78.1687952297
  0
ARC
  5
3DE
100
AcDbEntity
  8
0
100
AcDbCircle
 62
7
  6
CONTINUOUS
 10
4.9597834657
 20
10.5069610522
 40
0.3130598684
100
AcDbArc
 50
76.6256417244
 51
78.2726268416
  0
ARC
  5
3DF
100
AcDbEntity
  8
0
100
AcDbCircle
 62
7
  6
CONTINUOUS
 10
4.9614545584
 20
10.5142914031
 40
0.3055450183
100
AcDbArc
 50
75.5659187499
 51
76.963357361
  0
ARC
  5
3E0
100
AcDbEntity
  8
0
100
AcDbCircle
 62
7
  6
CONTINUOUS
 10
4.962615422
 20
10.518785867
 40
0.3009006822
100
AcDbArc
 50
74.3651831867
 51
76.6294356075
  0
ARC
  5
3E1
100
AcDbEntity
  8
0
100
AcDbCircle
 62
7
  6
CONTINUOUS
 10
4.9627192647
 20
10.5192689999
 40
0.3004092912
100
AcDbArc
 50
75.2335396199
 51
75.5628748305
  0
ARC
  5
3E2
100
AcDbEntity
  8
0
100
AcDbCircle
 62
7
  6
CONTINUOUS
 10
4.963709821
 20
10.5229975425
 40
0.2965514195
100
AcDbArc
 50
74.2258957279
 51
75.2349907736
  0
ARC
  5
3E3
100
AcDbEntity
  8
0
100
AcDbCircle
 62
7
  6
CONTINUOUS
 10
4.9674267274
 20
10.5356971437
 40
0.283318479
100
AcDbArc
 50
70.4445203049
 51
74.3804733904
  0
ARC
  5
3E4
100
AcDbEntity
  8
0
100
AcDbCircle
 62
7
  6
CONTINUOUS
 10
5.0496231815
 20
10.6167515425
 40
0.2375
100
AcDbArc
 50
52.4261047039
 51
59.6730219032
  0
ARC
  5
3E5
100
AcDbEntity
  8
0
100
AcDbCircle
 62
7
  6
CONTINUOUS
 10
5.0496231815
 20
10.6167515425
 40
0.2375
100
AcDbArc
 50
51.520240054
 51
52.4261047039
  0
ARC
  5
3E6
100
AcDbEntity
  8
0
100
AcDbCircle
 62
7
  6
CONTINUOUS
 10
5.0496231815
 20
10.8217515425
 40
0.2375
100
AcDbArc
 50
300.3269780967
 51
308.479759946
  0
ARC
  5
3E7
100
AcDbEntity
  8
0
100
AcDbCircle
 62
7
  6
CONTINUOUS
 10
5.1375754641
 20
10.7192392442
 40
0.1024155267
100
AcDbArc
 50
54.5538719563
 51
60.7029801548
  0
ARC
  5
3E8
100
AcDbEntity
  8
0
100
AcDbCircle
 62
7
  6
CONTINUOUS
 10
5.1380164241
 20
10.7185635057
 40
0.1015892726
100
AcDbArc
 50
299.7331541525
 51
305.4725892097
  0
ARC
  5
3E9
100
AcDbEntity
  8
0
100
AcDbCircle
 62
7
  6
CONTINUOUS
 10
5.1463149639
 20
10.7201633403
 40
0.1013230213
100
AcDbArc
 50
119.2762440729
 51
125.4793392333
  0
ARC
  5
3EA
100
AcDbEntity
  8
0
100
AcDbCircle
 62
7
  6
CONTINUOUS
 10
5.14606702
 20
10.7211304809
 40
0.1003921891
100
AcDbArc
 50
122.4562848129
 51
125.6844737175
  0
ARC
  5
3EB
100
AcDbEntity
  8
0
100
AcDbCircle
 62
7
  6
CONTINUOUS
 10
5.1457340797
 20
10.7218201348
 40
0.0996378996
100
AcDbArc
 50
121.771155575
 51
125.7602995031
  0
ARC
  5
3EC
100
AcDbEntity
  8
0
100
AcDbCircle
 62
7
  6
CONTINUOUS
 10
5.1451292793
 20
10.7225917992
 40
0.0986558832
100
AcDbArc
 50
121.6996256191
 51
122.4521953316
  0
ARC
  5
3ED
100
AcDbEntity
  8
0
100
AcDbCircle
 62
7
  6
CONTINUOUS
 10
5.1399691107
 20
10.7233506389
 40
0.0976587303
100
AcDbArc
 50
60.7473510575
 51
64.5423220002
  0
ARC
  5
3EE
100
AcDbEntity
  8
0
100
AcDbCircle
 62
7
  6
CONTINUOUS
 10
5.139966427
 20
10.7233883436
 40
0.097628563
100
AcDbArc
 50
64.5423220002
 51
65.1223692695
  0
ARC
  5
3EF
100
AcDbEntity
  8
0
100
AcDbCircle
 62
7
  6
CONTINUOUS
 10
5.1443003722
 20
10.7237497601
 40
0.0972095101
100
AcDbArc
 50
115.4134277789
 51
119.2742175851
  0
ARC
  5
3F0
100
AcDbEntity
  8
0
100
AcDbCircle
 62
7
  6
CONTINUOUS
 10
5.1401422102
 20
10.7239425776
 40
0.097097439
100
AcDbArc
 50
54.1782151739
 51
61.9596273909
  0
ARC
  5
3F1
100
AcDbEntity
  8
0
100
AcDbCircle
 62
7
  6
CONTINUOUS
 10
5.144258756
 20
10.7238772139
 40
0.0970794671
100
AcDbArc
 50
114.8659162293
 51
115.4134277789
  0
ARC
  5
3F2
100
AcDbEntity
  8
0
100
AcDbCircle
 62
7
  6
CONTINUOUS
 10
5.1442705148
 20
10.7240057389
 40
0.0970016319
100
AcDbArc
 50
119.2742175851
 51
121.7069074248
  0
ARC
  5
3F3
100
AcDbEntity
  8
0
100
AcDbCircle
 62
7
  6
CONTINUOUS
 10
5.1439048167
 20
10.7247235125
 40
0.0962064159
100
AcDbArc
 50
118.0333536523
 51
121.755401453
  0
ARC
  5
3F4
100
AcDbEntity
  8
0
100
AcDbCircle
 62
7
  6
CONTINUOUS
 10
5.1408717751
 20
10.7252051063
 40
0.0955963226
100
AcDbArc
 50
64.5530421321
 51
67.4446290818
  0
ARC
  5
3F5
100
AcDbEntity
  8
0
100
AcDbCircle
 62
7
  6
CONTINUOUS
 10
5.1435094574
 20
10.7254183908
 40
0.0953629263
100
AcDbArc
 50
112.5636405806
 51
115.41445271
  0
ARC
  5
3F6
100
AcDbEntity
  8
0
100
AcDbCircle
 62
7
  6
CONTINUOUS
 10
5.1413549739
 20
10.726354787
 40
0.0943492384
100
AcDbArc
 50
67.4478163489
 51
71.1102924479
  0
ARC
  5
3F7
100
AcDbEntity
  8
0
100
AcDbCircle
 62
7
  6
CONTINUOUS
 10
5.143060593
 20
10.7265143811
 40
0.0941785965
100
AcDbArc
 50
108.877580641
 51
112.567312794
  0
ARC
  5
3F8
100
AcDbEntity
  8
0
100
AcDbCircle
 62
7
  6
CONTINUOUS
 10
5.1418256862
 20
10.7268888012
 40
0.0937158883
100
AcDbArc
 50
69.8459087694
 51
77.5953240224
  0
ARC
  5
3F9
100
AcDbEntity
  8
0
100
AcDbCircle
 62
7
  6
CONTINUOUS
 10
5.1419604652
 20
10.7273724072
 40
0.0932154649
100
AcDbArc
 50
61.955005754
 51
69.8212620354
  0
ARC
  5
3FA
100
AcDbEntity
  8
0
100
AcDbCircle
 62
7
  6
CONTINUOUS
 10
5.1425460907
 20
10.7275476537
 40
0.0930500018
100
AcDbArc
 50
95.4876756508
 51
118.9788188545
  0
ARC
  5
3FB
100
AcDbEntity
  8
0
100
AcDbCircle
 62
7
  6
CONTINUOUS
 10
5.1417922737
 20
10.7276347695
 40
0.0929966166
100
AcDbArc
 50
71.1098964646
 51
76.0618649947
  0
ARC
  5
3FC
100
AcDbEntity
  8
0
100
AcDbCircle
 62
7
  6
CONTINUOUS
 10
5.1419008512
 20
10.7279745956
 40
0.0926448398
100
AcDbArc
 50
76.0618649947
 51
76.5986885006
  0
ARC
  5
3FD
100
AcDbEntity
  8
0
100
AcDbCircle
 62
7
  6
CONTINUOUS
 10
5.1425616554
 20
10.7280491317
 40
0.0925649704
100
AcDbArc
 50
103.8840667882
 51
108.8927230839
  0
ARC
  5
3FE
100
AcDbEntity
  8
0
100
AcDbCircle
 62
7
  6
CONTINUOUS
 10
5.1419810491
 20
10.7281048862
 40
0.0924975553
100
AcDbArc
 50
77.560726312
 51
85.6759225284
  0
ARC
  5
3FF
100
AcDbEntity
  8
0
100
AcDbCircle
 62
7
  6
CONTINUOUS
 10
5.1424599213
 20
10.7283747102
 40
0.0922288698
100
AcDbArc
 50
103.3890142442
 51
103.8840667882
  0
ARC
  5
400
100
AcDbEntity
  8
0
100
AcDbCircle
 62
7
  6
CONTINUOUS
 10
5.1424430631
 20
10.72848946
 40
0.0921108305
100
AcDbArc
 50
95.4877988541
 51
102.4889479956
  0
ARC
  5
401
100
AcDbEntity
  8
0
100
AcDbCircle
 62
7
  6
CONTINUOUS
 10
5.1420850429
 20
10.7285219237
 40
0.0920652293
100
AcDbArc
 50
77.534635207
 51
85.7061085619
  0
ARC
  5
402
100
AcDbEntity
  8
0
100
AcDbCircle
 62
7
  6
CONTINUOUS
 10
5.1422657469
 20
10.7290933586
 40
0.0914744202
100
AcDbArc
 50
84.0358408202
 51
95.959596001
  0
ARC
  5
403
100
AcDbEntity
  8
0
100
AcDbCircle
 62
7
  6
CONTINUOUS
 10
5.1422755161
 20
10.7291770006
 40
0.091401393
100
AcDbArc
 50
102.2805158938
 51
103.8795922845
  0
ARC
  5
404
100
AcDbEntity
  8
0
100
AcDbCircle
 62
7
  6
CONTINUOUS
 10
5.1422063768
 20
10.7292006447
 40
0.0913771031
100
AcDbArc
 50
76.0773723826
 51
77.9362840044
  0
ARC
  5
405
100
AcDbEntity
  8
0
100
AcDbCircle
 62
7
  6
CONTINUOUS
 10
5.1423296142
 20
10.7297844298
 40
0.0907804539
100
AcDbArc
 50
77.9353405019
 51
84.0306117126
  0
ARC
  5
406
100
AcDbEntity
  8
0
100
AcDbCircle
 62
7
  6
CONTINUOUS
 10
5.1423541795
 20
10.7298134142
 40
0.090750848
100
AcDbArc
 50
76.0773723826
 51
77.9353405019
  0
ARC
  5
407
100
AcDbEntity
  8
0
100
AcDbCircle
 62
7
  6
CONTINUOUS
 10
5.1421408649
 20
10.7298199758
 40
0.0907444905
100
AcDbArc
 50
95.963457598
 51
102.2837925016
  0
ARC
  5
408
100
AcDbEntity
  8
0
100
AcDbCircle
 62
7
  6
CONTINUOUS
 10
5.1422380656
 20
10.7306371256
 40
0.0899531691
100
AcDbArc
 50
85.7175535116
 51
95.4773860556
  0
SPLINE
  5
409
100
AcDbEntity
  8
0
100
AcDbSpline
 62
7
  6
CONTINUOUS
 70
0
 71
3
 72
9
 73
5
 74
0
 42
0.0000001
 43
0.0000001
 44
0.0000000001
 40
0.0
 40
0.0
 40
0.0
 40
0.0
 40
0.5159896741
 40
1.0
 40
1.0
 40
1.0
 40
1.0
 10
2.7086200209
 20
10.635829889
 30
0.0
 10
2.7141208434
 20
10.631916571
 30
0.0
 10
2.7255532207
 20
10.6253457178
 30
0.0
 10
2.738093371
 20
10.6212666855
 30
0.0
 10
2.744285942
 20
10.6199433267
 30
0.0
  0
SPLINE
  5
40A
100
AcDbEntity
  8
0
100
AcDbSpline
 62
7
  6
CONTINUOUS
 70
0
 71
3
 72
9
 73
5
 74
0
 42
0.0000001
 43
0.0000001
 44
0.0000000001
 40
0.0
 40
0.0
 40
0.0
 40
0.0
 40
0.4916232926
 40
1.0
 40
1.0
 40
1.0
 40
1.0
 10
2.763350994
 20
10.6179353095
 30
0.0
 10
2.7696467916
 20
10.617935248
 30
0.0
 10
2.7824892247
 20
10.6192580001
 30
0.0
 10
2.7947670213
 20
10.6232620763
 30
0.0
 10
2.8007189617
 20
10.6259000656
 30
0.0
  0
SPLINE
  5
40B
100
AcDbEntity
  8
0
100
AcDbSpline
 62
7
  6
CONTINUOUS
 70
0
 71
3
 72
11
 73
7
 74
0
 42
0.0000001
 43
0.0000001
 44
0.0000000001
 40
0.0
 40
0.0
 40
0.0
 40
0.0
 40
0.2499891646
 40
0.49999994
 40
0.7500104033
 40
1.0
 40
1.0
 40
1.0
 40
1.0
 10
2.8433311249
 20
10.635829889
 30
0.0
 10
2.8608098284
 20
10.6296126619
 30
0.0
 10
2.8970909436
 20
10.6207211776
 30
0.0
 10
2.9527949938
 20
10.616542307
 30
0.0
 10
3.0084990666
 20
10.6207212142
 30
0.0
 10
3.0447802035
 20
10.6296126512
 30
0.0
 10
3.0622589372
 20
10.635829889
 30
0.0
  0
SPLINE
  5
40C
100
AcDbEntity
  8
0
100
AcDbSpline
 62
7
  6
CONTINUOUS
 70
0
 71
3
 72
9
 73
5
 74
0
 42
0.0000001
 43
0.0000001
 44
0.0000000001
 40
0.0
 40
0.0
 40
0.0
 40
0.0
 40
0.2577061494
 40
1.0
 40
1.0
 40
1.0
 40
1.0
 10
3.0875061351
 20
10.635829889
 30
0.0
 10
3.0889061742
 20
10.6348338928
 30
0.0
 10
3.0944320296
 20
10.631102035
 30
0.0
 10
3.1003276534
 20
10.6279149942
 30
0.0
 10
3.1048517267
 20
10.6259086496
 30
0.0
  0
SPLINE
  5
40D
100
AcDbEntity
  8
0
100
AcDbSpline
 62
7
  6
CONTINUOUS
 70
0
 71
3
 72
9
 73
5
 74
0
 42
0.0000001
 43
0.0000001
 44
0.0000000001
 40
0.0
 40
0.0
 40
0.0
 40
0.0
 40
0.5083849023
 40
1.0
 40
1.0
 40
1.0
 40
1.0
 10
3.1048517267
 20
10.6259086496
 30
0.0
 10
3.1108061422
 20
10.6232679742
 30
0.0
 10
3.1230894492
 20
10.6192596794
 30
0.0
 10
3.1359382989
 20
10.6179353708
 30
0.0
 10
3.142237131
 20
10.6179353106
 30
0.0
  0
SPLINE
  5
40E
100
AcDbEntity
  8
0
100
AcDbSpline
 62
7
  6
CONTINUOUS
 70
0
 71
3
 72
11
 73
7
 74
0
 42
0.0000001
 43
0.0000001
 44
0.0000000001
 40
0.0
 40
0.0
 40
0.0
 40
0.0
 40
0.2420099873
 40
0.4870886699
 40
0.7386248424
 40
1.0
 40
1.0
 40
1.0
 40
1.0
 10
3.142237131
 20
10.6179353106
 30
0.0
 10
3.146134734
 20
10.6179352733
 30
0.0
 10
3.1539890247
 20
10.6184315873
 30
0.0
 10
3.1656947829
 20
10.6207253828
 30
0.0
 10
3.1772992028
 20
10.6246211743
 30
0.0
 10
3.1847449888
 20
10.6282621269
 30
0.0
 10
3.1884007635
 20
10.6303490021
 30
0.0
  0
SPLINE
  5
40F
100
AcDbEntity
  8
0
100
AcDbSpline
 62
7
  6
CONTINUOUS
 70
0
 71
3
 72
9
 73
5
 74
0
 42
0.0000001
 43
0.0000001
 44
0.0000000001
 40
0.0
 40
0.0
 40
0.0
 40
0.0
 40
0.5159896741
 40
1.0
 40
1.0
 40
1.0
 40
1.0
 10
4.7086200209
 20
10.635829889
 30
0.0
 10
4.7141208434
 20
10.631916571
 30
0.0
 10
4.7255532207
 20
10.6253457178
 30
0.0
 10
4.738093371
 20
10.6212666855
 30
0.0
 10
4.744285942
 20
10.6199433267
 30
0.0
  0
SPLINE
  5
410
100
AcDbEntity
  8
0
100
AcDbSpline
 62
7
  6
CONTINUOUS
 70
0
 71
3
 72
9
 73
5
 74
0
 42
0.0000001
 43
0.0000001
 44
0.0000000001
 40
0.0
 40
0.0
 40
0.0
 40
0.0
 40
0.4916232926
 40
1.0
 40
1.0
 40
1.0
 40
1.0
 10
4.763350994
 20
10.6179353095
 30
0.0
 10
4.7696467916
 20
10.617935248
 30
0.0
 10
4.7824892247
 20
10.6192580001
 30
0.0
 10
4.7947670213
 20
10.6232620763
 30
0.0
 10
4.8007189617
 20
10.6259000656
 30
0.0
  0
SPLINE
  5
411
100
AcDbEntity
  8
0
100
AcDbSpline
 62
7
  6
CONTINUOUS
 70
0
 71
3
 72
11
 73
7
 74
0
 42
0.0000001
 43
0.0000001
 44
0.0000000001
 40
0.0
 40
0.0
 40
0.0
 40
0.0
 40
0.2499891646
 40
0.49999994
 40
0.7500104033
 40
1.0
 40
1.0
 40
1.0
 40
1.0
 10
4.8433311249
 20
10.635829889
 30
0.0
 10
4.8608098284
 20
10.6296126619
 30
0.0
 10
4.8970909436
 20
10.6207211776
 30
0.0
 10
4.9527949938
 20
10.616542307
 30
0.0
 10
5.0084990666
 20
10.6207212142
 30
0.0
 10
5.0447802035
 20
10.6296126512
 30
0.0
 10
5.0622589372
 20
10.635829889
 30
0.0
  0
SPLINE
  5
412
100
AcDbEntity
  8
0
100
AcDbSpline
 62
7
  6
CONTINUOUS
 70
0
 71
3
 72
9
 73
5
 74
0
 42
0.0000001
 43
0.0000001
 44
0.0000000001
 40
0.0
 40
0.0
 40
0.0
 40
0.0
 40
0.2577061494
 40
1.0
 40
1.0
 40
1.0
 40
1.0
 10
5.0875061351
 20
10.635829889
 30
0.0
 10
5.0889061742
 20
10.6348338928
 30
0.0
 10
5.0944320296
 20
10.631102035
 30
0.0
 10
5.1003276534
 20
10.6279149942
 30
0.0
 10
5.1048517267
 20
10.6259086496
 30
0.0
  0
SPLINE
  5
413
100
AcDbEntity
  8
0
100
AcDbSpline
 62
7
  6
CONTINUOUS
 70
0
 71
3
 72
9
 73
5
 74
0
 42
0.0000001
 43
0.0000001
 44
0.0000000001
 40
0.0
 40
0.0
 40
0.0
 40
0.0
 40
0.5083849023
 40
1.0
 40
1.0
 40
1.0
 40
1.0
 10
5.1048517267
 20
10.6259086496
 30
0.0
 10
5.1108061422
 20
10.6232679742
 30
0.0
 10
5.1230894492
 20
10.6192596794
 30
0.0
 10
5.1359382989
 20
10.6179353708
 30
0.0
 10
5.142237131
 20
10.6179353106
 30
0.0
  0
SPLINE
  5
414
100
AcDbEntity
  8
0
100
AcDbSpline
 62
7
  6
CONTINUOUS
 70
0
 71
3
 72
11
 73
7
 74
0
 42
0.0000001
 43
0.0000001
 44
0.0000000001
 40
0.0
 40
0.0
 40
0.0
 40
0.0
 40
0.2420099873
 40
0.4870886699
 40
0.7386248424
 40
1.0
 40
1.0
 40
1.0
 40
1.0
 10
5.142237131
 20
10.6179353106
 30
0.0
 10
5.146134734
 20
10.6179352733
 30
0.0
 10
5.1539890247
 20
10.6184315873
 30
0.0
 10
5.1656947829
 20
10.6207253828
 30
0.0
 10
5.1772992028
 20
10.6246211743
 30
0.0
 10
5.1847449888
 20
10.6282621269
 30
0.0
 10
5.1884007635
 20
10.6303490021
 30
0.0
  0
SPLINE
  5
415
100
AcDbEntity
  8
0
100
AcDbSpline
 62
7
  6
CONTINUOUS
 70
0
 71
3
 72
9
 73
5
 74
0
 42
0.0000001
 43
0.0000001
 44
0.0000000001
 40
0.0
 40
0.0
 40
0.0
 40
0.0
 40
0.2497604988
 40
1.0
 40
1.0
 40
1.0
 40
1.0
 10
3.0622589372
 20
10.8026731961
 30
0.0
 10
3.0565537264
 20
10.8047207728
 30
0.0
 10
3.033429752
 20
10.8121313045
 30
0.0
 10
3.0094029468
 20
10.8165704771
 30
0.0
 10
2.9912999683
 20
10.8185214522
 30
0.0
  0
SPLINE
  5
416
100
AcDbEntity
  8
0
100
AcDbSpline
 62
7
  6
CONTINUOUS
 70
0
 71
3
 72
9
 73
5
 74
0
 42
0.0000001
 43
0.0000001
 44
0.0000000001
 40
0.0
 40
0.0
 40
0.0
 40
0.0
 40
0.250519134
 40
1.0
 40
1.0
 40
1.0
 40
1.0
 10
2.9142649893
 20
10.8185187458
 30
0.0
 10
2.9082230234
 20
10.8178671632
 30
0.0
 10
2.8841803356
 20
10.8146596838
 30
0.0
 10
2.8604430858
 20
10.8088145216
 30
0.0
 10
2.8433311249
 20
10.8026731961
 30
0.0
  0
SPLINE
  5
417
100
AcDbEntity
  8
0
100
AcDbSpline
 62
7
  6
CONTINUOUS
 70
0
 71
3
 72
9
 73
5
 74
0
 42
0.0000001
 43
0.0000001
 44
0.0000000001
 40
0.0
 40
0.0
 40
0.0
 40
0.0
 40
0.5157317091
 40
1.0
 40
1.0
 40
1.0
 40
1.0
 10
3.1969700412
 20
10.8026731961
 30
0.0
 10
3.1915730553
 20
10.8065471077
 30
0.0
 10
3.1803337359
 20
10.8130527372
 30
0.0
 10
3.1679975529
 20
10.8170893124
 30
0.0
 10
3.1619054611
 20
10.8184310482
 30
0.0
  0
SPLINE
  5
418
100
AcDbEntity
  8
0
100
AcDbSpline
 62
7
  6
CONTINUOUS
 70
0
 71
3
 72
9
 73
5
 74
0
 42
0.0000001
 43
0.0000001
 44
0.0000000001
 40
0.0
 40
0.0
 40
0.0
 40
0.0
 40
0.5146604567
 40
1.0
 40
1.0
 40
1.0
 40
1.0
 10
2.7086200209
 20
10.802673196
 30
0.0
 10
2.714236253
 20
10.8064866825
 30
0.0
 10
2.7257789153
 20
10.8130282909
 30
0.0
 10
2.7383792324
 20
10.8172634712
 30
0.0
 10
2.7446309142
 20
10.8186417939
 30
0.0
  0
SPLINE
  5
419
100
AcDbEntity
  8
0
100
AcDbSpline
 62
7
  6
CONTINUOUS
 70
0
 71
3
 72
9
 73
5
 74
0
 42
0.0000001
 43
0.0000001
 44
0.0000000001
 40
0.0
 40
0.0
 40
0.0
 40
0.0
 40
0.2474906001
 40
1.0
 40
1.0
 40
1.0
 40
1.0
 10
2.782617055
 20
10.8185201699
 30
0.0
 10
2.7835945077
 20
10.818298387
 30
0.0
 10
2.7875288382
 20
10.8173365498
 30
0.0
 10
2.7913989142
 20
10.8161143382
 30
0.0
 10
2.7942591135
 20
10.8150622969
 30
0.0
  0
SPLINE
  5
41A
100
AcDbEntity
  8
0
100
AcDbSpline
 62
7
  6
CONTINUOUS
 70
0
 71
3
 72
9
 73
5
 74
0
 42
0.0000001
 43
0.0000001
 44
0.0000000001
 40
0.0
 40
0.0
 40
0.0
 40
0.0
 40
0.2458943283
 40
1.0
 40
1.0
 40
1.0
 40
1.0
 10
2.7942591135
 20
10.8150622969
 30
0.0
 10
2.7954228186
 20
10.8146342618
 30
0.0
 10
2.8001221823
 20
10.8128041619
 30
0.0
 10
2.8046833618
 20
10.8106229164
 30
0.0
 10
2.8080258313
 20
10.8088097277
 30
0.0
  0
SPLINE
  5
41B
100
AcDbEntity
  8
0
100
AcDbSpline
 62
7
  6
CONTINUOUS
 70
0
 71
3
 72
9
 73
5
 74
0
 42
0.0000001
 43
0.0000001
 44
0.0000000001
 40
0.0
 40
0.0
 40
0.0
 40
0.0
 40
0.2497489173
 40
1.0
 40
1.0
 40
1.0
 40
1.0
 10
4.8433311249
 20
10.8026731961
 30
0.0
 10
4.8489613422
 20
10.8047002613
 30
0.0
 10
4.8717834961
 20
10.8120393298
 30
0.0
 10
4.8954965383
 20
10.8164516805
 30
0.0
 10
4.9133647826
 20
10.8184177621
 30
0.0
  0
SPLINE
  5
41C
100
AcDbEntity
  8
0
100
AcDbSpline
 62
7
  6
CONTINUOUS
 70
0
 71
3
 72
9
 73
5
 74
0
 42
0.0000001
 43
0.0000001
 44
0.0000000001
 40
0.0
 40
0.0
 40
0.0
 40
0.0
 40
0.2505337053
 40
1.0
 40
1.0
 40
1.0
 40
1.0
 10
4.9922258869
 20
10.8184176944
 30
0.0
 10
4.9981917968
 20
10.8177612423
 30
0.0
 10
5.0219299048
 20
10.8145498501
 30
0.0
 10
5.045365852
 20
10.8087552714
 30
0.0
 10
5.0622589372
 20
10.8026731961
 30
0.0
  0
SPLINE
  5
41D
100
AcDbEntity
  8
0
100
AcDbSpline
 62
7
  6
CONTINUOUS
 70
0
 71
3
 72
9
 73
5
 74
0
 42
0.0000001
 43
0.0000001
 44
0.0000000001
 40
0.0
 40
0.0
 40
0.0
 40
0.0
 40
0.2497567113
 40
1.0
 40
1.0
 40
1.0
 40
1.0
 10
5.0622589372
 20
10.8026731961
 30
0.0
 10
5.0566266388
 20
10.8046946048
 30
0.0
 10
5.0338014253
 20
10.8120204944
 30
0.0
 10
5.0100931185
 20
10.8164480094
 30
0.0
 10
4.9922261878
 20
10.8184204179
 30
0.0
  0
SPLINE
  5
41E
100
AcDbEntity
  8
0
100
AcDbSpline
 62
7
  6
CONTINUOUS
 70
0
 71
3
 72
9
 73
5
 74
0
 42
0.0000001
 43
0.0000001
 44
0.0000000001
 40
0.0
 40
0.0
 40
0.0
 40
0.0
 40
0.250522274
 40
1.0
 40
1.0
 40
1.0
 40
1.0
 10
4.9133644819
 20
10.8184204842
 30
0.0
 10
4.9073990661
 20
10.8177619411
 30
0.0
 10
4.8836619774
 20
10.8145397202
 30
0.0
 10
4.860230647
 20
10.8087382793
 30
0.0
 10
4.8433311249
 20
10.8026731961
 30
0.0
  0
SPLINE
  5
41F
100
AcDbEntity
  8
0
100
AcDbSpline
 62
7
  6
CONTINUOUS
 70
0
 71
3
 72
9
 73
5
 74
0
 42
0.0000001
 43
0.0000001
 44
0.0000000001
 40
0.0
 40
0.0
 40
0.0
 40
0.0
 40
0.5157317091
 40
1.0
 40
1.0
 40
1.0
 40
1.0
 10
5.1969700412
 20
10.8026731961
 30
0.0
 10
5.1915730553
 20
10.8065471077
 30
0.0
 10
5.1803337359
 20
10.8130527372
 30
0.0
 10
5.1679975529
 20
10.8170893124
 30
0.0
 10
5.1619054611
 20
10.8184310482
 30
0.0
  0
SPLINE
  5
420
100
AcDbEntity
  8
0
100
AcDbSpline
 62
7
  6
CONTINUOUS
 70
0
 71
3
 72
9
 73
5
 74
0
 42
0.0000001
 43
0.0000001
 44
0.0000000001
 40
0.0
 40
0.0
 40
0.0
 40
0.0
 40
0.5146604567
 40
1.0
 40
1.0
 40
1.0
 40
1.0
 10
4.7086200209
 20
10.802673196
 30
0.0
 10
4.714236253
 20
10.8064866825
 30
0.0
 10
4.7257789153
 20
10.8130282909
 30
0.0
 10
4.7383792324
 20
10.8172634712
 30
0.0
 10
4.7446309142
 20
10.8186417939
 30
0.0
  0
SPLINE
  5
421
100
AcDbEntity
  8
0
100
AcDbSpline
 62
7
  6
CONTINUOUS
 70
0
 71
3
 72
9
 73
5
 74
0
 42
0.0000001
 43
0.0000001
 44
0.0000000001
 40
0.0
 40
0.0
 40
0.0
 40
0.0
 40
0.2458943283
 40
1.0
 40
1.0
 40
1.0
 40
1.0
 10
4.7942591135
 20
10.8150622969
 30
0.0
 10
4.7954228186
 20
10.8146342618
 30
0.0
 10
4.8001221823
 20
10.8128041619
 30
0.0
 10
4.8046833618
 20
10.8106229164
 30
0.0
 10
4.8080258313
 20
10.8088097277
 30
0.0
  0
LINE
  5
422
100
AcDbEntity
  8
0
100
AcDbLine
 62
7
  6
CONTINUOUS
 10
5.0905595539
 20
1.1369267885
 11
5.091320031
 21
1.1365798313
  0
LINE
  5
423
100
AcDbEntity
  8
0
100
AcDbLine
 62
7
  6
CONTINUOUS
 10
4.9527950311
 20
1.139964963
 11
4.9672809266
 21
1.1403285288
  0
SPLINE
  5
424
100
AcDbEntity
  8
0
100
AcDbSpline
 62
7
  6
CONTINUOUS
 70
0
 71
3
 72
11
 73
7
 74
0
 42
0.0000001
 43
0.0000001
 44
0.0000000001
 40
0.0
 40
0.0
 40
0.0
 40
0.0
 40
0.2814577878
 40
0.5477497952
 40
0.7898979452
 40
1.0
 40
1.0
 40
1.0
 40
1.0
 10
4.9672809266
 20
1.1403285288
 30
0.0
 10
4.9756034583
 20
1.140530469
 30
0.0
 10
4.9918005233
 20
1.14090485
 30
0.0
 10
5.0151566996
 20
1.1414977787
 30
0.0
 10
5.0364012381
 20
1.1421016511
 30
0.0
 10
5.0497711481
 20
1.1425300228
 30
0.0
 10
5.055981588
 20
1.1427522777
 30
0.0
  0
LINE
  5
425
100
AcDbEntity
  8
0
100
AcDbLine
 62
7
  6
CONTINUOUS
 10
4.9527950311
 20
1.1313714554
 11
4.9411988187
 21
1.1311003153
  0
LINE
  5
426
100
AcDbEntity
  8
0
100
AcDbLine
 62
7
  6
CONTINUOUS
 10
4.8579681432
 20
1.1166316297
 11
4.92970053
 21
1.1185720627
  0
LINE
  5
427
100
AcDbEntity
  8
0
100
AcDbLine
 62
7
  6
CONTINUOUS
 10
4.92970053
 20
1.1185720627
 11
4.9527950311
 21
1.1191316297
  0
LINE
  5
428
100
AcDbEntity
  8
0
100
AcDbLine
 62
7
  6
CONTINUOUS
 10
4.8150304857
 20
1.1344097598
 11
4.8142700311
 21
1.1347565946
  0
LINE
  5
429
100
AcDbEntity
  8
0
100
AcDbLine
 62
7
  6
CONTINUOUS
 10
4.9527950311
 20
1.1191316297
 11
4.9672811169
 21
1.1194874745
  0
SPLINE
  5
42A
100
AcDbEntity
  8
0
100
AcDbSpline
 62
7
  6
CONTINUOUS
 70
0
 71
3
 72
11
 73
7
 74
0
 42
0.0000001
 43
0.0000001
 44
0.0000000001
 40
0.0
 40
0.0
 40
0.0
 40
0.0
 40
0.2904652068
 40
0.5615006581
 40
0.8014158326
 40
1.0
 40
1.0
 40
1.0
 40
1.0
 10
4.9672811169
 20
1.1194874745
 30
0.0
 10
4.9767311611
 20
1.1197158913
 30
0.0
 10
4.9949993551
 20
1.120147577
 30
0.0
 10
5.0210716169
 20
1.1208251652
 30
0.0
 10
5.0441525916
 20
1.1215013913
 30
0.0
 10
5.0584146656
 20
1.1219942045
 30
0.0
 10
5.0648719803
 20
1.1222569502
 30
0.0
  0
SPLINE
  5
42B
100
AcDbEntity
  8
0
100
AcDbSpline
 62
7
  6
CONTINUOUS
 70
0
 71
3
 72
13
 73
9
 74
0
 42
0.0000001
 43
0.0000001
 44
0.0000000001
 40
0.0
 40
0.0
 40
0.0
 40
0.0
 40
0.3755815393
 40
0.6705676523
 40
0.7861612851
 40
0.8797338126
 40
0.9510555888
 40
1.0
 40
1.0
 40
1.0
 40
1.0
 10
5.0648719803
 20
1.1222569502
 30
0.0
 10
5.0680941994
 20
1.1223880611
 30
0.0
 10
5.0738463846
 20
1.1226410611
 30
0.0
 10
5.0805870185
 20
1.1230099802
 30
0.0
 10
5.0849047523
 20
1.1233197713
 30
0.0
 10
5.0873043146
 20
1.1235303586
 30
0.0
 10
5.0891282014
 20
1.1237391944
 30
0.0
 10
5.0901499037
 20
1.1238993722
 30
0.0
 10
5.0905595798
 20
1.1239930739
 30
0.0
  0
LINE
  5
42C
100
AcDbEntity
  8
0
100
AcDbLine
 62
7
  6
CONTINUOUS
 10
5.0905595798
 20
1.1239930739
 11
5.091320031
 21
1.1243399199
  0
SPLINE
  5
42D
100
AcDbEntity
  8
0
100
AcDbSpline
 62
9
  6
CONTINUOUS
 70
0
 71
3
 72
15
 73
11
 74
0
 42
0.0000001
 43
0.0000001
 44
0.0000000001
 40
0.0
 40
0.0
 40
0.0
 40
0.0
 40
0.1204296425
 40
0.2445321501
 40
0.3714466624
 40
0.5000000131
 40
0.6285533751
 40
0.7554678541
 40
0.8795703826
 40
1.0
 40
1.0
 40
1.0
 40
1.0
 10
5.060377499
 20
0.9814715142
 30
0.0
 10
5.0524024988
 20
0.9855787913
 30
0.0
 10
5.0357311033
 20
0.9930288131
 30
0.0
 10
5.0092750669
 20
1.0013326806
 30
0.0
 10
4.981419646
 20
1.0065752997
 30
0.0
 10
4.9527950256
 20
1.0083285642
 30
0.0
 10
4.9241704053
 20
1.0065753196
 30
0.0
 10
4.8963149861
 20
1.0013326856
 30
0.0
 10
4.8698589589
 20
0.9930288014
 30
0.0
 10
4.8531875602
 20
0.9855787884
 30
0.0
 10
4.8452125608
 20
0.9814715141
 30
0.0
  0
SPLINE
  5
42E
100
AcDbEntity
  8
0
100
AcDbSpline
 62
7
  6
CONTINUOUS
 70
0
 71
3
 72
13
 73
9
 74
0
 42
0.0000001
 43
0.0000001
 44
0.0000000001
 40
0.0
 40
0.0
 40
0.0
 40
0.0
 40
0.0461215992
 40
0.1144673363
 40
0.2054386175
 40
0.3191215512
 40
0.614486191
 40
1.0
 40
1.0
 40
1.0
 40
1.0
 10
3.0911792571
 20
1.1244889766
 30
0.0
 10
3.0910879983
 20
1.1245373329
 30
0.0
 10
3.0908434733
 20
1.1246205554
 30
0.0
 10
3.09039651
 20
1.124727616
 30
0.0
 10
3.0897943163
 20
1.1248358316
 30
0.0
 10
3.088686216
 20
1.1249961978
 30
0.0
 10
3.0869166632
 20
1.1251868186
 30
0.0
 10
3.085397416
 20
1.1253152096
 30
0.0
 10
3.0845367257
 20
1.1253818937
 30
0.0
  0
SPLINE
  5
42F
100
AcDbEntity
  8
0
100
AcDbSpline
 62
7
  6
CONTINUOUS
 70
0
 71
3
 72
12
 73
8
 74
0
 42
0.0000001
 43
0.0000001
 44
0.0000000001
 40
0.0
 40
0.0
 40
0.0
 40
0.0
 40
0.0464397153
 40
0.1150243382
 40
0.3198465224
 40
0.6150362832
 40
1.0
 40
1.0
 40
1.0
 40
1.0
 10
2.8144149403
 20
1.1349078099
 30
0.0
 10
2.8145070509
 20
1.1349559152
 30
0.0
 10
2.8147526631
 20
1.1350389905
 30
0.0
 10
2.8154485812
 20
1.1352039871
 30
0.0
 10
2.8167096219
 20
1.1353895815
 30
0.0
 10
2.8186774886
 20
1.1356048604
 30
0.0
 10
2.8201945161
 20
1.1357320141
 30
0.0
 10
2.8210533555
 20
1.1357985619
 30
0.0
  0
LINE
  5
430
100
AcDbEntity
  8
0
100
AcDbLine
 62
7
  6
CONTINUOUS
 10
2.8210533555
 20
1.1357985619
 11
2.8328362692
 21
1.136493298
  0
SPLINE
  5
431
100
AcDbEntity
  8
0
100
AcDbSpline
 62
7
  6
CONTINUOUS
 70
0
 71
3
 72
11
 73
7
 74
0
 42
0.0000001
 43
0.0000001
 44
0.0000000001
 40
0.0
 40
0.0
 40
0.0
 40
0.0
 40
0.1847518649
 40
0.4219782607
 40
0.6987270816
 40
1.0
 40
1.0
 40
1.0
 40
1.0
 10
2.8328362692
 20
1.136493298
 30
0.0
 10
2.8393278677
 20
1.1368040705
 30
0.0
 10
2.8541618501
 20
1.1373626726
 30
0.0
 10
2.8787294845
 20
1.1381139984
 30
0.0
 10
2.9073974862
 20
1.1388781134
 30
0.0
 10
2.9277252627
 20
1.1393445928
 30
0.0
 10
2.9383200489
 20
1.1396016691
 30
0.0
  0
LINE
  5
432
100
AcDbEntity
  8
0
100
AcDbLine
 62
7
  6
CONTINUOUS
 10
2.9383200489
 20
1.1396016691
 11
2.9527950311
 21
1.139964963
  0
SPLINE
  5
433
100
AcDbEntity
  8
0
100
AcDbSpline
 62
7
  6
CONTINUOUS
 70
0
 71
3
 72
13
 73
9
 74
0
 42
0.0000001
 43
0.0000001
 44
0.0000000001
 40
0.0
 40
0.0
 40
0.0
 40
0.0
 40
0.0435337482
 40
0.1099341654
 40
0.1997119476
 40
0.3129789467
 40
0.6098589716
 40
1.0
 40
1.0
 40
1.0
 40
1.0
 10
3.0912105494
 20
1.1364483509
 30
0.0
 10
3.0911265462
 20
1.136397875
 30
0.0
 10
3.0908912022
 20
1.1363129208
 30
0.0
 10
3.0904557838
 20
1.1362040976
 30
0.0
 10
3.0898585352
 20
1.1360940858
 30
0.0
 10
3.0887452357
 20
1.1359301913
 30
0.0
 10
3.0869534736
 20
1.1357360353
 30
0.0
 10
3.0854124148
 20
1.1356056582
 30
0.0
 10
3.084536762
 20
1.1355378608
 30
0.0
  0
LINE
  5
434
100
AcDbEntity
  8
0
100
AcDbLine
 62
7
  6
CONTINUOUS
 10
3.084536762
 20
1.1355378608
 11
3.0727538554
 21
1.1348436085
  0
SPLINE
  5
435
100
AcDbEntity
  8
0
100
AcDbSpline
 62
7
  6
CONTINUOUS
 70
0
 71
3
 72
11
 73
7
 74
0
 42
0.0000001
 43
0.0000001
 44
0.0000000001
 40
0.0
 40
0.0
 40
0.0
 40
0.0
 40
0.1847520078
 40
0.4219781377
 40
0.6987269839
 40
1.0
 40
1.0
 40
1.0
 40
1.0
 10
3.0727538554
 20
1.1348436085
 30
0.0
 10
3.0662622497
 20
1.1345327534
 30
0.0
 10
3.0514283952
 20
1.1339707068
 30
0.0
 10
3.0268605757
 20
1.133223462
 30
0.0
 10
2.9981922138
 20
1.1324740224
 30
0.0
 10
2.9778654779
 20
1.1319637869
 30
0.0
 10
2.9672706015
 20
1.1317098978
 30
0.0
  0
LINE
  5
436
100
AcDbEntity
  8
0
100
AcDbLine
 62
7
  6
CONTINUOUS
 10
2.9672706015
 20
1.1317098978
 11
2.9527950311
 21
1.1313714554
  0
SPLINE
  5
437
100
AcDbEntity
  8
0
100
AcDbSpline
 62
7
  6
CONTINUOUS
 70
0
 71
3
 72
13
 73
9
 74
0
 42
0.0000001
 43
0.0000001
 44
0.0000000001
 40
0.0
 40
0.0
 40
0.0
 40
0.0
 40
0.0461273439
 40
0.1145702825
 40
0.2056228588
 40
0.3193421165
 40
0.6146470542
 40
1.0
 40
1.0
 40
1.0
 40
1.0
 10
3.0803852572
 20
1.1302735787
 30
0.0
 10
3.0802495498
 20
1.1302122344
 30
0.0
 10
3.0798925231
 20
1.1301074979
 30
0.0
 10
3.079243065
 20
1.129972223
 30
0.0
 10
3.07837101
 20
1.1298356391
 30
0.0
 10
3.0767692353
 20
1.1296331414
 30
0.0
 10
3.0742151873
 20
1.1293924638
 30
0.0
 10
3.0720235878
 20
1.129230373
 30
0.0
 10
3.0707822743
 20
1.1291462113
 30
0.0
  0
SPLINE
  5
438
100
AcDbEntity
  8
0
100
AcDbSpline
 62
7
  6
CONTINUOUS
 70
0
 71
3
 72
13
 73
9
 74
0
 42
0.0000001
 43
0.0000001
 44
0.0000000001
 40
0.0
 40
0.0
 40
0.0
 40
0.0
 40
0.0709195785
 40
0.1643394786
 40
0.276865478
 40
0.4050268653
 40
0.6942112633
 40
1.0
 40
1.0
 40
1.0
 40
1.0
 10
3.0707822743
 20
1.1291462113
 30
0.0
 10
3.0674393782
 20
1.1289195614
 30
0.0
 10
3.0596854288
 20
1.1285097953
 30
0.0
 10
3.0466162846
 20
1.1279675111
 30
0.0
 10
3.0308409192
 20
1.1274186275
 30
0.0
 10
3.0058191158
 20
1.1266494145
 30
0.0
 10
2.9716670826
 20
1.1257328725
 30
0.0
 10
2.943566965
 20
1.1250152143
 30
0.0
 10
2.9291250963
 20
1.1246346329
 30
0.0
  0
LINE
  5
439
100
AcDbEntity
  8
0
100
AcDbLine
 62
7
  6
CONTINUOUS
 10
2.9291250963
 20
1.1246346329
 11
2.865331495
 21
1.1227515425
  0
SPLINE
  5
43A
100
AcDbEntity
  8
0
100
AcDbSpline
 62
7
  6
CONTINUOUS
 70
0
 71
3
 72
9
 73
5
 74
0
 42
0.0000001
 43
0.0000001
 44
0.0000000001
 40
0.0
 40
0.0
 40
0.0
 40
0.0
 40
0.4917490029
 40
1.0
 40
1.0
 40
1.0
 40
1.0
 10
2.763352244
 20
10.6179347001
 30
0.0
 10
2.7695939502
 20
10.6179347191
 30
0.0
 10
2.7823224056
 20
10.6192300274
 30
0.0
 10
2.7945013238
 20
10.6231645993
 30
0.0
 10
2.8004078834
 20
10.625758837
 30
0.0
  0
SPLINE
  5
43B
100
AcDbEntity
  8
0
100
AcDbSpline
 62
7
  6
CONTINUOUS
 70
0
 71
3
 72
11
 73
7
 74
0
 42
0.0000001
 43
0.0000001
 44
0.0000000001
 40
0.0
 40
0.0
 40
0.0
 40
0.0
 40
0.2420627077
 40
0.4871674421
 40
0.7386954811
 40
1.0
 40
1.0
 40
1.0
 40
1.0
 10
3.1422378892
 20
10.6179346993
 30
0.0
 10
3.1461186521
 20
10.6179346901
 30
0.0
 10
3.1539384697
 20
10.6184252205
 30
0.0
 10
3.1655945534
 20
10.6206958474
 30
0.0
 10
3.1771507344
 20
10.6245578332
 30
0.0
 10
3.1845674224
 20
10.6281692861
 30
0.0
 10
3.1882097864
 20
10.6302388245
 30
0.0
  0
LINE
  5
43C
100
AcDbEntity
  8
0
100
AcDbLine
 62
7
  6
CONTINUOUS
 10
3.0905595539
 20
1.1369267885
 11
3.091320031
 21
1.1365798313
  0
LINE
  5
43D
100
AcDbEntity
  8
0
100
AcDbLine
 62
7
  6
CONTINUOUS
 10
2.9527950311
 20
1.139964963
 11
2.9672809266
 21
1.1403285288
  0
SPLINE
  5
43E
100
AcDbEntity
  8
0
100
AcDbSpline
 62
7
  6
CONTINUOUS
 70
0
 71
3
 72
11
 73
7
 74
0
 42
0.0000001
 43
0.0000001
 44
0.0000000001
 40
0.0
 40
0.0
 40
0.0
 40
0.0
 40
0.2814577878
 40
0.5477497952
 40
0.7898979452
 40
1.0
 40
1.0
 40
1.0
 40
1.0
 10
2.9672809266
 20
1.1403285288
 30
0.0
 10
2.9756034583
 20
1.140530469
 30
0.0
 10
2.9918005233
 20
1.14090485
 30
0.0
 10
3.0151566996
 20
1.1414977787
 30
0.0
 10
3.0364012381
 20
1.1421016511
 30
0.0
 10
3.0497711481
 20
1.1425300228
 30
0.0
 10
3.055981588
 20
1.1427522777
 30
0.0
  0
LINE
  5
43F
100
AcDbEntity
  8
0
100
AcDbLine
 62
7
  6
CONTINUOUS
 10
2.9527950311
 20
1.1313714554
 11
2.9411988187
 21
1.1311003153
  0
LINE
  5
440
100
AcDbEntity
  8
0
100
AcDbLine
 62
7
  6
CONTINUOUS
 10
2.8579681432
 20
1.1166316297
 11
2.92970053
 21
1.1185720627
  0
LINE
  5
441
100
AcDbEntity
  8
0
100
AcDbLine
 62
7
  6
CONTINUOUS
 10
2.92970053
 20
1.1185720627
 11
2.9527950311
 21
1.1191316297
  0
LINE
  5
442
100
AcDbEntity
  8
0
100
AcDbLine
 62
7
  6
CONTINUOUS
 10
2.8150304857
 20
1.1344097598
 11
2.8142700311
 21
1.1347565946
  0
LINE
  5
443
100
AcDbEntity
  8
0
100
AcDbLine
 62
7
  6
CONTINUOUS
 10
2.9527950311
 20
1.1191316297
 11
2.9672811169
 21
1.1194874745
  0
SPLINE
  5
444
100
AcDbEntity
  8
0
100
AcDbSpline
 62
7
  6
CONTINUOUS
 70
0
 71
3
 72
11
 73
7
 74
0
 42
0.0000001
 43
0.0000001
 44
0.0000000001
 40
0.0
 40
0.0
 40
0.0
 40
0.0
 40
0.2904652068
 40
0.5615006581
 40
0.8014158326
 40
1.0
 40
1.0
 40
1.0
 40
1.0
 10
2.9672811169
 20
1.1194874745
 30
0.0
 10
2.9767311611
 20
1.1197158913
 30
0.0
 10
2.9949993551
 20
1.120147577
 30
0.0
 10
3.0210716169
 20
1.1208251652
 30
0.0
 10
3.0441525916
 20
1.1215013913
 30
0.0
 10
3.0584146656
 20
1.1219942045
 30
0.0
 10
3.0648719803
 20
1.1222569502
 30
0.0
  0
SPLINE
  5
445
100
AcDbEntity
  8
0
100
AcDbSpline
 62
7
  6
CONTINUOUS
 70
0
 71
3
 72
13
 73
9
 74
0
 42
0.0000001
 43
0.0000001
 44
0.0000000001
 40
0.0
 40
0.0
 40
0.0
 40
0.0
 40
0.3755815393
 40
0.6705676523
 40
0.7861612851
 40
0.8797338126
 40
0.9510555888
 40
1.0
 40
1.0
 40
1.0
 40
1.0
 10
3.0648719803
 20
1.1222569502
 30
0.0
 10
3.0680941994
 20
1.1223880611
 30
0.0
 10
3.0738463846
 20
1.1226410611
 30
0.0
 10
3.0805870185
 20
1.1230099802
 30
0.0
 10
3.0849047523
 20
1.1233197713
 30
0.0
 10
3.0873043146
 20
1.1235303586
 30
0.0
 10
3.0891282014
 20
1.1237391944
 30
0.0
 10
3.0901499037
 20
1.1238993722
 30
0.0
 10
3.0905595798
 20
1.1239930739
 30
0.0
  0
LINE
  5
446
100
AcDbEntity
  8
0
100
AcDbLine
 62
7
  6
CONTINUOUS
 10
3.0905595798
 20
1.1239930739
 11
3.091320031
 21
1.1243399199
  0
SPLINE
  5
447
100
AcDbEntity
  8
0
100
AcDbSpline
 62
9
  6
CONTINUOUS
 70
0
 71
3
 72
15
 73
11
 74
0
 42
0.0000001
 43
0.0000001
 44
0.0000000001
 40
0.0
 40
0.0
 40
0.0
 40
0.0
 40
0.1204296425
 40
0.2445321501
 40
0.3714466624
 40
0.5000000131
 40
0.6285533751
 40
0.7554678541
 40
0.8795703826
 40
1.0
 40
1.0
 40
1.0
 40
1.0
 10
3.060377499
 20
0.9814715142
 30
0.0
 10
3.0524024988
 20
0.9855787913
 30
0.0
 10
3.0357311033
 20
0.9930288131
 30
0.0
 10
3.0092750669
 20
1.0013326806
 30
0.0
 10
2.981419646
 20
1.0065752997
 30
0.0
 10
2.9527950256
 20
1.0083285642
 30
0.0
 10
2.9241704053
 20
1.0065753196
 30
0.0
 10
2.8963149861
 20
1.0013326856
 30
0.0
 10
2.8698589589
 20
0.9930288014
 30
0.0
 10
2.8531875602
 20
0.9855787884
 30
0.0
 10
2.8452125608
 20
0.9814715141
 30
0.0
  0
SPLINE
  5
448
100
AcDbEntity
  8
0
100
AcDbSpline
 62
7
  6
CONTINUOUS
 70
0
 71
3
 72
11
 73
7
 74
0
 42
0.0000001
 43
0.0000001
 44
0.0000000001
 40
0.0
 40
0.0
 40
0.0
 40
0.0
 40
0.2420627077
 40
0.4871674421
 40
0.7386954811
 40
1.0
 40
1.0
 40
1.0
 40
1.0
 10
5.1422378892
 20
10.6179346993
 30
0.0
 10
5.1461186521
 20
10.6179346901
 30
0.0
 10
5.1539384697
 20
10.6184252205
 30
0.0
 10
5.1655945534
 20
10.6206958474
 30
0.0
 10
5.1771507344
 20
10.6245578332
 30
0.0
 10
5.1845674224
 20
10.6281692861
 30
0.0
 10
5.1882097864
 20
10.6302388245
 30
0.0
  0
SPLINE
  5
449
100
AcDbEntity
  8
0
100
AcDbSpline
 62
7
  6
CONTINUOUS
 70
0
 71
3
 72
9
 73
5
 74
0
 42
0.0000001
 43
0.0000001
 44
0.0000000001
 40
0.0
 40
0.0
 40
0.0
 40
0.0
 40
0.4917490029
 40
1.0
 40
1.0
 40
1.0
 40
1.0
 10
4.763352244
 20
10.6179347001
 30
0.0
 10
4.7695939502
 20
10.6179347191
 30
0.0
 10
4.7823224056
 20
10.6192300274
 30
0.0
 10
4.7945013238
 20
10.6231645993
 30
0.0
 10
4.8004078834
 20
10.625758837
 30
0.0
  0
SPLINE
  5
44A
100
AcDbEntity
  8
0
100
AcDbSpline
 62
7
  6
CONTINUOUS
 70
0
 71
3
 72
13
 73
9
 74
0
 42
0.0000001
 43
0.0000001
 44
0.0000000001
 40
0.0
 40
0.0
 40
0.0
 40
0.0
 40
0.0461215992
 40
0.1144673363
 40
0.2054386175
 40
0.3191215512
 40
0.614486191
 40
1.0
 40
1.0
 40
1.0
 40
1.0
 10
5.0911792571
 20
1.1244889766
 30
0.0
 10
5.0910879983
 20
1.1245373329
 30
0.0
 10
5.0908434733
 20
1.1246205554
 30
0.0
 10
5.09039651
 20
1.124727616
 30
0.0
 10
5.0897943163
 20
1.1248358316
 30
0.0
 10
5.088686216
 20
1.1249961978
 30
0.0
 10
5.0869166632
 20
1.1251868186
 30
0.0
 10
5.085397416
 20
1.1253152096
 30
0.0
 10
5.0845367257
 20
1.1253818937
 30
0.0
  0
SPLINE
  5
44B
100
AcDbEntity
  8
0
100
AcDbSpline
 62
7
  6
CONTINUOUS
 70
0
 71
3
 72
12
 73
8
 74
0
 42
0.0000001
 43
0.0000001
 44
0.0000000001
 40
0.0
 40
0.0
 40
0.0
 40
0.0
 40
0.0464397153
 40
0.1150243382
 40
0.3198465224
 40
0.6150362832
 40
1.0
 40
1.0
 40
1.0
 40
1.0
 10
4.8144149403
 20
1.1349078099
 30
0.0
 10
4.8145070509
 20
1.1349559152
 30
0.0
 10
4.8147526631
 20
1.1350389905
 30
0.0
 10
4.8154485812
 20
1.1352039871
 30
0.0
 10
4.8167096219
 20
1.1353895815
 30
0.0
 10
4.8186774886
 20
1.1356048604
 30
0.0
 10
4.8201945161
 20
1.1357320141
 30
0.0
 10
4.8210533555
 20
1.1357985619
 30
0.0
  0
LINE
  5
44C
100
AcDbEntity
  8
0
100
AcDbLine
 62
7
  6
CONTINUOUS
 10
4.8210533555
 20
1.1357985619
 11
4.8328362692
 21
1.136493298
  0
SPLINE
  5
44D
100
AcDbEntity
  8
0
100
AcDbSpline
 62
7
  6
CONTINUOUS
 70
0
 71
3
 72
11
 73
7
 74
0
 42
0.0000001
 43
0.0000001
 44
0.0000000001
 40
0.0
 40
0.0
 40
0.0
 40
0.0
 40
0.1847518649
 40
0.4219782607
 40
0.6987270816
 40
1.0
 40
1.0
 40
1.0
 40
1.0
 10
4.8328362692
 20
1.136493298
 30
0.0
 10
4.8393278677
 20
1.1368040705
 30
0.0
 10
4.8541618501
 20
1.1373626726
 30
0.0
 10
4.8787294845
 20
1.1381139984
 30
0.0
 10
4.9073974862
 20
1.1388781134
 30
0.0
 10
4.9277252627
 20
1.1393445928
 30
0.0
 10
4.9383200489
 20
1.1396016691
 30
0.0
  0
LINE
  5
44E
100
AcDbEntity
  8
0
100
AcDbLine
 62
7
  6
CONTINUOUS
 10
4.9383200489
 20
1.1396016691
 11
4.9527950311
 21
1.139964963
  0
SPLINE
  5
44F
100
AcDbEntity
  8
0
100
AcDbSpline
 62
7
  6
CONTINUOUS
 70
0
 71
3
 72
13
 73
9
 74
0
 42
0.0000001
 43
0.0000001
 44
0.0000000001
 40
0.0
 40
0.0
 40
0.0
 40
0.0
 40
0.0435337482
 40
0.1099341654
 40
0.1997119476
 40
0.3129789467
 40
0.6098589716
 40
1.0
 40
1.0
 40
1.0
 40
1.0
 10
5.0912105494
 20
1.1364483509
 30
0.0
 10
5.0911265462
 20
1.136397875
 30
0.0
 10
5.0908912022
 20
1.1363129208
 30
0.0
 10
5.0904557838
 20
1.1362040976
 30
0.0
 10
5.0898585352
 20
1.1360940858
 30
0.0
 10
5.0887452357
 20
1.1359301913
 30
0.0
 10
5.0869534736
 20
1.1357360353
 30
0.0
 10
5.0854124148
 20
1.1356056582
 30
0.0
 10
5.084536762
 20
1.1355378608
 30
0.0
  0
LINE
  5
450
100
AcDbEntity
  8
0
100
AcDbLine
 62
7
  6
CONTINUOUS
 10
5.084536762
 20
1.1355378608
 11
5.0727538554
 21
1.1348436085
  0
SPLINE
  5
451
100
AcDbEntity
  8
0
100
AcDbSpline
 62
7
  6
CONTINUOUS
 70
0
 71
3
 72
11
 73
7
 74
0
 42
0.0000001
 43
0.0000001
 44
0.0000000001
 40
0.0
 40
0.0
 40
0.0
 40
0.0
 40
0.1847520078
 40
0.4219781377
 40
0.6987269839
 40
1.0
 40
1.0
 40
1.0
 40
1.0
 10
5.0727538554
 20
1.1348436085
 30
0.0
 10
5.0662622497
 20
1.1345327534
 30
0.0
 10
5.0514283952
 20
1.1339707068
 30
0.0
 10
5.0268605757
 20
1.133223462
 30
0.0
 10
4.9981922138
 20
1.1324740224
 30
0.0
 10
4.9778654779
 20
1.1319637869
 30
0.0
 10
4.9672706015
 20
1.1317098978
 30
0.0
  0
LINE
  5
452
100
AcDbEntity
  8
0
100
AcDbLine
 62
7
  6
CONTINUOUS
 10
4.9672706015
 20
1.1317098978
 11
4.9527950311
 21
1.1313714554
  0
SPLINE
  5
453
100
AcDbEntity
  8
0
100
AcDbSpline
 62
7
  6
CONTINUOUS
 70
0
 71
3
 72
13
 73
9
 74
0
 42
0.0000001
 43
0.0000001
 44
0.0000000001
 40
0.0
 40
0.0
 40
0.0
 40
0.0
 40
0.0461273439
 40
0.1145702825
 40
0.2056228588
 40
0.3193421165
 40
0.6146470542
 40
1.0
 40
1.0
 40
1.0
 40
1.0
 10
5.0803852572
 20
1.1302735787
 30
0.0
 10
5.0802495498
 20
1.1302122344
 30
0.0
 10
5.0798925231
 20
1.1301074979
 30
0.0
 10
5.079243065
 20
1.129972223
 30
0.0
 10
5.07837101
 20
1.1298356391
 30
0.0
 10
5.0767692353
 20
1.1296331414
 30
0.0
 10
5.0742151873
 20
1.1293924638
 30
0.0
 10
5.0720235878
 20
1.129230373
 30
0.0
 10
5.0707822743
 20
1.1291462113
 30
0.0
  0
SPLINE
  5
454
100
AcDbEntity
  8
0
100
AcDbSpline
 62
7
  6
CONTINUOUS
 70
0
 71
3
 72
13
 73
9
 74
0
 42
0.0000001
 43
0.0000001
 44
0.0000000001
 40
0.0
 40
0.0
 40
0.0
 40
0.0
 40
0.0709195785
 40
0.1643394786
 40
0.276865478
 40
0.4050268653
 40
0.6942112633
 40
1.0
 40
1.0
 40
1.0
 40
1.0
 10
5.0707822743
 20
1.1291462113
 30
0.0
 10
5.0674393782
 20
1.1289195614
 30
0.0
 10
5.0596854288
 20
1.1285097953
 30
0.0
 10
5.0466162846
 20
1.1279675111
 30
0.0
 10
5.0308409192
 20
1.1274186275
 30
0.0
 10
5.0058191158
 20
1.1266494145
 30
0.0
 10
4.9716670826
 20
1.1257328725
 30
0.0
 10
4.943566965
 20
1.1250152143
 30
0.0
 10
4.9291250963
 20
1.1246346329
 30
0.0
  0
LINE
  5
455
100
AcDbEntity
  8
0
100
AcDbLine
 62
7
  6
CONTINUOUS
 10
4.9291250963
 20
1.1246346329
 11
4.865331495
 21
1.1227515425
  0
ENDSEC
  0
SECTION
  2
OBJECTS
  0
DICTIONARY
  5
C
100
AcDbDictionary
280
0
281
1
  3
ACAD_GROUP
350
D
  3
ACAD_MLINESTYLE
350
17
  3
ACAD_LAYOUT
350
1A
  3
ACAD_PLOTSETTINGS
350
19
  3
ACAD_PLOTSTYLENAME
350
E
  0
DICTIONARY
  5
D
102
{ACAD_REACTORS
330
C
102
}
100
AcDbDictionary
280
0
281
1
  0
ACDBDICTIONARYWDFLT
  5
E
102
{ACAD_REACTORS
330
C
102
}
100
AcDbDictionary
281
1
  3
Normal
350
F
100
AcDbDictionaryWithDefault
340
F
  0
DICTIONARY
  5
17
102
{ACAD_REACTORS
330
C
102
}
100
AcDbDictionary
280
0
281
1
  3
Standard
350
18
  0
DICTIONARY
  5
19
102
{ACAD_REACTORS
330
C
102
}
100
AcDbDictionary
281
1
  0
DICTIONARY
  5
1A
102
{ACAD_REACTORS
330
C
102
}
100
AcDbDictionary
281
1
  3
Model
350
456
  3
Layout1
350
457
  0
ACDBPLACEHOLDER
  5
F
102
{ACAD_REACTORS
330
E
102
}
  0
MLINESTYLE
  5
18
102
{ACAD_REACTORS
330
17
102
}
100
AcDbMlineStyle
  2
STANDARD
 70
0
  3

 62
256
 51
90.0
 52
90.0
 71
2
 49
0.5
 62
256
  6
BYLAYER
 49
-0.5
 62
256
  6
BYLAYER
  0
LAYOUT
  5
456
102
{ACAD_REACTORS
330
1A
102
}
100
AcDbPlotSettings
  1

  2
none_device
  4

  6

 40
0.0
 41
0.0
 42
0.0
 43
0.0
 44
215.9
 45
279.4
 46
0.0
 47
0.0
 48
0.0
 49
0.0
140
0.0
141
0.0
142
1.0
143
1.0
 70
1024
 72
0
 73
0
 74
0
  7

 75
0
147
1.0
148
0.0
149
0.0
100
AcDbLayout
  1
Model
 70
0
 71
0
 10
0.0
 20
0.0
 11
8.5
 21
11.0
 12
0.0
 22
0.0
 32
0.0
 14
0.0
 24
0.0
 34
0.0
 15
0.0
 25
0.0
 35
0.0
146
0.0
 13
0.0
 23
0.0
 33
0.0
 16
1.0
 26
0.0
 36
0.0
 17
0.0
 27
1.0
 37
0.0
 76
0
330
251
345
0
346
0
  0
LAYOUT
  5
457
102
{ACAD_REACTORS
330
1A
102
}
100
AcDbPlotSettings
  1

  2
none_device
  4

  6

 40
0.0
 41
0.0
 42
0.0
 43
0.0
 44
215.9
 45
279.4
 46
0.0
 47
0.0
 48
0.0
 49
0.0
140
0.0
141
0.0
142
1.0
143
1.0
 70
0
 72
0
 73
0
 74
0
  7

 75
0
147
1.0
148
0.0
149
0.0
100
AcDbLayout
  1
Layout1
 70
0
 71
1
 10
0.0
 20
0.0
 11
8.5
 21
11.0
 12
0.0
 22
0.0
 32
0.0
 14
0.0
 24
0.0
 34
0.0
 15
0.0
 25
0.0
 35
0.0
146
0.0
 13
0.0
 23
0.0
 33
0.0
 16
1.0
 26
0.0
 36
0.0
 17
0.0
 27
1.0
 37
0.0
 76
0
330
252
345
0
346
0
  0
ENDSEC
  0
EOF
