999
DXF file: C:\Prowork\plots\493_right.dxf
999
Pro/ENGINEER 2018500 by Parametric Technology Corporation
  0
SECTION
  2
HEADER
  9
$ACADVER
  1
AC1032
  9
$DWGCODEPAGE
  3
ANSI_1252
  9
$EXTMAX
 10
8.5
 20
11.0
 30
0.0
  9
$EXTMIN
 10
0.0
 20
0.0
 30
0.0
  9
$LIMMIN
 10
0.0
 20
0.0
  9
$LIMMAX
 10
8.5
 20
11.0
  9
$VIEWCTR
 10
4.25
 20
5.5
  9
$VIEWSIZE
 40
11.0
  9
$CLAYER
  8
0
  9
$LTSCALE
 40
0.717037037
  9
$CELTYPE
  6
BYLAYER
  9
$DIMSCALE
 40
1.0
  9
$DIMASZ
 40
0.1
  9
$DIMEXO
 40
0.0625
  9
$DIMDLI
 40
0.4954074074
  9
$DIMEXE
 40
0.125
  9
$DIMCEN
 40
0.1173333333
  9
$DIMLFAC
 40
1.0
  9
$DIMBLK
  1
_FILLED
  9
$DIMALT
 70
1
  9
$DIMALTD
 70
2
  9
$DIMALTTD
 70
2
  9
$DIMALTF
 40
25.4
  9
$DIMTXT
 40
0.08
  9
$DIMTOL
 70
1
  9
$DIMLIM
 70
0
  9
$DIMTFAC
 40
1.0
  9
$DIMTP
 40
0.001
  9
$DIMTM
 40
0.001
  9
$DIMGAP
 40
0.09
  9
$DIMDSEP
 70
46
  9
$AUNITS
 70
0
  9
$PDMODE
 70
3
  9
$PDSIZE
 40
0.06
  9
$HANDSEED
  5
547
  9
$TILEMODE
 70
1
  9
$MEASUREMENT
 70
0
  9
$INSUNITS
 70
1
  0
ENDSEC
  0
SECTION
  2
CLASSES
  0
CLASS
  1
ACDBDICTIONARYWDFLT
  2
AcDbDictionaryWithDefault
  3
AutoCAD 2000
 90
0
 91
1
280
0
281
0
  0
CLASS
  1
ACDBPLACEHOLDER
  2
AcDbPlaceHolder
  3
AutoCAD 2000
 90
0
 91
1
280
0
281
0
  0
CLASS
  1
LAYOUT
  2
AcDbLayout
  3
AutoCAD 2000
 90
0
 91
0
280
0
281
0
  0
ENDSEC
  0
SECTION
  2
TABLES
  0
TABLE
  2
VPORT
  5
8
100
AcDbSymbolTable
 70
2
  0
VPORT
  5
1F4
100
AcDbSymbolTableRecord
100
AcDbViewportTableRecord
  2
*ACTIVE
 70
0
 10
0.0
 20
0.0
 11
1.0
 21
1.0
 12
4.25
 22
5.5
 13
0.0
 23
0.0
 14
1.0
 24
1.0
 15
0.0
 25
0.0
 16
0.0
 26
0.0
 36
1.0
 17
0.0
 27
0.0
 37
0.0
 40
11.0
 41
0.7727272727
 42
50.0
 43
0.0
 44
0.0
 50
0.0
 51
0.0
 71
0
 72
100
 73
1
 74
1
 75
0
 76
0
 77
0
 78
0
  0
ENDTAB
  0
TABLE
  2
LTYPE
  5
5
100
AcDbSymbolTable
 70
6
  0
LTYPE
  5
14
100
AcDbSymbolTableRecord
100
AcDbLinetypeTableRecord
  2
BYBLOCK
 70
0
  3

 72
65
 73
0
 40
0.0
  0
LTYPE
  5
15
100
AcDbSymbolTableRecord
100
AcDbLinetypeTableRecord
  2
BYLAYER
 70
0
  3

 72
65
 73
0
 40
0.0
  0
LTYPE
  5
16
100
AcDbSymbolTableRecord
100
AcDbLinetypeTableRecord
  2
CONTINUOUS
 70
64
  3
Solid line
 72
65
 73
0
 40
0.0
  0
LTYPE
  5
1F5
100
AcDbSymbolTableRecord
100
AcDbLinetypeTableRecord
  2
CENTER
 70
64
  3
____ _ ____ _ ____ _ ____ _ ____ _ ____ _ ____
 72
65
 73
4
 40
0.6
 49
0.375
 74
0
 49
-0.075
 74
0
 49
0.075
 74
0
 49
-0.075
 74
0
  0
LTYPE
  5
1F6
100
AcDbSymbolTableRecord
100
AcDbLinetypeTableRecord
  2
HIDDEN
 70
64
  3
- - - - - - - - - - - - - - - - - - - -
 72
65
 73
2
 40
0.2
 49
0.1
 74
0
 49
-0.1
 74
0
  0
LTYPE
  5
1F7
100
AcDbSymbolTableRecord
100
AcDbLinetypeTableRecord
  2
PHANTOM
 70
64
  3
_____ _ _ _____ _ _ _____ _ _ _____
 72
65
 73
6
 40
0.8
 49
0.45
 74
0
 49
-0.05
 74
0
 49
0.1
 74
0
 49
-0.05
 74
0
 49
0.1
 74
0
 49
-0.05
 74
0
  0
LTYPE
  5
1F8
100
AcDbSymbolTableRecord
100
AcDbLinetypeTableRecord
  2
DOT
 70
64
  3
. . . . . . . . . . . . . . . . . . . .
 72
65
 73
2
 40
0.2
 49
0.1
 74
0
 49
-0.1
 74
0
  0
LTYPE
  5
1F9
100
AcDbSymbolTableRecord
100
AcDbLinetypeTableRecord
  2
DASHED
 70
64
  3
- - - - - - - - - - - - - - - - - - - -
 72
65
 73
2
 40
0.2
 49
0.1
 74
0
 49
-0.1
 74
0
  0
ENDTAB
  0
TABLE
  2
LAYER
  5
2
100
AcDbSymbolTable
 70
36
  0
LAYER
  5
10
100
AcDbSymbolTableRecord
100
AcDbLayerTableRecord
  2
0
 70
0
 62
7
  6
CONTINUOUS
370
-3
390
F
  0
LAYER
  5
1FA
100
AcDbSymbolTableRecord
100
AcDbLayerTableRecord
  2
DEFAULT_1
 70
0
 62
7
  6
CENTER
370
-3
390
F
  0
LAYER
  5
1FB
100
AcDbSymbolTableRecord
100
AcDbLayerTableRecord
  2
DEFAULT_2
 70
0
 62
8
  6
HIDDEN
370
-3
390
F
  0
LAYER
  5
1FC
100
AcDbSymbolTableRecord
100
AcDbLayerTableRecord
  2
DEFAULT_3
 70
0
 62
7
  6
PHANTOM
370
-3
390
F
  0
LAYER
  5
1FD
100
AcDbSymbolTableRecord
100
AcDbLayerTableRecord
  2
1-257
 70
0
 62
7
  6
CONTINUOUS
370
-3
390
F
  0
LAYER
  5
1FE
100
AcDbSymbolTableRecord
100
AcDbLayerTableRecord
  2
1-257_1
 70
0
 62
7
  6
CONTINUOUS
370
-3
390
F
  0
LAYER
  5
1FF
100
AcDbSymbolTableRecord
100
AcDbLayerTableRecord
  2
10182
 70
0
 62
7
  6
CONTINUOUS
370
-3
390
F
  0
LAYER
  5
200
100
AcDbSymbolTableRecord
100
AcDbLayerTableRecord
  2
10182_1
 70
0
 62
7
  6
CONTINUOUS
370
-3
390
F
  0
LAYER
  5
201
100
AcDbSymbolTableRecord
100
AcDbLayerTableRecord
  2
403
 70
0
 62
7
  6
CONTINUOUS
370
-3
390
F
  0
LAYER
  5
202
100
AcDbSymbolTableRecord
100
AcDbLayerTableRecord
  2
403_1
 70
0
 62
7
  6
CONTINUOUS
370
-3
390
F
  0
LAYER
  5
203
100
AcDbSymbolTableRecord
100
AcDbLayerTableRecord
  2
432
 70
0
 62
7
  6
CONTINUOUS
370
-3
390
F
  0
LAYER
  5
204
100
AcDbSymbolTableRecord
100
AcDbLayerTableRecord
  2
432_1
 70
0
 62
7
  6
CONTINUOUS
370
-3
390
F
  0
LAYER
  5
205
100
AcDbSymbolTableRecord
100
AcDbLayerTableRecord
  2
441
 70
0
 62
7
  6
CONTINUOUS
370
-3
390
F
  0
LAYER
  5
206
100
AcDbSymbolTableRecord
100
AcDbLayerTableRecord
  2
441_1
 70
0
 62
7
  6
CONTINUOUS
370
-3
390
F
  0
LAYER
  5
207
100
AcDbSymbolTableRecord
100
AcDbLayerTableRecord
  2
50350
 70
0
 62
7
  6
CONTINUOUS
370
-3
390
F
  0
LAYER
  5
208
100
AcDbSymbolTableRecord
100
AcDbLayerTableRecord
  2
50350_1
 70
0
 62
7
  6
CONTINUOUS
370
-3
390
F
  0
LAYER
  5
209
100
AcDbSymbolTableRecord
100
AcDbLayerTableRecord
  2
50355
 70
0
 62
7
  6
CONTINUOUS
370
-3
390
F
  0
LAYER
  5
20A
100
AcDbSymbolTableRecord
100
AcDbLayerTableRecord
  2
50355_1
 70
0
 62
7
  6
CONTINUOUS
370
-3
390
F
  0
LAYER
  5
20B
100
AcDbSymbolTableRecord
100
AcDbLayerTableRecord
  2
50359
 70
0
 62
7
  6
CONTINUOUS
370
-3
390
F
  0
LAYER
  5
20C
100
AcDbSymbolTableRecord
100
AcDbLayerTableRecord
  2
50359_1
 70
0
 62
7
  6
CONTINUOUS
370
-3
390
F
  0
LAYER
  5
20D
100
AcDbSymbolTableRecord
100
AcDbLayerTableRecord
  2
50362
 70
0
 62
7
  6
CONTINUOUS
370
-3
390
F
  0
LAYER
  5
20E
100
AcDbSymbolTableRecord
100
AcDbLayerTableRecord
  2
50362_1
 70
0
 62
7
  6
CONTINUOUS
370
-3
390
F
  0
LAYER
  5
20F
100
AcDbSymbolTableRecord
100
AcDbLayerTableRecord
  2
50663
 70
0
 62
7
  6
CONTINUOUS
370
-3
390
F
  0
LAYER
  5
210
100
AcDbSymbolTableRecord
100
AcDbLayerTableRecord
  2
50663_1
 70
0
 62
7
  6
CONTINUOUS
370
-3
390
F
  0
LAYER
  5
211
100
AcDbSymbolTableRecord
100
AcDbLayerTableRecord
  2
50664
 70
0
 62
7
  6
CONTINUOUS
370
-3
390
F
  0
LAYER
  5
212
100
AcDbSymbolTableRecord
100
AcDbLayerTableRecord
  2
50664_1
 70
0
 62
7
  6
CONTINUOUS
370
-3
390
F
  0
LAYER
  5
213
100
AcDbSymbolTableRecord
100
AcDbLayerTableRecord
  2
50668
 70
0
 62
7
  6
CONTINUOUS
370
-3
390
F
  0
LAYER
  5
214
100
AcDbSymbolTableRecord
100
AcDbLayerTableRecord
  2
50668_1
 70
0
 62
7
  6
CONTINUOUS
370
-3
390
F
  0
LAYER
  5
215
100
AcDbSymbolTableRecord
100
AcDbLayerTableRecord
  2
50675
 70
0
 62
7
  6
CONTINUOUS
370
-3
390
F
  0
LAYER
  5
216
100
AcDbSymbolTableRecord
100
AcDbLayerTableRecord
  2
50675_1
 70
0
 62
7
  6
CONTINUOUS
370
-3
390
F
  0
LAYER
  5
217
100
AcDbSymbolTableRecord
100
AcDbLayerTableRecord
  2
50677
 70
0
 62
7
  6
CONTINUOUS
370
-3
390
F
  0
LAYER
  5
218
100
AcDbSymbolTableRecord
100
AcDbLayerTableRecord
  2
50677_1
 70
0
 62
7
  6
CONTINUOUS
370
-3
390
F
  0
LAYER
  5
219
100
AcDbSymbolTableRecord
100
AcDbLayerTableRecord
  2
50678
 70
0
 62
7
  6
CONTINUOUS
370
-3
390
F
  0
LAYER
  5
21A
100
AcDbSymbolTableRecord
100
AcDbLayerTableRecord
  2
50678_1
 70
0
 62
7
  6
CONTINUOUS
370
-3
390
F
  0
LAYER
  5
21B
100
AcDbSymbolTableRecord
100
AcDbLayerTableRecord
  2
50680
 70
0
 62
7
  6
CONTINUOUS
370
-3
390
F
  0
LAYER
  5
21C
100
AcDbSymbolTableRecord
100
AcDbLayerTableRecord
  2
50680_1
 70
0
 62
7
  6
CONTINUOUS
370
-3
390
F
  0
LAYER
  5
21D
100
AcDbSymbolTableRecord
100
AcDbLayerTableRecord
  2
50846
 70
0
 62
7
  6
CONTINUOUS
370
-3
390
F
  0
LAYER
  5
21E
100
AcDbSymbolTableRecord
100
AcDbLayerTableRecord
  2
50846_1
 70
0
 62
7
  6
CONTINUOUS
370
-3
390
F
  0
LAYER
  5
21F
100
AcDbSymbolTableRecord
100
AcDbLayerTableRecord
  2
50851
 70
0
 62
7
  6
CONTINUOUS
370
-3
390
F
  0
LAYER
  5
220
100
AcDbSymbolTableRecord
100
AcDbLayerTableRecord
  2
50851_1
 70
0
 62
7
  6
CONTINUOUS
370
-3
390
F
  0
LAYER
  5
221
100
AcDbSymbolTableRecord
100
AcDbLayerTableRecord
  2
6-403
 70
0
 62
7
  6
CONTINUOUS
370
-3
390
F
  0
LAYER
  5
222
100
AcDbSymbolTableRecord
100
AcDbLayerTableRecord
  2
6-403_1
 70
0
 62
7
  6
CONTINUOUS
370
-3
390
F
  0
LAYER
  5
223
100
AcDbSymbolTableRecord
100
AcDbLayerTableRecord
  2
92073
 70
0
 62
7
  6
CONTINUOUS
370
-3
390
F
  0
LAYER
  5
224
100
AcDbSymbolTableRecord
100
AcDbLayerTableRecord
  2
92073_1
 70
0
 62
7
  6
CONTINUOUS
370
-3
390
F
  0
LAYER
  5
225
100
AcDbSymbolTableRecord
100
AcDbLayerTableRecord
  2
DEFAULT_COORDINATE_SYSTEM
 70
0
 62
7
  6
CONTINUOUS
370
-3
390
F
  0
LAYER
  5
226
100
AcDbSymbolTableRecord
100
AcDbLayerTableRecord
  2
DEFAULT_DATUM_AXES
 70
0
 62
7
  6
CONTINUOUS
370
-3
390
F
  0
LAYER
  5
227
100
AcDbSymbolTableRecord
100
AcDbLayerTableRecord
  2
DEFAULT_DATUM_PLANES
 70
0
 62
7
  6
CONTINUOUS
370
-3
390
F
  0
LAYER
  5
228
100
AcDbSymbolTableRecord
100
AcDbLayerTableRecord
  2
INTF_10182
 70
0
 62
7
  6
CONTINUOUS
370
-3
390
F
  0
LAYER
  5
229
100
AcDbSymbolTableRecord
100
AcDbLayerTableRecord
  2
INTF_50350
 70
0
 62
7
  6
CONTINUOUS
370
-3
390
F
  0
LAYER
  5
22A
100
AcDbSymbolTableRecord
100
AcDbLayerTableRecord
  2
INTF_50355
 70
0
 62
7
  6
CONTINUOUS
370
-3
390
F
  0
LAYER
  5
22B
100
AcDbSymbolTableRecord
100
AcDbLayerTableRecord
  2
INTF_50359
 70
0
 62
7
  6
CONTINUOUS
370
-3
390
F
  0
LAYER
  5
22C
100
AcDbSymbolTableRecord
100
AcDbLayerTableRecord
  2
INTF_50362
 70
0
 62
7
  6
CONTINUOUS
370
-3
390
F
  0
LAYER
  5
22D
100
AcDbSymbolTableRecord
100
AcDbLayerTableRecord
  2
INTF_50663
 70
0
 62
7
  6
CONTINUOUS
370
-3
390
F
  0
LAYER
  5
22E
100
AcDbSymbolTableRecord
100
AcDbLayerTableRecord
  2
INTF_50664
 70
0
 62
7
  6
CONTINUOUS
370
-3
390
F
  0
LAYER
  5
22F
100
AcDbSymbolTableRecord
100
AcDbLayerTableRecord
  2
INTF_50668
 70
0
 62
7
  6
CONTINUOUS
370
-3
390
F
  0
LAYER
  5
230
100
AcDbSymbolTableRecord
100
AcDbLayerTableRecord
  2
INTF_50675
 70
0
 62
7
  6
CONTINUOUS
370
-3
390
F
  0
LAYER
  5
231
100
AcDbSymbolTableRecord
100
AcDbLayerTableRecord
  2
INTF_50677
 70
0
 62
7
  6
CONTINUOUS
370
-3
390
F
  0
LAYER
  5
232
100
AcDbSymbolTableRecord
100
AcDbLayerTableRecord
  2
INTF_50678
 70
0
 62
7
  6
CONTINUOUS
370
-3
390
F
  0
LAYER
  5
233
100
AcDbSymbolTableRecord
100
AcDbLayerTableRecord
  2
INTF_50680
 70
0
 62
7
  6
CONTINUOUS
370
-3
390
F
  0
LAYER
  5
234
100
AcDbSymbolTableRecord
100
AcDbLayerTableRecord
  2
INTF_50846
 70
0
 62
7
  6
CONTINUOUS
370
-3
390
F
  0
LAYER
  5
235
100
AcDbSymbolTableRecord
100
AcDbLayerTableRecord
  2
INTF_50851
 70
0
 62
7
  6
CONTINUOUS
370
-3
390
F
  0
LAYER
  5
236
100
AcDbSymbolTableRecord
100
AcDbLayerTableRecord
  2
INTF_92073
 70
0
 62
7
  6
CONTINUOUS
370
-3
390
F
  0
LAYER
  5
237
100
AcDbSymbolTableRecord
100
AcDbLayerTableRecord
  2
INTF_BLANK
 70
0
 62
7
  6
CONTINUOUS
370
-3
390
F
  0
LAYER
  5
238
100
AcDbSymbolTableRecord
100
AcDbLayerTableRecord
  2
NONE
 70
0
 62
7
  6
CONTINUOUS
370
-3
390
F
  0
LAYER
  5
239
100
AcDbSymbolTableRecord
100
AcDbLayerTableRecord
  2
PLATED_SURFACE
 70
0
 62
7
  6
CONTINUOUS
370
-3
390
F
  0
LAYER
  5
23A
100
AcDbSymbolTableRecord
100
AcDbLayerTableRecord
  2
WETTED_SURFACES
 70
0
 62
7
  6
CONTINUOUS
370
-3
390
F
  0
LAYER
  5
23B
100
AcDbSymbolTableRecord
100
AcDbLayerTableRecord
  2
_BLACK_HOLE
 70
0
 62
7
  6
CONTINUOUS
370
-3
390
F
  0
ENDTAB
  0
TABLE
  2
STYLE
  5
3
100
AcDbSymbolTable
 70
1
  0
STYLE
  5
11
100
AcDbSymbolTableRecord
100
AcDbTextStyleTableRecord
  2
STANDARD
 70
0
 40
0.0
 41
0.8
 50
0.0
 71
0
 42
0.2
  3
txt
  4

  0
STYLE
  5
23C
100
AcDbSymbolTableRecord
100
AcDbTextStyleTableRecord
  2
TEXTSTYLE_1
 70
0
 40
0.0
 41
0.8
 50
0.0
 71
0
 42
0.2
  3
gdt
  4

  0
ENDTAB
  0
TABLE
  2
VIEW
  5
6
100
AcDbSymbolTable
 70
0
  0
ENDTAB
  0
TABLE
  2
UCS
  5
7
100
AcDbSymbolTable
 70
0
  0
ENDTAB
  0
TABLE
  2
APPID
  5
9
100
AcDbSymbolTable
 70
1
  0
APPID
  5
23D
100
AcDbSymbolTableRecord
100
AcDbRegAppTableRecord
  2
ACAD
 70
0
  0
ENDTAB
  0
TABLE
  2
BLOCK_RECORD
  5
1
100
AcDbSymbolTable
 70
0
  0
BLOCK_RECORD
  5
23E
100
AcDbSymbolTableRecord
100
AcDbBlockTableRecord
  2
*Model_Space
  0
BLOCK_RECORD
  5
23F
100
AcDbSymbolTableRecord
100
AcDbBlockTableRecord
  2
*Paper_Space
  0
BLOCK_RECORD
  5
240
100
AcDbSymbolTableRecord
100
AcDbBlockTableRecord
  2
_FILLED
  0
ENDTAB
  0
TABLE
  2
DIMSTYLE
  5
A
100
AcDbSymbolTable
 70
1
100
AcDbDimStyleTable
 71
0
  0
DIMSTYLE
105
241
100
AcDbSymbolTableRecord
100
AcDbDimStyleTableRecord
  2
STANDARD
 70
0
  3

  4

 40
1.0
 41
0.1
 42
0.0625
 43
0.38
 44
0.125
 45
0.0
 46
0.0
 47
0.001
 48
0.001
140
0.08
141
0.09
142
0.0
143
25.4
144
1.0
145
0.0
146
1.0
147
0.09
 71
1.0
 72
0.0
 73
1
 74
1
 75
0
 76
0
 77
0
 78
4
 79
1
170
1
171
2
172
0
173
0
174
0
175
0
176
0
177
0
178
0
270
2
179
3
271
3
272
3
273
2
274
2
275
0
280
0
281
0
282
0
283
1
284
4
285
0
286
0
287
3
288
0
340
11
278
46
341
240
342
240
343
240
344
240
  0
ENDTAB
  0
ENDSEC
  0
SECTION
  2
BLOCKS
  0
BLOCK
  5
20
100
AcDbEntity
  8
0
100
AcDbBlockBegin
  2
*Model_Space
 70
0
 10
0.0
 20
0.0
 30
0.0
  3
*Model_Space
  1

  0
ENDBLK
  5
21
100
AcDbEntity
  8
0
100
AcDbBlockEnd
  0
BLOCK
  5
1C
100
AcDbEntity
  8
0
100
AcDbBlockBegin
  2
*Paper_Space
 70
0
 10
0.0
 20
0.0
 30
0.0
  3
*Paper_Space
  1

  0
ENDBLK
  5
1D
100
AcDbEntity
  8
0
100
AcDbBlockEnd
  0
BLOCK
  5
242
100
AcDbEntity
  8
0
100
AcDbBlockBegin
  2
_FILLED
 70
64
 10
0.0
 20
0.0
  3
_FILLED
  1

  0
SOLID
  5
243
100
AcDbEntity
  8
0
  6
BYBLOCK
 62
0
100
AcDbTrace
 10
0.0
 20
0.0
 11
-1.0
 21
0.2
 12
-1.0
 22
-0.2
 13
-1.0
 23
-0.2
  0
ENDBLK
  5
244
100
AcDbEntity
  8
0
  6
BYBLOCK
 62
0
100
AcDbBlockEnd
  0
ENDSEC
  0
SECTION
  2
ENTITIES
  0
MTEXT
  5
245
100
AcDbEntity
  8
0
100
AcDbMText
 62
7
  6
CONTINUOUS
  7
STANDARD
 71
1
 72
1
 10
7.1810559006
 20
0.340621118
 30
0.0
 11
1.0
 21
0.0
 31
0.0
 73
2
 44
0.9
  1
SCALE: .50
 40
0.08
 41
0.64
  0
LINE
  5
246
100
AcDbEntity
  8
0
100
AcDbLine
 62
7
  6
CONTINUOUS
 10
0.0
 20
0.0
 11
8.5
 21
0.0
  0
LINE
  5
247
100
AcDbEntity
  8
0
100
AcDbLine
 62
7
  6
CONTINUOUS
 10
0.0
 20
0.0
 11
0.0
 21
11.0
  0
LINE
  5
248
100
AcDbEntity
  8
0
100
AcDbLine
 62
7
  6
CONTINUOUS
 10
8.5
 20
0.0
 11
8.5
 21
11.0
  0
LINE
  5
249
100
AcDbEntity
  8
0
100
AcDbLine
 62
7
  6
CONTINUOUS
 10
0.0
 20
11.0
 11
8.5
 21
11.0
  0
LINE
  5
24A
100
AcDbEntity
  8
0
100
AcDbLine
 62
7
  6
CONTINUOUS
 10
5.2773508685
 20
0.2653881988
 11
5.3324926423
 21
0.2653881988
  0
LINE
  5
24B
100
AcDbEntity
  8
0
100
AcDbLine
 62
9
  6
CONTINUOUS
 10
2.9769926423
 20
0.4521259126
 11
2.8877983875
 21
0.4541026225
  0
LINE
  5
24C
100
AcDbEntity
  8
0
100
AcDbLine
 62
7
  6
CONTINUOUS
 10
2.8897009851
 20
0.4011864906
 11
2.9769926423
 21
0.3981381988
  0
LINE
  5
24D
100
AcDbEntity
  8
0
100
AcDbLine
 62
7
  6
CONTINUOUS
 10
3.2362426423
 20
10.7892050592
 11
3.2382426423
 21
10.7903881988
  0
LINE
  5
24E
100
AcDbEntity
  8
0
100
AcDbLine
 62
7
  6
CONTINUOUS
 10
4.0512426423
 20
0.637797456
 11
3.7699926423
 21
0.637797456
  0
LINE
  5
24F
100
AcDbEntity
  8
0
100
AcDbLine
 62
7
  6
CONTINUOUS
 10
3.1512672422
 20
0.6416649694
 11
3.0671473096
 21
0.6416649694
  0
LINE
  5
250
100
AcDbEntity
  8
0
100
AcDbLine
 62
9
  6
CONTINUOUS
 10
3.0657338474
 20
0.6450143344
 11
3.1526807044
 21
0.6450143344
  0
LINE
  5
251
100
AcDbEntity
  8
0
100
AcDbLine
 62
7
  6
CONTINUOUS
 10
3.1669926423
 20
0.6753881988
 11
3.1794926423
 21
0.6753881988
  0
LINE
  5
252
100
AcDbEntity
  8
0
100
AcDbLine
 62
7
  6
CONTINUOUS
 10
3.2424926423
 20
0.6872631988
 11
3.2053332914
 21
0.6872631988
  0
LINE
  5
253
100
AcDbEntity
  8
0
100
AcDbLine
 62
7
  6
CONTINUOUS
 10
3.1846519338
 20
0.6872631988
 11
3.1803362463
 21
0.6872631988
  0
LINE
  5
254
100
AcDbEntity
  8
0
100
AcDbLine
 62
7
  6
CONTINUOUS
 10
3.7049926423
 20
0.6872631988
 11
3.7209016452
 21
0.6872631988
  0
LINE
  5
255
100
AcDbEntity
  8
0
100
AcDbLine
 62
7
  6
CONTINUOUS
 10
3.741583867
 20
0.6872631988
 11
3.7486857396
 21
0.6872631988
  0
LINE
  5
256
100
AcDbEntity
  8
0
100
AcDbLine
 62
7
  6
CONTINUOUS
 10
3.2924926423
 20
0.6903881988
 11
3.6174926423
 21
0.6903881988
  0
LINE
  5
257
100
AcDbEntity
  8
0
100
AcDbLine
 62
7
  6
CONTINUOUS
 10
3.7049926423
 20
0.6953881988
 11
3.6174926423
 21
0.6953881988
  0
LINE
  5
258
100
AcDbEntity
  8
0
100
AcDbLine
 62
7
  6
CONTINUOUS
 10
3.1934322602
 20
0.7024671047
 11
3.1965572602
 21
0.7024671047
  0
LINE
  5
259
100
AcDbEntity
  8
0
100
AcDbLine
 62
7
  6
CONTINUOUS
 10
3.7296820643
 20
0.7024678088
 11
3.7328070643
 21
0.7024678088
  0
LINE
  5
25A
100
AcDbEntity
  8
0
100
AcDbLine
 62
7
  6
CONTINUOUS
 10
3.7574745059
 20
0.7024934671
 11
3.7605995059
 21
0.7024934671
  0
LINE
  5
25B
100
AcDbEntity
  8
0
100
AcDbLine
 62
7
  6
CONTINUOUS
 10
3.2924926423
 20
0.7028881988
 11
3.2424926423
 21
0.7028881988
  0
LINE
  5
25C
100
AcDbEntity
  8
0
100
AcDbLine
 62
7
  6
CONTINUOUS
 10
3.2071544182
 20
0.7260566218
 11
3.2278308664
 21
0.7260566218
  0
LINE
  5
25D
100
AcDbEntity
  8
0
100
AcDbLine
 62
7
  6
CONTINUOUS
 10
3.0119926423
 20
0.7331381988
 11
3.0244926423
 21
0.7331381988
  0
LINE
  5
25E
100
AcDbEntity
  8
0
100
AcDbLine
 62
7
  6
CONTINUOUS
 10
3.2190551423
 20
0.7383536801
 11
3.2159301423
 21
0.7383536801
  0
LINE
  5
25F
100
AcDbEntity
  8
0
100
AcDbLine
 62
9
  6
CONTINUOUS
 10
3.1909301423
 20
0.7383615882
 11
3.1940551423
 21
0.7383615882
  0
LINE
  5
260
100
AcDbEntity
  8
0
100
AcDbLine
 62
9
  6
CONTINUOUS
 10
3.1526807044
 20
0.756875949
 11
3.0657338474
 21
0.756875949
  0
LINE
  5
261
100
AcDbEntity
  8
0
100
AcDbLine
 62
7
  6
CONTINUOUS
 10
4.0512426423
 20
0.7640928274
 11
3.7699926423
 21
0.7640928274
  0
LINE
  5
262
100
AcDbEntity
  8
0
100
AcDbLine
 62
9
  6
CONTINUOUS
 10
3.7534301423
 20
0.7758666498
 11
3.7565551423
 21
0.7758666498
  0
LINE
  5
263
100
AcDbEntity
  8
0
100
AcDbLine
 62
9
  6
CONTINUOUS
 10
3.0657338474
 20
0.7785265841
 11
3.1526807044
 21
0.7785265841
  0
LINE
  5
264
100
AcDbEntity
  8
0
100
AcDbLine
 62
7
  6
CONTINUOUS
 10
2.9769926423
 20
0.7966381988
 11
3.0119926423
 21
0.7966381988
  0
LINE
  5
265
100
AcDbEntity
  8
0
100
AcDbLine
 62
7
  6
CONTINUOUS
 10
3.2924926423
 20
0.8075454863
 11
3.6174926423
 21
0.8075454863
  0
LINE
  5
266
100
AcDbEntity
  8
0
100
AcDbLine
 62
7
  6
CONTINUOUS
 10
2.8091884707
 20
0.8825131988
 11
2.8156672308
 21
0.8825131988
  0
LINE
  5
267
100
AcDbEntity
  8
0
100
AcDbLine
 62
7
  6
CONTINUOUS
 10
3.6717426423
 20
10.5853881988
 11
3.6737426423
 21
10.5865713383
  0
LINE
  5
268
100
AcDbEntity
  8
0
100
AcDbLine
 62
7
  6
CONTINUOUS
 10
3.4407907909
 20
1.1797457163
 11
3.4692250411
 21
1.1804840563
  0
LINE
  5
269
100
AcDbEntity
  8
0
100
AcDbLine
 62
7
  6
CONTINUOUS
 10
3.4407907909
 20
1.1823507163
 11
3.4692250411
 21
1.1830890563
  0
LINE
  5
26A
100
AcDbEntity
  8
0
100
AcDbLine
 62
7
  6
CONTINUOUS
 10
2.8156672308
 20
0.8982631988
 11
2.8091884707
 21
0.8982631988
  0
LINE
  5
26B
100
AcDbEntity
  8
0
100
AcDbLine
 62
7
  6
CONTINUOUS
 10
3.6174926423
 20
0.9732309112
 11
3.2924926423
 21
0.9732309112
  0
LINE
  5
26C
100
AcDbEntity
  8
0
100
AcDbLine
 62
7
  6
CONTINUOUS
 10
2.9769926423
 20
0.9841381988
 11
3.0119926423
 21
0.9841381988
  0
LINE
  5
26D
100
AcDbEntity
  8
0
100
AcDbLine
 62
9
  6
CONTINUOUS
 10
3.1526807044
 20
1.0022498134
 11
3.0657338474
 21
1.0022498134
  0
LINE
  5
26E
100
AcDbEntity
  8
0
100
AcDbLine
 62
7
  6
CONTINUOUS
 10
4.0512426423
 20
1.0166835701
 11
3.7699926423
 21
1.0166835701
  0
LINE
  5
26F
100
AcDbEntity
  8
0
100
AcDbLine
 62
9
  6
CONTINUOUS
 10
3.0657338474
 20
1.0239004485
 11
3.1526807044
 21
1.0239004485
  0
LINE
  5
270
100
AcDbEntity
  8
0
100
AcDbLine
 62
7
  6
CONTINUOUS
 10
3.2924926423
 20
1.0403881988
 11
3.6174926423
 21
1.0403881988
  0
LINE
  5
271
100
AcDbEntity
  8
0
100
AcDbLine
 62
7
  6
CONTINUOUS
 10
3.0244926423
 20
1.0476381988
 11
3.0119926423
 21
1.0476381988
  0
LINE
  5
272
100
AcDbEntity
  8
0
100
AcDbLine
 62
7
  6
CONTINUOUS
 10
3.2924926423
 20
1.0544809112
 11
3.3796678248
 21
1.0544809112
  0
LINE
  5
273
100
AcDbEntity
  8
0
100
AcDbLine
 62
7
  6
CONTINUOUS
 10
3.5303174597
 20
1.0544809112
 11
3.6174926423
 21
1.0544809112
  0
LINE
  5
274
100
AcDbEntity
  8
0
100
AcDbLine
 62
7
  6
CONTINUOUS
 10
3.2424926423
 20
1.0778881988
 11
3.2924926423
 21
1.0778881988
  0
LINE
  5
275
100
AcDbEntity
  8
0
100
AcDbLine
 62
7
  6
CONTINUOUS
 10
3.2090555899
 20
1.078299178
 11
3.2059305899
 21
1.078299178
  0
LINE
  5
276
100
AcDbEntity
  8
0
100
AcDbLine
 62
7
  6
CONTINUOUS
 10
3.184058123
 20
1.0783040875
 11
3.180933123
 21
1.0783040875
  0
LINE
  5
277
100
AcDbEntity
  8
0
100
AcDbLine
 62
7
  6
CONTINUOUS
 10
3.7467041643
 20
1.0783061696
 11
3.7435788306
 21
1.0783061702
  0
LINE
  5
278
100
AcDbEntity
  8
0
100
AcDbLine
 62
7
  6
CONTINUOUS
 10
3.7189034872
 20
1.0783090192
 11
3.7157784872
 21
1.0783090192
  0
LINE
  5
279
100
AcDbEntity
  8
0
100
AcDbLine
 62
7
  6
CONTINUOUS
 10
3.6174926423
 20
1.0853881988
 11
3.7049926423
 21
1.0853881988
  0
LINE
  5
27A
100
AcDbEntity
  8
0
100
AcDbLine
 62
7
  6
CONTINUOUS
 10
3.2924926423
 20
1.0903881988
 11
3.3413595678
 21
1.0903881988
  0
LINE
  5
27B
100
AcDbEntity
  8
0
100
AcDbLine
 62
7
  6
CONTINUOUS
 10
3.5686257167
 20
1.0903881988
 11
3.6174926423
 21
1.0903881988
  0
LINE
  5
27C
100
AcDbEntity
  8
0
100
AcDbLine
 62
7
  6
CONTINUOUS
 10
3.2424926423
 20
1.0935131988
 11
3.2178396088
 21
1.0935131988
  0
LINE
  5
27D
100
AcDbEntity
  8
0
100
AcDbLine
 62
7
  6
CONTINUOUS
 10
3.1971456585
 20
1.0935131988
 11
3.1928365269
 21
1.0935131988
  0
LINE
  5
27E
100
AcDbEntity
  8
0
100
AcDbLine
 62
7
  6
CONTINUOUS
 10
3.7049926423
 20
1.0935131988
 11
3.7070019625
 21
1.0935131988
  0
LINE
  5
27F
100
AcDbEntity
  8
0
100
AcDbLine
 62
7
  6
CONTINUOUS
 10
3.7276836471
 20
1.0935131988
 11
3.7348001851
 21
1.0935131988
  0
LINE
  5
280
100
AcDbEntity
  8
0
100
AcDbLine
 62
7
  6
CONTINUOUS
 10
3.7554854189
 20
1.0935131988
 11
3.7626043394
 21
1.0935131988
  0
LINE
  5
281
100
AcDbEntity
  8
0
100
AcDbLine
 62
7
  6
CONTINUOUS
 10
3.1669926423
 20
1.1053881988
 11
3.1794926423
 21
1.1053881988
  0
LINE
  5
282
100
AcDbEntity
  8
0
100
AcDbLine
 62
9
  6
CONTINUOUS
 10
3.1526807044
 20
1.1357620632
 11
3.0657338474
 21
1.1357620632
  0
LINE
  5
283
100
AcDbEntity
  8
0
100
AcDbLine
 62
7
  6
CONTINUOUS
 10
3.1512672422
 20
1.1391114281
 11
3.0671473096
 21
1.1391114281
  0
LINE
  5
284
100
AcDbEntity
  8
0
100
AcDbLine
 62
7
  6
CONTINUOUS
 10
4.0512426423
 20
1.1429789415
 11
3.7699926423
 21
1.1429789415
  0
LINE
  5
285
100
AcDbEntity
  8
0
100
AcDbLine
 62
7
  6
CONTINUOUS
 10
3.522883424
 20
1.1478881988
 11
3.3796678248
 21
1.1478881988
  0
LINE
  5
286
100
AcDbEntity
  8
0
100
AcDbLine
 62
7
  6
CONTINUOUS
 10
3.6112426423
 20
1.1863881988
 11
3.2987426423
 21
1.1863881988
  0
LWPOLYLINE
  5
287
100
AcDbEntity
  8
0
100
AcDbPolyline
 62
7
  6
CONTINUOUS
 90
12
 70
0
 10
2.8897009879
 20
1.3795898782
 10
2.8886038308
 20
1.3795213349
 10
2.8858365824
 20
1.3790747233
 10
2.8831363748
 20
1.3782368305
 10
2.8806079958
 20
1.3770415769
 10
2.8782482678
 20
1.3754879133
 10
2.8761302953
 20
1.3736165096
 10
2.8743135672
 20
1.3714873313
 10
2.8727962048
 20
1.3690964002
 10
2.8716214321
 20
1.3664871087
 10
2.8708376165
 20
1.3637677846
 10
2.8707006999
 20
1.363062979
  0
LINE
  5
288
100
AcDbEntity
  8
0
100
AcDbLine
 62
7
  6
CONTINUOUS
 10
2.8897009869
 20
1.379589907
 11
2.9769926423
 21
1.3826381988
  0
LINE
  5
289
100
AcDbEntity
  8
0
100
AcDbLine
 62
9
  6
CONTINUOUS
 10
2.9769926423
 20
1.3286504849
 11
2.8877984359
 21
1.3266750247
  0
LINE
  5
28A
100
AcDbEntity
  8
0
100
AcDbLine
 62
7
  6
CONTINUOUS
 10
3.6112426423
 20
1.3958881988
 11
3.2987426423
 21
1.3958881988
  0
LINE
  5
28B
100
AcDbEntity
  8
0
100
AcDbLine
 62
7
  6
CONTINUOUS
 10
5.3324926423
 20
1.5153881988
 11
5.2773508685
 21
1.5153881988
  0
LINE
  5
28C
100
AcDbEntity
  8
0
100
AcDbLine
 62
7
  6
CONTINUOUS
 10
3.3144905435
 20
1.1222041655
 11
3.3272089475
 21
1.1148537384
  0
LINE
  5
28D
100
AcDbEntity
  8
0
100
AcDbLine
 62
7
  6
CONTINUOUS
 10
3.3144853852
 20
1.1430373626
 11
3.3271965101
 21
1.1356918455
  0
LINE
  5
28E
100
AcDbEntity
  8
0
100
AcDbLine
 62
7
  6
CONTINUOUS
 10
3.3144727148
 20
1.1638986403
 11
3.3272154728
 21
1.1565337673
  0
LINE
  5
28F
100
AcDbEntity
  8
0
100
AcDbLine
 62
7
  6
CONTINUOUS
 10
3.314475237
 20
1.1847190275
 11
3.3271967191
 21
1.1773675192
  0
LINE
  5
290
100
AcDbEntity
  8
0
100
AcDbLine
 62
7
  6
CONTINUOUS
 10
3.5954947351
 20
1.115617837
 11
3.5827732569
 21
1.1229702152
  0
LINE
  5
291
100
AcDbEntity
  8
0
100
AcDbLine
 62
7
  6
CONTINUOUS
 10
3.5954980243
 20
1.1364454317
 11
3.5827672809
 21
1.143803503
  0
LINE
  5
292
100
AcDbEntity
  8
0
100
AcDbLine
 62
7
  6
CONTINUOUS
 10
3.5954950765
 20
1.1572930536
 11
3.5827826517
 21
1.1646396762
  0
LINE
  5
293
100
AcDbEntity
  8
0
100
AcDbLine
 62
7
  6
CONTINUOUS
 10
3.5955071236
 20
1.1781201566
 11
3.5827917476
 21
1.1854679586
  0
LINE
  5
294
100
AcDbEntity
  8
0
100
AcDbLine
 62
7
  6
CONTINUOUS
 10
3.2053308673
 20
0.6872631988
 11
3.2051982057
 21
0.6873760892
  0
LINE
  5
295
100
AcDbEntity
  8
0
100
AcDbLine
 62
7
  6
CONTINUOUS
 10
3.1810785623
 20
1.0781783224
 11
3.180933123
 21
1.0783040875
  0
LINE
  5
296
100
AcDbEntity
  8
0
100
AcDbLine
 62
7
  6
CONTINUOUS
 10
3.1965572602
 20
0.7024671047
 11
3.196411524
 21
0.7025933404
  0
LINE
  5
297
100
AcDbEntity
  8
0
100
AcDbLine
 62
7
  6
CONTINUOUS
 10
2.8156672308
 20
0.9438839112
 11
2.8155206231
 21
0.9440305189
  0
LINE
  5
298
100
AcDbEntity
  8
0
100
AcDbLine
 62
7
  6
CONTINUOUS
 10
2.8156672308
 20
0.9438839112
 11
2.8155206193
 21
0.9440305227
  0
LINE
  5
299
100
AcDbEntity
  8
0
100
AcDbLine
 62
7
  6
CONTINUOUS
 10
3.7626045564
 20
1.0935131988
 11
3.7627688466
 21
1.0933731831
  0
LINE
  5
29A
100
AcDbEntity
  8
0
100
AcDbLine
 62
7
  6
CONTINUOUS
 10
3.7070045553
 20
1.0935131988
 11
3.7071698962
 21
1.0933713887
  0
LINE
  5
29B
100
AcDbEntity
  8
0
100
AcDbLine
 62
7
  6
CONTINUOUS
 10
3.741581006
 20
0.6872631988
 11
3.7414155766
 21
0.6874051605
  0
LINE
  5
29C
100
AcDbEntity
  8
0
100
AcDbLine
 62
7
  6
CONTINUOUS
 10
3.7348045544
 20
1.0935131988
 11
3.7349706943
 21
1.0933700164
  0
LINE
  5
29D
100
AcDbEntity
  8
0
100
AcDbLine
 62
7
  6
CONTINUOUS
 10
3.7605995059
 20
0.7024934671
 11
3.7604188096
 21
0.7026496684
  0
LINE
  5
29E
100
AcDbEntity
  8
0
100
AcDbLine
 62
7
  6
CONTINUOUS
 10
3.74375999
 20
1.0781493455
 11
3.7435788306
 21
1.0783061702
  0
LINE
  5
29F
100
AcDbEntity
  8
0
100
AcDbLine
 62
7
  6
CONTINUOUS
 10
3.7159591758
 20
1.0781525576
 11
3.7157784872
 21
1.0783090192
  0
LINE
  5
2A0
100
AcDbEntity
  8
0
100
AcDbLine
 62
7
  6
CONTINUOUS
 10
3.1971544148
 20
1.0935131988
 11
3.1972906983
 21
1.0933940647
  0
LINE
  5
2A1
100
AcDbEntity
  8
0
100
AcDbLine
 62
7
  6
CONTINUOUS
 10
3.2745706831
 20
1.2105601579
 11
3.2987426423
 21
1.1863881988
  0
LINE
  5
2A2
100
AcDbEntity
  8
0
100
AcDbLine
 62
7
  6
CONTINUOUS
 10
3.6112426423
 20
1.3958881988
 11
3.6354146014
 21
1.3717162396
  0
LINE
  5
2A3
100
AcDbEntity
  8
0
100
AcDbLine
 62
9
  6
CONTINUOUS
 10
3.7653308664
 20
0.7665935
 11
3.7565551423
 21
0.7758571525
  0
LINE
  5
2A4
100
AcDbEntity
  8
0
100
AcDbLine
 62
7
  6
CONTINUOUS
 10
3.3143676423
 20
1.1223380517
 11
3.3144905388
 21
1.1221994039
  0
LINE
  5
2A5
100
AcDbEntity
  8
0
100
AcDbLine
 62
7
  6
CONTINUOUS
 10
3.5956176423
 20
1.1154858449
 11
3.5954947417
 21
1.1156244959
  0
LINE
  5
2A6
100
AcDbEntity
  8
0
100
AcDbLine
 62
7
  6
CONTINUOUS
 10
3.5956176423
 20
1.1363208431
 11
3.5954980361
 21
1.1364576248
  0
LINE
  5
2A7
100
AcDbEntity
  8
0
100
AcDbLine
 62
7
  6
CONTINUOUS
 10
3.3143676423
 20
1.143173048
 11
3.3144853852
 21
1.1430373424
  0
LINE
  5
2A8
100
AcDbEntity
  8
0
100
AcDbLine
 62
7
  6
CONTINUOUS
 10
3.5829176124
 20
1.1853228014
 11
3.5827917476
 21
1.1854679586
  0
LINE
  5
2A9
100
AcDbEntity
  8
0
100
AcDbLine
 62
7
  6
CONTINUOUS
 10
3.3271967191
 20
1.1773675192
 11
3.3270698825
 21
1.1775138269
  0
LINE
  5
2AA
100
AcDbEntity
  8
0
100
AcDbLine
 62
7
  6
CONTINUOUS
 10
3.3272154728
 20
1.1565337673
 11
3.3270866178
 21
1.1566824958
  0
LINE
  5
2AB
100
AcDbEntity
  8
0
100
AcDbLine
 62
7
  6
CONTINUOUS
 10
3.5827672809
 20
1.143803503
 11
3.5828972528
 21
1.1436532539
  0
LINE
  5
2AC
100
AcDbEntity
  8
0
100
AcDbLine
 62
7
  6
CONTINUOUS
 10
3.3270802546
 20
1.1150026293
 11
3.3272089475
 21
1.1148537384
  0
LINE
  5
2AD
100
AcDbEntity
  8
0
100
AcDbLine
 62
7
  6
CONTINUOUS
 10
3.5827732569
 20
1.1229702152
 11
3.5829023553
 21
1.1228208811
  0
LINE
  5
2AE
100
AcDbEntity
  8
0
100
AcDbLine
 62
7
  6
CONTINUOUS
 10
3.3270698732
 20
1.1358386958
 11
3.3271965101
 21
1.1356918455
  0
LINE
  5
2AF
100
AcDbEntity
  8
0
100
AcDbLine
 62
9
  6
CONTINUOUS
 10
3.1940551423
 20
0.7383615882
 11
3.2028308664
 21
0.7260651696
  0
LINE
  5
2B0
100
AcDbEntity
  8
0
100
AcDbLine
 62
7
  6
CONTINUOUS
 10
3.2190551423
 20
0.7383536801
 11
3.2278308664
 21
0.7260566218
  0
LINE
  5
2B1
100
AcDbEntity
  8
0
100
AcDbLine
 62
7
  6
CONTINUOUS
 10
3.196411524
 20
0.7025933404
 11
3.2041174827
 21
0.6892548772
  0
LINE
  5
2B2
100
AcDbEntity
  8
0
100
AcDbLine
 62
7
  6
CONTINUOUS
 10
3.2060773754
 20
1.0781721642
 11
3.1983637593
 21
1.0915231105
  0
LINE
  5
2B3
100
AcDbEntity
  8
0
100
AcDbLine
 62
7
  6
CONTINUOUS
 10
3.0656119753
 20
0.6449575045
 11
3.0244926423
 21
0.7331381988
  0
LINE
  5
2B4
100
AcDbEntity
  8
0
100
AcDbLine
 62
7
  6
CONTINUOUS
 10
3.7326262927
 20
0.7026243354
 11
3.7403396932
 21
0.6892750519
  0
LINE
  5
2B5
100
AcDbEntity
  8
0
100
AcDbLine
 62
7
  6
CONTINUOUS
 10
3.7604188096
 20
0.7026496684
 11
3.7681389827
 21
0.6892904694
  0
LINE
  5
2B6
100
AcDbEntity
  8
0
100
AcDbLine
 62
7
  6
CONTINUOUS
 10
3.7159591758
 20
1.0781525576
 11
3.7082490371
 21
1.0914962309
  0
LINE
  5
2B7
100
AcDbEntity
  8
0
100
AcDbLine
 62
7
  6
CONTINUOUS
 10
3.74375999
 20
1.0781493455
 11
3.7360485458
 21
1.0914950514
  0
LINE
  5
2B8
100
AcDbEntity
  8
0
100
AcDbLine
 62
7
  6
CONTINUOUS
 10
3.7699926423
 20
1.0808689594
 11
3.7638535857
 21
1.0914941367
  0
LINE
  5
2B9
100
AcDbEntity
  8
0
100
AcDbLine
 62
7
  6
CONTINUOUS
 10
3.1669926423
 20
1.1053881988
 11
3.1528025765
 21
1.135818893
  0
LINE
  5
2BA
100
AcDbEntity
  8
0
100
AcDbLine
 62
7
  6
CONTINUOUS
 10
3.0671473096
 20
0.6416649694
 11
3.0657338474
 21
0.6450143344
  0
LINE
  5
2BB
100
AcDbEntity
  8
0
100
AcDbLine
 62
7
  6
CONTINUOUS
 10
3.1526807044
 20
1.1357620632
 11
3.1512672422
 21
1.1391114281
  0
LINE
  5
2BC
100
AcDbEntity
  8
0
100
AcDbLine
 62
7
  6
CONTINUOUS
 10
3.1518981797
 20
1.1376112718
 11
3.1517051819
 21
1.1380709037
  0
LINE
  5
2BD
100
AcDbEntity
  8
0
100
AcDbLine
 62
7
  6
CONTINUOUS
 10
3.1512836571
 20
1.1390706132
 11
3.1512672422
 21
1.1391114281
  0
LWPOLYLINE
  5
2BE
100
AcDbEntity
  8
0
100
AcDbPolyline
 62
7
  6
CONTINUOUS
 90
12
 70
0
 10
2.8707006999
 20
0.4177134186
 10
2.8708376169
 20
0.4170086113
 10
2.8716214333
 20
0.4142892858
 10
2.8727962069
 20
0.4116799935
 10
2.8743135701
 20
0.4092890624
 10
2.8761302986
 20
0.4071598847
 10
2.8782482713
 20
0.4052884817
 10
2.880607999
 20
0.4037348189
 10
2.8831363774
 20
0.4025395661
 10
2.8858365843
 20
0.4017016738
 10
2.8886038319
 20
0.4012550625
 10
2.8897009879
 20
0.4011865193
  0
LINE
  5
2BF
100
AcDbEntity
  8
0
100
AcDbLine
 62
7
  6
CONTINUOUS
 10
2.8307917642
 20
0.9723318577
 11
2.8307746945
 21
0.9725111862
  0
LINE
  5
2C0
100
AcDbEntity
  8
0
100
AcDbLine
 62
7
  6
CONTINUOUS
 10
2.8309862281
 20
0.9691513152
 11
2.8307439923
 21
0.9728131034
  0
LINE
  5
2C1
100
AcDbEntity
  8
0
100
AcDbLine
 62
7
  6
CONTINUOUS
 10
2.8309983252
 20
0.9690258935
 11
2.8308986269
 21
0.9706876349
  0
LINE
  5
2C2
100
AcDbEntity
  8
0
100
AcDbLine
 62
9
  6
CONTINUOUS
 10
2.824731535
 20
0.9659085452
 11
2.8247437349
 21
0.9636897695
  0
LINE
  5
2C3
100
AcDbEntity
  8
0
100
AcDbLine
 62
9
  6
CONTINUOUS
 10
2.8247131838
 20
0.8283307583
 11
2.8247383116
 21
0.8154313949
  0
LINE
  5
2C4
100
AcDbEntity
  8
0
100
AcDbLine
 62
7
  6
CONTINUOUS
 10
2.9769926423
 20
1.3826381987
 11
2.9769926423
 21
0.3981381988
  0
LINE
  5
2C5
100
AcDbEntity
  8
0
100
AcDbLine
 62
7
  6
CONTINUOUS
 10
3.0119926423
 20
1.0476381988
 11
3.0119926423
 21
0.7331381988
  0
LINE
  5
2C6
100
AcDbEntity
  8
0
100
AcDbLine
 62
7
  6
CONTINUOUS
 10
3.0244926423
 20
0.7331381988
 11
3.0244926423
 21
1.0476381988
  0
LINE
  5
2C7
100
AcDbEntity
  8
0
100
AcDbLine
 62
9
  6
CONTINUOUS
 10
2.8247092091
 20
0.9571984926
 11
2.8247131838
 21
0.8283307583
  0
LINE
  5
2C8
100
AcDbEntity
  8
0
100
AcDbLine
 62
9
  6
CONTINUOUS
 10
2.8247437349
 20
0.9636897695
 11
2.8247092091
 21
0.9571984926
  0
LINE
  5
2C9
100
AcDbEntity
  8
0
100
AcDbLine
 62
9
  6
CONTINUOUS
 10
2.8247383116
 20
0.8154313949
 11
2.824731535
 21
0.8148678523
  0
LINE
  5
2CA
100
AcDbEntity
  8
0
100
AcDbLine
 62
7
  6
CONTINUOUS
 10
3.1876490456
 20
0.868297369
 11
3.1868291836
 21
0.9069414037
  0
LINE
  5
2CB
100
AcDbEntity
  8
0
100
AcDbLine
 62
7
  6
CONTINUOUS
 10
3.1899541339
 20
0.9069437424
 11
3.1907740102
 21
0.868299027
  0
LINE
  5
2CC
100
AcDbEntity
  8
0
100
AcDbLine
 62
7
  6
CONTINUOUS
 10
3.2119654141
 20
0.9005226835
 11
3.2127588678
 21
0.8631554173
  0
LINE
  5
2CD
100
AcDbEntity
  8
0
100
AcDbLine
 62
7
  6
CONTINUOUS
 10
3.2158839127
 20
0.8631533191
 11
3.2150904576
 21
0.9005206275
  0
LINE
  5
2CE
100
AcDbEntity
  8
0
100
AcDbLine
 62
7
  6
CONTINUOUS
 10
3.2243947616
 20
0.8744535521
 11
3.223700222
 21
0.9097007459
  0
LINE
  5
2CF
100
AcDbEntity
  8
0
100
AcDbLine
 62
7
  6
CONTINUOUS
 10
3.1669926423
 20
1.1053881988
 11
3.1669926423
 21
0.6753881988
  0
LINE
  5
2D0
100
AcDbEntity
  8
0
100
AcDbLine
 62
7
  6
CONTINUOUS
 10
3.1794926423
 20
1.1053546561
 11
3.1794926423
 21
0.6756610519
  0
LINE
  5
2D1
100
AcDbEntity
  8
0
100
AcDbLine
 62
7
  6
CONTINUOUS
 10
3.2362426423
 20
10.783554263
 11
3.2362426423
 21
10.7713098523
  0
LINE
  5
2D2
100
AcDbEntity
  8
0
100
AcDbLine
 62
7
  6
CONTINUOUS
 10
3.2362426423
 20
10.5865713565
 11
3.2362426423
 21
10.7713098523
  0
LINE
  5
2D3
100
AcDbEntity
  8
0
100
AcDbLine
 62
7
  6
CONTINUOUS
 10
3.2362426423
 20
10.783554263
 11
3.2362426423
 21
10.789205041
  0
LINE
  5
2D4
100
AcDbEntity
  8
0
100
AcDbLine
 62
7
  6
CONTINUOUS
 10
3.2382426423
 20
10.7903881988
 11
3.2382426423
 21
10.8353881988
  0
LINE
  5
2D5
100
AcDbEntity
  8
0
100
AcDbLine
 62
7
  6
CONTINUOUS
 10
3.2424926423
 20
1.0934816525
 11
3.2424926423
 21
0.6872947451
  0
LINE
  5
2D6
100
AcDbEntity
  8
0
100
AcDbLine
 62
7
  6
CONTINUOUS
 10
3.2508191187
 20
10.7713098523
 11
3.2508191187
 21
10.6044665452
  0
LINE
  5
2D7
100
AcDbEntity
  8
0
100
AcDbLine
 62
7
  6
CONTINUOUS
 10
3.2745706831
 20
1.2105601579
 11
3.2745706831
 21
1.3717162396
  0
LINE
  5
2D8
100
AcDbEntity
  8
0
100
AcDbLine
 62
7
  6
CONTINUOUS
 10
3.2924926423
 20
1.0903881988
 11
3.2924926423
 21
0.6903881988
  0
LINE
  5
2D9
100
AcDbEntity
  8
0
100
AcDbLine
 62
7
  6
CONTINUOUS
 10
3.3143676423
 20
1.1863881988
 11
3.3143676423
 21
1.1848430472
  0
LINE
  5
2DA
100
AcDbEntity
  8
0
100
AcDbLine
 62
7
  6
CONTINUOUS
 10
3.3143676423
 20
1.1675733503
 11
3.3143676423
 21
1.1640080472
  0
LINE
  5
2DB
100
AcDbEntity
  8
0
100
AcDbLine
 62
7
  6
CONTINUOUS
 10
3.3143676423
 20
1.0903881988
 11
3.3143676423
 21
1.1050603859
  0
LINE
  5
2DC
100
AcDbEntity
  8
0
100
AcDbLine
 62
7
  6
CONTINUOUS
 10
3.3143676423
 20
1.1223461664
 11
3.3143676423
 21
1.1259019605
  0
LINE
  5
2DD
100
AcDbEntity
  8
0
100
AcDbLine
 62
7
  6
CONTINUOUS
 10
3.3143676423
 20
1.1431745286
 11
3.3143676423
 21
1.1467258929
  0
LINE
  5
2DE
100
AcDbEntity
  8
0
100
AcDbLine
 62
7
  6
CONTINUOUS
 10
3.3270698825
 20
1.1775138269
 11
3.3270698825
 21
1.1749088269
  0
LINE
  5
2DF
100
AcDbEntity
  8
0
100
AcDbLine
 62
7
  6
CONTINUOUS
 10
3.3270698732
 20
1.1358386958
 11
3.3270698728
 21
1.1332334324
  0
LINE
  5
2E0
100
AcDbEntity
  8
0
100
AcDbLine
 62
7
  6
CONTINUOUS
 10
3.3270802546
 20
1.1150026293
 11
3.3270802546
 21
1.1123976293
  0
LINE
  5
2E1
100
AcDbEntity
  8
0
100
AcDbLine
 62
7
  6
CONTINUOUS
 10
3.3270866178
 20
1.1566824958
 11
3.3270866178
 21
1.1540774958
  0
LINE
  5
2E2
100
AcDbEntity
  8
0
100
AcDbLine
 62
7
  6
CONTINUOUS
 10
3.3337426423
 20
10.5538881988
 11
3.3337426423
 21
10.5853881988
  0
LINE
  5
2E3
100
AcDbEntity
  8
0
100
AcDbLine
 62
7
  6
CONTINUOUS
 10
3.3612426423
 20
1.3958881988
 11
3.3612426423
 21
10.5538881988
  0
LINE
  5
2E4
100
AcDbEntity
  8
0
100
AcDbLine
 62
7
  6
CONTINUOUS
 10
3.3647816627
 20
1.2105601579
 11
3.3647816627
 21
1.3717162396
  0
LINE
  5
2E5
100
AcDbEntity
  8
0
100
AcDbLine
 62
7
  6
CONTINUOUS
 10
3.3796678248
 20
1.1478881988
 11
3.3796678248
 21
1.1465073684
  0
LINE
  5
2E6
100
AcDbEntity
  8
0
100
AcDbLine
 62
7
  6
CONTINUOUS
 10
3.3796678248
 20
1.1292376715
 11
3.3796678248
 21
1.1256723684
  0
LINE
  5
2E7
100
AcDbEntity
  8
0
100
AcDbLine
 62
7
  6
CONTINUOUS
 10
3.3796678248
 20
1.1084026715
 11
3.3796678248
 21
1.0544809112
  0
LINE
  5
2E8
100
AcDbEntity
  8
0
100
AcDbLine
 62
7
  6
CONTINUOUS
 10
2.8309006484
 20
0.8101095575
 11
2.8309973985
 21
0.8117268382
  0
LINE
  5
2E9
100
AcDbEntity
  8
0
100
AcDbLine
 62
7
  6
CONTINUOUS
 10
2.8307439585
 20
0.8079632052
 11
2.8309845281
 21
0.8116012723
  0
LINE
  5
2EA
100
AcDbEntity
  8
0
100
AcDbLine
 62
7
  6
CONTINUOUS
 10
2.8307387685
 20
0.8078881988
 11
2.8307578184
 21
0.8080900422
  0
LINE
  5
2EB
100
AcDbEntity
  8
0
100
AcDbLine
 62
7
  6
CONTINUOUS
 10
3.7241742315
 20
0.8301444825
 11
3.7210312233
 21
0.9607897033
  0
LINE
  5
2EC
100
AcDbEntity
  8
0
100
AcDbLine
 62
7
  6
CONTINUOUS
 10
3.7272992315
 20
0.8301444825
 11
3.7241562233
 21
0.9607897033
  0
LINE
  5
2ED
100
AcDbEntity
  8
0
100
AcDbLine
 62
7
  6
CONTINUOUS
 10
3.7136085858
 20
0.9062404915
 11
3.7137126626
 21
0.9014728249
  0
LINE
  5
2EE
100
AcDbEntity
  8
0
100
AcDbLine
 62
7
  6
CONTINUOUS
 10
3.762879426
 20
0.8698368216
 11
3.7620623961
 21
0.9072911035
  0
LINE
  5
2EF
100
AcDbEntity
  8
0
100
AcDbLine
 62
7
  6
CONTINUOUS
 10
3.4074190874
 20
1.1397859219
 11
3.4074190874
 21
1.1371809219
  0
LINE
  5
2F0
100
AcDbEntity
  8
0
100
AcDbLine
 62
7
  6
CONTINUOUS
 10
3.4074190874
 20
1.1189509219
 11
3.4074190874
 21
1.1163459219
  0
LINE
  5
2F1
100
AcDbEntity
  8
0
100
AcDbLine
 62
7
  6
CONTINUOUS
 10
3.4404161658
 20
10.6044665452
 11
3.4404161658
 21
10.7713098523
  0
LINE
  5
2F2
100
AcDbEntity
  8
0
100
AcDbLine
 62
7
  6
CONTINUOUS
 10
3.4695691187
 20
10.7713098523
 11
3.4695691187
 21
10.6044665452
  0
LINE
  5
2F3
100
AcDbEntity
  8
0
100
AcDbLine
 62
7
  6
CONTINUOUS
 10
3.5025661972
 20
1.1188729756
 11
3.5025661972
 21
1.1214779756
  0
LINE
  5
2F4
100
AcDbEntity
  8
0
100
AcDbLine
 62
7
  6
CONTINUOUS
 10
3.5025661972
 20
1.1397079756
 11
3.5025661972
 21
1.1423129756
  0
LINE
  5
2F5
100
AcDbEntity
  8
0
100
AcDbLine
 62
7
  6
CONTINUOUS
 10
3.5303174597
 20
1.0544809112
 11
3.5303174597
 21
1.1121515291
  0
LINE
  5
2F6
100
AcDbEntity
  8
0
100
AcDbLine
 62
7
  6
CONTINUOUS
 10
3.5303174597
 20
1.129421226
 11
3.5303174597
 21
1.1329865291
  0
LINE
  5
2F7
100
AcDbEntity
  8
0
100
AcDbLine
 62
7
  6
CONTINUOUS
 10
3.5452036218
 20
1.2105601579
 11
3.5452036218
 21
1.3717162396
  0
LINE
  5
2F8
100
AcDbEntity
  8
0
100
AcDbLine
 62
7
  6
CONTINUOUS
 10
3.5487426423
 20
10.5538881988
 11
3.5487426423
 21
1.3958881988
  0
LINE
  5
2F9
100
AcDbEntity
  8
0
100
AcDbLine
 62
7
  6
CONTINUOUS
 10
3.5762426423
 20
10.5853881988
 11
3.5762426423
 21
10.5538881988
  0
LINE
  5
2FA
100
AcDbEntity
  8
0
100
AcDbLine
 62
7
  6
CONTINUOUS
 10
3.5828972528
 20
1.1436532539
 11
3.5828972528
 21
1.1462582513
  0
LINE
  5
2FB
100
AcDbEntity
  8
0
100
AcDbLine
 62
7
  6
CONTINUOUS
 10
3.5829023553
 20
1.1228208811
 11
3.5829023552
 21
1.1254257526
  0
LINE
  5
2FC
100
AcDbEntity
  8
0
100
AcDbLine
 62
7
  6
CONTINUOUS
 10
3.5829088032
 20
1.1644936077
 11
3.5829088032
 21
1.1670986077
  0
LINE
  5
2FD
100
AcDbEntity
  8
0
100
AcDbLine
 62
7
  6
CONTINUOUS
 10
3.5946084837
 20
1.1115230472
 11
3.5946084837
 21
1.0942533503
  0
LINE
  5
2FE
100
AcDbEntity
  8
0
100
AcDbLine
 62
7
  6
CONTINUOUS
 10
3.5956176423
 20
1.0903881988
 11
3.5956176423
 21
1.0946480315
  0
LINE
  5
2FF
100
AcDbEntity
  8
0
100
AcDbLine
 62
7
  6
CONTINUOUS
 10
3.5956176423
 20
1.1119231959
 11
3.5956176423
 21
1.1154760493
  0
LINE
  5
300
100
AcDbEntity
  8
0
100
AcDbLine
 62
7
  6
CONTINUOUS
 10
3.5956176423
 20
1.1327652084
 11
3.5956176423
 21
1.1363079064
  0
LINE
  5
301
100
AcDbEntity
  8
0
100
AcDbLine
 62
7
  6
CONTINUOUS
 10
3.5956176423
 20
1.1535905472
 11
3.5956176423
 21
1.1571558503
  0
LINE
  5
302
100
AcDbEntity
  8
0
100
AcDbLine
 62
7
  6
CONTINUOUS
 10
3.5956176423
 20
1.1744255472
 11
3.5956176423
 21
1.1779908503
  0
LINE
  5
303
100
AcDbEntity
  8
0
100
AcDbLine
 62
7
  6
CONTINUOUS
 10
3.6174926423
 20
0.6903881988
 11
3.6174926423
 21
1.0903881988
  0
LINE
  5
304
100
AcDbEntity
  8
0
100
AcDbLine
 62
7
  6
CONTINUOUS
 10
3.6354146014
 20
1.2105601579
 11
3.6354146014
 21
1.3717162396
  0
LINE
  5
305
100
AcDbEntity
  8
0
100
AcDbLine
 62
7
  6
CONTINUOUS
 10
3.6591661658
 20
10.6044665452
 11
3.6591661658
 21
10.7713098523
  0
LINE
  5
306
100
AcDbEntity
  8
0
100
AcDbLine
 62
7
  6
CONTINUOUS
 10
3.6717426423
 20
10.7903881988
 11
3.6717426423
 21
10.8353881988
  0
LINE
  5
307
100
AcDbEntity
  8
0
100
AcDbLine
 62
7
  6
CONTINUOUS
 10
3.6737426423
 20
10.789205041
 11
3.6737426423
 21
10.783554263
  0
LINE
  5
308
100
AcDbEntity
  8
0
100
AcDbLine
 62
7
  6
CONTINUOUS
 10
3.6737426423
 20
10.7713098523
 11
3.6737426423
 21
10.5865713565
  0
LINE
  5
309
100
AcDbEntity
  8
0
100
AcDbLine
 62
7
  6
CONTINUOUS
 10
3.6737426423
 20
10.7713098523
 11
3.6737426423
 21
10.783554263
  0
LINE
  5
30A
100
AcDbEntity
  8
0
100
AcDbLine
 62
7
  6
CONTINUOUS
 10
3.7049926423
 20
1.0934955222
 11
3.7049926423
 21
0.6875337529
  0
LINE
  5
30B
100
AcDbEntity
  8
0
100
AcDbLine
 62
7
  6
CONTINUOUS
 10
3.7699926423
 20
0.637797456
 11
3.7699926423
 21
1.1429789415
  0
LINE
  5
30C
100
AcDbEntity
  8
0
100
AcDbLine
 62
7
  6
CONTINUOUS
 10
4.0512426423
 20
0.637797456
 11
4.0512426423
 21
1.1429789415
  0
LINE
  5
30D
100
AcDbEntity
  8
0
100
AcDbLine
 62
7
  6
CONTINUOUS
 10
3.067130092
 20
1.1390700722
 11
3.0671473096
 21
1.1391114281
  0
LINE
  5
30E
100
AcDbEntity
  8
0
100
AcDbLine
 62
7
  6
CONTINUOUS
 10
5.0512426423
 20
1.1216243628
 11
5.0512426423
 21
0.6591520348
  0
LINE
  5
30F
100
AcDbEntity
  8
0
100
AcDbLine
 62
9
  6
CONTINUOUS
 10
5.0613698698
 20
1.1557321729
 11
5.0613698698
 21
0.6250442247
  0
LINE
  5
310
100
AcDbEntity
  8
0
100
AcDbLine
 62
7
  6
CONTINUOUS
 10
3.1512672422
 20
0.6416649694
 11
3.1512837331
 21
0.6417058635
  0
LINE
  5
311
100
AcDbEntity
  8
0
100
AcDbLine
 62
7
  6
CONTINUOUS
 10
3.0657338474
 20
1.1357620632
 11
3.0671473096
 21
1.1391114281
  0
LINE
  5
312
100
AcDbEntity
  8
0
100
AcDbLine
 62
7
  6
CONTINUOUS
 10
3.1512837331
 20
0.6417058635
 11
3.1526807044
 21
0.6450143344
  0
LINE
  5
313
100
AcDbEntity
  8
0
100
AcDbLine
 62
7
  6
CONTINUOUS
 10
3.0244926423
 20
1.0476381988
 11
3.0656119753
 21
1.135818893
  0
LINE
  5
314
100
AcDbEntity
  8
0
100
AcDbLine
 62
9
  6
CONTINUOUS
 10
5.2184337671
 20
0.3070309421
 11
5.2184337671
 21
1.4737454554
  0
LINE
  5
315
100
AcDbEntity
  8
0
100
AcDbLine
 62
9
  6
CONTINUOUS
 10
5.2773508685
 20
1.5153881988
 11
5.2773508685
 21
0.2653881988
  0
LINE
  5
316
100
AcDbEntity
  8
0
100
AcDbLine
 62
7
  6
CONTINUOUS
 10
5.3324926423
 20
1.5153881988
 11
5.3324926423
 21
0.2653881988
  0
LINE
  5
317
100
AcDbEntity
  8
0
100
AcDbLine
 62
7
  6
CONTINUOUS
 10
3.1528025765
 20
0.6449575045
 11
3.1669926423
 21
0.6753881988
  0
LINE
  5
318
100
AcDbEntity
  8
0
100
AcDbLine
 62
7
  6
CONTINUOUS
 10
3.1927072796
 20
1.0934011842
 11
3.1839119835
 21
1.0781775145
  0
LINE
  5
319
100
AcDbEntity
  8
0
100
AcDbLine
 62
7
  6
CONTINUOUS
 10
3.2177041433
 20
1.0933955183
 11
3.2089087176
 21
1.0781720638
  0
LINE
  5
31A
100
AcDbEntity
  8
0
100
AcDbLine
 62
7
  6
CONTINUOUS
 10
3.184790084
 20
0.6873823778
 11
3.1935772414
 21
0.7025924692
  0
LINE
  5
31B
100
AcDbEntity
  8
0
100
AcDbLine
 62
7
  6
CONTINUOUS
 10
3.7275136117
 20
1.0933662453
 11
3.7187235693
 21
1.0781534467
  0
LINE
  5
31C
100
AcDbEntity
  8
0
100
AcDbLine
 62
7
  6
CONTINUOUS
 10
3.755315052
 20
1.0933656295
 11
3.7465231558
 21
1.0781499048
  0
LINE
  5
31D
100
AcDbEntity
  8
0
100
AcDbLine
 62
7
  6
CONTINUOUS
 10
3.721071831
 20
0.6874103362
 11
3.7298621063
 21
0.7026234945
  0
LINE
  5
31E
100
AcDbEntity
  8
0
100
AcDbLine
 62
7
  6
CONTINUOUS
 10
3.7488425521
 20
0.6873994487
 11
3.7576561309
 21
0.7026507396
  0
LINE
  5
31F
100
AcDbEntity
  8
0
100
AcDbLine
 62
9
  6
CONTINUOUS
 10
3.1821544182
 20
0.7260651696
 11
3.1909301423
 21
0.7383615882
  0
LINE
  5
320
100
AcDbEntity
  8
0
100
AcDbLine
 62
7
  6
CONTINUOUS
 10
3.2071544182
 20
0.7260566218
 11
3.2159301423
 21
0.7383536801
  0
LINE
  5
321
100
AcDbEntity
  8
0
100
AcDbLine
 62
7
  6
CONTINUOUS
 10
3.5956176423
 20
1.1744255472
 11
3.595511969
 21
1.1742969868
  0
LINE
  5
322
100
AcDbEntity
  8
0
100
AcDbLine
 62
7
  6
CONTINUOUS
 10
3.3143676423
 20
1.1259033496
 11
3.3144793065
 21
1.1260355052
  0
LINE
  5
323
100
AcDbEntity
  8
0
100
AcDbLine
 62
7
  6
CONTINUOUS
 10
3.3143676423
 20
1.1050683459
 11
3.3144807095
 21
1.1052013329
  0
LINE
  5
324
100
AcDbEntity
  8
0
100
AcDbLine
 62
7
  6
CONTINUOUS
 10
3.5956176423
 20
1.1327555525
 11
3.5955034292
 21
1.1326218924
  0
LINE
  5
325
100
AcDbEntity
  8
0
100
AcDbLine
 62
7
  6
CONTINUOUS
 10
3.3143676423
 20
1.1675733503
 11
3.3144837694
 21
1.1677081206
  0
LINE
  5
326
100
AcDbEntity
  8
0
100
AcDbLine
 62
7
  6
CONTINUOUS
 10
3.3270698825
 20
1.1749088269
 11
3.3271949003
 21
1.1750535161
  0
LINE
  5
327
100
AcDbEntity
  8
0
100
AcDbLine
 62
7
  6
CONTINUOUS
 10
3.5828972528
 20
1.1462582513
 11
3.5827672691
 21
1.1461079894
  0
LINE
  5
328
100
AcDbEntity
  8
0
100
AcDbLine
 62
7
  6
CONTINUOUS
 10
3.327209833
 20
1.1125472864
 11
3.3270802546
 21
1.1123976293
  0
LINE
  5
329
100
AcDbEntity
  8
0
100
AcDbLine
 62
7
  6
CONTINUOUS
 10
3.3271980092
 20
1.1333813181
 11
3.3270698728
 21
1.1332334324
  0
LINE
  5
32A
100
AcDbEntity
  8
0
100
AcDbLine
 62
7
  6
CONTINUOUS
 10
3.5829023552
 20
1.1254257526
 11
3.5827725611
 21
1.1252759415
  0
LINE
  5
32B
100
AcDbEntity
  8
0
100
AcDbLine
 62
7
  6
CONTINUOUS
 10
3.5827808796
 20
1.166951002
 11
3.5829088032
 21
1.1670986077
  0
LINE
  5
32C
100
AcDbEntity
  8
0
100
AcDbLine
 62
7
  6
CONTINUOUS
 10
3.5956176423
 20
1.1535905472
 11
3.5954982102
 21
1.1534538724
  0
LINE
  5
32D
100
AcDbEntity
  8
0
100
AcDbLine
 62
7
  6
CONTINUOUS
 10
3.3143676423
 20
1.1467383434
 11
3.3144949449
 21
1.1468794574
  0
LINE
  5
32E
100
AcDbEntity
  8
0
100
AcDbLine
 62
7
  6
CONTINUOUS
 10
3.2987426423
 20
1.3958881988
 11
3.2745706831
 21
1.3717162396
  0
LINE
  5
32F
100
AcDbEntity
  8
0
100
AcDbLine
 62
7
  6
CONTINUOUS
 10
2.8155206231
 20
0.8367458786
 11
2.8156672308
 21
0.8368924863
  0
LINE
  5
330
100
AcDbEntity
  8
0
100
AcDbLine
 62
7
  6
CONTINUOUS
 10
2.8155206193
 20
0.8367458749
 11
2.8156672308
 21
0.8368924863
  0
LINE
  5
331
100
AcDbEntity
  8
0
100
AcDbLine
 62
7
  6
CONTINUOUS
 10
3.6354146014
 20
1.2105601579
 11
3.6112426423
 21
1.1863881988
  0
LINE
  5
332
100
AcDbEntity
  8
0
100
AcDbLine
 62
7
  6
CONTINUOUS
 10
3.2178308697
 20
1.0935131988
 11
3.2176954235
 21
1.0933955241
  0
LINE
  5
333
100
AcDbEntity
  8
0
100
AcDbLine
 62
7
  6
CONTINUOUS
 10
3.1839119835
 20
1.0781775145
 11
3.184058123
 21
1.0783040875
  0
LINE
  5
334
100
AcDbEntity
  8
0
100
AcDbLine
 62
7
  6
CONTINUOUS
 10
3.2090555899
 20
1.078299178
 11
3.2089087176
 21
1.0781720638
  0
LINE
  5
335
100
AcDbEntity
  8
0
100
AcDbLine
 62
7
  6
CONTINUOUS
 10
3.1928308685
 20
1.0935131988
 11
3.1926987247
 21
1.0934011898
  0
LINE
  5
336
100
AcDbEntity
  8
0
100
AcDbLine
 62
9
  6
CONTINUOUS
 10
3.7534301423
 20
0.7758571525
 11
3.7446544182
 21
0.7665935
  0
LINE
  5
337
100
AcDbEntity
  8
0
100
AcDbLine
 62
7
  6
CONTINUOUS
 10
3.7276810059
 20
1.0935131988
 11
3.7275126934
 21
1.0933662461
  0
LINE
  5
338
100
AcDbEntity
  8
0
100
AcDbLine
 62
7
  6
CONTINUOUS
 10
3.1934322602
 20
0.7024671047
 11
3.1935772414
 21
0.7025924692
  0
LINE
  5
339
100
AcDbEntity
  8
0
100
AcDbLine
 62
7
  6
CONTINUOUS
 10
3.7189034872
 20
1.0783090192
 11
3.7187235693
 21
1.0781534467
  0
LINE
  5
33A
100
AcDbEntity
  8
0
100
AcDbLine
 62
7
  6
CONTINUOUS
 10
3.7209045551
 20
0.6872631988
 11
3.721072973
 21
0.6874103352
  0
LINE
  5
33B
100
AcDbEntity
  8
0
100
AcDbLine
 62
7
  6
CONTINUOUS
 10
3.7576561309
 20
0.7026507396
 11
3.7574745059
 21
0.7024934671
  0
LINE
  5
33C
100
AcDbEntity
  8
0
100
AcDbLine
 62
7
  6
CONTINUOUS
 10
3.7298621063
 20
0.7026234945
 11
3.7296820643
 21
0.7024678088
  0
LINE
  5
33D
100
AcDbEntity
  8
0
100
AcDbLine
 62
7
  6
CONTINUOUS
 10
3.7487045476
 20
0.6872631988
 11
3.7488666106
 21
0.6873994295
  0
LINE
  5
33E
100
AcDbEntity
  8
0
100
AcDbLine
 62
7
  6
CONTINUOUS
 10
3.3271949003
 20
1.1750535161
 11
3.3164255971
 21
1.1688301367
  0
LINE
  5
33F
100
AcDbEntity
  8
0
100
AcDbLine
 62
7
  6
CONTINUOUS
 10
3.3272139232
 20
1.15422488
 11
3.3164133185
 21
1.1479824913
  0
LINE
  5
340
100
AcDbEntity
  8
0
100
AcDbLine
 62
7
  6
CONTINUOUS
 10
3.3271980092
 20
1.1333813181
 11
3.3164203957
 21
1.127152998
  0
LINE
  5
341
100
AcDbEntity
  8
0
100
AcDbLine
 62
7
  6
CONTINUOUS
 10
3.327209833
 20
1.1125472864
 11
3.316427497
 21
1.1063156659
  0
LINE
  5
342
100
AcDbEntity
  8
0
100
AcDbLine
 62
7
  6
CONTINUOUS
 10
3.5827808796
 20
1.166951002
 11
3.5936846281
 21
1.1732525253
  0
LINE
  5
343
100
AcDbEntity
  8
0
100
AcDbLine
 62
7
  6
CONTINUOUS
 10
3.5827672691
 20
1.1461079894
 11
3.5936853314
 21
1.1524184501
  0
LINE
  5
344
100
AcDbEntity
  8
0
100
AcDbLine
 62
7
  6
CONTINUOUS
 10
3.5827725611
 20
1.1252759415
 11
3.5916185729
 21
1.1303886521
  0
LINE
  5
345
100
AcDbEntity
  8
0
100
AcDbLine
 62
7
  6
CONTINUOUS
 10
3.2382426423
 20
10.5853881988
 11
3.2362426423
 21
10.5865713383
  0
LINE
  5
346
100
AcDbEntity
  8
0
100
AcDbLine
 62
7
  6
CONTINUOUS
 10
3.6737426423
 20
10.7892050592
 11
3.6717426423
 21
10.7903881988
  0
LINE
  5
347
100
AcDbEntity
  8
0
100
AcDbLine
 62
7
  6
CONTINUOUS
 10
3.5762426423
 20
10.5538881988
 11
3.3337426423
 21
10.5538881988
  0
LINE
  5
348
100
AcDbEntity
  8
0
100
AcDbLine
 62
7
  6
CONTINUOUS
 10
3.2382762677
 20
10.5853881988
 11
3.6717090168
 21
10.5853881988
  0
LINE
  5
349
100
AcDbEntity
  8
0
100
AcDbLine
 62
7
  6
CONTINUOUS
 10
3.4695691187
 20
10.6044665452
 11
3.4404161658
 21
10.6044665452
  0
LINE
  5
34A
100
AcDbEntity
  8
0
100
AcDbLine
 62
7
  6
CONTINUOUS
 10
3.2362426423
 20
10.6044665452
 11
3.2508191187
 21
10.6044665452
  0
LINE
  5
34B
100
AcDbEntity
  8
0
100
AcDbLine
 62
7
  6
CONTINUOUS
 10
3.6591661658
 20
10.6044665452
 11
3.6737426423
 21
10.6044665452
  0
LINE
  5
34C
100
AcDbEntity
  8
0
100
AcDbLine
 62
7
  6
CONTINUOUS
 10
3.2362426423
 20
10.7713098523
 11
3.2508191187
 21
10.7713098523
  0
LINE
  5
34D
100
AcDbEntity
  8
0
100
AcDbLine
 62
7
  6
CONTINUOUS
 10
3.4404161658
 20
10.7713098523
 11
3.4695691187
 21
10.7713098523
  0
LINE
  5
34E
100
AcDbEntity
  8
0
100
AcDbLine
 62
7
  6
CONTINUOUS
 10
3.6591661658
 20
10.7713098523
 11
3.6737426423
 21
10.7713098523
  0
LINE
  5
34F
100
AcDbEntity
  8
0
100
AcDbLine
 62
7
  6
CONTINUOUS
 10
3.6717426423
 20
10.7903881988
 11
3.2382426423
 21
10.7903881988
  0
LINE
  5
350
100
AcDbEntity
  8
0
100
AcDbLine
 62
7
  6
CONTINUOUS
 10
3.2382426423
 20
10.8353881988
 11
3.6717426423
 21
10.8353881988
  0
ARC
  5
351
100
AcDbEntity
  8
0
100
AcDbCircle
 62
7
  6
CONTINUOUS
 10
-26.9163017399
 20
0.3248695179
 40
30.1456754084
100
AcDbArc
 50
1.1116176001
 51
1.2836875244
  0
ARC
  5
352
100
AcDbEntity
  8
0
100
AcDbCircle
 62
7
  6
CONTINUOUS
 10
-26.4097993009
 20
0.3366441081
 40
29.6140425793
100
AcDbArc
 50
1.1087906643
 51
1.2839495947
  0
ARC
  5
353
100
AcDbEntity
  8
0
100
AcDbCircle
 62
7
  6
CONTINUOUS
 10
-23.7211475265
 20
0.391046921
 40
26.9291699295
100
AcDbArc
 50
1.1035642184
 51
1.296173191
  0
ARC
  5
354
100
AcDbEntity
  8
0
100
AcDbCircle
 62
7
  6
CONTINUOUS
 10
-22.8646660268
 20
0.3387213508
 40
26.6327931231
100
AcDbArc
 50
1.2632740786
 51
1.4015378503
  0
ARC
  5
355
100
AcDbEntity
  8
0
100
AcDbCircle
 62
7
  6
CONTINUOUS
 10
-20.2988047483
 20
0.3993454298
 40
24.0733411242
100
AcDbArc
 50
1.2532823429
 51
1.406237115
  0
ARC
  5
356
100
AcDbEntity
  8
0
100
AcDbCircle
 62
7
  6
CONTINUOUS
 10
-17.8827571541
 20
0.4526432394
 40
21.6217905742
100
AcDbArc
 50
1.2541381876
 51
1.4683928208
  0
ARC
  5
357
100
AcDbEntity
  8
0
100
AcDbCircle
 62
7
  6
CONTINUOUS
 10
-18.0692382869
 20
0.4682500556
 40
21.2637182669
100
AcDbArc
 50
1.1821582606
 51
1.4247831716
  0
ARC
  5
358
100
AcDbEntity
  8
0
100
AcDbCircle
 62
7
  6
CONTINUOUS
 10
-17.1633243113
 20
0.4857431503
 40
20.3826354737
100
AcDbArc
 50
1.1660238645
 51
1.4582723033
  0
ARC
  5
359
100
AcDbEntity
  8
0
100
AcDbCircle
 62
7
  6
CONTINUOUS
 10
-17.1657276327
 20
0.4857597526
 40
20.3819136049
100
AcDbArc
 50
1.1660242679
 51
1.4582805583
  0
ARC
  5
35A
100
AcDbEntity
  8
0
100
AcDbCircle
 62
7
  6
CONTINUOUS
 10
-15.2424973172
 20
0.5152145527
 40
18.9879161944
100
AcDbArc
 50
1.2392781949
 51
1.4832528134
  0
ARC
  5
35B
100
AcDbEntity
  8
0
100
AcDbCircle
 62
9
  6
CONTINUOUS
 10
-11.3744091056
 20
0.9111094544
 40
14.2613782761
100
AcDbArc
 50
359.4659248167
 51
359.6456507063
  0
ARC
  5
35C
100
AcDbEntity
  8
0
100
AcDbCircle
 62
9
  6
CONTINUOUS
 10
-11.275838648
 20
0.9069207019
 40
14.1627842503
100
AcDbArc
 50
359.4791523938
 51
359.660129858
  0
ARC
  5
35D
100
AcDbEntity
  8
0
100
AcDbCircle
 62
9
  6
CONTINUOUS
 10
-10.4096583319
 20
0.8803615528
 40
13.2965806495
100
AcDbArc
 50
0.3340477223
 51
0.5268147
  0
ARC
  5
35E
100
AcDbEntity
  8
0
100
AcDbCircle
 62
9
  6
CONTINUOUS
 10
-10.3066037699
 20
0.8779467717
 40
13.1935422624
100
AcDbArc
 50
0.3471434745
 51
0.5414154728
  0
ARC
  5
35F
100
AcDbEntity
  8
0
100
AcDbCircle
 62
9
  6
CONTINUOUS
 10
-8.7425021134
 20
0.8907339001
 40
11.6293923111
100
AcDbArc
 50
0.1840313826
 51
0.3308338794
  0
ARC
  5
360
100
AcDbEntity
  8
0
100
AcDbCircle
 62
9
  6
CONTINUOUS
 10
-8.7162565644
 20
0.8899244366
 40
11.6031465213
100
AcDbArc
 50
359.6690823188
 51
359.8161352167
  0
ARC
  5
361
100
AcDbEntity
  8
0
100
AcDbCircle
 62
9
  6
CONTINUOUS
 10
-8.3223791922
 20
0.8907336182
 40
11.2092766576
100
AcDbArc
 50
0.1909304086
 51
0.3432348827
  0
ARC
  5
362
100
AcDbEntity
  8
0
100
AcDbCircle
 62
9
  6
CONTINUOUS
 10
-8.2968601468
 20
0.8899245621
 40
11.1837573618
100
AcDbArc
 50
359.6566721685
 51
359.8092394519
  0
ARC
  5
363
100
AcDbEntity
  8
0
100
AcDbCircle
 62
7
  6
CONTINUOUS
 10
-4.2832151516
 20
0.7909323167
 40
7.9973894956
100
AcDbArc
 50
1.3032148625
 51
1.7488070188
  0
ARC
  5
364
100
AcDbEntity
  8
0
100
AcDbCircle
 62
7
  6
CONTINUOUS
 10
-3.4747732802
 20
0.8157127042
 40
7.237027257
100
AcDbArc
 50
1.5123239217
 51
1.6363132552
  0
ARC
  5
365
100
AcDbEntity
  8
0
100
AcDbCircle
 62
7
  6
CONTINUOUS
 10
-3.9236577892
 20
0.8386890012
 40
7.1222930452
100
AcDbArc
 50
1.4261882497
 51
1.5437427441
  0
ARC
  5
366
100
AcDbEntity
  8
0
100
AcDbCircle
 62
7
  6
CONTINUOUS
 10
-3.8668274002
 20
0.8394913403
 40
7.0904526924
100
AcDbArc
 50
1.4261085684
 51
1.5441909543
  0
ARC
  5
367
100
AcDbEntity
  8
0
100
AcDbCircle
 62
7
  6
CONTINUOUS
 10
-3.846310539
 20
0.8168032163
 40
7.0365231374
100
AcDbArc
 50
1.4671405947
 51
1.5920273797
  0
ARC
  5
368
100
AcDbEntity
  8
0
100
AcDbCircle
 62
7
  6
CONTINUOUS
 10
-3.4325030485
 20
0.851250295
 40
6.635300444
100
AcDbArc
 50
1.4222695408
 51
1.5484609203
  0
ARC
  5
369
100
AcDbEntity
  8
0
100
AcDbCircle
 62
7
  6
CONTINUOUS
 10
-2.766304356
 20
0.8345876488
 40
6.5354210736
100
AcDbArc
 50
1.5970462556
 51
1.7749562868
  0
ARC
  5
36A
100
AcDbEntity
  8
0
100
AcDbCircle
 62
7
  6
CONTINUOUS
 10
-3.1012694054
 20
0.8364091136
 40
6.3162150945
100
AcDbArc
 50
1.5245966605
 51
1.6544040878
  0
ARC
  5
36B
100
AcDbEntity
  8
0
100
AcDbCircle
 62
7
  6
CONTINUOUS
 10
-2.7257860875
 20
0.8469152012
 40
5.9374612952
100
AcDbArc
 50
1.5204673491
 51
1.6585542659
  0
ARC
  5
36C
100
AcDbEntity
  8
0
100
AcDbCircle
 62
7
  6
CONTINUOUS
 10
-1.8061164252
 20
0.8541049103
 40
5.5750621534
100
AcDbArc
 50
1.3980833718
 51
1.5685635985
  0
ARC
  5
36D
100
AcDbEntity
  8
0
100
AcDbCircle
 62
7
  6
CONTINUOUS
 10
-1.5209624363
 20
0.8712821716
 40
5.2824263522
100
AcDbArc
 50
1.638966276
 51
1.7952588114
  0
ARC
  5
36E
100
AcDbEntity
  8
0
100
AcDbCircle
 62
7
  6
CONTINUOUS
 10
-1.9441227707
 20
0.8698067924
 40
5.1304732638
100
AcDbArc
 50
1.5914450133
 51
1.7483344522
  0
ARC
  5
36F
100
AcDbEntity
  8
0
100
AcDbCircle
 62
7
  6
CONTINUOUS
 10
-1.7058330947
 20
0.8766871341
 40
4.8952082256
100
AcDbArc
 50
1.5874287809
 51
1.7387739214
  0
ARC
  5
370
100
AcDbEntity
  8
0
100
AcDbCircle
 62
7
  6
CONTINUOUS
 10
-1.661540083
 20
0.899386304
 40
4.8593611914
100
AcDbArc
 50
1.5468847735
 51
1.7042529452
  0
ARC
  5
371
100
AcDbEntity
  8
0
100
AcDbCircle
 62
7
  6
CONTINUOUS
 10
-1.6362402866
 20
0.8993590128
 40
4.8590623394
100
AcDbArc
 50
1.5473018861
 51
1.704679742
  0
ARC
  5
372
100
AcDbEntity
  8
0
100
AcDbCircle
 62
7
  6
CONTINUOUS
 10
-1.0698361997
 20
0.894822188
 40
4.2839422642
100
AcDbArc
 50
1.6578861348
 51
1.8322458936
  0
ARC
  5
373
100
AcDbEntity
  8
0
100
AcDbCircle
 62
7
  6
CONTINUOUS
 10
-0.786064139
 20
0.903562996
 40
3.9969124387
100
AcDbArc
 50
1.6516401844
 51
1.8385195466
  0
ARC
  5
374
100
AcDbEntity
  8
0
100
AcDbCircle
 62
7
  6
CONTINUOUS
 10
0.1163258424
 20
0.9223571214
 40
3.6443416558
100
AcDbArc
 50
1.7990818891
 51
2.0038664003
  0
ARC
  5
375
100
AcDbEntity
  8
0
100
AcDbCircle
 62
7
  6
CONTINUOUS
 10
-0.1751676835
 20
0.9235402724
 40
3.3607022947
100
AcDbArc
 50
1.7527908956
 51
1.9677665955
  0
ARC
  5
376
100
AcDbEntity
  8
0
100
AcDbCircle
 62
7
  6
CONTINUOUS
 10
3.6110779217
 20
-6.1877084216
 40
7.327719809
100
AcDbArc
 50
91.5925611478
 51
91.807174208
  0
ARC
  5
377
100
AcDbEntity
  8
0
100
AcDbCircle
 62
7
  6
CONTINUOUS
 10
3.5833610317
 20
-5.2188113335
 40
6.361030722
100
AcDbArc
 50
91.5848947312
 51
91.9174378781
  0
ARC
  5
378
100
AcDbEntity
  8
0
100
AcDbCircle
 62
7
  6
CONTINUOUS
 10
3.804423332
 20
-0.1935432179
 40
1.5
100
AcDbArc
 50
19.4944839556
 51
33.074218907
  0
ARC
  5
379
100
AcDbEntity
  8
0
100
AcDbCircle
 62
7
  6
CONTINUOUS
 10
1.5989376102
 20
0.8895905369
 40
1.2346148946
100
AcDbArc
 50
2.3237262673
 51
2.6654274795
  0
ARC
  5
37A
100
AcDbEntity
  8
0
100
AcDbCircle
 62
7
  6
CONTINUOUS
 10
1.5994094797
 20
0.8896069508
 40
1.234142758
100
AcDbArc
 50
2.3245106628
 51
2.666646059
  0
ARC
  5
37B
100
AcDbEntity
  8
0
100
AcDbCircle
 62
7
  6
CONTINUOUS
 10
1.6060615029
 20
0.8899726874
 40
1.2274809235
100
AcDbArc
 50
2.6640388596
 51
3.6983725671
  0
ARC
  5
37C
100
AcDbEntity
  8
0
100
AcDbCircle
 62
7
  6
CONTINUOUS
 10
1.6175827241
 20
0.8903881737
 40
1.2159527728
100
AcDbArc
 50
357.6787187993
 51
2.3217941371
  0
ARC
  5
37D
100
AcDbEntity
  8
0
100
AcDbCircle
 62
7
  6
CONTINUOUS
 10
1.6323380753
 20
0.8893135729
 40
1.2011622616
100
AcDbArc
 50
356.5305896824
 51
356.760134887
  0
ARC
  5
37E
100
AcDbEntity
  8
0
100
AcDbCircle
 62
7
  6
CONTINUOUS
 10
1.632999961
 20
0.8892641529
 40
1.2004987434
100
AcDbArc
 50
356.5326658846
 51
356.7620991068
  0
ARC
  5
37F
100
AcDbEntity
  8
0
100
AcDbCircle
 62
7
  6
CONTINUOUS
 10
3.8816728724
 20
0.7387963364
 40
0.6995115203
100
AcDbArc
 50
182.6010284695
 51
183.1946397655
  0
ARC
  5
380
100
AcDbEntity
  8
0
100
AcDbCircle
 62
7
  6
CONTINUOUS
 10
3.3533469758
 20
0.7028105237
 40
0.4633658339
100
AcDbArc
 50
93.172110971
 51
93.3187431597
  0
ARC
  5
381
100
AcDbEntity
  8
0
100
AcDbCircle
 62
7
  6
CONTINUOUS
 10
3.4777059203
 20
0.843078865
 40
0.3023842899
100
AcDbArc
 50
103.4408898964
 51
104.6337542447
  0
ARC
  5
382
100
AcDbEntity
  8
0
100
AcDbCircle
 62
7
  6
CONTINUOUS
 10
3.4514361743
 20
0.8719854505
 40
0.2725612403
100
AcDbArc
 50
78.536006224
 51
79.1877717587
  0
ARC
  5
383
100
AcDbEntity
  8
0
100
AcDbCircle
 62
7
  6
CONTINUOUS
 10
3.0269645911
 20
0.8903852756
 40
0.2114439503
100
AcDbArc
 50
180.7108410055
 51
182.1336199973
  0
ARC
  5
384
100
AcDbEntity
  8
0
100
AcDbCircle
 62
7
  6
CONTINUOUS
 10
3.0269597387
 20
0.8903851551
 40
0.2114390967
100
AcDbArc
 50
179.9999914894
 51
180.7108410055
  0
ARC
  5
385
100
AcDbEntity
  8
0
100
AcDbCircle
 62
7
  6
CONTINUOUS
 10
2.9586568882
 20
0.674488538
 40
0.2107911923
100
AcDbArc
 50
22.6489578484
 51
23.0073028177
  0
ARC
  5
386
100
AcDbEntity
  8
0
100
AcDbCircle
 62
7
  6
CONTINUOUS
 10
2.9635392783
 20
0.6765232518
 40
0.2055017889
100
AcDbArc
 50
22.1301838739
 51
22.6496076871
  0
ARC
  5
387
100
AcDbEntity
  8
0
100
AcDbCircle
 62
7
  6
CONTINUOUS
 10
2.9695587529
 20
0.7228442134
 40
0.1989752226
100
AcDbArc
 50
336.9736997834
 51
339.9180053463
  0
ARC
  5
388
100
AcDbEntity
  8
0
100
AcDbCircle
 62
7
  6
CONTINUOUS
 10
2.9780991527
 20
0.6823460869
 40
0.1898210242
100
AcDbArc
 50
20.0312744568
 51
22.1576560353
  0
ARC
  5
389
100
AcDbEntity
  8
0
100
AcDbCircle
 62
7
  6
CONTINUOUS
 10
2.9963204755
 20
0.7129350351
 40
0.1704381337
100
AcDbArc
 50
339.9575705494
 51
343.2982538103
  0
ARC
  5
38A
100
AcDbEntity
  8
0
100
AcDbCircle
 62
7
  6
CONTINUOUS
 10
2.998256281
 20
0.6895846783
 40
0.1684038608
100
AcDbArc
 50
17.1765430016
 51
20.0665845499
  0
ARC
  5
38B
100
AcDbEntity
  8
0
100
AcDbCircle
 62
7
  6
CONTINUOUS
 10
3.0407594548
 20
0.7015682353
 40
0.1245086693
100
AcDbArc
 50
351.2226364687
 51
355.4802291398
  0
ARC
  5
38C
100
AcDbEntity
  8
0
100
AcDbCircle
 62
7
  6
CONTINUOUS
 10
2.9244575689
 20
0.8820688206
 40
0.1169083632
100
AcDbArc
 50
187.8105776897
 51
189.6061240395
  0
ARC
  5
38D
100
AcDbEntity
  8
0
100
AcDbCircle
 62
7
  6
CONTINUOUS
 10
3.048731224
 20
0.700945125
 40
0.1165125879
100
AcDbArc
 50
355.4767733147
 51
4.5221057579
  0
ARC
  5
38E
100
AcDbEntity
  8
0
100
AcDbCircle
 62
7
  6
CONTINUOUS
 10
2.8299926423
 20
0.8175381988
 40
0.0059
100
AcDbArc
 50
206.9106905226
 51
275.9164079043
  0
ARC
  5
38F
100
AcDbEntity
  8
0
100
AcDbCircle
 62
7
  6
CONTINUOUS
 10
5.2773508685
 20
0.3278881988
 40
0.0625
100
AcDbArc
 50
199.4944839556
 51
270.0
  0
ARC
  5
390
100
AcDbEntity
  8
0
100
AcDbCircle
 62
7
  6
CONTINUOUS
 10
6.9479567666
 20
0.8506014521
 40
3.7471962083
100
AcDbArc
 50
181.4087907035
 51
181.9046794488
  0
ARC
  5
391
100
AcDbEntity
  8
0
100
AcDbCircle
 62
7
  6
CONTINUOUS
 10
6.3792297957
 20
0.8514217633
 40
3.1871816123
100
AcDbArc
 50
181.8136618818
 51
181.9476695276
  0
ARC
  5
392
100
AcDbEntity
  8
0
100
AcDbCircle
 62
7
  6
CONTINUOUS
 10
6.3936477564
 20
0.8511446279
 40
3.1797196112
100
AcDbArc
 50
181.8209677799
 51
181.949008374
  0
ARC
  5
393
100
AcDbEntity
  8
0
100
AcDbCircle
 62
7
  6
CONTINUOUS
 10
6.5283629345
 20
0.828898108
 40
2.7636761932
100
AcDbArc
 50
181.8951866523
 51
182.1524664852
  0
ARC
  5
394
100
AcDbEntity
  8
0
100
AcDbCircle
 62
7
  6
CONTINUOUS
 10
5.9361916705
 20
0.8359282742
 40
2.7188876568
100
AcDbArc
 50
181.8088969278
 51
182.0564792104
  0
ARC
  5
395
100
AcDbEntity
  8
0
100
AcDbCircle
 62
7
  6
CONTINUOUS
 10
5.8948238799
 20
0.8355585684
 40
2.7056398141
100
AcDbArc
 50
181.8004670305
 51
182.0585319896
  0
ARC
  5
396
100
AcDbEntity
  8
0
100
AcDbCircle
 62
7
  6
CONTINUOUS
 10
5.4830884546
 20
0.7890750405
 40
1.7176436157
100
AcDbArc
 50
182.1345962571
 51
182.4950966981
  0
ARC
  5
397
100
AcDbEntity
  8
0
100
AcDbCircle
 62
7
  6
CONTINUOUS
 10
5.2825734653
 20
0.8002843434
 40
1.5569054148
100
AcDbArc
 50
182.2450618137
 51
182.6323223185
  0
ARC
  5
398
100
AcDbEntity
  8
0
100
AcDbCircle
 62
7
  6
CONTINUOUS
 10
4.7157390619
 20
0.7551123908
 40
0.9495433267
100
AcDbArc
 50
182.46343325
 51
183.0128312326
  0
ARC
  5
399
100
AcDbEntity
  8
0
100
AcDbCircle
 62
7
  6
CONTINUOUS
 10
5.1137426423
 20
0.6591520348
 40
0.0625
100
AcDbArc
 50
180.0
 51
213.0742189069
  0
ARC
  5
39A
100
AcDbEntity
  8
0
100
AcDbCircle
 62
7
  6
CONTINUOUS
 10
0.4755941379
 20
0.935553891
 40
3.2919507835
100
AcDbArc
 50
1.7661906251
 51
1.9943865117
  0
ARC
  5
39B
100
AcDbEntity
  8
0
100
AcDbCircle
 62
7
  6
CONTINUOUS
 10
0.7988173743
 20
0.9466909634
 40
2.9129707105
100
AcDbArc
 50
1.737120627
 51
2.1851560242
  0
ARC
  5
39C
100
AcDbEntity
  8
0
100
AcDbCircle
 62
7
  6
CONTINUOUS
 10
0.4193370357
 20
0.9421950443
 40
2.7940157544
100
AcDbArc
 50
1.8376823436
 51
2.0760782108
  0
ARC
  5
39D
100
AcDbEntity
  8
0
100
AcDbCircle
 62
7
  6
CONTINUOUS
 10
1.410232303
 20
0.9673858408
 40
2.3496519544
100
AcDbArc
 50
2.0097861178
 51
2.2903596204
  0
ARC
  5
39E
100
AcDbEntity
  8
0
100
AcDbCircle
 62
7
  6
CONTINUOUS
 10
0.8400656658
 20
0.9568431431
 40
2.3480500195
100
AcDbArc
 50
1.6960249823
 51
2.2728280821
  0
ARC
  5
39F
100
AcDbEntity
  8
0
100
AcDbCircle
 62
7
  6
CONTINUOUS
 10
1.0955263511
 20
0.9669349085
 40
2.089267549
100
AcDbArc
 50
1.9749817732
 51
2.277440853
  0
ARC
  5
3A0
100
AcDbEntity
  8
0
100
AcDbCircle
 62
7
  6
CONTINUOUS
 10
1.4447560345
 20
0.9008800774
 40
1.3891004793
100
AcDbArc
 50
356.3150059738
 51
356.5226018702
  0
ARC
  5
3A1
100
AcDbEntity
  8
0
100
AcDbCircle
 62
7
  6
CONTINUOUS
 10
1.4551372158
 20
0.9002271014
 40
1.3786989462
100
AcDbArc
 50
356.314317202
 51
356.5249429216
  0
ARC
  5
3A2
100
AcDbEntity
  8
0
100
AcDbCircle
 62
7
  6
CONTINUOUS
 10
1.595987791
 20
0.8913142388
 40
1.2375674949
100
AcDbArc
 50
357.3354423465
 51
357.6763739718
  0
ARC
  5
3A3
100
AcDbEntity
  8
0
100
AcDbCircle
 62
7
  6
CONTINUOUS
 10
1.5964043219
 20
0.8913000601
 40
1.2371507386
100
AcDbArc
 50
357.3345419884
 51
357.6759141842
  0
ARC
  5
3A4
100
AcDbEntity
  8
0
100
AcDbCircle
 62
7
  6
CONTINUOUS
 10
1.6028135215
 20
0.8909498204
 40
1.2307322039
100
AcDbArc
 50
356.7631238861
 51
357.3376167127
  0
ARC
  5
3A5
100
AcDbEntity
  8
0
100
AcDbCircle
 62
7
  6
CONTINUOUS
 10
1.6035549182
 20
0.8909201487
 40
1.2299902119
100
AcDbArc
 50
356.7611925948
 51
357.336729835
  0
ARC
  5
3A6
100
AcDbEntity
  8
0
100
AcDbCircle
 62
7
  6
CONTINUOUS
 10
1.6176014107
 20
0.8903882146
 40
1.2159341098
100
AcDbArc
 50
357.6783415991
 51
2.3224952996
  0
ARC
  5
3A7
100
AcDbEntity
  8
0
100
AcDbCircle
 62
7
  6
CONTINUOUS
 10
2.9735214571
 20
0.8903881988
 40
0.1666725773
100
AcDbArc
 50
189.6113601359
 51
206.9106905226
  0
ARC
  5
3A8
100
AcDbEntity
  8
0
100
AcDbCircle
 62
7
  6
CONTINUOUS
 10
2.9735214571
 20
0.8903881988
 40
0.1666725773
100
AcDbArc
 50
153.0893094774
 51
170.3886398641
  0
ARC
  5
3A9
100
AcDbEntity
  8
0
100
AcDbCircle
 62
7
  6
CONTINUOUS
 10
2.924458594
 20
0.8987073818
 40
0.1169094064
100
AcDbArc
 50
170.3938655149
 51
172.1893734251
  0
ARC
  5
3AA
100
AcDbEntity
  8
0
100
AcDbCircle
 62
7
  6
CONTINUOUS
 10
2.8299926423
 20
0.9632381988
 40
0.0059
100
AcDbArc
 50
94.1181448782
 51
153.0893094774
  0
ARC
  5
3AB
100
AcDbEntity
  8
0
100
AcDbCircle
 62
7
  6
CONTINUOUS
 10
2.8299926423
 20
0.9632381988
 40
0.0059
100
AcDbArc
 50
90.0
 51
94.1181448782
  0
ARC
  5
3AC
100
AcDbEntity
  8
0
100
AcDbCircle
 62
7
  6
CONTINUOUS
 10
2.1410830201
 20
0.9979807415
 40
1.5697255001
100
AcDbArc
 50
2.1824791199
 51
2.5286199379
  0
ARC
  5
3AD
100
AcDbEntity
  8
0
100
AcDbCircle
 62
7
  6
CONTINUOUS
 10
2.3516827487
 20
1.0048168284
 40
1.40745774
100
AcDbArc
 50
2.2994267016
 51
2.7017474001
  0
ARC
  5
3AE
100
AcDbEntity
  8
0
100
AcDbCircle
 62
7
  6
CONTINUOUS
 10
1.9729517248
 20
1.0016175744
 40
1.2111570229
100
AcDbArc
 50
2.2874787578
 51
2.7296284276
  0
ARC
  5
3AF
100
AcDbEntity
  8
0
100
AcDbCircle
 62
7
  6
CONTINUOUS
 10
2.0936090611
 20
1.0067668442
 40
1.093512911
100
AcDbArc
 50
2.2638426927
 51
2.7535414782
  0
ARC
  5
3B0
100
AcDbEntity
  8
0
100
AcDbCircle
 62
7
  6
CONTINUOUS
 10
2.7791081354
 20
1.0265677426
 40
0.9310605017
100
AcDbArc
 50
2.5033580787
 51
3.002700336
  0
ARC
  5
3B1
100
AcDbEntity
  8
0
100
AcDbCircle
 62
7
  6
CONTINUOUS
 10
2.6447602395
 20
1.0338079704
 40
0.541699291
100
AcDbArc
 50
2.697200159
 51
3.4980038442
  0
ARC
  5
3B2
100
AcDbEntity
  8
0
100
AcDbCircle
 62
7
  6
CONTINUOUS
 10
2.6623322225
 20
1.0504589574
 40
0.5370949182
100
AcDbArc
 50
2.6353023483
 51
3.4025410892
  0
ARC
  5
3B3
100
AcDbEntity
  8
0
100
AcDbCircle
 62
7
  6
CONTINUOUS
 10
2.9695587529
 20
1.1017303276
 40
0.1989752226
100
AcDbArc
 50
336.9736997834
 51
339.9180053463
  0
ARC
  5
3B4
100
AcDbEntity
  8
0
100
AcDbCircle
 62
7
  6
CONTINUOUS
 10
2.9744393429
 20
1.0598600457
 40
0.1937294485
100
AcDbArc
 50
20.0417861243
 51
23.0661676536
  0
ARC
  5
3B5
100
AcDbEntity
  8
0
100
AcDbCircle
 62
7
  6
CONTINUOUS
 10
3.2181290025
 20
1.0500199009
 40
0.4914140677
100
AcDbArc
 50
2.9534137702
 51
3.7326681374
  0
ARC
  5
3B6
100
AcDbEntity
  8
0
100
AcDbCircle
 62
7
  6
CONTINUOUS
 10
3.0268027496
 20
0.8903963537
 40
0.2112820262
100
AcDbArc
 50
177.866163817
 51
180.7110198398
  0
ARC
  5
3B7
100
AcDbEntity
  8
0
100
AcDbCircle
 62
7
  6
CONTINUOUS
 10
2.9963204755
 20
1.0918211492
 40
0.1704381337
100
AcDbArc
 50
339.9575705495
 51
343.2982538104
  0
ARC
  5
3B8
100
AcDbEntity
  8
0
100
AcDbCircle
 62
7
  6
CONTINUOUS
 10
3.0002417293
 20
1.0691436639
 40
0.1663080772
100
AcDbArc
 50
16.6595925081
 51
20.0835369705
  0
ARC
  5
3B9
100
AcDbEntity
  8
0
100
AcDbCircle
 62
7
  6
CONTINUOUS
 10
3.0407594548
 20
1.0804543495
 40
0.1245086693
100
AcDbArc
 50
351.2226364688
 51
355.4802291398
  0
ARC
  5
3BA
100
AcDbEntity
  8
0
100
AcDbCircle
 62
7
  6
CONTINUOUS
 10
3.0419913625
 20
1.079351765
 40
0.1232692832
100
AcDbArc
 50
4.497278752
 51
8.797611746
  0
ARC
  5
3BB
100
AcDbEntity
  8
0
100
AcDbCircle
 62
7
  6
CONTINUOUS
 10
3.048731224
 20
1.0798312392
 40
0.1165125879
100
AcDbArc
 50
355.4767733147
 51
4.5221057577
  0
ARC
  5
3BC
100
AcDbEntity
  8
0
100
AcDbCircle
 62
7
  6
CONTINUOUS
 10
3.3807000299
 20
1.265878647
 40
0.1498834022
100
AcDbArc
 50
132.3106666422
 51
135.0788626327
  0
ARC
  5
3BD
100
AcDbEntity
  8
0
100
AcDbCircle
 62
7
  6
CONTINUOUS
 10
3.5898791484
 20
1.3535860121
 40
0.0423285583
100
AcDbArc
 50
76.4027944561
 51
83.0126734277
  0
ARC
  5
3BE
100
AcDbEntity
  8
0
100
AcDbCircle
 62
7
  6
CONTINUOUS
 10
3.3200974788
 20
1.2286468566
 40
0.0422843342
100
AcDbArc
 50
256.4885643889
 51
263.0554984707
  0
ARC
  5
3BF
100
AcDbEntity
  8
0
100
AcDbCircle
 62
7
  6
CONTINUOUS
 10
3.5902761891
 20
1.3565383083
 40
0.0393499042
100
AcDbArc
 50
83.0635565247
 51
89.9520629622
  0
ARC
  5
3C0
100
AcDbEntity
  8
0
100
AcDbCircle
 62
7
  6
CONTINUOUS
 10
3.3197084815
 20
1.2257359938
 40
0.0393478083
100
AcDbArc
 50
263.1052943602
 51
269.9529542737
  0
ARC
  5
3C1
100
AcDbEntity
  8
0
100
AcDbCircle
 62
7
  6
CONTINUOUS
 10
5.5609926423
 20
0.8903881988
 40
2.7315
100
AcDbArc
 50
170.0350404138
 51
178.2692217547
  0
ARC
  5
3C2
100
AcDbEntity
  8
0
100
AcDbCircle
 62
7
  6
CONTINUOUS
 10
5.5609926423
 20
0.8903881988
 40
2.7315
100
AcDbArc
 50
181.7307782453
 51
189.9649595851
  0
ARC
  5
3C3
100
AcDbEntity
  8
0
100
AcDbCircle
 62
7
  6
CONTINUOUS
 10
5.1137426423
 20
1.1216243628
 40
0.0625
100
AcDbArc
 50
146.9257810931
 51
180.0
  0
ARC
  5
3C4
100
AcDbEntity
  8
0
100
AcDbCircle
 62
7
  6
CONTINUOUS
 10
3.804423332
 20
1.9743196154
 40
1.5
100
AcDbArc
 50
326.925781093
 51
340.5055160444
  0
ARC
  5
3C5
100
AcDbEntity
  8
0
100
AcDbCircle
 62
7
  6
CONTINUOUS
 10
3.5409119283
 20
1.9123059952
 40
0.7577342125
100
AcDbArc
 50
272.6224017401
 51
273.1248273493
  0
ARC
  5
3C6
100
AcDbEntity
  8
0
100
AcDbCircle
 62
7
  6
CONTINUOUS
 10
3.5441308126
 20
1.8711579425
 40
0.6956698647
100
AcDbArc
 50
272.6900237998
 51
273.1521733653
  0
ARC
  5
3C7
100
AcDbEntity
  8
0
100
AcDbCircle
 62
7
  6
CONTINUOUS
 10
3.5559401995
 20
1.6516873186
 40
0.4758820023
100
AcDbArc
 50
273.1854930252
 51
273.3155518412
  0
ARC
  5
3C8
100
AcDbEntity
  8
0
100
AcDbCircle
 62
7
  6
CONTINUOUS
 10
3.4256995085
 20
1.4622381719
 40
0.3290298149
100
AcDbArc
 50
283.5100653946
 51
287.1794300734
  0
ARC
  5
3C9
100
AcDbEntity
  8
0
100
AcDbCircle
 62
7
  6
CONTINUOUS
 10
5.2773508685
 20
1.4528881988
 40
0.0625
100
AcDbArc
 50
90.0
 51
160.5055160444
  0
ARC
  5
3CA
100
AcDbEntity
  8
0
100
AcDbCircle
 62
7
  6
CONTINUOUS
 10
7.7384862568
 20
0.8733406573
 40
4.5337248283
100
AcDbArc
 50
181.4519399878
 51
181.8616565787
  0
ARC
  5
3CB
100
AcDbEntity
  8
0
100
AcDbCircle
 62
7
  6
CONTINUOUS
 10
7.6480685567
 20
0.8701280772
 40
4.4225849708
100
AcDbArc
 50
181.44665536
 51
181.8668147922
  0
ARC
  5
3CC
100
AcDbEntity
  8
0
100
AcDbCircle
 62
7
  6
CONTINUOUS
 10
8.0938364179
 20
0.8809707444
 40
4.3300154731
100
AcDbArc
 50
181.5496341384
 51
181.8987863673
  0
ARC
  5
3CD
100
AcDbEntity
  8
0
100
AcDbCircle
 62
7
  6
CONTINUOUS
 10
7.4614513585
 20
0.8856533751
 40
4.2730678636
100
AcDbArc
 50
181.6286098
 51
181.8118422426
  0
ARC
  5
3CE
100
AcDbEntity
  8
0
100
AcDbCircle
 62
7
  6
CONTINUOUS
 10
7.4165169529
 20
0.8834370491
 40
4.1999749784
100
AcDbArc
 50
181.6401266574
 51
181.8192266978
  0
ARC
  5
3CF
100
AcDbEntity
  8
0
100
AcDbCircle
 62
7
  6
CONTINUOUS
 10
13.580152217
 20
1.0398277242
 40
9.8670735363
100
AcDbArc
 50
181.3473767534
 51
181.713519754
  0
ARC
  5
3D0
100
AcDbEntity
  8
0
100
AcDbCircle
 62
7
  6
CONTINUOUS
 10
9.9037009832
 20
0.9553328553
 40
6.7131875524
100
AcDbArc
 50
181.5034113175
 51
181.6314208899
  0
ARC
  5
3D1
100
AcDbEntity
  8
0
100
AcDbCircle
 62
7
  6
CONTINUOUS
 10
9.6838173813
 20
0.9487342922
 40
6.4713391725
100
AcDbArc
 50
181.5153179263
 51
181.642664326
  0
ARC
  5
3D2
100
AcDbEntity
  8
0
100
AcDbCircle
 62
7
  6
CONTINUOUS
 10
9.5079536134
 20
0.9445893623
 40
6.320418481
100
AcDbArc
 50
181.4994364278
 51
181.63539961
  0
ARC
  5
3D3
100
AcDbEntity
  8
0
100
AcDbCircle
 62
7
  6
CONTINUOUS
 10
9.3237435674
 20
0.9387224809
 40
6.1080026315
100
AcDbArc
 50
181.5115367265
 51
181.6464557574
  0
ARC
  5
3D4
100
AcDbEntity
  8
0
100
AcDbCircle
 62
7
  6
CONTINUOUS
 10
8.9142490378
 20
0.9080723849
 40
5.7349837373
100
AcDbArc
 50
181.3696864854
 51
181.8187473743
  0
ARC
  5
3D5
100
AcDbEntity
  8
0
100
AcDbCircle
 62
7
  6
CONTINUOUS
 10
7.7705726976
 20
0.8948432482
 40
4.5792018044
100
AcDbArc
 50
181.6347327092
 51
181.8057166791
  0
ARC
  5
3D6
100
AcDbEntity
  8
0
100
AcDbCircle
 62
7
  6
CONTINUOUS
 10
7.7002834299
 20
0.8921005124
 40
4.4869969058
100
AcDbArc
 50
181.6458493174
 51
181.8134958262
  0
ARC
  5
3D7
100
AcDbEntity
  8
0
100
AcDbCircle
 62
7
  6
CONTINUOUS
 10
27.405672546
 20
1.3348876802
 40
24.2063365276
100
AcDbArc
 50
181.0899184347
 51
181.3348578799
  0
ARC
  5
3D8
100
AcDbEntity
  8
0
100
AcDbCircle
 62
7
  6
CONTINUOUS
 10
27.732493907
 20
1.3828249852
 40
23.975103237
100
AcDbArc
 50
181.2260343404
 51
181.4360775086
  0
ARC
  5
3D9
100
AcDbEntity
  8
0
100
AcDbCircle
 62
7
  6
CONTINUOUS
 10
26.8860210054
 20
1.3225515938
 40
23.6658688485
100
AcDbArc
 50
181.0849236544
 51
181.3354428467
  0
ARC
  5
3DA
100
AcDbEntity
  8
0
100
AcDbCircle
 62
7
  6
CONTINUOUS
 10
22.847233203
 20
1.2376603171
 40
19.6511935403
100
AcDbArc
 50
181.0590398884
 51
181.3607394707
  0
ARC
  5
3DB
100
AcDbEntity
  8
0
100
AcDbCircle
 62
7
  6
CONTINUOUS
 10
22.0605375028
 20
1.2579684413
 40
18.8737864913
100
AcDbArc
 50
181.1830164181
 51
181.4535614551
  0
ARC
  5
3DC
100
AcDbEntity
  8
0
100
AcDbCircle
 62
7
  6
CONTINUOUS
 10
22.0570481658
 20
1.2579598754
 40
18.8734220539
100
AcDbArc
 50
181.1830182894
 51
181.4535644043
  0
ARC
  5
3DD
100
AcDbEntity
  8
0
100
AcDbCircle
 62
7
  6
CONTINUOUS
 10
20.8815827832
 20
1.2297895234
 40
17.6726273973
100
AcDbArc
 50
181.1887363189
 51
181.4661713211
  0
ARC
  5
3DE
100
AcDbEntity
  8
0
100
AcDbCircle
 62
7
  6
CONTINUOUS
 10
20.8842051837
 20
1.2297777243
 40
17.6721246597
100
AcDbArc
 50
181.1887386827
 51
181.4661770837
  0
ARC
  5
3DF
100
AcDbEntity
  8
0
100
AcDbCircle
 62
7
  6
CONTINUOUS
 10
3.5208455014
 20
2.3750686441
 40
1.2001181897
100
AcDbArc
 50
272.2883308131
 51
272.6713973582
  0
ARC
  5
3E0
100
AcDbEntity
  8
0
100
AcDbCircle
 62
7
  6
CONTINUOUS
 10
3.3444214613
 20
10.5289515602
 40
0.2602026422
100
AcDbArc
 50
97.1913489534
 51
97.8242706555
  0
ARC
  5
3E1
100
AcDbEntity
  8
0
100
AcDbCircle
 62
7
  6
CONTINUOUS
 10
3.565563839
 20
10.5289516426
 40
0.2602025597
100
AcDbArc
 50
82.1757186272
 51
82.8086664693
  0
ARC
  5
3E2
100
AcDbEntity
  8
0
100
AcDbCircle
 62
7
  6
CONTINUOUS
 10
3.5631713952
 20
10.5289519511
 40
0.2602022507
100
AcDbArc
 50
97.1914184197
 51
97.8242318239
  0
ARC
  5
3E3
100
AcDbEntity
  8
0
100
AcDbCircle
 62
7
  6
CONTINUOUS
 10
3.3468138916
 20
10.5289520463
 40
0.2602021566
100
AcDbArc
 50
82.1756326024
 51
82.808594663
  0
ARC
  5
3E4
100
AcDbEntity
  8
0
100
AcDbCircle
 62
7
  6
CONTINUOUS
 10
3.3439343595
 20
10.5323905607
 40
0.2567293465
100
AcDbArc
 50
97.8210574024
 51
101.0887533929
  0
ARC
  5
3E5
100
AcDbEntity
  8
0
100
AcDbCircle
 62
7
  6
CONTINUOUS
 10
3.5626843241
 20
10.5323907481
 40
0.2567291608
100
AcDbArc
 50
97.8210186562
 51
101.0886324459
  0
ARC
  5
3E6
100
AcDbEntity
  8
0
100
AcDbCircle
 62
7
  6
CONTINUOUS
 10
3.5662310591
 20
10.5334722091
 40
0.2556332504
100
AcDbArc
 50
78.9043100123
 51
82.185938899
  0
ARC
  5
3E7
100
AcDbEntity
  8
0
100
AcDbCircle
 62
7
  6
CONTINUOUS
 10
3.3474810612
 20
10.5334722465
 40
0.255633217
100
AcDbArc
 50
78.9044359896
 51
82.1858513028
  0
ARC
  5
3E8
100
AcDbEntity
  8
0
100
AcDbCircle
 62
7
  6
CONTINUOUS
 10
3.3421651652
 20
10.5415032122
 40
0.2474465568
100
AcDbArc
 50
101.0925660803
 51
103.5928218678
  0
ARC
  5
3E9
100
AcDbEntity
  8
0
100
AcDbCircle
 62
7
  6
CONTINUOUS
 10
3.567820139
 20
10.5415033348
 40
0.2474464343
100
AcDbArc
 50
76.4071443422
 51
78.9075054314
  0
ARC
  5
3EA
100
AcDbEntity
  8
0
100
AcDbCircle
 62
7
  6
CONTINUOUS
 10
3.3490702203
 20
10.541503815
 40
0.2474459511
100
AcDbArc
 50
76.4068897878
 51
78.9076338154
  0
ARC
  5
3EB
100
AcDbEntity
  8
0
100
AcDbCircle
 62
7
  6
CONTINUOUS
 10
3.5609150567
 20
10.5415038321
 40
0.2474459327
100
AcDbArc
 50
101.0924432671
 51
103.5930347416
  0
ARC
  5
3EC
100
AcDbEntity
  8
0
100
AcDbCircle
 62
7
  6
CONTINUOUS
 10
3.3506587308
 20
10.5481727447
 40
0.2405904841
100
AcDbArc
 50
75.0305430297
 51
76.4013286983
  0
ARC
  5
3ED
100
AcDbEntity
  8
0
100
AcDbCircle
 62
7
  6
CONTINUOUS
 10
3.5593264819
 20
10.5481730303
 40
0.2405901895
100
AcDbArc
 50
103.5985938378
 51
104.9697037607
  0
ARC
  5
3EE
100
AcDbEntity
  8
0
100
AcDbCircle
 62
7
  6
CONTINUOUS
 10
3.5694088645
 20
10.5481731941
 40
0.2405900131
100
AcDbArc
 50
75.0299502435
 51
76.4015882227
  0
ARC
  5
3EF
100
AcDbEntity
  8
0
100
AcDbCircle
 62
7
  6
CONTINUOUS
 10
3.3405763426
 20
10.5481734637
 40
0.2405897315
100
AcDbArc
 50
103.5983764954
 51
104.9703023588
  0
ARC
  5
3F0
100
AcDbEntity
  8
0
100
AcDbCircle
 62
7
  6
CONTINUOUS
 10
3.5706252804
 20
10.5523166514
 40
0.2363131708
100
AcDbArc
 50
72.9791207723
 51
78.0431340722
  0
ARC
  5
3F1
100
AcDbEntity
  8
0
100
AcDbCircle
 62
7
  6
CONTINUOUS
 10
3.5576314517
 20
10.5544625211
 40
0.2340763081
100
AcDbArc
 50
104.9665516185
 51
108.0511858218
  0
ARC
  5
3F2
100
AcDbEntity
  8
0
100
AcDbCircle
 62
7
  6
CONTINUOUS
 10
3.3388811491
 20
10.554463388
 40
0.234075389
100
AcDbArc
 50
104.9671556663
 51
108.0509800167
  0
ARC
  5
3F3
100
AcDbEntity
  8
0
100
AcDbCircle
 62
7
  6
CONTINUOUS
 10
3.3384412847
 20
10.5558719315
 40
0.2326447499
100
AcDbArc
 50
101.9169115866
 51
107.0608310038
  0
ARC
  5
3F4
100
AcDbEntity
  8
0
100
AcDbCircle
 62
7
  6
CONTINUOUS
 10
3.3528185016
 20
10.5560303497
 40
0.2324416668
100
AcDbArc
 50
71.9378955634
 51
75.0445500049
  0
ARC
  5
3F5
100
AcDbEntity
  8
0
100
AcDbCircle
 62
7
  6
CONTINUOUS
 10
3.571568679
 20
10.5560308118
 40
0.2324411716
100
AcDbArc
 50
71.9381139723
 51
75.0439460657
  0
ARC
  5
3F6
100
AcDbEntity
  8
0
100
AcDbCircle
 62
7
  6
CONTINUOUS
 10
3.5543619039
 20
10.564582968
 40
0.2234408671
100
AcDbArc
 50
108.0582033047
 51
112.3018768561
  0
ARC
  5
3F7
100
AcDbEntity
  8
0
100
AcDbCircle
 62
7
  6
CONTINUOUS
 10
3.3356118755
 20
10.5645829995
 40
0.2234408272
100
AcDbArc
 50
108.0579881627
 51
112.3018731662
  0
ARC
  5
3F8
100
AcDbEntity
  8
0
100
AcDbCircle
 62
7
  6
CONTINUOUS
 10
3.35628741
 20
10.5663896851
 40
0.2215173187
100
AcDbArc
 50
67.6796899626
 51
71.960159276
  0
ARC
  5
3F9
100
AcDbEntity
  8
0
100
AcDbCircle
 62
7
  6
CONTINUOUS
 10
3.5750374325
 20
10.5663897282
 40
0.2215172702
100
AcDbArc
 50
67.6796911155
 51
71.9603839718
  0
ARC
  5
3FA
100
AcDbEntity
  8
0
100
AcDbCircle
 62
7
  6
CONTINUOUS
 10
3.5763668227
 20
10.5716020217
 40
0.2161919259
100
AcDbArc
 50
67.480987197
 51
72.9379985673
  0
ARC
  5
3FB
100
AcDbEntity
  8
0
100
AcDbCircle
 62
7
  6
CONTINUOUS
 10
3.3326369961
 20
10.5743296432
 40
0.2132964318
100
AcDbArc
 50
107.024939545
 51
112.5560878963
  0
SPLINE
  5
3FC
100
AcDbEntity
  8
0
100
AcDbSpline
 62
7
  6
CONTINUOUS
 70
0
 71
3
 72
18
 73
14
 74
0
 42
0.0000001
 43
0.0000001
 44
0.0000000001
 40
0.0
 40
0.0
 40
0.0
 40
0.0
 40
0.1991915154
 40
0.3862004021
 40
0.554403308
 40
0.6992926483
 40
0.8169970377
 40
0.8646669462
 40
0.9047458936
 40
0.9374047256
 40
0.9631181708
 40
0.9830753858
 40
1.0
 40
1.0
 40
1.0
 40
1.0
 10
2.8086337918
 20
0.866181152
 30
0.0
 10
2.8084820236
 20
0.8672877544
 30
0.0
 10
2.8082184339
 20
0.8694376558
 30
0.0
 10
2.8079380492
 20
0.8725343484
 30
0.0
 10
2.8077939838
 20
0.8753359796
 30
0.0
 10
2.8077877904
 20
0.8777524344
 30
0.0
 10
2.8078973382
 20
0.8794915965
 30
0.0
 10
2.8080734388
 20
0.8806310264
 30
0.0
 10
2.8082288809
 20
0.881288948
 30
0.0
 10
2.8084146235
 20
0.8818107274
 30
0.0
 10
2.8086303587
 20
0.8821962885
 30
0.0
 10
2.8088842299
 20
0.8824506909
 30
0.0
 10
2.8090935664
 20
0.8825131988
 30
0.0
 10
2.8091884707
 20
0.8825131988
 30
0.0
  0
SPLINE
  5
3FD
100
AcDbEntity
  8
0
100
AcDbSpline
 62
7
  6
CONTINUOUS
 70
0
 71
3
 72
13
 73
9
 74
0
 42
0.0000001
 43
0.0000001
 44
0.0000000001
 40
0.0
 40
0.0
 40
0.0
 40
0.0
 40
0.0685086871
 40
0.1434940785
 40
0.2330300952
 40
0.3417168236
 40
0.6244613068
 40
1.0
 40
1.0
 40
1.0
 40
1.0
 10
2.8091884707
 20
0.8982631988
 30
0.0
 10
2.8091169176
 20
0.8982631988
 30
0.0
 10
2.8089653537
 20
0.8982955597
 30
0.0
 10
2.8087625645
 20
0.8984383477
 30
0.0
 10
2.8085823857
 20
0.8986627036
 30
0.0
 10
2.8083458695
 20
0.8991080581
 30
0.0
 10
2.8081162365
 20
0.8998815914
 30
0.0
 10
2.8080058041
 20
0.9005606973
 30
0.0
 10
2.8079576683
 20
0.9009499595
 30
0.0
  0
SPLINE
  5
3FE
100
AcDbEntity
  8
0
100
AcDbSpline
 62
7
  6
CONTINUOUS
 70
0
 71
3
 72
9
 73
5
 74
0
 42
0.0000001
 43
0.0000001
 44
0.0000000001
 40
0.0
 40
0.0
 40
0.0
 40
0.0
 40
0.4345692739
 40
1.0
 40
1.0
 40
1.0
 40
1.0
 10
2.8079576683
 20
0.9009499595
 30
0.0
 10
2.8078277716
 20
0.9020004019
 30
0.0
 10
2.8077517009
 20
0.9044423352
 30
0.0
 10
2.8078599532
 20
0.9068758748
 30
0.0
 10
2.8079580347
 20
0.9082495492
 30
0.0
  0
LINE
  5
3FF
100
AcDbEntity
  8
0
100
AcDbLine
 62
7
  6
CONTINUOUS
 10
2.8079580347
 20
0.9082495492
 11
2.8086337968
 21
0.914595291
  0
SPLINE
  5
400
100
AcDbEntity
  8
0
100
AcDbSpline
 62
7
  6
CONTINUOUS
 70
0
 71
3
 72
9
 73
5
 74
0
 42
0.0000001
 43
0.0000001
 44
0.0000000001
 40
0.0
 40
0.0
 40
0.0
 40
0.0
 40
0.2523151354
 40
1.0
 40
1.0
 40
1.0
 40
1.0
 10
3.1595684612
 20
0.6639528691
 30
0.0
 10
3.1600284809
 20
0.6654921112
 30
0.0
 10
3.161758231
 20
0.6716198234
 30
0.0
 10
3.163084429
 20
0.6778638226
 30
0.0
 10
3.1638099714
 20
0.6825687858
 30
0.0
  0
SPLINE
  5
401
100
AcDbEntity
  8
0
100
AcDbSpline
 62
7
  6
CONTINUOUS
 70
0
 71
3
 72
9
 73
5
 74
0
 42
0.0000001
 43
0.0000001
 44
0.0000000001
 40
0.0
 40
0.0
 40
0.0
 40
0.0
 40
0.2486176175
 40
1.0
 40
1.0
 40
1.0
 40
1.0
 10
3.1648811068
 20
0.7101314107
 30
0.0
 10
3.1647600322
 20
0.7116743277
 30
0.0
 10
3.1641535064
 20
0.7178705881
 30
0.0
 10
3.1630787762
 20
0.7240191178
 30
0.0
 10
3.1620385675
 20
0.7285793871
 30
0.0
  0
SPLINE
  5
402
100
AcDbEntity
  8
0
100
AcDbSpline
 62
7
  6
CONTINUOUS
 70
0
 71
3
 72
9
 73
5
 74
0
 42
0.0000001
 43
0.0000001
 44
0.0000000001
 40
0.0
 40
0.0
 40
0.0
 40
0.0
 40
0.2486527362
 40
1.0
 40
1.0
 40
1.0
 40
1.0
 10
3.1620385675
 20
0.7285793871
 30
0.0
 10
3.1618335733
 20
0.7294780805
 30
0.0
 10
3.1609727442
 20
0.733083973
 30
0.0
 10
3.1599710628
 20
0.7366558906
 30
0.0
 10
3.1591492194
 20
0.7393171899
 30
0.0
  0
SPLINE
  5
403
100
AcDbEntity
  8
0
100
AcDbSpline
 62
7
  6
CONTINUOUS
 70
0
 71
3
 72
12
 73
8
 74
0
 42
0.0000001
 43
0.0000001
 44
0.0000000001
 40
0.0
 40
0.0
 40
0.0
 40
0.0
 40
0.0864728354
 40
0.1867528229
 40
0.4249534851
 40
0.7025195076
 40
1.0
 40
1.0
 40
1.0
 40
1.0
 10
3.1526807044
 20
0.756875949
 30
0.0
 10
3.1524339401
 20
0.757457101
 30
0.0
 10
3.1520109244
 20
0.7587591097
 30
0.0
 10
3.1514023509
 20
0.761806126
 30
0.0
 10
3.1511545541
 20
0.7663181382
 30
0.0
 10
3.1515447059
 20
0.7722515172
 30
0.0
 10
3.152229625
 20
0.7764019193
 30
0.0
 10
3.1526807044
 20
0.7785265841
 30
0.0
  0
SPLINE
  5
404
100
AcDbEntity
  8
0
100
AcDbSpline
 62
7
  6
CONTINUOUS
 70
0
 71
3
 72
11
 73
7
 74
0
 42
0.0000001
 43
0.0000001
 44
0.0000000001
 40
0.0
 40
0.0
 40
0.0
 40
0.0
 40
0.2500038614
 40
0.499999991
 40
0.7499961232
 40
1.0
 40
1.0
 40
1.0
 40
1.0
 10
3.1526807044
 20
0.7785265841
 30
0.0
 10
3.156582419
 20
0.796904361
 30
0.0
 10
3.1629351888
 20
0.8340014807
 30
0.0
 10
3.1663981053
 20
0.8903881969
 30
0.0
 10
3.1629351898
 20
0.9467749144
 30
0.0
 10
3.1565824193
 20
0.9838720354
 30
0.0
 10
3.1526807044
 20
1.0022498134
 30
0.0
  0
SPLINE
  5
405
100
AcDbEntity
  8
0
100
AcDbSpline
 62
7
  6
CONTINUOUS
 70
0
 71
3
 72
12
 73
8
 74
0
 42
0.0000001
 43
0.0000001
 44
0.0000000001
 40
0.0
 40
0.0
 40
0.0
 40
0.0
 40
0.2974819977
 40
0.5750493611
 40
0.813248585
 40
0.9135276012
 40
1.0
 40
1.0
 40
1.0
 40
1.0
 10
3.1526807044
 20
1.0022498134
 30
0.0
 10
3.1522296227
 20
1.0043744891
 30
0.0
 10
3.1515447242
 20
1.0085249161
 30
0.0
 10
3.1511545566
 20
1.0144583026
 30
0.0
 10
3.1514023343
 20
1.0189703101
 30
0.0
 10
3.1520109203
 20
1.0220173037
 30
0.0
 10
3.1524339414
 20
1.0233192994
 30
0.0
 10
3.1526807044
 20
1.0239004485
 30
0.0
  0
SPLINE
  5
406
100
AcDbEntity
  8
0
100
AcDbSpline
 62
7
  6
CONTINUOUS
 70
0
 71
3
 72
9
 73
5
 74
0
 42
0.0000001
 43
0.0000001
 44
0.0000000001
 40
0.0
 40
0.0
 40
0.0
 40
0.0
 40
0.2523151354
 40
1.0
 40
1.0
 40
1.0
 40
1.0
 10
3.1595684612
 20
1.0428389833
 30
0.0
 10
3.1600284809
 20
1.0443782254
 30
0.0
 10
3.161758231
 20
1.0505059376
 30
0.0
 10
3.163084429
 20
1.0567499368
 30
0.0
 10
3.1638099714
 20
1.0614549
 30
0.0
  0
SPLINE
  5
407
100
AcDbEntity
  8
0
100
AcDbSpline
 62
7
  6
CONTINUOUS
 70
0
 71
3
 72
9
 73
5
 74
0
 42
0.0000001
 43
0.0000001
 44
0.0000000001
 40
0.0
 40
0.0
 40
0.0
 40
0.0
 40
0.2480012512
 40
1.0
 40
1.0
 40
1.0
 40
1.0
 10
3.1638103527
 20
1.0982051416
 30
0.0
 10
3.1635697135
 20
1.099765832
 30
0.0
 10
3.1624833039
 20
1.1060408061
 30
0.0
 10
3.1609400706
 20
1.112233868
 30
0.0
 10
3.1595690109
 20
1.1168216867
 30
0.0
  0
SPLINE
  5
408
100
AcDbEntity
  8
0
100
AcDbSpline
 62
7
  6
CONTINUOUS
 70
0
 71
3
 72
11
 73
7
 74
0
 42
0.0000001
 43
0.0000001
 44
0.0000000001
 40
0.0
 40
0.0
 40
0.0
 40
0.0
 40
0.2709948315
 40
0.528364365
 40
0.7709811579
 40
1.0
 40
1.0
 40
1.0
 40
1.0
 10
3.2745706831
 20
1.2105601579
 30
0.0
 10
3.2773126405
 20
1.2078182005
 30
0.0
 10
3.2828402803
 20
1.2026467373
 30
0.0
 10
3.2915945575
 20
1.195896428
 30
0.0
 10
3.300638326
 20
1.1906255881
 30
0.0
 10
3.3070315043
 20
1.1882971596
 30
0.0
 10
3.3102181909
 20
1.1875328129
 30
0.0
  0
SPLINE
  5
409
100
AcDbEntity
  8
0
100
AcDbSpline
 62
7
  6
CONTINUOUS
 70
0
 71
3
 72
11
 73
7
 74
0
 42
0.0000001
 43
0.0000001
 44
0.0000000001
 40
0.0
 40
0.0
 40
0.0
 40
0.0
 40
0.270947556
 40
0.5283066656
 40
0.7709473005
 40
1.0
 40
1.0
 40
1.0
 40
1.0
 10
3.6354146014
 20
1.3717162396
 30
0.0
 10
3.632677265
 20
1.374453576
 30
0.0
 10
3.6271588428
 20
1.3796168947
 30
0.0
 10
3.6184200745
 20
1.386358959
 30
0.0
 10
3.6093929355
 20
1.391627872
 30
0.0
 10
3.6030115703
 20
1.393960165
 30
0.0
 10
3.5998303684
 20
1.3947282055
 30
0.0
  0
SPLINE
  5
40A
100
AcDbEntity
  8
0
100
AcDbSpline
 62
7
  6
CONTINUOUS
 70
0
 71
3
 72
11
 73
7
 74
0
 42
0.0000001
 43
0.0000001
 44
0.0000000001
 40
0.0
 40
0.0
 40
0.0
 40
0.0
 40
0.2499864848
 40
0.5000065754
 40
0.7500314923
 40
1.0
 40
1.0
 40
1.0
 40
1.0
 10
3.4549926423
 20
1.3958881988
 30
0.0
 10
3.4471428186
 20
1.3958881988
 30
0.0
 10
3.4314189773
 20
1.3946830075
 30
0.0
 10
3.4083653279
 20
1.3895623552
 30
0.0
 10
3.3860967472
 20
1.3817653868
 30
0.0
 10
3.3718022535
 20
1.375226535
 30
0.0
 10
3.3647816627
 20
1.3717162396
 30
0.0
  0
SPLINE
  5
40B
100
AcDbEntity
  8
0
100
AcDbSpline
 62
7
  6
CONTINUOUS
 70
0
 71
3
 72
11
 73
7
 74
0
 42
0.0000001
 43
0.0000001
 44
0.0000000001
 40
0.0
 40
0.0
 40
0.0
 40
0.0
 40
0.249968507
 40
0.4999934241
 40
0.7500135148
 40
1.0
 40
1.0
 40
1.0
 40
1.0
 10
3.5452036218
 20
1.3717162396
 30
0.0
 10
3.538183031
 20
1.375226535
 30
0.0
 10
3.5238885374
 20
1.381765387
 30
0.0
 10
3.5016199569
 20
1.389562356
 30
0.0
 10
3.4785663073
 20
1.3946830082
 30
0.0
 10
3.4628424659
 20
1.3958881988
 30
0.0
 10
3.4549926423
 20
1.3958881988
 30
0.0
  0
SPLINE
  5
40C
100
AcDbEntity
  8
0
100
AcDbSpline
 62
7
  6
CONTINUOUS
 70
0
 71
3
 72
11
 73
7
 74
0
 42
0.0000001
 43
0.0000001
 44
0.0000000001
 40
0.0
 40
0.0
 40
0.0
 40
0.0
 40
0.2499772836
 40
0.5000009325
 40
0.7500154487
 40
1.0
 40
1.0
 40
1.0
 40
1.0
 10
3.3647816627
 20
1.2105601579
 30
0.0
 10
3.3718025011
 20
1.2070497387
 30
0.0
 10
3.386097146
 20
1.2005106054
 30
0.0
 10
3.4083659607
 20
1.1927141587
 30
0.0
 10
3.4314192287
 20
1.1875930532
 30
0.0
 10
3.447142878
 20
1.1863881988
 30
0.0
 10
3.4549926423
 20
1.1863881988
 30
0.0
  0
SPLINE
  5
40D
100
AcDbEntity
  8
0
100
AcDbSpline
 62
7
  6
CONTINUOUS
 70
0
 71
3
 72
9
 73
5
 74
0
 42
0.0000001
 43
0.0000001
 44
0.0000000001
 40
0.0
 40
0.0
 40
0.0
 40
0.0
 40
0.4939726272
 40
1.0
 40
1.0
 40
1.0
 40
1.0
 10
3.3196761729
 20
1.1863881988
 30
0.0
 10
3.322078797
 20
1.1863881988
 30
0.0
 10
3.326951636
 20
1.1868517813
 30
0.0
 10
3.3316632655
 20
1.1881523916
 30
0.0
 10
3.3339793291
 20
1.1889852393
 30
0.0
  0
SPLINE
  5
40E
100
AcDbEntity
  8
0
100
AcDbSpline
 62
7
  6
CONTINUOUS
 70
0
 71
3
 72
10
 73
6
 74
0
 42
0.0000001
 43
0.0000001
 44
0.0000000001
 40
0.0
 40
0.0
 40
0.0
 40
0.0
 40
0.4749068571
 40
0.7317072821
 40
1.0
 40
1.0
 40
1.0
 40
1.0
 10
3.3339793291
 20
1.1889852393
 30
0.0
 10
3.339616081
 20
1.1910121941
 30
0.0
 10
3.3477341425
 20
1.195721703
 30
0.0
 10
3.3575632184
 20
1.2036159784
 30
0.0
 10
3.3623887831
 20
1.2081672782
 30
0.0
 10
3.3647816627
 20
1.2105601579
 30
0.0
  0
SPLINE
  5
40F
100
AcDbEntity
  8
0
100
AcDbSpline
 62
7
  6
CONTINUOUS
 70
0
 71
3
 72
11
 73
7
 74
0
 42
0.0000001
 43
0.0000001
 44
0.0000000001
 40
0.0
 40
0.0
 40
0.0
 40
0.0
 40
0.2369169589
 40
0.4801354829
 40
0.7337757982
 40
1.0
 40
1.0
 40
1.0
 40
1.0
 10
3.3196761729
 20
1.3958881988
 30
0.0
 10
3.3171529412
 20
1.3958881988
 30
0.0
 10
3.3120280263
 20
1.3953755862
 30
0.0
 10
3.3044870669
 20
1.3931896121
 30
0.0
 10
3.2971153192
 20
1.3897029094
 30
0.0
 10
3.2924364176
 20
1.3867189075
 30
0.0
 10
3.2901216254
 20
1.385081527
 30
0.0
  0
SPLINE
  5
410
100
AcDbEntity
  8
0
100
AcDbSpline
 62
7
  6
CONTINUOUS
 70
0
 71
3
 72
9
 73
5
 74
0
 42
0.0000001
 43
0.0000001
 44
0.0000000001
 40
0.0
 40
0.0
 40
0.0
 40
0.0
 40
0.2440558219
 40
1.0
 40
1.0
 40
1.0
 40
1.0
 10
3.2901216254
 20
1.385081527
 30
0.0
 10
3.2892393038
 20
1.3844574122
 30
0.0
 10
3.2856712671
 20
1.3818334549
 30
0.0
 10
3.2822825843
 20
1.3789704901
 30
0.0
 10
3.2798059881
 20
1.3767182906
 30
0.0
  0
SPLINE
  5
411
100
AcDbEntity
  8
0
100
AcDbSpline
 62
7
  6
CONTINUOUS
 70
0
 71
3
 72
9
 73
5
 74
0
 42
0.0000001
 43
0.0000001
 44
0.0000000001
 40
0.0
 40
0.0
 40
0.0
 40
0.0
 40
0.5113849871
 40
1.0
 40
1.0
 40
1.0
 40
1.0
 10
3.3647816627
 20
1.3717162396
 30
0.0
 10
3.3623078856
 20
1.3741900167
 30
0.0
 10
3.3573227826
 20
1.3788833703
 30
0.0
 10
3.3519596967
 20
1.3831511705
 30
0.0
 10
3.3492307325
 20
1.3850815184
 30
0.0
  0
SPLINE
  5
412
100
AcDbEntity
  8
0
100
AcDbSpline
 62
7
  6
CONTINUOUS
 70
0
 71
3
 72
11
 73
7
 74
0
 42
0.0000001
 43
0.0000001
 44
0.0000000001
 40
0.0
 40
0.0
 40
0.0
 40
0.0
 40
0.2662242123
 40
0.5198645309
 40
0.76308305
 40
1.0
 40
1.0
 40
1.0
 40
1.0
 10
3.3492307325
 20
1.3850815184
 30
0.0
 10
3.3469159394
 20
1.3867189001
 30
0.0
 10
3.3422370361
 20
1.3897029044
 30
0.0
 10
3.3348652855
 20
1.39318961
 30
0.0
 10
3.3273243229
 20
1.3953755859
 30
0.0
 10
3.3221994057
 20
1.3958881988
 30
0.0
 10
3.3196761729
 20
1.3958881988
 30
0.0
  0
SPLINE
  5
413
100
AcDbEntity
  8
0
100
AcDbSpline
 62
7
  6
CONTINUOUS
 70
0
 71
3
 72
11
 73
7
 74
0
 42
0.0000001
 43
0.0000001
 44
0.0000000001
 40
0.0
 40
0.0
 40
0.0
 40
0.0
 40
0.2359969181
 40
0.4788011018
 40
0.7327851874
 40
1.0
 40
1.0
 40
1.0
 40
1.0
 10
3.5903091116
 20
1.3958881988
 30
0.0
 10
3.5876650898
 20
1.3958881988
 30
0.0
 10
3.5822878225
 20
1.395324429
 30
0.0
 10
3.5743930976
 20
1.3929259376
 30
0.0
 10
3.5666926186
 20
1.3891195385
 30
0.0
 10
3.5618170439
 20
1.3858816409
 30
0.0
 10
3.5594051561
 20
1.3841080883
 30
0.0
  0
SPLINE
  5
414
100
AcDbEntity
  8
0
100
AcDbSpline
 62
7
  6
CONTINUOUS
 70
0
 71
3
 72
9
 73
5
 74
0
 42
0.0000001
 43
0.0000001
 44
0.0000000001
 40
0.0
 40
0.0
 40
0.0
 40
0.0
 40
0.2422352694
 40
1.0
 40
1.0
 40
1.0
 40
1.0
 10
3.5594051561
 20
1.3841080883
 30
0.0
 10
3.5581783787
 20
1.3832059922
 30
0.0
 10
3.5532056213
 20
1.3793571426
 30
0.0
 10
3.5485719154
 20
1.3750845332
 30
0.0
 10
3.5452036218
 20
1.3717162396
 30
0.0
  0
SPLINE
  5
415
100
AcDbEntity
  8
0
100
AcDbSpline
 62
7
  6
CONTINUOUS
 70
0
 71
3
 72
11
 73
7
 74
0
 42
0.0000001
 43
0.0000001
 44
0.0000000001
 40
0.0
 40
0.0
 40
0.0
 40
0.0
 40
0.2499846117
 40
0.4999991482
 40
0.7500227309
 40
1.0
 40
1.0
 40
1.0
 40
1.0
 10
3.4549926423
 20
1.1863881988
 30
0.0
 10
3.4628424084
 20
1.1863881988
 30
0.0
 10
3.4785660595
 20
1.1875930585
 30
0.0
 10
3.5016193302
 20
1.1927141541
 30
0.0
 10
3.5238881401
 20
1.20051061
 30
0.0
 10
3.5381827838
 20
1.2070497389
 30
0.0
 10
3.5452036218
 20
1.2105601579
 30
0.0
  0
SPLINE
  5
416
100
AcDbEntity
  8
0
100
AcDbSpline
 62
7
  6
CONTINUOUS
 70
0
 71
3
 72
10
 73
6
 74
0
 42
0.0000001
 43
0.0000001
 44
0.0000000001
 40
0.0
 40
0.0
 40
0.0
 40
0.0
 40
0.2682939653
 40
0.5250948219
 40
1.0
 40
1.0
 40
1.0
 40
1.0
 10
3.5452036218
 20
1.2105601579
 30
0.0
 10
3.5475966378
 20
1.2081671419
 30
0.0
 10
3.5524224786
 20
1.2036155957
 30
0.0
 10
3.5622521252
 20
1.1957209804
 30
0.0
 10
3.5703707251
 20
1.1910113911
 30
0.0
 10
3.5760078334
 20
1.1889845636
 30
0.0
  0
SPLINE
  5
417
100
AcDbEntity
  8
0
100
AcDbSpline
 62
7
  6
CONTINUOUS
 70
0
 71
3
 72
9
 73
5
 74
0
 42
0.0000001
 43
0.0000001
 44
0.0000000001
 40
0.0
 40
0.0
 40
0.0
 40
0.0
 40
0.5060259229
 40
1.0
 40
1.0
 40
1.0
 40
1.0
 10
3.5760078334
 20
1.1889845636
 30
0.0
 10
3.5783236081
 20
1.1881519246
 30
0.0
 10
3.5830346349
 20
1.1868516522
 30
0.0
 10
3.5879068079
 20
1.1863881988
 30
0.0
 10
3.5903091116
 20
1.1863881988
 30
0.0
  0
SPLINE
  5
418
100
AcDbEntity
  8
0
100
AcDbSpline
 62
7
  6
CONTINUOUS
 70
0
 71
3
 72
9
 73
5
 74
0
 42
0.0000001
 43
0.0000001
 44
0.0000000001
 40
0.0
 40
0.0
 40
0.0
 40
0.0
 40
0.2483465062
 40
1.0
 40
1.0
 40
1.0
 40
1.0
 10
3.5903091116
 20
1.1863881988
 30
0.0
 10
3.5910989588
 20
1.1863881988
 30
0.0
 10
3.5942789749
 20
1.1864865916
 30
0.0
 10
3.5974440611
 20
1.1869755299
 30
0.0
 10
3.5997686827
 20
1.1875331967
 30
0.0
  0
LINE
  5
419
100
AcDbEntity
  8
0
100
AcDbLine
 62
7
  6
CONTINUOUS
 10
3.5997686827
 20
1.1875331967
 11
3.6046122678
 21
1.1889852393
  0
LINE
  5
41A
100
AcDbEntity
  8
0
100
AcDbLine
 62
7
  6
CONTINUOUS
 10
3.6046122678
 20
1.1889852393
 11
3.6095241477
 21
1.1910445358
  0
SPLINE
  5
41B
100
AcDbEntity
  8
0
100
AcDbSpline
 62
7
  6
CONTINUOUS
 70
0
 71
3
 72
9
 73
5
 74
0
 42
0.0000001
 43
0.0000001
 44
0.0000000001
 40
0.0
 40
0.0
 40
0.0
 40
0.0
 40
0.2437936025
 40
1.0
 40
1.0
 40
1.0
 40
1.0
 10
3.6095241477
 20
1.1910445358
 30
0.0
 10
3.610382325
 20
1.1914546576
 30
0.0
 10
3.6138609523
 20
1.1932235423
 30
0.0
 10
3.6171745409
 20
1.1953073589
 30
0.0
 10
3.6195896881
 20
1.1970018188
 30
0.0
  0
SPLINE
  5
41C
100
AcDbEntity
  8
0
100
AcDbSpline
 62
7
  6
CONTINUOUS
 70
0
 71
3
 72
9
 73
5
 74
0
 42
0.0000001
 43
0.0000001
 44
0.0000000001
 40
0.0
 40
0.0
 40
0.0
 40
0.0
 40
0.2439532217
 40
1.0
 40
1.0
 40
1.0
 40
1.0
 10
3.6195896881
 20
1.1970018188
 30
0.0
 10
3.6204841011
 20
1.1976293362
 30
0.0
 10
3.6241018648
 20
1.2002708012
 30
0.0
 10
3.627535085
 20
1.2031597944
 30
0.0
 10
3.6300432874
 20
1.2054345622
 30
0.0
  0
LINE
  5
41D
100
AcDbEntity
  8
0
100
AcDbLine
 62
7
  6
CONTINUOUS
 10
3.6300432874
 20
1.2054345622
 11
3.6354146014
 21
1.2105601579
  0
SPLINE
  5
41E
100
AcDbEntity
  8
0
100
AcDbSpline
 62
7
  6
CONTINUOUS
 70
0
 71
3
 72
9
 73
5
 74
0
 42
0.0000001
 43
0.0000001
 44
0.0000000001
 40
0.0
 40
0.0
 40
0.0
 40
0.0
 40
0.2527600888
 40
1.0
 40
1.0
 40
1.0
 40
1.0
 10
3.0657338474
 20
1.1357620632
 30
0.0
 10
3.0650700618
 20
1.1341987886
 30
0.0
 10
3.0625180732
 20
1.127983112
 30
0.0
 10
3.0602837833
 20
1.1216341084
 30
0.0
 10
3.0588460659
 20
1.1168234453
 30
0.0
  0
SPLINE
  5
41F
100
AcDbEntity
  8
0
100
AcDbSpline
 62
7
  6
CONTINUOUS
 70
0
 71
3
 72
12
 73
8
 74
0
 42
0.0000001
 43
0.0000001
 44
0.0000000001
 40
0.0
 40
0.0
 40
0.0
 40
0.0
 40
0.2529087573
 40
0.5017722416
 40
0.6256674321
 40
0.7497548121
 40
1.0
 40
1.0
 40
1.0
 40
1.0
 10
3.0588460659
 20
1.1168234453
 30
0.0
 10
3.0572673036
 20
1.11154084
 30
0.0
 10
3.054692419
 20
1.1008802746
 30
0.0
 10
3.0531893317
 20
1.0872801636
 30
0.0
 10
3.0531259246
 20
1.0764406266
 30
0.0
 10
3.0538221151
 20
1.0655947771
 30
0.0
 10
3.0551627736
 20
1.0575156994
 30
0.0
 10
3.0563760075
 20
1.0521969074
 30
0.0
  0
SPLINE
  5
420
100
AcDbEntity
  8
0
100
AcDbSpline
 62
7
  6
CONTINUOUS
 70
0
 71
3
 72
9
 73
5
 74
0
 42
0.0000001
 43
0.0000001
 44
0.0000000001
 40
0.0
 40
0.0
 40
0.0
 40
0.0
 40
0.2462291843
 40
1.0
 40
1.0
 40
1.0
 40
1.0
 10
3.0563760075
 20
1.0521969074
 30
0.0
 10
3.0569204411
 20
1.0498101223
 30
0.0
 10
3.059391119
 20
1.0401760049
 30
0.0
 10
3.0628048125
 20
1.0307985887
 30
0.0
 10
3.0657338474
 20
1.0239004485
 30
0.0
  0
SPLINE
  5
421
100
AcDbEntity
  8
0
100
AcDbSpline
 62
7
  6
CONTINUOUS
 70
0
 71
3
 72
12
 73
8
 74
0
 42
0.0000001
 43
0.0000001
 44
0.0000000001
 40
0.0
 40
0.0
 40
0.0
 40
0.0
 40
0.0864729935
 40
0.1867532346
 40
0.4249541063
 40
0.7025198943
 40
1.0
 40
1.0
 40
1.0
 40
1.0
 10
3.0657338474
 20
1.0239004485
 30
0.0
 10
3.0659806121
 20
1.0233192954
 30
0.0
 10
3.066403632
 20
1.0220172851
 30
0.0
 10
3.0670122184
 20
1.0189702663
 30
0.0
 10
3.067259995
 20
1.0144582494
 30
0.0
 10
3.0668698269
 20
1.0085248763
 30
0.0
 10
3.0661849262
 20
1.0043744756
 30
0.0
 10
3.0657338474
 20
1.0022498134
 30
0.0
  0
SPLINE
  5
422
100
AcDbEntity
  8
0
100
AcDbSpline
 62
7
  6
CONTINUOUS
 70
0
 71
3
 72
11
 73
7
 74
0
 42
0.0000001
 43
0.0000001
 44
0.0000000001
 40
0.0
 40
0.0
 40
0.0
 40
0.0
 40
0.2500038621
 40
0.4999999918
 40
0.7499961239
 40
1.0
 40
1.0
 40
1.0
 40
1.0
 10
3.0657338474
 20
1.0022498134
 30
0.0
 10
3.0618321327
 20
0.9838720365
 30
0.0
 10
3.0554793633
 20
0.9467749166
 30
0.0
 10
3.0520164465
 20
0.8903882004
 30
0.0
 10
3.0554793615
 20
0.8340014829
 30
0.0
 10
3.0618321325
 20
0.7969043621
 30
0.0
 10
3.0657338474
 20
0.7785265841
 30
0.0
  0
SPLINE
  5
423
100
AcDbEntity
  8
0
100
AcDbSpline
 62
7
  6
CONTINUOUS
 70
0
 71
3
 72
12
 73
8
 74
0
 42
0.0000001
 43
0.0000001
 44
0.0000000001
 40
0.0
 40
0.0
 40
0.0
 40
0.0
 40
0.2974823823
 40
0.5750499819
 40
0.8132489986
 40
0.9135277602
 40
1.0
 40
1.0
 40
1.0
 40
1.0
 10
3.0657338474
 20
0.7785265841
 30
0.0
 10
3.0661849296
 20
0.7764019057
 30
0.0
 10
3.0668698465
 20
0.7722514774
 30
0.0
 10
3.0672599978
 20
0.766318085
 30
0.0
 10
3.0670121999
 20
0.7618060822
 30
0.0
 10
3.0664036268
 20
0.7587590912
 30
0.0
 10
3.06598061
 20
0.757457097
 30
0.0
 10
3.0657338474
 20
0.756875949
 30
0.0
  0
SPLINE
  5
424
100
AcDbEntity
  8
0
100
AcDbSpline
 62
7
  6
CONTINUOUS
 70
0
 71
3
 72
9
 73
5
 74
0
 42
0.0000001
 43
0.0000001
 44
0.0000000001
 40
0.0
 40
0.0
 40
0.0
 40
0.0
 40
0.2541327384
 40
1.0
 40
1.0
 40
1.0
 40
1.0
 10
3.0657338474
 20
0.756875949
 30
0.0
 10
3.0647464913
 20
0.7545506368
 30
0.0
 10
3.0610247518
 20
0.7453340641
 30
0.0
 10
3.0580255134
 20
0.7358103576
 30
0.0
 10
3.0563764971
 20
0.7285816322
 30
0.0
  0
SPLINE
  5
425
100
AcDbEntity
  8
0
100
AcDbSpline
 62
7
  6
CONTINUOUS
 70
0
 71
3
 72
9
 73
5
 74
0
 42
0.0000001
 43
0.0000001
 44
0.0000000001
 40
0.0
 40
0.0
 40
0.0
 40
0.0
 40
0.2517652169
 40
1.0
 40
1.0
 40
1.0
 40
1.0
 10
3.0563764971
 20
0.7285816322
 30
0.0
 10
3.0560279342
 20
0.7270536509
 30
0.0
 10
3.054747418
 20
0.7209615503
 30
0.0
 10
3.053898082
 20
0.7147770826
 30
0.0
 10
3.0535336169
 20
0.7101336155
 30
0.0
  0
SPLINE
  5
426
100
AcDbEntity
  8
0
100
AcDbSpline
 62
7
  6
CONTINUOUS
 70
0
 71
3
 72
11
 73
7
 74
0
 42
0.0000001
 43
0.0000001
 44
0.0000000001
 40
0.0
 40
0.0
 40
0.0
 40
0.0
 40
0.2478283371
 40
0.496040094
 40
0.7463265929
 40
1.0
 40
1.0
 40
1.0
 40
1.0
 10
3.0535336169
 20
0.7101336155
 30
0.0
 10
3.0532314976
 20
0.7062844643
 30
0.0
 10
3.0530008755
 20
0.6985447819
 30
0.0
 10
3.0538260282
 20
0.6869289333
 30
0.0
 10
3.0557502879
 20
0.6753537121
 30
0.0
 10
3.0577139522
 20
0.667741207
 30
0.0
 10
3.0588455648
 20
0.6639546299
 30
0.0
  0
SPLINE
  5
427
100
AcDbEntity
  8
0
100
AcDbSpline
 62
7
  6
CONTINUOUS
 70
0
 71
3
 72
9
 73
5
 74
0
 42
0.0000001
 43
0.0000001
 44
0.0000000001
 40
0.0
 40
0.0
 40
0.0
 40
0.0
 40
0.2473504587
 40
1.0
 40
1.0
 40
1.0
 40
1.0
 10
3.0588455648
 20
0.6639546299
 30
0.0
 10
3.059321512
 20
0.662362026
 30
0.0
 10
3.061348164
 20
0.6559540963
 30
0.0
 10
3.063757056
 20
0.6496698555
 30
0.0
 10
3.0657338474
 20
0.6450143344
 30
0.0
  0
SPLINE
  5
428
100
AcDbEntity
  8
0
100
AcDbSpline
 62
7
  6
CONTINUOUS
 70
0
 71
3
 72
15
 73
11
 74
0
 42
0.0000001
 43
0.0000001
 44
0.0000000001
 40
0.0
 40
0.0
 40
0.0
 40
0.0
 40
0.1261035143
 40
0.2516388335
 40
0.3767726479
 40
0.5014813017
 40
0.625894399
 40
0.7502855584
 40
0.8749299721
 40
1.0
 40
1.0
 40
1.0
 40
1.0
 10
3.4695691187
 20
10.7713098523
 30
0.0
 10
3.4754945149
 20
10.7737732419
 30
0.0
 10
3.4875543859
 20
10.7781392031
 30
0.0
 10
3.5060975533
 20
10.7830929443
 30
0.0
 10
3.5249016683
 20
10.7865541872
 30
0.0
 10
3.5438451653
 20
10.788659803
 30
0.0
 10
3.5628519081
 20
10.7894360489
 30
0.0
 10
3.5818633067
 20
10.7888734167
 30
0.0
 10
3.6008203209
 20
10.7869776426
 30
0.0
 10
3.6133575988
 20
10.7848234566
 30
0.0
 10
3.619583521
 20
10.7835027353
 30
0.0
  0
SPLINE
  5
429
100
AcDbEntity
  8
0
100
AcDbSpline
 62
7
  6
CONTINUOUS
 70
0
 71
3
 72
15
 73
11
 74
0
 42
0.0000001
 43
0.0000001
 44
0.0000000001
 40
0.0
 40
0.0
 40
0.0
 40
0.0
 40
0.1250700277
 40
0.2497144397
 40
0.3741055972
 40
0.4985186941
 40
0.6232273495
 40
0.7483611658
 40
0.8738964845
 40
1.0
 40
1.0
 40
1.0
 40
1.0
 10
3.2904017733
 20
10.7835027401
 30
0.0
 10
3.2966276952
 20
10.7848234609
 30
0.0
 10
3.3091649725
 20
10.7869776454
 30
0.0
 10
3.3281219855
 20
10.7888734167
 30
0.0
 10
3.3471333828
 20
10.7894360469
 30
0.0
 10
3.3661401242
 20
10.7886598004
 30
0.0
 10
3.3850836203
 20
10.7865541868
 30
0.0
 10
3.4038877352
 20
10.7830929488
 30
0.0
 10
3.4224309023
 20
10.77813921
 30
0.0
 10
3.4344907714
 20
10.7737732454
 30
0.0
 10
3.4404161658
 20
10.7713098523
 30
0.0
  0
SPLINE
  5
42A
100
AcDbEntity
  8
0
100
AcDbSpline
 62
9
  6
CONTINUOUS
 70
0
 71
3
 72
16
 73
12
 74
0
 42
0.0000001
 43
0.0000001
 44
0.0000000001
 40
0.0
 40
0.0
 40
0.0
 40
0.0
 40
0.0041919257
 40
0.0167187469
 40
0.0375073364
 40
0.06648458
 40
0.1487075555
 40
0.262486323
 40
0.4064350291
 40
0.5790530582
 40
1.0
 40
1.0
 40
1.0
 40
1.0
 10
2.8897009851
 20
0.4011864906
 30
0.0
 10
2.8897014701
 20
0.40126048
 30
0.0
 10
2.8896912226
 20
0.4015554973
 30
0.0
 10
2.889682464
 20
0.4022174299
 30
0.0
 10
2.8896574249
 20
0.4033167013
 30
0.0
 10
2.8896093845
 20
0.405645898
 30
0.0
 10
2.889520253
 20
0.4096159864
 30
0.0
 10
2.8893705231
 20
0.4156145378
 30
0.0
 10
2.889137416
 20
0.4232069866
 30
0.0
 10
2.8886459071
 20
0.4362155312
 30
0.0
 10
2.888160554
 20
0.4466813857
 30
0.0
 10
2.8877983764
 20
0.4541026227
 30
0.0
  0
SPLINE
  5
42B
100
AcDbEntity
  8
0
100
AcDbSpline
 62
7
  6
CONTINUOUS
 70
0
 71
3
 72
14
 73
10
 74
0
 42
0.0000001
 43
0.0000001
 44
0.0000000001
 40
0.0
 40
0.0
 40
0.0
 40
0.0
 40
0.0419844401
 40
0.1074453116
 40
0.1967700832
 40
0.309995854
 40
0.447053445
 40
0.6078308611
 40
1.0
 40
1.0
 40
1.0
 40
1.0
 10
3.7692078248
 20
0.6874189045
 30
0.0
 10
3.7691359357
 20
0.6875483681
 30
0.0
 10
3.7690186821
 20
0.6879130223
 30
0.0
 10
3.7688674966
 20
0.688588962
 30
0.0
 10
3.7687151522
 20
0.6895230592
 30
0.0
 10
3.7685600762
 20
0.690710604
 30
0.0
 10
3.7684043493
 20
0.6921522809
 30
0.0
 10
3.7681807129
 20
0.6945757167
 30
0.0
 10
3.7680367768
 20
0.6965208904
 30
0.0
 10
3.7679427484
 20
0.6979009163
 30
0.0
  0
LINE
  5
42C
100
AcDbEntity
  8
0
100
AcDbLine
 62
7
  6
CONTINUOUS
 10
3.7679427484
 20
0.6979009163
 11
3.7675082042
 21
0.7052047778
  0
LINE
  5
42D
100
AcDbEntity
  8
0
100
AcDbLine
 62
7
  6
CONTINUOUS
 10
3.765404547
 20
0.7638744795
 11
3.7653308664
 21
0.7665868636
  0
SPLINE
  5
42E
100
AcDbEntity
  8
0
100
AcDbSpline
 62
7
  6
CONTINUOUS
 70
0
 71
3
 72
13
 73
9
 74
0
 42
0.0000001
 43
0.0000001
 44
0.0000000001
 40
0.0
 40
0.0
 40
0.0
 40
0.0
 40
0.04626452
 40
0.1146373691
 40
0.2055751317
 40
0.319196742
 40
0.614449503
 40
1.0
 40
1.0
 40
1.0
 40
1.0
 10
3.7604187782
 20
0.7026671414
 30
0.0
 10
3.760357788
 20
0.702777559
 30
0.0
 10
3.7602522927
 20
0.7030744885
 30
0.0
 10
3.7601167376
 20
0.7036178177
 30
0.0
 10
3.7599796789
 20
0.7043499267
 30
0.0
 10
3.7597766679
 20
0.7056974445
 30
0.0
 10
3.7595353907
 20
0.7078507251
 30
0.0
 10
3.7593730604
 20
0.7096998438
 30
0.0
 10
3.7592887747
 20
0.7107476785
 30
0.0
  0
LINE
  5
42F
100
AcDbEntity
  8
0
100
AcDbLine
 62
7
  6
CONTINUOUS
 10
3.7592887747
 20
0.7107476785
 11
3.7583846043
 21
0.7256607604
  0
SPLINE
  5
430
100
AcDbEntity
  8
0
100
AcDbSpline
 62
7
  6
CONTINUOUS
 70
0
 71
3
 72
9
 73
5
 74
0
 42
0.0000001
 43
0.0000001
 44
0.0000000001
 40
0.0
 40
0.0
 40
0.0
 40
0.0
 40
0.4399874533
 40
1.0
 40
1.0
 40
1.0
 40
1.0
 10
3.7583846043
 20
0.7256607604
 30
0.0
 10
3.7580243664
 20
0.7330202288
 30
0.0
 10
3.7573658172
 20
0.7497544039
 30
0.0
 10
3.7568333751
 20
0.7664924899
 30
0.0
 10
3.7565551423
 20
0.7758666498
 30
0.0
  0
SPLINE
  5
431
100
AcDbEntity
  8
0
100
AcDbSpline
 62
7
  6
CONTINUOUS
 70
0
 71
3
 72
14
 73
10
 74
0
 42
0.0000001
 43
0.0000001
 44
0.0000000001
 40
0.0
 40
0.0
 40
0.0
 40
0.0
 40
0.0401272348
 40
0.1042577127
 40
0.1928227966
 40
0.3058388262
 40
0.4432116519
 40
0.6048038142
 40
1.0
 40
1.0
 40
1.0
 40
1.0
 10
3.7071698633
 20
1.0933716781
 30
0.0
 10
3.7072471212
 20
1.0932392349
 30
0.0
 10
3.7073699811
 20
1.0928548394
 30
0.0
 10
3.7075286287
 20
1.0921374016
 30
0.0
 10
3.7076882414
 20
1.0911332181
 30
0.0
 10
3.7078512045
 20
1.0898486772
 30
0.0
 10
3.708014865
 20
1.0882827328
 30
0.0
 10
3.7082503263
 20
1.085640766
 30
0.0
 10
3.7084016576
 20
1.0835184167
 30
0.0
 10
3.7085006148
 20
1.0820115837
 30
0.0
  0
LINE
  5
432
100
AcDbEntity
  8
0
100
AcDbLine
 62
7
  6
CONTINUOUS
 10
3.7121056973
 20
0.9728203771
 11
3.7123982568
 21
0.9603790533
  0
LINE
  5
433
100
AcDbEntity
  8
0
100
AcDbLine
 62
7
  6
CONTINUOUS
 10
3.7123982568
 20
0.9603790533
 11
3.7127880389
 21
0.9433348719
  0
LINE
  5
434
100
AcDbEntity
  8
0
100
AcDbLine
 62
7
  6
CONTINUOUS
 10
3.7127880389
 20
0.9433348719
 11
3.7131774481
 21
0.9258813759
  0
SPLINE
  5
435
100
AcDbEntity
  8
0
100
AcDbSpline
 62
7
  6
CONTINUOUS
 70
0
 71
3
 72
13
 73
9
 74
0
 42
0.0000001
 43
0.0000001
 44
0.0000000001
 40
0.0
 40
0.0
 40
0.0
 40
0.0
 40
0.0446446613
 40
0.1118500712
 40
0.2021749753
 40
0.3156948131
 40
0.6120404279
 40
1.0
 40
1.0
 40
1.0
 40
1.0
 10
3.7349706997
 20
1.09336928
 30
0.0
 10
3.7350290792
 20
1.0932691048
 30
0.0
 10
3.7351288017
 20
1.092993265
 30
0.0
 10
3.7352564459
 20
1.0924846705
 30
0.0
 10
3.7353855009
 20
1.0917919096
 30
0.0
 10
3.7355772787
 20
1.0905072033
 30
0.0
 10
3.735804798
 20
1.0884469949
 30
0.0
 10
3.735957908
 20
1.0866764469
 30
0.0
 10
3.7360374928
 20
1.0856720401
 30
0.0
  0
LINE
  5
436
100
AcDbEntity
  8
0
100
AcDbLine
 62
7
  6
CONTINUOUS
 10
3.7360374928
 20
1.0856720401
 11
3.736900427
 21
1.0711510515
  0
SPLINE
  5
437
100
AcDbEntity
  8
0
100
AcDbSpline
 62
7
  6
CONTINUOUS
 70
0
 71
3
 72
10
 73
6
 74
0
 42
0.0000001
 43
0.0000001
 44
0.0000000001
 40
0.0
 40
0.0
 40
0.0
 40
0.0
 40
0.1955865974
 40
0.4300818213
 40
1.0
 40
1.0
 40
1.0
 40
1.0
 10
3.736900427
 20
1.0711510515
 30
0.0
 10
3.7371010091
 20
1.0669522979
 30
0.0
 10
3.7374873017
 20
1.0577169163
 30
0.0
 10
3.7382413533
 20
1.036238108
 30
0.0
 10
3.7387295001
 20
1.0189563851
 30
0.0
 10
3.7390566649
 20
1.0067120887
 30
0.0
  0
SPLINE
  5
438
100
AcDbEntity
  8
0
100
AcDbSpline
 62
7
  6
CONTINUOUS
 70
0
 71
3
 72
13
 73
9
 74
0
 42
0.0000001
 43
0.0000001
 44
0.0000000001
 40
0.0
 40
0.0
 40
0.0
 40
0.0
 40
0.4053577137
 40
0.7058733482
 40
0.8170221661
 40
0.9023977485
 40
0.962673146
 40
1.0
 40
1.0
 40
1.0
 40
1.0
 10
3.7338809846
 20
1.0891039214
 30
0.0
 10
3.7339446317
 20
1.0897094479
 30
0.0
 10
3.7340663077
 20
1.0907625232
 30
0.0
 10
3.7342501977
 20
1.0919771992
 30
0.0
 10
3.7344062273
 20
1.0927068034
 30
0.0
 10
3.7345106269
 20
1.093079974
 30
0.0
 10
3.7346111215
 20
1.0933332614
 30
0.0
 10
3.7346963911
 20
1.0934611777
 30
0.0
 10
3.7347436313
 20
1.0934913736
 30
0.0
  0
SPLINE
  5
439
100
AcDbEntity
  8
0
100
AcDbSpline
 62
7
  6
CONTINUOUS
 70
0
 71
3
 72
16
 73
12
 74
0
 42
0.0000001
 43
0.0000001
 44
0.0000000001
 40
0.0
 40
0.0
 40
0.0
 40
0.0
 40
0.0132021521
 40
0.0328431379
 40
0.0920118531
 40
0.1778351685
 40
0.2901893759
 40
0.4288712474
 40
0.5936495094
 40
0.7842373652
 40
1.0
 40
1.0
 40
1.0
 40
1.0
 10
3.2051983358
 20
0.6873778503
 30
0.0
 10
3.2051539965
 20
0.6874527533
 30
0.0
 10
3.205077244
 20
0.687657409
 30
0.0
 10
3.2049250904
 20
0.6882440872
 30
0.0
 10
3.2047544565
 20
0.689318503
 30
0.0
 10
3.2045565118
 20
0.6910029111
 30
0.0
 10
3.2043579202
 20
0.6932155211
 30
0.0
 10
3.2041566326
 20
0.6959495358
 30
0.0
 10
3.2039549635
 20
0.6992006862
 30
0.0
 10
3.2037530654
 20
0.7029607725
 30
0.0
 10
3.2036259889
 20
0.7056368737
 30
0.0
 10
3.2035616614
 20
0.7070579564
 30
0.0
  0
LINE
  5
43A
100
AcDbEntity
  8
0
100
AcDbLine
 62
7
  6
CONTINUOUS
 10
3.2035616614
 20
0.7070579564
 11
3.2028308664
 21
0.7260566218
  0
SPLINE
  5
43B
100
AcDbEntity
  8
0
100
AcDbSpline
 62
7
  6
CONTINUOUS
 70
0
 71
3
 72
13
 73
9
 74
0
 42
0.0000001
 43
0.0000001
 44
0.0000000001
 40
0.0
 40
0.0
 40
0.0
 40
0.0
 40
0.0450184515
 40
0.1124866898
 40
0.2029488918
 40
0.3164922376
 40
0.6125946914
 40
1.0
 40
1.0
 40
1.0
 40
1.0
 10
3.7627689257
 20
1.0933726846
 30
0.0
 10
3.7628256024
 20
1.0932764458
 30
0.0
 10
3.7629228876
 20
1.0930119904
 30
0.0
 10
3.7630473336
 20
1.0925247616
 30
0.0
 10
3.7631732059
 20
1.0918623985
 30
0.0
 10
3.7633600696
 20
1.0906358848
 30
0.0
 10
3.7635818982
 20
1.0886702179
 30
0.0
 10
3.7637312589
 20
1.0869810931
 30
0.0
 10
3.7638089089
 20
1.086023108
 30
0.0
  0
LINE
  5
43C
100
AcDbEntity
  8
0
100
AcDbLine
 62
7
  6
CONTINUOUS
 10
3.7638089089
 20
1.086023108
 11
3.7646814924
 21
1.071569945
  0
LINE
  5
43D
100
AcDbEntity
  8
0
100
AcDbLine
 62
7
  6
CONTINUOUS
 10
3.7646814924
 20
1.071569945
 11
3.7655507941
 21
1.0501189874
  0
LINE
  5
43E
100
AcDbEntity
  8
0
100
AcDbLine
 62
7
  6
CONTINUOUS
 10
3.7665780539
 20
1.0167305283
 11
3.7668566649
 21
1.0067120887
  0
SPLINE
  5
43F
100
AcDbEntity
  8
0
100
AcDbSpline
 62
7
  6
CONTINUOUS
 70
0
 71
3
 72
14
 73
10
 74
0
 42
0.0000001
 43
0.0000001
 44
0.0000000001
 40
0.0
 40
0.0
 40
0.0
 40
0.0
 40
0.0397551922
 40
0.103515089
 40
0.1917475563
 40
0.30453175
 40
0.441835094
 40
0.6035812957
 40
1.0
 40
1.0
 40
1.0
 40
1.0
 10
3.1964115252
 20
0.7025923779
 30
0.0
 10
3.1963434787
 20
0.7027072224
 30
0.0
 10
3.1962358981
 20
0.7030427065
 30
0.0
 10
3.1960966879
 20
0.7036693831
 30
0.0
 10
3.1959567746
 20
0.704548757
 30
0.0
 10
3.195813824
 20
0.7056754162
 30
0.0
 10
3.1956702653
 20
0.7070510389
 30
0.0
 10
3.1954634943
 20
0.7093770966
 30
0.0
 10
3.1953307857
 20
0.71124678
 30
0.0
 10
3.1952439895
 20
0.7125750423
 30
0.0
  0
LINE
  5
440
100
AcDbEntity
  8
0
100
AcDbLine
 62
7
  6
CONTINUOUS
 10
3.1952439895
 20
0.7125750423
 11
3.1940551423
 21
0.7383615882
  0
SPLINE
  5
441
100
AcDbEntity
  8
0
100
AcDbSpline
 62
7
  6
CONTINUOUS
 70
0
 71
3
 72
13
 73
9
 74
0
 42
0.0000001
 43
0.0000001
 44
0.0000000001
 40
0.0
 40
0.0
 40
0.0
 40
0.0
 40
0.0440676976
 40
0.1107138089
 40
0.2005173083
 40
0.3136899506
 40
0.6103733455
 40
1.0
 40
1.0
 40
1.0
 40
1.0
 10
3.2089087041
 20
1.0781807941
 30
0.0
 10
3.2088557047
 20
1.0780888722
 30
0.0
 10
3.208765761
 20
1.0778351481
 30
0.0
 10
3.2086504634
 20
1.0773670113
 30
0.0
 10
3.2085339148
 20
1.0767276527
 30
0.0
 10
3.2083604073
 20
1.0755372377
 30
0.0
 10
3.2081550574
 20
1.0736225456
 30
0.0
 10
3.2080170246
 20
1.0719758542
 30
0.0
 10
3.2079451936
 20
1.0710404641
 30
0.0
  0
SPLINE
  5
442
100
AcDbEntity
  8
0
100
AcDbSpline
 62
7
  6
CONTINUOUS
 70
0
 71
3
 72
16
 73
12
 74
0
 42
0.0000001
 43
0.0000001
 44
0.0000000001
 40
0.0
 40
0.0
 40
0.0
 40
0.0
 40
0.0137053112
 40
0.0337587439
 40
0.0935036037
 40
0.1797515836
 40
0.2923775967
 40
0.4310665551
 40
0.5954732481
 40
0.7852393846
 40
1.0
 40
1.0
 40
1.0
 40
1.0
 10
3.2176954334
 20
1.0933924116
 30
0.0
 10
3.2176535484
 20
1.0933198729
 30
0.0
 10
3.2175800819
 20
1.0931252403
 30
0.0
 10
3.2174347102
 20
1.0925729426
 30
0.0
 10
3.2172706839
 20
1.0915692928
 30
0.0
 10
3.2170813406
 20
1.0900006272
 30
0.0
 10
3.2168910718
 20
1.0879458392
 30
0.0
 10
3.2166981762
 20
1.0854124584
 30
0.0
 10
3.216504605
 20
1.0824063628
 30
0.0
 10
3.2163102956
 20
1.0789346279
 30
0.0
 10
3.2161879964
 20
1.076465286
 30
0.0
 10
3.216126179
 20
1.0751541885
 30
0.0
  0
SPLINE
  5
443
100
AcDbEntity
  8
0
100
AcDbSpline
 62
7
  6
CONTINUOUS
 70
0
 71
3
 72
13
 73
9
 74
0
 42
0.0000001
 43
0.0000001
 44
0.0000000001
 40
0.0
 40
0.0
 40
0.0
 40
0.0
 40
0.0456477252
 40
0.1134554277
 40
0.2039750273
 40
0.3173774042
 40
0.6129365864
 40
1.0
 40
1.0
 40
1.0
 40
1.0
 10
3.7488665521
 20
0.687400929
 30
0.0
 10
3.7489213002
 20
0.6874934528
 30
0.0
 10
3.7490159407
 20
0.6877460223
 30
0.0
 10
3.7491372282
 20
0.6882102966
 30
0.0
 10
3.7492599234
 20
0.6888390632
 30
0.0
 10
3.7494418868
 20
0.6900012239
 30
0.0
 10
3.7496580286
 20
0.6918641981
 30
0.0
 10
3.7498032568
 20
0.6934653051
 30
0.0
 10
3.7498787125
 20
0.6943737772
 30
0.0
  0
SPLINE
  5
444
100
AcDbEntity
  8
0
100
AcDbSpline
 62
7
  6
CONTINUOUS
 70
0
 71
3
 72
13
 73
9
 74
0
 42
0.0000001
 43
0.0000001
 44
0.0000000001
 40
0.0
 40
0.0
 40
0.0
 40
0.0
 40
0.3952628641
 40
0.6929099101
 40
0.8052492939
 40
0.8934586854
 40
0.9579638221
 40
1.0
 40
1.0
 40
1.0
 40
1.0
 10
3.7616327701
 20
1.0886334378
 30
0.0
 10
3.7616973598
 20
1.0892794084
 30
0.0
 10
3.7618213179
 20
1.090410635
 30
0.0
 10
3.7620071559
 20
1.0917210004
 30
0.0
 10
3.7621642595
 20
1.0925238705
 30
0.0
 10
3.7622696605
 20
1.0929472818
 30
0.0
 10
3.7623731384
 20
1.0932488477
 30
0.0
 10
3.7624561077
 20
1.0934073599
 30
0.0
 10
3.762503573
 20
1.0934574975
 30
0.0
  0
SPLINE
  5
445
100
AcDbEntity
  8
0
100
AcDbSpline
 62
7
  6
CONTINUOUS
 70
0
 71
3
 72
8
 73
4
 74
0
 42
0.0000001
 43
0.0000001
 44
0.0000000001
 40
0.0
 40
0.0
 40
0.0
 40
0.0
 40
1.0
 40
1.0
 40
1.0
 40
1.0
 10
3.5303174597
 20
1.1121515291
 30
0.0
 10
3.5211739747
 20
1.1147947711
 30
0.0
 10
3.5119147784
 20
1.1170857784
 30
0.0
 10
3.5025661972
 20
1.1188729756
 30
0.0
  0
SPLINE
  5
446
100
AcDbEntity
  8
0
100
AcDbSpline
 62
7
  6
CONTINUOUS
 70
0
 71
3
 72
8
 73
4
 74
0
 42
0.0000001
 43
0.0000001
 44
0.0000000001
 40
0.0
 40
0.0
 40
0.0
 40
0.0
 40
1.0
 40
1.0
 40
1.0
 40
1.0
 10
3.5025661972
 20
1.1214779756
 30
0.0
 10
3.5119238876
 20
1.1237172828
 30
0.0
 10
3.5211772616
 20
1.1264149582
 30
0.0
 10
3.5303174597
 20
1.129421226
 30
0.0
  0
SPLINE
  5
447
100
AcDbEntity
  8
0
100
AcDbSpline
 62
7
  6
CONTINUOUS
 70
0
 71
3
 72
8
 73
4
 74
0
 42
0.0000001
 43
0.0000001
 44
0.0000000001
 40
0.0
 40
0.0
 40
0.0
 40
0.0
 40
1.0
 40
1.0
 40
1.0
 40
1.0
 10
3.5303174597
 20
1.1329865291
 30
0.0
 10
3.5221667086
 20
1.1353462739
 30
0.0
 10
3.5139245003
 20
1.1374226922
 30
0.0
 10
3.5056082888
 20
1.1391090393
 30
0.0
  0
SPLINE
  5
448
100
AcDbEntity
  8
0
100
AcDbSpline
 62
7
  6
CONTINUOUS
 70
0
 71
3
 72
8
 73
4
 74
0
 42
0.0000001
 43
0.0000001
 44
0.0000000001
 40
0.0
 40
0.0
 40
0.0
 40
0.0
 40
1.0
 40
1.0
 40
1.0
 40
1.0
 10
3.3796678248
 20
1.1465073684
 30
0.0
 10
3.3888117233
 20
1.143865557
 30
0.0
 10
3.3980697578
 20
1.1415692005
 30
0.0
 10
3.4074190874
 20
1.1397859219
 30
0.0
  0
SPLINE
  5
449
100
AcDbEntity
  8
0
100
AcDbSpline
 62
7
  6
CONTINUOUS
 70
0
 71
3
 72
8
 73
4
 74
0
 42
0.0000001
 43
0.0000001
 44
0.0000000001
 40
0.0
 40
0.0
 40
0.0
 40
0.0
 40
1.0
 40
1.0
 40
1.0
 40
1.0
 10
3.4013117306
 20
1.1356539605
 30
0.0
 10
3.3940306265
 20
1.1337537521
 30
0.0
 10
3.3868164167
 20
1.1315877574
 30
0.0
 10
3.3796678248
 20
1.1292376715
 30
0.0
  0
SPLINE
  5
44A
100
AcDbEntity
  8
0
100
AcDbSpline
 62
7
  6
CONTINUOUS
 70
0
 71
3
 72
9
 73
5
 74
0
 42
0.0000001
 43
0.0000001
 44
0.0000000001
 40
0.0
 40
0.0
 40
0.0
 40
0.0
 40
0.50000488
 40
1.0
 40
1.0
 40
1.0
 40
1.0
 10
3.3796678248
 20
1.1256723684
 30
0.0
 10
3.3842409661
 20
1.1243507578
 30
0.0
 10
3.3934379738
 20
1.1218783081
 30
0.0
 10
3.4027435315
 20
1.1198445486
 30
0.0
 10
3.4074190874
 20
1.1189509219
 30
0.0
  0
SPLINE
  5
44B
100
AcDbEntity
  8
0
100
AcDbSpline
 62
7
  6
CONTINUOUS
 70
0
 71
3
 72
8
 73
4
 74
0
 42
0.0000001
 43
0.0000001
 44
0.0000000001
 40
0.0
 40
0.0
 40
0.0
 40
0.0
 40
1.0
 40
1.0
 40
1.0
 40
1.0
 10
3.4074190874
 20
1.1163459219
 30
0.0
 10
3.3980612937
 20
1.1141070462
 30
0.0
 10
3.3888082639
 20
1.1114082065
 30
0.0
 10
3.3796678248
 20
1.1084026715
 30
0.0
  0
SPLINE
  5
44C
100
AcDbEntity
  8
0
100
AcDbSpline
 62
7
  6
CONTINUOUS
 70
0
 71
3
 72
13
 73
9
 74
0
 42
0.0000001
 43
0.0000001
 44
0.0000000001
 40
0.0
 40
0.0
 40
0.0
 40
0.0
 40
0.0455507784
 40
0.1133313524
 40
0.2038506332
 40
0.3172645884
 40
0.6128668414
 40
1.0
 40
1.0
 40
1.0
 40
1.0
 10
3.1935772123
 20
0.7026047409
 30
0.0
 10
3.193627163
 20
0.702693043
 30
0.0
 10
3.1937131508
 20
0.7029327157
 30
0.0
 10
3.1938235065
 20
0.7033726115
 30
0.0
 10
3.1939350985
 20
0.7039679901
 30
0.0
 10
3.1941006605
 20
0.7050681297
 30
0.0
 10
3.1942973006
 20
0.7068310009
 30
0.0
 10
3.1944294334
 20
0.7083458323
 30
0.0
 10
3.1944980832
 20
0.709205322
 30
0.0
  0
LINE
  5
44D
100
AcDbEntity
  8
0
100
AcDbLine
 62
7
  6
CONTINUOUS
 10
3.1944980832
 20
0.709205322
 11
3.1952471841
 21
0.7217327424
  0
SPLINE
  5
44E
100
AcDbEntity
  8
0
100
AcDbSpline
 62
7
  6
CONTINUOUS
 70
0
 71
3
 72
13
 73
9
 74
0
 42
0.0000001
 43
0.0000001
 44
0.0000000001
 40
0.0
 40
0.0
 40
0.0
 40
0.0
 40
0.0416337007
 40
0.1066036905
 40
0.1954438488
 40
0.3083241329
 40
0.6063618838
 40
1.0
 40
1.0
 40
1.0
 40
1.0
 10
3.1847905337
 20
0.6873865228
 30
0.0
 10
3.184847809
 20
0.6874868896
 30
0.0
 10
3.1849415484
 20
0.6877710391
 30
0.0
 10
3.1850621657
 20
0.6882987875
 30
0.0
 10
3.1851838253
 20
0.689029886
 30
0.0
 10
3.185366096
 20
0.6904047879
 30
0.0
 10
3.1855811518
 20
0.6926283164
 30
0.0
 10
3.1857253578
 20
0.694542653
 30
0.0
 10
3.1858004897
 20
0.6956326564
 30
0.0
  0
LINE
  5
44F
100
AcDbEntity
  8
0
100
AcDbLine
 62
7
  6
CONTINUOUS
 10
3.1858004897
 20
0.6956326564
 11
3.1865295947
 21
0.7094065892
  0
SPLINE
  5
450
100
AcDbEntity
  8
0
100
AcDbSpline
 62
7
  6
CONTINUOUS
 70
0
 71
3
 72
14
 73
10
 74
0
 42
0.0000001
 43
0.0000001
 44
0.0000000001
 40
0.0
 40
0.0
 40
0.0
 40
0.0
 40
0.0383459815
 40
0.1011091474
 40
0.1888373202
 40
0.3016569767
 40
0.4394163923
 40
0.6018908907
 40
1.0
 40
1.0
 40
1.0
 40
1.0
 10
3.1972906888
 20
1.0933909568
 30
0.0
 10
3.1973615701
 20
1.0932674419
 30
0.0
 10
3.1974703818
 20
1.0929025519
 30
0.0
 10
3.1976124521
 20
1.0922181755
 30
0.0
 10
3.1977545427
 20
1.0912490752
 30
0.0
 10
3.1979001423
 20
1.0900015643
 30
0.0
 10
3.1980462762
 20
1.0884742852
 30
0.0
 10
3.1982568294
 20
1.085889395
 30
0.0
 10
3.1983919325
 20
1.0838117271
 30
0.0
 10
3.198480348
 20
1.0823358876
 30
0.0
  0
LINE
  5
451
100
AcDbEntity
  8
0
100
AcDbLine
 62
7
  6
CONTINUOUS
 10
3.1988591253
 20
1.0751537693
 11
3.2003743622
 21
1.0305523803
  0
LINE
  5
452
100
AcDbEntity
  8
0
100
AcDbLine
 62
7
  6
CONTINUOUS
 10
3.2007531792
 20
1.0159433428
 11
3.2011318313
 21
1.0001998331
  0
LINE
  5
453
100
AcDbEntity
  8
0
100
AcDbLine
 62
7
  6
CONTINUOUS
 10
3.2030274719
 20
0.9096929921
 11
3.2034044182
 21
0.8903881988
  0
LINE
  5
454
100
AcDbEntity
  8
0
100
AcDbLine
 62
7
  6
CONTINUOUS
 10
3.3158148431
 20
1.1045922101
 11
3.3145298284
 21
1.1049097969
  0
SPLINE
  5
455
100
AcDbEntity
  8
0
100
AcDbSpline
 62
7
  6
CONTINUOUS
 70
0
 71
3
 72
18
 73
14
 74
0
 42
0.0000001
 43
0.0000001
 44
0.0000000001
 40
0.0
 40
0.0
 40
0.0
 40
0.0
 40
0.198536923
 40
0.3827167227
 40
0.5481471584
 40
0.6914533375
 40
0.8101922329
 40
0.8596288207
 40
0.9021643291
 40
0.937624709
 40
0.9658406585
 40
0.9866549929
 40
1.0
 40
1.0
 40
1.0
 40
1.0
 10
3.4074270737
 20
1.1163459219
 30
0.0
 10
3.4021337602
 20
1.1161980595
 30
0.0
 10
3.3919301225
 20
1.1159055066
 30
0.0
 10
3.3773169159
 20
1.1154534125
 30
0.0
 10
3.3641775324
 20
1.1150024464
 30
0.0
 10
3.3527847249
 20
1.1145532021
 30
0.0
 10
3.3444858257
 20
1.1141633642
 30
0.0
 10
3.3388749835
 20
1.1138410177
 30
0.0
 10
3.3354834376
 20
1.113615295
 30
0.0
 10
3.3326596842
 20
1.1133903885
 30
0.0
 10
3.3304159678
 20
1.1131701567
 30
0.0
 10
3.3287680708
 20
1.1129506377
 30
0.0
 10
3.3278690563
 20
1.1127829095
 30
0.0
 10
3.3275291131
 20
1.112677408
 30
0.0
  0
SPLINE
  5
456
100
AcDbEntity
  8
0
100
AcDbSpline
 62
7
  6
CONTINUOUS
 70
0
 71
3
 72
22
 73
18
 74
0
 42
0.0000001
 43
0.0000001
 44
0.0000000001
 40
0.0
 40
0.0
 40
0.0
 40
0.0
 40
0.2117076864
 40
0.4065062065
 40
0.579042051
 40
0.6557030584
 40
0.7254586111
 40
0.7879363021
 40
0.8427795861
 40
0.8897306587
 40
0.9285731912
 40
0.9590966083
 40
0.9811058257
 40
0.9888854758
 40
0.9945381004
 40
0.9981343676
 40
1.0
 40
1.0
 40
1.0
 40
1.0
 10
3.4074270737
 20
1.1189509219
 30
0.0
 10
3.4017440783
 20
1.1187921742
 30
0.0
 10
3.3908322241
 20
1.1184787599
 30
0.0
 10
3.375290149
 20
1.1179934216
 30
0.0
 10
3.3633743357
 20
1.1175754904
 30
0.0
 10
3.3548159237
 20
1.1172349807
 30
0.0
 10
3.3492115828
 20
1.1169902138
 30
0.0
 10
3.3441937469
 20
1.1167460147
 30
0.0
 10
3.3397890166
 20
1.1165022377
 30
0.0
 10
3.3360202489
 20
1.1162594901
 30
0.0
 10
3.3329053968
 20
1.1160183371
 30
0.0
 10
3.3304640656
 20
1.1157811974
 30
0.0
 10
3.3288552282
 20
1.1155695371
 30
0.0
 10
3.3279225531
 20
1.115393849
 30
0.0
 10
3.3274760884
 20
1.1152691897
 30
0.0
 10
3.3272055671
 20
1.115172142
 30
0.0
 10
3.3270797454
 20
1.1150525813
 30
0.0
 10
3.3270807012
 20
1.1150024906
 30
0.0
  0
LINE
  5
457
100
AcDbEntity
  8
0
100
AcDbLine
 62
7
  6
CONTINUOUS
 10
3.3158148431
 20
1.1254272101
 11
3.3145298276
 21
1.1257447453
  0
SPLINE
  5
458
100
AcDbEntity
  8
0
100
AcDbSpline
 62
7
  6
CONTINUOUS
 70
0
 71
3
 72
10
 73
6
 74
0
 42
0.0000001
 43
0.0000001
 44
0.0000000001
 40
0.0
 40
0.0
 40
0.0
 40
0.0
 40
0.580589367
 40
0.8129139161
 40
1.0
 40
1.0
 40
1.0
 40
1.0
 10
3.3796678248
 20
1.1256723684
 30
0.0
 10
3.3696185714
 20
1.1253863233
 30
0.0
 10
3.3555482128
 20
1.1249737628
 30
0.0
 10
3.3382449356
 20
1.124315477
 30
0.0
 10
3.3309902391
 20
1.1239761955
 30
0.0
 10
3.3277556804
 20
1.1237967874
 30
0.0
  0
SPLINE
  5
459
100
AcDbEntity
  8
0
100
AcDbSpline
 62
7
  6
CONTINUOUS
 70
0
 71
3
 72
10
 73
6
 74
0
 42
0.0000001
 43
0.0000001
 44
0.0000000001
 40
0.0
 40
0.0
 40
0.0
 40
0.0
 40
0.6223070504
 40
0.8423596031
 40
1.0
 40
1.0
 40
1.0
 40
1.0
 10
3.3277556804
 20
1.1237967874
 30
0.0
 10
3.3252734759
 20
1.1236591094
 30
0.0
 10
3.3219136654
 20
1.123456456
 30
0.0
 10
3.3179350733
 20
1.1230976125
 30
0.0
 10
3.3164362226
 20
1.1229165161
 30
0.0
 10
3.3158148431
 20
1.1228141875
 30
0.0
  0
LINE
  5
45A
100
AcDbEntity
  8
0
100
AcDbLine
 62
7
  6
CONTINUOUS
 10
3.3158148431
 20
1.1228141875
 11
3.314529824
 21
1.1224966428
  0
SPLINE
  5
45B
100
AcDbEntity
  8
0
100
AcDbSpline
 62
7
  6
CONTINUOUS
 70
0
 71
3
 72
18
 73
14
 74
0
 42
0.0000001
 43
0.0000001
 44
0.0000000001
 40
0.0
 40
0.0
 40
0.0
 40
0.0
 40
0.2091492969
 40
0.3978971017
 40
0.564137131
 40
0.705915549
 40
0.8214677051
 40
0.8690325375
 40
0.9096139605
 40
0.9430847345
 40
0.9693261959
 40
0.9882669585
 40
1.0
 40
1.0
 40
1.0
 40
1.0
 10
3.3799916049
 20
1.1363667223
 30
0.0
 10
3.3763107685
 20
1.136248978
 30
0.0
 10
3.3693084029
 20
1.1360165998
 30
0.0
 10
3.3593816783
 20
1.135652592
 30
0.0
 10
3.3506420129
 20
1.1352904014
 30
0.0
 10
3.343192416
 20
1.1349301538
 30
0.0
 10
3.3378327433
 20
1.134615779
 30
0.0
 10
3.3342554458
 20
1.1343559337
 30
0.0
 10
3.3321214134
 20
1.1341749449
 30
0.0
 10
3.3303650384
 20
1.1339945579
 30
0.0
 10
3.3289898381
 20
1.1338186494
 30
0.0
 10
3.328005416
 20
1.1336424227
 30
0.0
 10
3.327477134
 20
1.1335080988
 30
0.0
 10
3.327289798
 20
1.1334209936
 30
0.0
  0
SPLINE
  5
45C
100
AcDbEntity
  8
0
100
AcDbSpline
 62
7
  6
CONTINUOUS
 70
0
 71
3
 72
20
 73
16
 74
0
 42
0.0000001
 43
0.0000001
 44
0.0000000001
 40
0.0
 40
0.0
 40
0.0
 40
0.0
 40
0.2229223017
 40
0.4212961335
 40
0.5930462621
 40
0.7361804969
 40
0.796561592
 40
0.8492963022
 40
0.8942462656
 40
0.9312780154
 40
0.9602688134
 40
0.981162843
 40
0.9940869057
 40
0.9977480204
 40
1.0
 40
1.0
 40
1.0
 40
1.0
 10
3.3705250281
 20
1.1386577133
 30
0.0
 10
3.3672844533
 20
1.1385459036
 30
0.0
 10
3.3611604719
 20
1.1383253304
 30
0.0
 10
3.352541318
 20
1.1379777744
 30
0.0
 10
3.3450837154
 20
1.1376319289
 30
0.0
 10
3.3396334778
 20
1.1373311083
 30
0.0
 10
3.3359143452
 20
1.1370840196
 30
0.0
 10
3.3336218199
 20
1.1369098478
 30
0.0
 10
3.3316697793
 20
1.1367364459
 30
0.0
 10
3.3300651115
 20
1.1365643886
 30
0.0
 10
3.3288110286
 20
1.1363945005
 30
0.0
 10
3.3279143783
 20
1.1362292893
 30
0.0
 10
3.3273840697
 20
1.1360805717
 30
0.0
 10
3.3271428041
 20
1.1359516145
 30
0.0
 10
3.3270892303
 20
1.135871365
 30
0.0
 10
3.3270897384
 20
1.1358386129
 30
0.0
  0
LINE
  5
45D
100
AcDbEntity
  8
0
100
AcDbLine
 62
7
  6
CONTINUOUS
 10
3.3174252916
 20
1.1460447743
 11
3.3150818864
 21
1.1464039978
  0
LINE
  5
45E
100
AcDbEntity
  8
0
100
AcDbLine
 62
7
  6
CONTINUOUS
 10
3.3150818864
 20
1.1464039978
 11
3.3143722899
 21
1.1467386688
  0
SPLINE
  5
45F
100
AcDbEntity
  8
0
100
AcDbSpline
 62
7
  6
CONTINUOUS
 70
0
 71
3
 72
10
 73
6
 74
0
 42
0.0000001
 43
0.0000001
 44
0.0000000001
 40
0.0
 40
0.0
 40
0.0
 40
0.0
 40
0.5805219032
 40
0.8128610858
 40
1.0
 40
1.0
 40
1.0
 40
1.0
 10
3.3796678248
 20
1.1465073684
 30
0.0
 10
3.3696232097
 20
1.1462207069
 30
0.0
 10
3.3555585775
 20
1.1458090184
 30
0.0
 10
3.3382612244
 20
1.1451513131
 30
0.0
 10
3.3310078516
 20
1.1448121068
 30
0.0
 10
3.3277734861
 20
1.1446327815
 30
0.0
  0
SPLINE
  5
460
100
AcDbEntity
  8
0
100
AcDbSpline
 62
7
  6
CONTINUOUS
 70
0
 71
3
 72
10
 73
6
 74
0
 42
0.0000001
 43
0.0000001
 44
0.0000000001
 40
0.0
 40
0.0
 40
0.0
 40
0.0
 40
0.6223656674
 40
0.8424046495
 40
1.0
 40
1.0
 40
1.0
 40
1.0
 10
3.3277734861
 20
1.1446327815
 30
0.0
 10
3.3252873514
 20
1.1444949409
 30
0.0
 10
3.321922356
 20
1.1442920829
 30
0.0
 10
3.3179378295
 20
1.1439328847
 30
0.0
 10
3.3164369713
 20
1.1437516263
 30
0.0
 10
3.315814843
 20
1.1436491874
 30
0.0
  0
LINE
  5
461
100
AcDbEntity
  8
0
100
AcDbLine
 62
7
  6
CONTINUOUS
 10
3.315814843
 20
1.1436491874
 11
3.3145298244
 21
1.1433316819
  0
SPLINE
  5
462
100
AcDbEntity
  8
0
100
AcDbSpline
 62
7
  6
CONTINUOUS
 70
0
 71
3
 72
14
 73
10
 74
0
 42
0.0000001
 43
0.0000001
 44
0.0000000001
 40
0.0
 40
0.0
 40
0.0
 40
0.0
 40
0.0409336572
 40
0.1055275313
 40
0.1943683792
 40
0.3075280966
 40
0.444867082
 40
0.6061992889
 40
1.0
 40
1.0
 40
1.0
 40
1.0
 10
3.2060773737
 20
1.0781796789
 30
0.0
 10
3.2061418622
 20
1.0780672664
 30
0.0
 10
3.20624611
 20
1.0777456638
 30
0.0
 10
3.2063804414
 20
1.0771466011
 30
0.0
 10
3.2065156107
 20
1.076312313
 30
0.0
 10
3.2066533806
 20
1.0752470592
 30
0.0
 10
3.2067917947
 20
1.0739503617
 30
0.0
 10
3.2069907585
 20
1.0717670289
 30
0.0
 10
3.2071188621
 20
1.0700139749
 30
0.0
 10
3.2072026423
 20
1.0687700121
 30
0.0
  0
SPLINE
  5
463
100
AcDbEntity
  8
0
100
AcDbSpline
 62
7
  6
CONTINUOUS
 70
0
 71
3
 72
10
 73
6
 74
0
 42
0.0000001
 43
0.0000001
 44
0.0000000001
 40
0.0
 40
0.0
 40
0.0
 40
0.0
 40
0.1832770912
 40
0.4127206184
 40
1.0
 40
1.0
 40
1.0
 40
1.0
 10
3.2072026423
 20
1.0687700121
 30
0.0
 10
3.2073545797
 20
1.0665140549
 30
0.0
 10
3.207642769
 20
1.0614302889
 30
0.0
 10
3.2082075672
 20
1.0491062654
 30
0.0
 10
3.2085578826
 20
1.039036244
 30
0.0
 10
3.2087907581
 20
1.0317947911
 30
0.0
  0
LINE
  5
464
100
AcDbEntity
  8
0
100
AcDbLine
 62
7
  6
CONTINUOUS
 10
3.2157676423
 20
0.7430021942
 11
3.2159301423
 21
0.738362004
  0
LINE
  5
465
100
AcDbEntity
  8
0
100
AcDbLine
 62
7
  6
CONTINUOUS
 10
3.5820919218
 20
1.1466322536
 11
3.5829084356
 21
1.1462582092
  0
LINE
  5
466
100
AcDbEntity
  8
0
100
AcDbLine
 62
7
  6
CONTINUOUS
 10
3.582269955
 20
1.1439812898
 11
3.5827660234
 21
1.1438031345
  0
LINE
  5
467
100
AcDbEntity
  8
0
100
AcDbLine
 62
7
  6
CONTINUOUS
 10
3.5941704412
 20
1.1332316875
 11
3.5954554562
 21
1.1329140953
  0
SPLINE
  5
468
100
AcDbEntity
  8
0
100
AcDbSpline
 62
7
  6
CONTINUOUS
 70
0
 71
3
 72
10
 73
6
 74
0
 42
0.0000001
 43
0.0000001
 44
0.0000000001
 40
0.0
 40
0.0
 40
0.0
 40
0.0
 40
0.580535801
 40
0.8128724733
 40
1.0
 40
1.0
 40
1.0
 40
1.0
 10
3.5303174597
 20
1.1329865291
 30
0.0
 10
3.5403632436
 20
1.1332653177
 30
0.0
 10
3.5544288701
 20
1.1336845621
 30
0.0
 10
3.5717273346
 20
1.1343444486
 30
0.0
 10
3.5789810329
 20
1.1346824303
 30
0.0
 10
3.5822154496
 20
1.1348613836
 30
0.0
  0
SPLINE
  5
469
100
AcDbEntity
  8
0
100
AcDbSpline
 62
7
  6
CONTINUOUS
 70
0
 71
3
 72
10
 73
6
 74
0
 42
0.0000001
 43
0.0000001
 44
0.0000000001
 40
0.0
 40
0.0
 40
0.0
 40
0.0
 40
0.6223516978
 40
0.8423941032
 40
1.0
 40
1.0
 40
1.0
 40
1.0
 10
3.5822154496
 20
1.1348613836
 30
0.0
 10
3.5847007892
 20
1.1349988921
 30
0.0
 10
3.5880647353
 20
1.1352015342
 30
0.0
 10
3.5920480309
 20
1.1355608741
 30
0.0
 10
3.5935484693
 20
1.1357422427
 30
0.0
 10
3.5941704415
 20
1.1358447101
 30
0.0
  0
LINE
  5
46A
100
AcDbEntity
  8
0
100
AcDbLine
 62
7
  6
CONTINUOUS
 10
3.5941704415
 20
1.1358447101
 11
3.5954554582
 21
1.1361622969
  0
LINE
  5
46B
100
AcDbEntity
  8
0
100
AcDbLine
 62
7
  6
CONTINUOUS
 10
3.5910623074
 20
1.1127675129
 11
3.5937891898
 21
1.112455864
  0
SPLINE
  5
46C
100
AcDbEntity
  8
0
100
AcDbSpline
 62
7
  6
CONTINUOUS
 70
0
 71
3
 72
10
 73
6
 74
0
 42
0.0000001
 43
0.0000001
 44
0.0000000001
 40
0.0
 40
0.0
 40
0.0
 40
0.0
 40
0.5805801496
 40
0.8129067825
 40
1.0
 40
1.0
 40
1.0
 40
1.0
 10
3.5303174597
 20
1.1121515291
 30
0.0
 10
3.5403661158
 20
1.1124363526
 30
0.0
 10
3.5544356605
 20
1.112850038
 30
0.0
 10
3.5717381103
 20
1.1135085918
 30
0.0
 10
3.578992635
 20
1.1138476538
 30
0.0
 10
3.5822271693
 20
1.1140269847
 30
0.0
  0
LINE
  5
46D
100
AcDbEntity
  8
0
100
AcDbLine
 62
7
  6
CONTINUOUS
 10
3.5822271693
 20
1.1140269847
 11
3.5916058579
 21
1.1146922486
  0
LINE
  5
46E
100
AcDbEntity
  8
0
100
AcDbLine
 62
7
  6
CONTINUOUS
 10
3.5916058579
 20
1.1146922486
 11
3.5941704415
 21
1.1150097101
  0
LINE
  5
46F
100
AcDbEntity
  8
0
100
AcDbLine
 62
7
  6
CONTINUOUS
 10
3.5941704415
 20
1.1150097101
 11
3.5954554602
 21
1.1153272654
  0
SPLINE
  5
470
100
AcDbEntity
  8
0
100
AcDbSpline
 62
7
  6
CONTINUOUS
 70
0
 71
3
 72
14
 73
10
 74
0
 42
0.0000001
 43
0.0000001
 44
0.0000000001
 40
0.0
 40
0.0
 40
0.0
 40
0.0
 40
0.0256760933
 40
0.0767879152
 40
0.1567865493
 40
0.2662923001
 40
0.4054250497
 40
0.5741541227
 40
1.0
 40
1.0
 40
1.0
 40
1.0
 10
3.7574744997
 20
0.7024965232
 30
0.0
 10
3.7574025623
 20
0.7025019848
 30
0.0
 10
3.7572504019
 20
0.7027069648
 30
0.0
 10
3.7571196816
 20
0.7031049963
 30
0.0
 10
3.756955671
 20
0.703773141
 30
0.0
 10
3.7568011456
 20
0.7046791319
 30
0.0
 10
3.7566392965
 20
0.7058425132
 30
0.0
 10
3.7564062951
 20
0.7078901759
 30
0.0
 10
3.7562597119
 20
0.7095549929
 30
0.0
 10
3.7561637747
 20
0.7107476785
 30
0.0
  0
SPLINE
  5
471
100
AcDbEntity
  8
0
100
AcDbSpline
 62
7
  6
CONTINUOUS
 70
0
 71
3
 72
11
 73
7
 74
0
 42
0.0000001
 43
0.0000001
 44
0.0000000001
 40
0.0
 40
0.0
 40
0.0
 40
0.0
 40
0.1629624376
 40
0.3877585415
 40
0.6694805328
 40
1.0
 40
1.0
 40
1.0
 40
1.0
 10
3.7561637747
 20
0.7107476785
 30
0.0
 10
3.7558798885
 20
0.7142769359
 30
0.0
 10
3.7553802778
 20
0.7226880856
 30
0.0
 10
3.7547224895
 20
0.7372187529
 30
0.0
 10
3.7540598793
 20
0.7553931402
 30
0.0
 10
3.7536431906
 20
0.7686886718
 30
0.0
 10
3.7534301423
 20
0.7758666498
 30
0.0
  0
LINE
  5
472
100
AcDbEntity
  8
0
100
AcDbLine
 62
7
  6
CONTINUOUS
 10
3.7579000269
 20
0.7033348153
 11
3.7576561484
 21
0.7026416631
  0
SPLINE
  5
473
100
AcDbEntity
  8
0
100
AcDbSpline
 62
7
  6
CONTINUOUS
 70
0
 71
3
 72
10
 73
6
 74
0
 42
0.0000001
 43
0.0000001
 44
0.0000000001
 40
0.0
 40
0.0
 40
0.0
 40
0.0
 40
0.5685795111
 40
0.8033601326
 40
1.0
 40
1.0
 40
1.0
 40
1.0
 10
3.7319331131
 20
1.0067120887
 30
0.0
 10
3.7316147856
 20
1.0188171061
 30
0.0
 10
3.731129016
 20
1.0359198018
 30
0.0
 10
3.7303816294
 20
1.0572040288
 30
0.0
 10
3.730001105
 20
1.0663843678
 30
0.0
 10
3.7298039485
 20
1.0705676204
 30
0.0
  0
SPLINE
  5
474
100
AcDbEntity
  8
0
100
AcDbSpline
 62
7
  6
CONTINUOUS
 70
0
 71
3
 72
10
 73
6
 74
0
 42
0.0000001
 43
0.0000001
 44
0.0000000001
 40
0.0
 40
0.0
 40
0.0
 40
0.0
 40
0.6030839979
 40
0.8278163177
 40
1.0
 40
1.0
 40
1.0
 40
1.0
 10
3.7298039485
 20
1.0705676204
 30
0.0
 10
3.7296214658
 20
1.0744395219
 30
0.0
 10
3.7293485138
 20
1.0797536917
 30
0.0
 10
3.7288873883
 20
1.0861645142
 30
0.0
 10
3.7286532918
 20
1.0887053314
 30
0.0
 10
3.7285274126
 20
1.0898048245
 30
0.0
  0
LINE
  5
475
100
AcDbEntity
  8
0
100
AcDbLine
 62
7
  6
CONTINUOUS
 10
3.7285274126
 20
1.0898048245
 11
3.7281015938
 21
1.0925961496
  0
LINE
  5
476
100
AcDbEntity
  8
0
100
AcDbLine
 62
7
  6
CONTINUOUS
 10
3.7281015938
 20
1.0925961496
 11
3.7276809513
 21
1.0935108064
  0
LINE
  5
477
100
AcDbEntity
  8
0
100
AcDbLine
 62
7
  6
CONTINUOUS
 10
3.7131774481
 20
0.9258813759
 11
3.7136085858
 21
0.9062404915
  0
LINE
  5
478
100
AcDbEntity
  8
0
100
AcDbLine
 62
7
  6
CONTINUOUS
 10
3.7137126626
 20
0.9014728249
 11
3.7153343932
 21
0.8280659818
  0
LINE
  5
479
100
AcDbEntity
  8
0
100
AcDbLine
 62
7
  6
CONTINUOUS
 10
3.7153343932
 20
0.8280659818
 11
3.7158068491
 21
0.8078134239
  0
LINE
  5
47A
100
AcDbEntity
  8
0
100
AcDbLine
 62
7
  6
CONTINUOUS
 10
3.717490919
 20
0.7447814689
 11
3.7187848563
 21
0.7101342564
  0
SPLINE
  5
47B
100
AcDbEntity
  8
0
100
AcDbSpline
 62
7
  6
CONTINUOUS
 70
0
 71
3
 72
10
 73
6
 74
0
 42
0.0000001
 43
0.0000001
 44
0.0000000001
 40
0.0
 40
0.0
 40
0.0
 40
0.0
 40
0.6055207857
 40
0.8298017502
 40
1.0
 40
1.0
 40
1.0
 40
1.0
 10
3.7187848563
 20
0.7101342564
 30
0.0
 10
3.7189696083
 20
0.7062256298
 30
0.0
 10
3.7192455016
 20
0.7008698073
 30
0.0
 10
3.7197128229
 20
0.6944244546
 30
0.0
 10
3.7199504771
 20
0.6918858138
 30
0.0
 10
3.7200788171
 20
0.6907934739
 30
0.0
  0
LINE
  5
47C
100
AcDbEntity
  8
0
100
AcDbLine
 62
7
  6
CONTINUOUS
 10
3.7200788171
 20
0.6907934739
 11
3.7205101219
 21
0.6880728664
  0
LINE
  5
47D
100
AcDbEntity
  8
0
100
AcDbLine
 62
7
  6
CONTINUOUS
 10
3.7205101219
 20
0.6880728664
 11
3.7209045537
 21
0.6872632447
  0
SPLINE
  5
47E
100
AcDbEntity
  8
0
100
AcDbSpline
 62
7
  6
CONTINUOUS
 70
0
 71
3
 72
31
 73
27
 74
0
 42
0.0000001
 43
0.0000001
 44
0.0000000001
 40
0.0
 40
0.0
 40
0.0
 40
0.0
 40
0.1497839972
 40
0.2321056953
 40
0.3171903516
 40
0.403456067
 40
0.4892632294
 40
0.5729280936
 40
0.6528290788
 40
0.7274301618
 40
0.7952761275
 40
0.826264131
 40
0.85508621
 40
0.8815929009
 40
0.9056677638
 40
0.9272036811
 40
0.9460938061
 40
0.9622335203
 40
0.9755496174
 40
0.9859966251
 40
0.9935345611
 40
0.9962046208
 40
0.9981434232
 40
0.9988440621
 40
0.9993737373
 40
1.0
 40
1.0
 40
1.0
 40
1.0
 10
3.7565551423
 20
0.7758571525
 30
0.0
 10
3.7561063384
 20
0.7909670925
 30
0.0
 10
3.7554861948
 20
0.8143837141
 30
0.0
 10
3.754697454
 20
0.8463856861
 30
0.0
 10
3.7540880357
 20
0.8719797046
 30
0.0
 10
3.7534782928
 20
0.8979255695
 30
0.0
 10
3.7528686647
 20
0.9237281103
 30
0.0
 10
3.752259237
 20
0.948888128
 30
0.0
 10
3.7516504294
 20
0.9729168726
 30
0.0
 10
3.7510427099
 20
0.9953486174
 30
0.0
 10
3.7505228652
 20
1.0128444643
 30
0.0
 10
3.7501015266
 20
1.0257209743
 30
0.0
 10
3.7497954094
 20
1.0344269258
 30
0.0
 10
3.7494894483
 20
1.042434726
 30
0.0
 10
3.7491839071
 20
1.0497066216
 30
0.0
 10
3.748878955
 20
1.0562091108
 30
0.0
 10
3.7485751263
 20
1.0619098443
 30
0.0
 10
3.7482720964
 20
1.0667797044
 30
0.0
 10
3.7479722308
 20
1.0707957941
 30
0.0
 10
3.7476734617
 20
1.0739409176
 30
0.0
 10
3.747414962
 20
1.0760098479
 30
0.0
 10
3.7471882684
 20
1.0772162028
 30
0.0
 10
3.7470592261
 20
1.0777349217
 30
0.0
 10
3.7469440098
 20
1.0780376464
 30
0.0
 10
3.7468635457
 20
1.0781986661
 30
0.0
 10
3.7467673138
 20
1.0783030822
 30
0.0
 10
3.746704121
 20
1.0783018886
 30
0.0
  0
SPLINE
  5
47F
100
AcDbEntity
  8
0
100
AcDbSpline
 62
7
  6
CONTINUOUS
 70
0
 71
3
 72
23
 73
19
 74
0
 42
0.0000001
 43
0.0000001
 44
0.0000000001
 40
0.0
 40
0.0
 40
0.0
 40
0.0
 40
0.1442977004
 40
0.3054445252
 40
0.4718107873
 40
0.5532690484
 40
0.6315955235
 40
0.7054024693
 40
0.7733425499
 40
0.834227334
 40
0.8869411679
 40
0.9305541457
 40
0.9487061193
 40
0.9642959609
 40
0.977258107
 40
0.9875516836
 40
0.9951403009
 40
1.0
 40
1.0
 40
1.0
 40
1.0
 10
3.7534301423
 20
0.7758571525
 30
0.0
 10
3.7529988199
 20
0.7903785405
 30
0.0
 10
3.7521812728
 20
0.821119731
 30
0.0
 10
3.7510381675
 20
0.8686075473
 30
0.0
 10
3.7500775853
 20
0.9097712979
 30
0.0
 10
3.7492884213
 20
0.9425984718
 30
0.0
 10
3.7487009995
 20
0.9661089877
 30
0.0
 10
3.748114644
 20
0.9882580888
 30
0.0
 10
3.7475290135
 20
1.00865053
 30
0.0
 10
3.7469457726
 20
1.0269184725
 30
0.0
 10
3.7463648138
 20
1.0427358021
 30
0.0
 10
3.7458595814
 20
1.0542506238
 30
0.0
 10
3.7454427132
 20
1.0620274922
 30
0.0
 10
3.7451508695
 20
1.0667207654
 30
0.0
 10
3.7448597719
 20
1.0706206149
 30
0.0
 10
3.7445749216
 20
1.0737141401
 30
0.0
 10
3.7442904097
 20
1.0759844353
 30
0.0
 10
3.7440744087
 20
1.0772233228
 30
0.0
 10
3.7439372133
 20
1.0776929648
 30
0.0
  0
LINE
  5
480
100
AcDbEntity
  8
0
100
AcDbLine
 62
7
  6
CONTINUOUS
 10
3.7439372133
 20
1.0776929648
 11
3.7437599639
 21
1.0781484287
  0
SPLINE
  5
481
100
AcDbEntity
  8
0
100
AcDbSpline
 62
7
  6
CONTINUOUS
 70
0
 71
3
 72
12
 73
8
 74
0
 42
0.0000001
 43
0.0000001
 44
0.0000000001
 40
0.0
 40
0.0
 40
0.0
 40
0.0
 40
0.4020360339
 40
0.7012133702
 40
0.8985912588
 40
0.9603810885
 40
1.0
 40
1.0
 40
1.0
 40
1.0
 10
3.7061621482
 20
1.0898426042
 30
0.0
 10
3.7062197208
 20
1.090343629
 30
0.0
 10
3.7063289554
 20
1.091217399
 30
0.0
 10
3.7065158597
 20
1.0923269768
 30
0.0
 10
3.7066779516
 20
1.0930138835
 30
0.0
 10
3.7068231379
 20
1.0933574971
 30
0.0
 10
3.7068999654
 20
1.0934654385
 30
0.0
 10
3.7069415607
 20
1.0934926377
 30
0.0
  0
LINE
  5
482
100
AcDbEntity
  8
0
100
AcDbLine
 62
7
  6
CONTINUOUS
 10
3.7446544182
 20
0.7665868636
 11
3.7463949248
 21
0.7142890754
  0
SPLINE
  5
483
100
AcDbEntity
  8
0
100
AcDbSpline
 62
7
  6
CONTINUOUS
 70
0
 71
3
 72
10
 73
6
 74
0
 42
0.0000001
 43
0.0000001
 44
0.0000000001
 40
0.0
 40
0.0
 40
0.0
 40
0.0
 40
0.5939098985
 40
0.8210705093
 40
1.0
 40
1.0
 40
1.0
 40
1.0
 10
3.7463949248
 20
0.7142890754
 30
0.0
 10
3.746583906
 20
0.7099635893
 30
0.0
 10
3.7468689735
 20
0.7039843481
 30
0.0
 10
3.7473380664
 20
0.6967093429
 30
0.0
 10
3.7475763402
 20
0.6937582223
 30
0.0
 10
3.7477023411
 20
0.6924599235
 30
0.0
  0
SPLINE
  5
484
100
AcDbEntity
  8
0
100
AcDbSpline
 62
7
  6
CONTINUOUS
 70
0
 71
3
 72
12
 73
8
 74
0
 42
0.0000001
 43
0.0000001
 44
0.0000000001
 40
0.0
 40
0.0
 40
0.0
 40
0.0
 40
0.3875726481
 40
0.6832340793
 40
0.8867740008
 40
0.9543579883
 40
1.0
 40
1.0
 40
1.0
 40
1.0
 10
3.7477023411
 20
0.6924599235
 30
0.0
 10
3.747767235
 20
0.6917912642
 30
0.0
 10
3.7478911036
 20
0.6906129418
 30
0.0
 10
3.748101141
 20
0.6890911608
 30
0.0
 10
3.7482826705
 20
0.688122556
 30
0.0
 10
3.7484440746
 20
0.6875984053
 30
0.0
 10
3.7485260802
 20
0.687417297
 30
0.0
 10
3.7485727065
 20
0.6873533832
 30
0.0
  0
SPLINE
  5
485
100
AcDbEntity
  8
0
100
AcDbSpline
 62
7
  6
CONTINUOUS
 70
0
 71
3
 72
9
 73
5
 74
0
 42
0.0000001
 43
0.0000001
 44
0.0000000001
 40
0.0
 40
0.0
 40
0.0
 40
0.0
 40
0.5257715426
 40
1.0
 40
1.0
 40
1.0
 40
1.0
 10
3.7409774481
 20
0.9258813759
 30
0.0
 10
3.741589587
 20
0.8979631226
 30
0.0
 10
3.7427313481
 20
0.8448631201
 30
0.0
 10
3.7439667527
 20
0.7917648635
 30
0.0
 10
3.7446544182
 20
0.7665868636
 30
0.0
  0
LINE
  5
486
100
AcDbEntity
  8
0
100
AcDbLine
 62
7
  6
CONTINUOUS
 10
3.7575760119
 20
1.0711600439
 11
3.756713707
 21
1.0856771606
  0
SPLINE
  5
487
100
AcDbEntity
  8
0
100
AcDbSpline
 62
7
  6
CONTINUOUS
 70
0
 71
3
 72
11
 73
7
 74
0
 42
0.0000001
 43
0.0000001
 44
0.0000000001
 40
0.0
 40
0.0
 40
0.0
 40
0.0
 40
0.3477492589
 40
0.630689789
 40
0.8482235918
 40
1.0
 40
1.0
 40
1.0
 40
1.0
 10
3.756713707
 20
1.0856771606
 30
0.0
 10
3.7566479174
 20
1.0865072562
 30
0.0
 10
3.7565196242
 20
1.0880120029
 30
0.0
 10
3.7563099712
 20
1.0900326704
 30
0.0
 10
3.7561021223
 20
1.0915803873
 30
0.0
 10
3.7559426555
 20
1.092451783
 30
0.0
 10
3.7558509798
 20
1.0928034647
 30
0.0
  0
LINE
  5
488
100
AcDbEntity
  8
0
100
AcDbLine
 62
7
  6
CONTINUOUS
 10
3.7558509798
 20
1.0928034647
 11
3.7554809714
 21
1.0935110981
  0
LINE
  5
489
100
AcDbEntity
  8
0
100
AcDbLine
 62
7
  6
CONTINUOUS
 10
3.7601594608
 20
0.9901331223
 11
3.7597331131
 21
1.0067120887
  0
LINE
  5
48A
100
AcDbEntity
  8
0
100
AcDbLine
 62
7
  6
CONTINUOUS
 10
3.7653308664
 20
0.7665868636
 11
3.7649210735
 21
0.7819691805
  0
LINE
  5
48B
100
AcDbEntity
  8
0
100
AcDbLine
 62
7
  6
CONTINUOUS
 10
3.7620642134
 20
0.9072906573
 11
3.7616538962
 21
0.9258813759
  0
SPLINE
  5
48C
100
AcDbEntity
  8
0
100
AcDbSpline
 62
7
  6
CONTINUOUS
 70
0
 71
3
 72
12
 73
8
 74
0
 42
0.0000001
 43
0.0000001
 44
0.0000000001
 40
0.0
 40
0.0
 40
0.0
 40
0.0
 40
0.0988219517
 40
0.1815436402
 40
0.290371524
 40
0.5896796898
 40
1.0
 40
1.0
 40
1.0
 40
1.0
 10
3.7157784852
 20
1.0783112101
 30
0.0
 10
3.7157164526
 20
1.078310463
 30
0.0
 10
3.7156240134
 20
1.0782089063
 30
0.0
 10
3.7155448405
 20
1.0780522344
 30
0.0
 10
3.7154330782
 20
1.0777610701
 30
0.0
 10
3.7153071766
 20
1.0772641973
 30
0.0
 10
3.7152226937
 20
1.0768260096
 30
0.0
 10
3.7151786949
 20
1.07657221
 30
0.0
  0
SPLINE
  5
48D
100
AcDbEntity
  8
0
100
AcDbSpline
 62
7
  6
CONTINUOUS
 70
0
 71
3
 72
13
 73
9
 74
0
 42
0.0000001
 43
0.0000001
 44
0.0000000001
 40
0.0
 40
0.0
 40
0.0
 40
0.0
 40
0.0262000801
 40
0.0771566843
 40
0.1569563606
 40
0.2663228719
 40
0.5740846803
 40
1.0
 40
1.0
 40
1.0
 40
1.0
 10
3.1840581411
 20
1.0783097279
 30
0.0
 10
3.1841096552
 20
1.0783081736
 30
0.0
 10
3.1842264213
 20
1.0781726109
 30
0.0
 10
3.1843239493
 20
1.0778929713
 30
0.0
 10
3.1844474496
 20
1.0774297975
 30
0.0
 10
3.1846224754
 20
1.0764713503
 30
0.0
 10
3.1848334266
 20
1.0748230064
 30
0.0
 10
3.1849692388
 20
1.0733871098
 30
0.0
 10
3.1850412477
 20
1.072552402
 30
0.0
  0
LINE
  5
48E
100
AcDbEntity
  8
0
100
AcDbLine
 62
7
  6
CONTINUOUS
 10
3.1850412477
 20
1.072552402
 11
3.1854503039
 21
1.0668590836
  0
LINE
  5
48F
100
AcDbEntity
  8
0
100
AcDbLine
 62
7
  6
CONTINUOUS
 10
3.1870870418
 20
1.0263381387
 11
3.1871211574
 21
1.0252208316
  0
LINE
  5
490
100
AcDbEntity
  8
0
100
AcDbLine
 62
7
  6
CONTINUOUS
 10
3.1938894652
 20
0.7430999792
 11
3.1940551423
 21
0.7383708177
  0
SPLINE
  5
491
100
AcDbEntity
  8
0
100
AcDbSpline
 62
7
  6
CONTINUOUS
 70
0
 71
3
 72
15
 73
11
 74
0
 42
0.0000001
 43
0.0000001
 44
0.0000000001
 40
0.0
 40
0.0
 40
0.0
 40
0.0
 40
0.0231704629
 40
0.0442579605
 40
0.0725690317
 40
0.1516124313
 40
0.2610620434
 40
0.4008983985
 40
0.5708728023
 40
1.0
 40
1.0
 40
1.0
 40
1.0
 10
3.7296821126
 20
0.7024746899
 30
0.0
 10
3.7296008591
 20
0.7024732281
 30
0.0
 10
3.7294874912
 20
0.7026335008
 30
0.0
 10
3.7293942964
 20
0.7028547632
 30
0.0
 10
3.7292556762
 20
0.7032915828
 30
0.0
 10
3.7291017734
 20
0.7040321504
 30
0.0
 10
3.7289218414
 20
0.7051720165
 30
0.0
 10
3.7287423668
 20
0.706630873
 30
0.0
 10
3.7284790241
 20
0.7092096621
 30
0.0
 10
3.7283145531
 20
0.7113045706
 30
0.0
 10
3.7282063978
 20
0.7128057742
 30
0.0
  0
LINE
  5
492
100
AcDbEntity
  8
0
100
AcDbLine
 62
7
  6
CONTINUOUS
 10
3.7282063978
 20
0.7128057742
 11
3.7273108656
 21
0.7287810786
  0
SPLINE
  5
493
100
AcDbEntity
  8
0
100
AcDbSpline
 62
7
  6
CONTINUOUS
 70
0
 71
3
 72
9
 73
5
 74
0
 42
0.0000001
 43
0.0000001
 44
0.0000000001
 40
0.0
 40
0.0
 40
0.0
 40
0.0
 40
0.4484868583
 40
1.0
 40
1.0
 40
1.0
 40
1.0
 10
3.7268631058
 20
0.7392946064
 30
0.0
 10
3.7264300604
 20
0.7502262068
 30
0.0
 10
3.7256343507
 20
0.7746071859
 30
0.0
 10
3.7249706297
 20
0.7989916545
 30
0.0
 10
3.7246226791
 20
0.8124405025
 30
0.0
  0
LINE
  5
494
100
AcDbEntity
  8
0
100
AcDbLine
 62
7
  6
CONTINUOUS
 10
3.7246226791
 20
0.8124405025
 11
3.724174231
 21
0.8301430813
  0
LINE
  5
495
100
AcDbEntity
  8
0
100
AcDbLine
 62
7
  6
CONTINUOUS
 10
3.7210312233
 20
0.9607897033
 11
3.7205816649
 21
0.97809675
  0
LINE
  5
496
100
AcDbEntity
  8
0
100
AcDbLine
 62
7
  6
CONTINUOUS
 10
3.7205816649
 20
0.97809675
 11
3.7187823849
 21
1.036681057
  0
SPLINE
  5
497
100
AcDbEntity
  8
0
100
AcDbSpline
 62
7
  6
CONTINUOUS
 70
0
 71
3
 72
10
 73
6
 74
0
 42
0.0000001
 43
0.0000001
 44
0.0000000001
 40
0.0
 40
0.0
 40
0.0
 40
0.0
 40
0.5989292005
 40
0.8253885385
 40
1.0
 40
1.0
 40
1.0
 40
1.0
 10
3.7187823849
 20
1.036681057
 30
0.0
 10
3.7185220353
 20
1.0436235466
 30
0.0
 10
3.7181333864
 20
1.0531904197
 30
0.0
 10
3.7174873377
 20
1.0647721451
 30
0.0
 10
3.7171585192
 20
1.0694132988
 30
0.0
 10
3.7169813706
 20
1.071430969
 30
0.0
  0
SPLINE
  5
498
100
AcDbEntity
  8
0
100
AcDbSpline
 62
7
  6
CONTINUOUS
 70
0
 71
3
 72
11
 73
7
 74
0
 42
0.0000001
 43
0.0000001
 44
0.0000000001
 40
0.0
 40
0.0
 40
0.0
 40
0.0
 40
0.3589937529
 40
0.6453502891
 40
0.8589151794
 40
1.0
 40
1.0
 40
1.0
 40
1.0
 10
3.7169813706
 20
1.071430969
 30
0.0
 10
3.7169131582
 20
1.0722078872
 30
0.0
 10
3.7167805588
 20
1.0736035173
 30
0.0
 10
3.7165629982
 20
1.0754576293
 30
0.0
 10
3.7163468398
 20
1.0768324386
 30
0.0
 10
3.7161806664
 20
1.0775879344
 30
0.0
 10
3.7160802188
 20
1.0778775117
 30
0.0
  0
SPLINE
  5
499
100
AcDbEntity
  8
0
100
AcDbSpline
 62
7
  6
CONTINUOUS
 70
0
 71
3
 72
13
 73
9
 74
0
 42
0.0000001
 43
0.0000001
 44
0.0000000001
 40
0.0
 40
0.0
 40
0.0
 40
0.0
 40
0.0440341818
 40
0.1106930509
 40
0.2005283155
 40
0.3137286884
 40
0.610409076
 40
1.0
 40
1.0
 40
1.0
 40
1.0
 10
3.7275126438
 20
1.0933630804
 30
0.0
 10
3.727451293
 20
1.0932558305
 30
0.0
 10
3.7273473697
 20
1.0929599237
 30
0.0
 10
3.7272140964
 20
1.0924140842
 30
0.0
 10
3.7270793951
 20
1.0916686008
 30
0.0
 10
3.7268788416
 20
1.0902809492
 30
0.0
 10
3.7266414304
 20
1.088049493
 30
0.0
 10
3.7264818654
 20
1.0861305143
 30
0.0
 10
3.7263988206
 20
1.0850405026
 30
0.0
  0
SPLINE
  5
49A
100
AcDbEntity
  8
0
100
AcDbSpline
 62
7
  6
CONTINUOUS
 70
0
 71
3
 72
14
 73
10
 74
0
 42
0.0000001
 43
0.0000001
 44
0.0000000001
 40
0.0
 40
0.0
 40
0.0
 40
0.0
 40
0.0427544049
 40
0.1085412341
 40
0.1978883707
 40
0.3109601855
 40
0.4478074798
 40
0.6084060615
 40
1.0
 40
1.0
 40
1.0
 40
1.0
 10
3.7553123085
 20
1.0933624722
 30
0.0
 10
3.755245912
 20
1.0932460301
 30
0.0
 10
3.755135484
 20
1.0929203764
 30
0.0
 10
3.7549936697
 20
1.0923175071
 30
0.0
 10
3.7548505333
 20
1.0914879206
 30
0.0
 10
3.7547051011
 20
1.0904344065
 30
0.0
 10
3.754558993
 20
1.0891555027
 30
0.0
 10
3.7543492795
 20
1.0870054343
 30
0.0
 10
3.7542141187
 20
1.0852793263
 30
0.0
 10
3.7541257111
 20
1.0840548021
 30
0.0
  0
LINE
  5
49B
100
AcDbEntity
  8
0
100
AcDbLine
 62
7
  6
CONTINUOUS
 10
3.7424801158
 20
0.6914459306
 11
3.742048811
 21
0.6884005923
  0
SPLINE
  5
49C
100
AcDbEntity
  8
0
100
AcDbSpline
 62
7
  6
CONTINUOUS
 70
0
 71
3
 72
10
 73
6
 74
0
 42
0.0000001
 43
0.0000001
 44
0.0000000001
 40
0.0
 40
0.0
 40
0.0
 40
0.0
 40
0.6991385002
 40
0.8917526027
 40
1.0
 40
1.0
 40
1.0
 40
1.0
 10
3.742048811
 20
0.6884005923
 30
0.0
 10
3.7419893267
 20
0.688111966
 30
0.0
 10
3.7419006551
 20
0.6877391207
 30
0.0
 10
3.7417366712
 20
0.6873587418
 30
0.0
 10
3.7416266316
 20
0.6872631326
 30
0.0
 10
3.7415810046
 20
0.6872632437
 30
0.0
  0
SPLINE
  5
49D
100
AcDbEntity
  8
0
100
AcDbSpline
 62
7
  6
CONTINUOUS
 70
0
 71
3
 72
13
 73
9
 74
0
 42
0.0000001
 43
0.0000001
 44
0.0000000001
 40
0.0
 40
0.0
 40
0.0
 40
0.0
 40
0.0443215569
 40
0.1112568609
 40
0.201311773
 40
0.3146194874
 40
0.6109816817
 40
1.0
 40
1.0
 40
1.0
 40
1.0
 10
3.7414155701
 20
0.6874062386
 30
0.0
 10
3.7413555453
 20
0.6875097701
 30
0.0
 10
3.7412536401
 20
0.6877955174
 30
0.0
 10
3.7411229791
 20
0.6883223526
 30
0.0
 10
3.7409908834
 20
0.6890409368
 30
0.0
 10
3.7407943975
 20
0.6903757706
 30
0.0
 10
3.7405613839
 20
0.6925204662
 30
0.0
 10
3.7404048877
 20
0.6943644165
 30
0.0
 10
3.7403235319
 20
0.6954116576
 30
0.0
  0
LINE
  5
49E
100
AcDbEntity
  8
0
100
AcDbLine
 62
7
  6
CONTINUOUS
 10
3.7403235319
 20
0.6954116576
 11
3.7394609009
 21
0.7101428694
  0
SPLINE
  5
49F
100
AcDbEntity
  8
0
100
AcDbSpline
 62
7
  6
CONTINUOUS
 70
0
 71
3
 72
12
 73
8
 74
0
 42
0.0000001
 43
0.0000001
 44
0.0000000001
 40
0.0
 40
0.0
 40
0.0
 40
0.0
 40
0.0789652553
 40
0.1768671137
 40
0.4192543568
 40
0.7030146282
 40
1.0
 40
1.0
 40
1.0
 40
1.0
 10
3.7394609009
 20
0.7101428694
 30
0.0
 10
3.7391927373
 20
0.7158171576
 30
0.0
 10
3.7386877229
 20
0.7285309322
 30
0.0
 10
3.7377074888
 20
0.7586754905
 30
0.0
 10
3.7365554454
 20
0.8035541086
 30
0.0
 10
3.7352242495
 20
0.8627538055
 30
0.0
 10
3.7343271798
 20
0.9045220146
 30
0.0
 10
3.7338538962
 20
0.9258813759
 30
0.0
  0
SPLINE
  5
4A0
100
AcDbEntity
  8
0
100
AcDbSpline
 62
7
  6
CONTINUOUS
 70
0
 71
3
 72
14
 73
10
 74
0
 42
0.0000001
 43
0.0000001
 44
0.0000000001
 40
0.0
 40
0.0
 40
0.0
 40
0.0
 40
0.0421720298
 40
0.1076157535
 40
0.1969456383
 40
0.3102635838
 40
0.447430709
 40
0.608255195
 40
1.0
 40
1.0
 40
1.0
 40
1.0
 10
3.7326263395
 20
0.7026277219
 30
0.0
 10
3.732553395
 20
0.7027525529
 30
0.0
 10
3.7324328859
 20
0.7031056901
 30
0.0
 10
3.7322782121
 20
0.7037615551
 30
0.0
 10
3.73212225
 20
0.7046685119
 30
0.0
 10
3.7319636832
 20
0.7058224789
 30
0.0
 10
3.7318043188
 20
0.7072237744
 30
0.0
 10
3.7315755018
 20
0.7095773579
 30
0.0
 10
3.7314279082
 20
0.7114662028
 30
0.0
 10
3.7313313978
 20
0.7128057742
 30
0.0
  0
LINE
  5
4A1
100
AcDbEntity
  8
0
100
AcDbLine
 62
7
  6
CONTINUOUS
 10
3.7313313978
 20
0.7128057742
 11
3.7304358656
 21
0.7287810786
  0
SPLINE
  5
4A2
100
AcDbEntity
  8
0
100
AcDbSpline
 62
7
  6
CONTINUOUS
 70
0
 71
3
 72
10
 73
6
 74
0
 42
0.0000001
 43
0.0000001
 44
0.0000000001
 40
0.0
 40
0.0
 40
0.0
 40
0.0
 40
0.1957013264
 40
0.4313582668
 40
1.0
 40
1.0
 40
1.0
 40
1.0
 10
3.7304358656
 20
0.7287810786
 30
0.0
 10
3.7301842376
 20
0.7342355826
 30
0.0
 10
3.7297032767
 20
0.7462615871
 30
0.0
 10
3.728768203
 20
0.7741471965
 30
0.0
 10
3.728158024
 20
0.7965800138
 30
0.0
 10
3.7277476791
 20
0.8124405025
 30
0.0
  0
LINE
  5
4A3
100
AcDbEntity
  8
0
100
AcDbLine
 62
7
  6
CONTINUOUS
 10
3.7277476791
 20
0.8124405025
 11
3.727299231
 21
0.8301430813
  0
LINE
  5
4A4
100
AcDbEntity
  8
0
100
AcDbLine
 62
7
  6
CONTINUOUS
 10
3.7241562233
 20
0.9607897033
 11
3.7237066649
 21
0.97809675
  0
LINE
  5
4A5
100
AcDbEntity
  8
0
100
AcDbLine
 62
7
  6
CONTINUOUS
 10
3.7237066649
 20
0.97809675
 11
3.7219073849
 21
1.036681057
  0
SPLINE
  5
4A6
100
AcDbEntity
  8
0
100
AcDbSpline
 62
7
  6
CONTINUOUS
 70
0
 71
3
 72
10
 73
6
 74
0
 42
0.0000001
 43
0.0000001
 44
0.0000000001
 40
0.0
 40
0.0
 40
0.0
 40
0.0
 40
0.5989292005
 40
0.8253885385
 40
1.0
 40
1.0
 40
1.0
 40
1.0
 10
3.7219073849
 20
1.036681057
 30
0.0
 10
3.7216470353
 20
1.0436235466
 30
0.0
 10
3.7212583864
 20
1.0531904197
 30
0.0
 10
3.7206123377
 20
1.0647721451
 30
0.0
 10
3.7202835192
 20
1.0694132988
 30
0.0
 10
3.7201063706
 20
1.071430969
 30
0.0
  0
SPLINE
  5
4A7
100
AcDbEntity
  8
0
100
AcDbSpline
 62
7
  6
CONTINUOUS
 70
0
 71
3
 72
14
 73
10
 74
0
 42
0.0000001
 43
0.0000001
 44
0.0000000001
 40
0.0
 40
0.0
 40
0.0
 40
0.0
 40
0.4272041409
 40
0.7348686001
 40
0.8438708849
 40
0.9232191656
 40
0.9520156059
 40
0.9738766223
 40
1.0
 40
1.0
 40
1.0
 40
1.0
 10
3.7201063706
 20
1.071430969
 30
0.0
 10
3.720018402
 20
1.0724329045
 30
0.0
 10
3.7198506462
 20
1.0741550682
 30
0.0
 10
3.7195978384
 20
1.0761262439
 30
0.0
 10
3.7193763315
 20
1.0772743195
 30
0.0
 10
3.7192500322
 20
1.0777685564
 30
0.0
 10
3.7191377476
 20
1.0780573211
 30
0.0
 10
3.7190586287
 20
1.0782122927
 30
0.0
 10
3.7189649844
 20
1.0783119508
 30
0.0
 10
3.7189034852
 20
1.0783112101
 30
0.0
  0
SPLINE
  5
4A8
100
AcDbEntity
  8
0
100
AcDbSpline
 62
7
  6
CONTINUOUS
 70
0
 71
3
 72
13
 73
9
 74
0
 42
0.0000001
 43
0.0000001
 44
0.0000000001
 40
0.0
 40
0.0
 40
0.0
 40
0.0
 40
0.0426868071
 40
0.1085153431
 40
0.1980586275
 40
0.3114535942
 40
0.6091688042
 40
1.0
 40
1.0
 40
1.0
 40
1.0
 10
3.5954932554
 20
1.1156245284
 30
0.0
 10
3.5953968343
 20
1.1156790737
 30
0.0
 10
3.5951270595
 20
1.1157696023
 30
0.0
 10
3.5946273141
 20
1.1158858686
 30
0.0
 10
3.5939389355
 20
1.1160031751
 30
0.0
 10
3.5926516453
 20
1.1161781876
 30
0.0
 10
3.5905800922
 20
1.1163852217
 30
0.0
 10
3.5887986872
 20
1.1165246433
 30
0.0
 10
3.5877870077
 20
1.1165972029
 30
0.0
  0
SPLINE
  5
4A9
100
AcDbEntity
  8
0
100
AcDbSpline
 62
7
  6
CONTINUOUS
 70
0
 71
3
 72
16
 73
12
 74
0
 42
0.0000001
 43
0.0000001
 44
0.0000000001
 40
0.0
 40
0.0
 40
0.0
 40
0.0
 40
0.0224305123
 40
0.0434183608
 40
0.0717257455
 40
0.1509403358
 40
0.260716679
 40
0.4009588982
 40
0.5712417252
 40
0.7710881954
 40
1.0
 40
1.0
 40
1.0
 40
1.0
 10
3.5829071678
 20
1.1228210054
 30
0.0
 10
3.5829082891
 20
1.1227463003
 30
0.0
 10
3.5827509901
 20
1.122647365
 30
0.0
 10
3.5825430677
 20
1.1225652759
 30
0.0
 10
3.5821244276
 20
1.1224422315
 30
0.0
 10
3.5814184096
 20
1.1223056492
 30
0.0
 10
3.580330787
 20
1.1221458813
 30
0.0
 10
3.5789406898
 20
1.1219866002
 30
0.0
 10
3.5772479884
 20
1.1218251291
 30
0.0
 10
3.5752592917
 20
1.1216632855
 30
0.0
 10
3.5738347056
 20
1.1215618086
 30
0.0
 10
3.5730739595
 20
1.1215104243
 30
0.0
  0
SPLINE
  5
4AA
100
AcDbEntity
  8
0
100
AcDbSpline
 62
7
  6
CONTINUOUS
 70
0
 71
3
 72
11
 73
7
 74
0
 42
0.0000001
 43
0.0000001
 44
0.0000000001
 40
0.0
 40
0.0
 40
0.0
 40
0.0
 40
0.1706036498
 40
0.400445327
 40
0.6811214172
 40
1.0
 40
1.0
 40
1.0
 40
1.0
 10
3.5730739595
 20
1.1215104243
 30
0.0
 10
3.5690700853
 20
1.1212399842
 30
0.0
 10
3.559662006
 20
1.1207608111
 30
0.0
 10
3.5436530312
 20
1.1201279289
 30
0.0
 10
3.5241539099
 20
1.1194907558
 30
0.0
 10
3.5100569025
 20
1.1190824402
 30
0.0
 10
3.5025590571
 20
1.1188729756
 30
0.0
  0
SPLINE
  5
4AB
100
AcDbEntity
  8
0
100
AcDbSpline
 62
7
  6
CONTINUOUS
 70
0
 71
3
 72
13
 73
9
 74
0
 42
0.0000001
 43
0.0000001
 44
0.0000000001
 40
0.0
 40
0.0
 40
0.0
 40
0.0
 40
0.0419808834
 40
0.1072753594
 40
0.196488511
 40
0.3097689964
 40
0.6079037747
 40
1.0
 40
1.0
 40
1.0
 40
1.0
 10
3.5955019152
 20
1.1326218934
 30
0.0
 10
3.5954078261
 20
1.1325666907
 30
0.0
 10
3.5951409215
 20
1.1324757359
 30
0.0
 10
3.5946449616
 20
1.1323589571
 30
0.0
 10
3.5939582642
 20
1.1322411134
 30
0.0
 10
3.5926695558
 20
1.1320649488
 30
0.0
 10
3.5905913018
 20
1.1318567107
 30
0.0
 10
3.5888032715
 20
1.1317166554
 30
0.0
 10
3.5877870171
 20
1.1316437806
 30
0.0
  0
LINE
  5
4AC
100
AcDbEntity
  8
0
100
AcDbLine
 62
7
  6
CONTINUOUS
 10
3.5877870171
 20
1.1316437806
 11
3.5765550925
 21
1.1310092827
  0
LINE
  5
4AD
100
AcDbEntity
  8
0
100
AcDbLine
 62
7
  6
CONTINUOUS
 10
3.5765550925
 20
1.1310092827
 11
3.5303174597
 21
1.129421226
  0
SPLINE
  5
4AE
100
AcDbEntity
  8
0
100
AcDbSpline
 62
7
  6
CONTINUOUS
 70
0
 71
3
 72
14
 73
10
 74
0
 42
0.0000001
 43
0.0000001
 44
0.0000000001
 40
0.0
 40
0.0
 40
0.0
 40
0.0
 40
0.0407345398
 40
0.1052720608
 40
0.1941825571
 40
0.3075618234
 40
0.4451654581
 40
0.6066712591
 40
1.0
 40
1.0
 40
1.0
 40
1.0
 10
3.5827790983
 20
1.1252760548
 30
0.0
 10
3.5826640539
 20
1.1252092831
 30
0.0
 10
3.5823330236
 20
1.1251018845
 30
0.0
 10
3.5817158551
 20
1.1249633788
 30
0.0
 10
3.5808545299
 20
1.1248240129
 30
0.0
 10
3.5797539998
 20
1.1246819876
 30
0.0
 10
3.5784143986
 20
1.1245392658
 30
0.0
 10
3.5761625773
 20
1.124334252
 30
0.0
 10
3.5743554444
 20
1.1242019817
 30
0.0
 10
3.5730739595
 20
1.1241154243
 30
0.0
  0
SPLINE
  5
4AF
100
AcDbEntity
  8
0
100
AcDbSpline
 62
7
  6
CONTINUOUS
 70
0
 71
3
 72
11
 73
7
 74
0
 42
0.0000001
 43
0.0000001
 44
0.0000000001
 40
0.0
 40
0.0
 40
0.0
 40
0.0
 40
0.1706036498
 40
0.400445327
 40
0.6811214172
 40
1.0
 40
1.0
 40
1.0
 40
1.0
 10
3.5730739595
 20
1.1241154243
 30
0.0
 10
3.5690700853
 20
1.1238449842
 30
0.0
 10
3.559662006
 20
1.1233658111
 30
0.0
 10
3.5436530312
 20
1.1227329289
 30
0.0
 10
3.5241539099
 20
1.1220957558
 30
0.0
 10
3.5100569025
 20
1.1216874402
 30
0.0
 10
3.5025590571
 20
1.1214779756
 30
0.0
  0
SPLINE
  5
4B0
100
AcDbEntity
  8
0
100
AcDbSpline
 62
7
  6
CONTINUOUS
 70
0
 71
3
 72
13
 73
9
 74
0
 42
0.0000001
 43
0.0000001
 44
0.0000000001
 40
0.0
 40
0.0
 40
0.0
 40
0.0
 40
0.0424222358
 40
0.1080508687
 40
0.1974706773
 40
0.310822927
 40
0.608695355
 40
1.0
 40
1.0
 40
1.0
 40
1.0
 10
3.5954965389
 20
1.1364576542
 30
0.0
 10
3.5954009849
 20
1.1365124422
 30
0.0
 10
3.595132285
 20
1.1366031276
 30
0.0
 10
3.59463395
 20
1.136719583
 30
0.0
 10
3.5939461972
 20
1.1368370911
 30
0.0
 10
3.5926583688
 20
1.1370125396
 30
0.0
 10
3.5905842998
 20
1.1372200352
 30
0.0
 10
3.5888004075
 20
1.1373596981
 30
0.0
 10
3.5877870119
 20
1.137432376
 30
0.0
  0
SPLINE
  5
4B1
100
AcDbEntity
  8
0
100
AcDbSpline
 62
7
  6
CONTINUOUS
 70
0
 71
3
 72
15
 73
11
 74
0
 42
0.0000001
 43
0.0000001
 44
0.0000000001
 40
0.0
 40
0.0
 40
0.0
 40
0.0
 40
0.0225515576
 40
0.0719269499
 40
0.1511135888
 40
0.2605594795
 40
0.4003226742
 40
0.5703488098
 40
0.7704422281
 40
1.0
 40
1.0
 40
1.0
 40
1.0
 10
3.5828972537
 20
1.1436532555
 30
0.0
 10
3.5828973349
 20
1.1435778734
 30
0.0
 10
3.582641981
 20
1.1434215157
 30
0.0
 10
3.5821928791
 20
1.1432994701
 30
0.0
 10
3.5813928311
 20
1.1431323907
 30
0.0
 10
3.5803145945
 20
1.1429795213
 30
0.0
 10
3.5789191449
 20
1.1428168889
 30
0.0
 10
3.5772235253
 20
1.142656092
 30
0.0
 10
3.5752251268
 20
1.1424937744
 30
0.0
 10
3.5737926226
 20
1.142392369
 30
0.0
 10
3.5730270149
 20
1.1423409457
 30
0.0
  0
SPLINE
  5
4B2
100
AcDbEntity
  8
0
100
AcDbSpline
 62
7
  6
CONTINUOUS
 70
0
 71
3
 72
11
 73
7
 74
0
 42
0.0000001
 43
0.0000001
 44
0.0000000001
 40
0.0
 40
0.0
 40
0.0
 40
0.0
 40
0.1749205588
 40
0.4045917952
 40
0.6823635396
 40
1.0
 40
1.0
 40
1.0
 40
1.0
 10
3.5730270149
 20
1.1423409457
 30
0.0
 10
3.5695967841
 20
1.1421105486
 30
0.0
 10
3.5616551958
 20
1.141692176
 30
0.0
 10
3.5482552648
 20
1.1411366718
 30
0.0
 10
3.5320483745
 20
1.1405761477
 30
0.0
 10
3.5203513914
 20
1.1402201308
 30
0.0
 10
3.5141111028
 20
1.1400376649
 30
0.0
  0
LINE
  5
4B3
100
AcDbEntity
  8
0
100
AcDbLine
 62
7
  6
CONTINUOUS
 10
3.5141111028
 20
1.1400376649
 11
3.5025642466
 21
1.1397079756
  0
SPLINE
  5
4B4
100
AcDbEntity
  8
0
100
AcDbSpline
 62
7
  6
CONTINUOUS
 70
0
 71
3
 72
12
 73
8
 74
0
 42
0.0000001
 43
0.0000001
 44
0.0000000001
 40
0.0
 40
0.0
 40
0.0
 40
0.0
 40
0.0465964892
 40
0.1151671957
 40
0.3197913626
 40
0.6148548191
 40
1.0
 40
1.0
 40
1.0
 40
1.0
 10
3.5954969806
 20
1.1534539261
 30
0.0
 10
3.5954200772
 20
1.1534103082
 30
0.0
 10
3.5952132578
 20
1.1533343335
 30
0.0
 10
3.5946259329
 20
1.1531836962
 30
0.0
 10
3.5935589442
 20
1.1530137883
 30
0.0
 10
3.5918922724
 20
1.1528169245
 30
0.0
 10
3.5906065024
 20
1.1527006962
 30
0.0
 10
3.5898782635
 20
1.1526399028
 30
0.0
  0
LINE
  5
4B5
100
AcDbEntity
  8
0
100
AcDbLine
 62
7
  6
CONTINUOUS
 10
3.5898782635
 20
1.1526399028
 11
3.5854700112
 21
1.1523230561
  0
LINE
  5
4B6
100
AcDbEntity
  8
0
100
AcDbLine
 62
7
  6
CONTINUOUS
 10
3.5854700112
 20
1.1523230561
 11
3.5731352345
 21
1.1516895463
  0
SPLINE
  5
4B7
100
AcDbEntity
  8
0
100
AcDbSpline
 62
7
  6
CONTINUOUS
 70
0
 71
3
 72
11
 73
7
 74
0
 42
0.0000001
 43
0.0000001
 44
0.0000000001
 40
0.0
 40
0.0
 40
0.0
 40
0.0
 40
0.1898385973
 40
0.4334823262
 40
0.7110793607
 40
1.0
 40
1.0
 40
1.0
 40
1.0
 10
3.5731352345
 20
1.1516895463
 30
0.0
 10
3.5643444307
 20
1.1513074585
 30
0.0
 10
3.5442630873
 20
1.1506309274
 30
0.0
 10
3.5113166848
 20
1.149729067
 30
0.0
 10
3.4737762461
 20
1.1488206405
 30
0.0
 10
3.4475250875
 20
1.1482070562
 30
0.0
 10
3.4341372837
 20
1.1478881988
 30
0.0
  0
SPLINE
  5
4B8
100
AcDbEntity
  8
0
100
AcDbSpline
 62
7
  6
CONTINUOUS
 70
0
 71
3
 72
14
 73
10
 74
0
 42
0.0000001
 43
0.0000001
 44
0.0000000001
 40
0.0
 40
0.0
 40
0.0
 40
0.0
 40
0.039023622
 40
0.1023694208
 40
0.1905599265
 40
0.3037380896
 40
0.4417201743
 40
0.6040697463
 40
1.0
 40
1.0
 40
1.0
 40
1.0
 10
3.5827787644
 20
1.1461079372
 30
0.0
 10
3.5826484478
 20
1.1460328069
 30
0.0
 10
3.5822658648
 20
1.1459160882
 30
0.0
 10
3.5815495343
 20
1.1457642415
 30
0.0
 10
3.5805389503
 20
1.1456120403
 30
0.0
 10
3.5792405706
 20
1.1454563575
 30
0.0
 10
3.5776540335
 20
1.1453001315
 30
0.0
 10
3.5749796374
 20
1.1450753958
 30
0.0
 10
3.5728323552
 20
1.1449305636
 30
0.0
 10
3.5713091317
 20
1.1448356877
 30
0.0
  0
SPLINE
  5
4B9
100
AcDbEntity
  8
0
100
AcDbSpline
 62
7
  6
CONTINUOUS
 70
0
 71
3
 72
10
 73
6
 74
0
 42
0.0000001
 43
0.0000001
 44
0.0000000001
 40
0.0
 40
0.0
 40
0.0
 40
0.0
 40
0.1812903074
 40
0.4124710802
 40
1.0
 40
1.0
 40
1.0
 40
1.0
 10
3.5713091317
 20
1.1448356877
 30
0.0
 10
3.5679212769
 20
1.144624671
 30
0.0
 10
3.5602078433
 20
1.1442331502
 30
0.0
 10
3.5414995759
 20
1.1434726124
 30
0.0
 10
3.5261773642
 20
1.1429971711
 30
0.0
 10
3.5151814123
 20
1.142674047
 30
0.0
  0
LINE
  5
4BA
100
AcDbEntity
  8
0
100
AcDbLine
 62
7
  6
CONTINUOUS
 10
3.5151814123
 20
1.142674047
 11
3.5025642466
 21
1.1423129756
  0
SPLINE
  5
4BB
100
AcDbEntity
  8
0
100
AcDbSpline
 62
7
  6
CONTINUOUS
 70
0
 71
3
 72
14
 73
10
 74
0
 42
0.0000001
 43
0.0000001
 44
0.0000000001
 40
0.0
 40
0.0
 40
0.0
 40
0.0
 40
0.0404745366
 40
0.1047883709
 40
0.1935358197
 40
0.3068392123
 40
0.4444653622
 40
0.6060962897
 40
1.0
 40
1.0
 40
1.0
 40
1.0
 10
3.3272166435
 20
1.1356918
 30
0.0
 10
3.3273321752
 20
1.1356243707
 30
0.0
 10
3.3276657974
 20
1.1355162383
 30
0.0
 10
3.3282883554
 20
1.135376758
 30
0.0
 10
3.3291587151
 20
1.1352364606
 30
0.0
 10
3.3302719406
 20
1.1350934662
 30
0.0
 10
3.3316280936
 20
1.1349497856
 30
0.0
 10
3.3339096838
 20
1.1347433405
 30
0.0
 10
3.3357410835
 20
1.134610234
 30
0.0
 10
3.3370400299
 20
1.1345231256
 30
0.0
  0
SPLINE
  5
4BC
100
AcDbEntity
  8
0
100
AcDbSpline
 62
7
  6
CONTINUOUS
 70
0
 71
3
 72
11
 73
7
 74
0
 42
0.0000001
 43
0.0000001
 44
0.0000000001
 40
0.0
 40
0.0
 40
0.0
 40
0.0
 40
0.1227004613
 40
0.3295357466
 40
0.6221155729
 40
1.0
 40
1.0
 40
1.0
 40
1.0
 10
3.3144868861
 20
1.1430373679
 30
0.0
 10
3.3146271986
 20
1.1429562688
 30
0.0
 10
3.3150532512
 20
1.1428375826
 30
0.0
 10
3.3158561095
 20
1.1426800008
 30
0.0
 10
3.317006568
 20
1.1425238945
 30
0.0
 10
3.3178864212
 20
1.1424283641
 30
0.0
 10
3.3183830903
 20
1.1423790355
 30
0.0
  0
LINE
  5
4BD
100
AcDbEntity
  8
0
100
AcDbLine
 62
7
  6
CONTINUOUS
 10
3.3183830903
 20
1.1423790355
 11
3.3221982735
 21
1.1420615339
  0
SPLINE
  5
4BE
100
AcDbEntity
  8
0
100
AcDbSpline
 62
7
  6
CONTINUOUS
 70
0
 71
3
 72
15
 73
11
 74
0
 42
0.0000001
 43
0.0000001
 44
0.0000000001
 40
0.0
 40
0.0
 40
0.0
 40
0.0
 40
0.0226549592
 40
0.0721114069
 40
0.1514480188
 40
0.2612500884
 40
0.4014440643
 40
0.5716150633
 40
0.7712962878
 40
1.0
 40
1.0
 40
1.0
 40
1.0
 10
3.3270897429
 20
1.1332333496
 30
0.0
 10
3.3270911592
 20
1.1331570382
 30
0.0
 10
3.3273490573
 20
1.1330016741
 30
0.0
 10
3.3278034296
 20
1.1328778318
 30
0.0
 10
3.3286117634
 20
1.1327110284
 30
0.0
 10
3.3297019274
 20
1.1325577736
 30
0.0
 10
3.3311116353
 20
1.1323951765
 30
0.0
 10
3.3328212833
 20
1.1322341373
 30
0.0
 10
3.334831701
 20
1.1320714076
 30
0.0
 10
3.3362712538
 20
1.1319696803
 30
0.0
 10
3.3370400299
 20
1.1319181256
 30
0.0
  0
SPLINE
  5
4BF
100
AcDbEntity
  8
0
100
AcDbSpline
 62
7
  6
CONTINUOUS
 70
0
 71
3
 72
11
 73
7
 74
0
 42
0.0000001
 43
0.0000001
 44
0.0000000001
 40
0.0
 40
0.0
 40
0.0
 40
0.0
 40
0.1215921194
 40
0.3280240478
 40
0.6209717508
 40
1.0
 40
1.0
 40
1.0
 40
1.0
 10
3.3144808273
 20
1.1260354527
 30
0.0
 10
3.3146191826
 20
1.1261175553
 30
0.0
 10
3.3150443918
 20
1.1262365488
 30
0.0
 10
3.3158466395
 20
1.1263950769
 30
0.0
 10
3.3170007249
 20
1.1265519161
 30
0.0
 10
3.3178840406
 20
1.1266479747
 30
0.0
 10
3.3183830849
 20
1.1266975749
 30
0.0
  0
LINE
  5
4C0
100
AcDbEntity
  8
0
100
AcDbLine
 62
7
  6
CONTINUOUS
 10
3.3183830849
 20
1.1266975749
 11
3.3221982662
 21
1.1270151979
  0
LINE
  5
4C1
100
AcDbEntity
  8
0
100
AcDbLine
 62
7
  6
CONTINUOUS
 10
3.3221982662
 20
1.1270151979
 11
3.3334301955
 21
1.127649427
  0
LINE
  5
4C2
100
AcDbEntity
  8
0
100
AcDbLine
 62
7
  6
CONTINUOUS
 10
3.3334301955
 20
1.127649427
 11
3.3796678248
 21
1.1292376715
  0
LINE
  5
4C3
100
AcDbEntity
  8
0
100
AcDbLine
 62
7
  6
CONTINUOUS
 10
3.1868291836
 20
0.9069414037
 11
3.1843715308
 21
1.0122922657
  0
SPLINE
  5
4C4
100
AcDbEntity
  8
0
100
AcDbSpline
 62
7
  6
CONTINUOUS
 70
0
 71
3
 72
13
 73
9
 74
0
 42
0.0000001
 43
0.0000001
 44
0.0000000001
 40
0.0
 40
0.0
 40
0.0
 40
0.0
 40
0.3797700726
 40
0.6743287615
 40
0.7889417779
 40
0.8815136625
 40
0.9518859988
 40
1.0
 40
1.0
 40
1.0
 40
1.0
 10
3.1827345472
 20
1.0592964858
 30
0.0
 10
3.1826210488
 20
1.061645043
 30
0.0
 10
3.1824025312
 20
1.0658143407
 30
0.0
 10
3.1820805262
 20
1.0706888555
 30
0.0
 10
3.181810077
 20
1.0737835279
 30
0.0
 10
3.1816269403
 20
1.0754926574
 30
0.0
 10
3.1814453716
 20
1.0767863776
 30
0.0
 10
3.1813058648
 20
1.0775083125
 30
0.0
 10
3.1812241933
 20
1.0777947897
 30
0.0
  0
LINE
  5
4C5
100
AcDbEntity
  8
0
100
AcDbLine
 62
7
  6
CONTINUOUS
 10
3.1812241933
 20
1.0777947897
 11
3.1810785651
 21
1.0781790775
  0
SPLINE
  5
4C6
100
AcDbEntity
  8
0
100
AcDbSpline
 62
7
  6
CONTINUOUS
 70
0
 71
3
 72
20
 73
16
 74
0
 42
0.0000001
 43
0.0000001
 44
0.0000000001
 40
0.0
 40
0.0
 40
0.0
 40
0.0
 40
0.2269373887
 40
0.4271668254
 40
0.599171836
 40
0.7414435353
 40
0.8010251619
 40
0.8528185872
 40
0.8967885482
 40
0.9329055257
 40
0.9611522316
 40
0.9815427132
 40
0.9888257535
 40
0.9942199759
 40
1.0
 40
1.0
 40
1.0
 40
1.0
 10
3.1909301423
 20
0.7383615882
 30
0.0
 10
3.1910284415
 20
0.7356343712
 30
0.0
 10
3.1912227955
 20
0.7305012265
 30
0.0
 10
3.1915315366
 20
0.7233025863
 30
0.0
 10
3.1918393133
 20
0.717123103
 30
0.0
 10
3.1921068802
 20
0.712635192
 30
0.0
 10
3.1923269621
 20
0.7095928823
 30
0.0
 10
3.1924815357
 20
0.7077312707
 30
0.0
 10
3.1926357365
 20
0.7061525216
 30
0.0
 10
3.1927877995
 20
0.7048593773
 30
0.0
 10
3.1929405396
 20
0.7038492561
 30
0.0
 10
3.1930704701
 20
0.7031937618
 30
0.0
 10
3.193188344
 20
0.7028059763
 30
0.0
 10
3.1932658628
 20
0.7026132102
 30
0.0
 10
3.1933628249
 20
0.702469657
 30
0.0
 10
3.1934322503
 20
0.7024730134
 30
0.0
  0
LINE
  5
4C7
100
AcDbEntity
  8
0
100
AcDbLine
 62
7
  6
CONTINUOUS
 10
3.2018932253
 20
0.7584745394
 11
3.2015813654
 21
0.7710004467
  0
LINE
  5
4C8
100
AcDbEntity
  8
0
100
AcDbLine
 62
7
  6
CONTINUOUS
 10
3.1993964664
 20
0.8744535856
 11
3.1990808664
 21
0.8903881988
  0
SPLINE
  5
4C9
100
AcDbEntity
  8
0
100
AcDbSpline
 62
7
  6
CONTINUOUS
 70
0
 71
3
 72
12
 73
8
 74
0
 42
0.0000001
 43
0.0000001
 44
0.0000000001
 40
0.0
 40
0.0
 40
0.0
 40
0.0
 40
0.4253163706
 40
0.7315029245
 40
0.9196549894
 40
0.9713035366
 40
1.0
 40
1.0
 40
1.0
 40
1.0
 10
3.2061119817
 20
0.6911648475
 30
0.0
 10
3.2060549101
 20
0.6905965422
 30
0.0
 10
3.2059462481
 20
0.6896183089
 30
0.0
 10
3.2057657784
 20
0.6884015375
 30
0.0
 10
3.2055979639
 20
0.6876766858
 30
0.0
 10
3.2054614228
 20
0.6873504271
 30
0.0
 10
3.2053695735
 20
0.6872667764
 30
0.0
 10
3.2053310383
 20
0.6872664105
 30
0.0
  0
LINE
  5
4CA
100
AcDbEntity
  8
0
100
AcDbLine
 62
7
  6
CONTINUOUS
 10
3.2268932253
 20
0.7584745394
 11
3.2265801905
 21
0.7710004314
  0
LINE
  5
4CB
100
AcDbEntity
  8
0
100
AcDbLine
 62
7
  6
CONTINUOUS
 10
3.2034044182
 20
0.8903881988
 11
3.2037155605
 21
0.8744464137
  0
LINE
  5
4CC
100
AcDbEntity
  8
0
100
AcDbLine
 62
7
  6
CONTINUOUS
 10
3.2059050934
 20
0.7709875753
 11
3.2062170685
 21
0.7584632281
  0
SPLINE
  5
4CD
100
AcDbEntity
  8
0
100
AcDbSpline
 62
7
  6
CONTINUOUS
 70
0
 71
3
 72
19
 73
15
 74
0
 42
0.0000001
 43
0.0000001
 44
0.0000000001
 40
0.0
 40
0.0
 40
0.0
 40
0.0
 40
0.2274220078
 40
0.4274971888
 40
0.5989071237
 40
0.7406210641
 40
0.8001304007
 40
0.8519683174
 40
0.8960588135
 40
0.9323317512
 40
0.9607295397
 40
0.9812472989
 40
0.9940495369
 40
1.0
 40
1.0
 40
1.0
 40
1.0
 10
3.2115188147
 20
1.0434123776
 30
0.0
 10
3.211421819
 20
1.0460698147
 30
0.0
 10
3.2112303569
 20
1.051064812
 30
0.0
 10
3.2109264213
 20
1.0580611896
 30
0.0
 10
3.2106236022
 20
1.0640543096
 30
0.0
 10
3.210359953
 20
1.0684036936
 30
0.0
 10
3.2101437672
 20
1.0713546881
 30
0.0
 10
3.2099913172
 20
1.073166168
 30
0.0
 10
3.2098405144
 20
1.0747036834
 30
0.0
 10
3.2096880907
 20
1.075969174
 30
0.0
 10
3.2095447888
 20
1.0769477391
 30
0.0
 10
3.2093880556
 20
1.0776705923
 30
0.0
 10
3.209272774
 20
1.0780810784
 30
0.0
 10
3.2091251593
 20
1.0783076128
 30
0.0
 10
3.2090555821
 20
1.0783078925
 30
0.0
  0
LINE
  5
4CE
100
AcDbEntity
  8
0
100
AcDbLine
 62
7
  6
CONTINUOUS
 10
3.221807949
 20
1.0002140262
 11
3.2214290439
 21
1.015956542
  0
SPLINE
  5
4CF
100
AcDbEntity
  8
0
100
AcDbSpline
 62
7
  6
CONTINUOUS
 70
0
 71
3
 72
11
 73
7
 74
0
 42
0.0000001
 43
0.0000001
 44
0.0000000001
 40
0.0
 40
0.0
 40
0.0
 40
0.0
 40
0.3349037916
 40
0.6157607302
 40
0.8384631647
 40
1.0
 40
1.0
 40
1.0
 40
1.0
 10
3.2206715957
 20
1.0439058402
 30
0.0
 10
3.2205250045
 20
1.0488071618
 30
0.0
 10
3.2202385846
 20
1.0578183144
 30
0.0
 10
3.2197781146
 20
1.0700862935
 30
0.0
 10
3.2193214257
 20
1.0798135633
 30
0.0
 10
3.2189734157
 20
1.0854294845
 30
0.0
 10
3.2187776716
 20
1.0877865215
 30
0.0
  0
SPLINE
  5
4D0
100
AcDbEntity
  8
0
100
AcDbSpline
 62
7
  6
CONTINUOUS
 70
0
 71
3
 72
11
 73
7
 74
0
 42
0.0000001
 43
0.0000001
 44
0.0000000001
 40
0.0
 40
0.0
 40
0.0
 40
0.0
 40
0.371740109
 40
0.6624707871
 40
0.8716127303
 40
1.0
 40
1.0
 40
1.0
 40
1.0
 10
3.2187776716
 20
1.0877865215
 30
0.0
 10
3.2187207012
 20
1.0884725264
 30
0.0
 10
3.218610217
 20
1.089693953
 30
0.0
 10
3.2184296398
 20
1.0912993306
 30
0.0
 10
3.2182480218
 20
1.0924462512
 30
0.0
 10
3.2181109048
 20
1.0930610369
 30
0.0
 10
3.2180201021
 20
1.093280753
 30
0.0
  0
SPLINE
  5
4D1
100
AcDbEntity
  8
0
100
AcDbSpline
 62
7
  6
CONTINUOUS
 70
0
 71
3
 72
14
 73
10
 74
0
 42
0.0000001
 43
0.0000001
 44
0.0000000001
 40
0.0
 40
0.0
 40
0.0
 40
0.0
 40
0.0406918548
 40
0.1051816273
 40
0.194056051
 40
0.3074359957
 40
0.4450699176
 40
0.6066181427
 40
1.0
 40
1.0
 40
1.0
 40
1.0
 10
3.3272119826
 20
1.1148536176
 30
0.0
 10
3.3273294662
 20
1.1147862837
 30
0.0
 10
3.3276667921
 20
1.114678071
 30
0.0
 10
3.3282956709
 20
1.114538457
 30
0.0
 10
3.3291733672
 20
1.1143980202
 30
0.0
 10
3.3302950755
 20
1.114254924
 30
0.0
 10
3.331660631
 20
1.1141111321
 30
0.0
 10
3.3339560165
 20
1.1139045885
 30
0.0
 10
3.3357980255
 20
1.1137713137
 30
0.0
 10
3.3371041836
 20
1.1136840864
 30
0.0
  0
SPLINE
  5
4D2
100
AcDbEntity
  8
0
100
AcDbSpline
 62
7
  6
CONTINUOUS
 70
0
 71
3
 72
13
 73
9
 74
0
 42
0.0000001
 43
0.0000001
 44
0.0000000001
 40
0.0
 40
0.0
 40
0.0
 40
0.0
 40
0.0426866304
 40
0.1085149934
 40
0.198058139
 40
0.3114530222
 40
0.6091683186
 40
1.0
 40
1.0
 40
1.0
 40
1.0
 10
3.3144920249
 20
1.122199377
 30
0.0
 10
3.3145884447
 20
1.1221448302
 30
0.0
 10
3.3148582181
 20
1.122054299
 30
0.0
 10
3.3153579621
 20
1.1219380305
 30
0.0
 10
3.3160463402
 20
1.1218207235
 30
0.0
 10
3.3173336314
 20
1.1216457136
 30
0.0
 10
3.319405188
 20
1.1214386856
 30
0.0
 10
3.3211865961
 20
1.1212992662
 30
0.0
 10
3.3221982777
 20
1.1212267064
 30
0.0
  0
LINE
  5
4D3
100
AcDbEntity
  8
0
100
AcDbLine
 62
7
  6
CONTINUOUS
 10
3.1990808664
 20
0.8903881988
 11
3.198698196
 21
0.9097007059
  0
LINE
  5
4D4
100
AcDbEntity
  8
0
100
AcDbLine
 62
7
  6
CONTINUOUS
 10
3.196807949
 20
1.0002140262
 11
3.1964288986
 21
1.0159565386
  0
LINE
  5
4D5
100
AcDbEntity
  8
0
100
AcDbLine
 62
7
  6
CONTINUOUS
 10
3.1956715957
 20
1.0439058402
 11
3.1944018344
 21
1.077884444
  0
LINE
  5
4D6
100
AcDbEntity
  8
0
100
AcDbLine
 62
7
  6
CONTINUOUS
 10
3.1944018344
 20
1.077884444
 11
3.1937776669
 21
1.0877865213
  0
SPLINE
  5
4D7
100
AcDbEntity
  8
0
100
AcDbSpline
 62
7
  6
CONTINUOUS
 70
0
 71
3
 72
11
 73
7
 74
0
 42
0.0000001
 43
0.0000001
 44
0.0000000001
 40
0.0
 40
0.0
 40
0.0
 40
0.0
 40
0.3717400302
 40
0.6624706575
 40
0.8716126178
 40
1.0
 40
1.0
 40
1.0
 40
1.0
 10
3.1937776669
 20
1.0877865213
 30
0.0
 10
3.1937206975
 20
1.0884725263
 30
0.0
 10
3.1936102152
 20
1.0896939529
 30
0.0
 10
3.1934296401
 20
1.0912993308
 30
0.0
 10
3.1932480216
 20
1.0924462516
 30
0.0
 10
3.1931109028
 20
1.0930610373
 30
0.0
 10
3.1930200989
 20
1.0932807532
 30
0.0
  0
SPLINE
  5
4D8
100
AcDbEntity
  8
0
100
AcDbSpline
 62
7
  6
CONTINUOUS
 70
0
 71
3
 72
11
 73
7
 74
0
 42
0.0000001
 43
0.0000001
 44
0.0000000001
 40
0.0
 40
0.0
 40
0.0
 40
0.0
 40
0.3717444731
 40
0.6624765431
 40
0.8716169608
 40
1.0
 40
1.0
 40
1.0
 40
1.0
 10
3.1962076389
 20
1.0877867997
 30
0.0
 10
3.1962646086
 20
1.088472785
 30
0.0
 10
3.1963750912
 20
1.0896941728
 30
0.0
 10
3.1965556658
 20
1.0912994937
 30
0.0
 10
3.1967372829
 20
1.092446358
 30
0.0
 10
3.1968743985
 20
1.0930611087
 30
0.0
 10
3.1969652034
 20
1.0932808051
 30
0.0
  0
LINE
  5
4D9
100
AcDbEntity
  8
0
100
AcDbLine
 62
7
  6
CONTINUOUS
 10
3.1812776671
 20
0.6929898763
 11
3.1808988874
 21
0.6893295503
  0
LINE
  5
4DA
100
AcDbEntity
  8
0
100
AcDbLine
 62
7
  6
CONTINUOUS
 10
3.1808988874
 20
0.6893295503
 11
3.1805200989
 21
0.6874956443
  0
LINE
  5
4DB
100
AcDbEntity
  8
0
100
AcDbLine
 62
7
  6
CONTINUOUS
 10
3.1821544182
 20
0.7260566218
 11
3.1828820201
 21
0.7070518602
  0
LINE
  5
4DC
100
AcDbEntity
  8
0
100
AcDbLine
 62
7
  6
CONTINUOUS
 10
3.1832484055
 20
0.6998138906
 11
3.1836137021
 21
0.6941809029
  0
LINE
  5
4DD
100
AcDbEntity
  8
0
100
AcDbLine
 62
7
  6
CONTINUOUS
 10
3.1836137021
 20
0.6941809029
 11
3.1843421266
 21
0.6878885308
  0
LINE
  5
4DE
100
AcDbEntity
  8
0
100
AcDbLine
 62
7
  6
CONTINUOUS
 10
3.1843421266
 20
0.6878885308
 11
3.1846542387
 21
0.6872664058
  0
SPLINE
  5
4DF
100
AcDbEntity
  8
0
100
AcDbSpline
 62
7
  6
CONTINUOUS
 70
0
 71
3
 72
15
 73
11
 74
0
 42
0.0000001
 43
0.0000001
 44
0.0000000001
 40
0.0
 40
0.0
 40
0.0
 40
0.0
 40
0.0226015143
 40
0.0720377424
 40
0.1513774699
 40
0.2612125595
 40
0.4014616237
 40
0.5716786594
 40
0.7713646982
 40
1.0
 40
1.0
 40
1.0
 40
1.0
 10
3.3270807012
 20
1.1123974906
 30
0.0
 10
3.3270821644
 20
1.1123208109
 30
0.0
 10
3.3273423814
 20
1.112165231
 30
0.0
 10
3.3277996188
 20
1.1120410964
 30
0.0
 10
3.3286141933
 20
1.1118739225
 30
0.0
 10
3.3297125478
 20
1.111720311
 30
0.0
 10
3.3311330065
 20
1.1115573403
 30
0.0
 10
3.3328554058
 20
1.1113959143
 30
0.0
 10
3.3348803299
 20
1.1112327855
 30
0.0
 10
3.33633008
 20
1.1111307823
 30
0.0
 10
3.3371041836
 20
1.1110790864
 30
0.0
  0
SPLINE
  5
4E0
100
AcDbEntity
  8
0
100
AcDbSpline
 62
7
  6
CONTINUOUS
 70
0
 71
3
 72
16
 73
12
 74
0
 42
0.0000001
 43
0.0000001
 44
0.0000000001
 40
0.0
 40
0.0
 40
0.0
 40
0.0
 40
0.0134688017
 40
0.0333806845
 40
0.0931458759
 40
0.1796839093
 40
0.2926754359
 40
0.431690368
 40
0.5962695851
 40
0.7859301668
 40
1.0
 40
1.0
 40
1.0
 40
1.0
 10
3.3144822269
 20
1.1052013215
 30
0.0
 10
3.3145558875
 20
1.1052447569
 30
0.0
 10
3.3147559467
 20
1.105320326
 30
0.0
 10
3.3153275633
 20
1.105470067
 30
0.0
 10
3.3163717424
 20
1.105638272
 30
0.0
 10
3.3180057882
 20
1.1058329972
 30
0.0
 10
3.3201468193
 20
1.1060286571
 30
0.0
 10
3.3227841975
 20
1.1062270216
 30
0.0
 10
3.3259096435
 20
1.106425937
 30
0.0
 10
3.3295123357
 20
1.106625294
 30
0.0
 10
3.3320725542
 20
1.1067509301
 30
0.0
 10
3.3334301942
 20
1.1068144937
 30
0.0
  0
LINE
  5
4E1
100
AcDbEntity
  8
0
100
AcDbLine
 62
7
  6
CONTINUOUS
 10
3.3334301942
 20
1.1068144937
 11
3.3796678248
 21
1.1084026715
  0
SPLINE
  5
4E2
100
AcDbEntity
  8
0
100
AcDbSpline
 62
9
  6
CONTINUOUS
 70
0
 71
3
 72
19
 73
15
 74
0
 42
0.0000001
 43
0.0000001
 44
0.0000000001
 40
0.0
 40
0.0
 40
0.0
 40
0.0
 40
0.004191886
 40
0.0094179546
 40
0.0167185917
 40
0.0375070363
 40
0.0664841709
 40
0.1035769765
 40
0.148707378
 40
0.2624868195
 40
0.4064343331
 40
0.5790450722
 40
0.7779027807
 40
1.0
 40
1.0
 40
1.0
 40
1.0
 10
2.8897009851
 20
0.4011864906
 30
0.0
 10
2.8896947212
 20
0.4012602156
 30
0.0
 10
2.8896995213
 20
0.4014268242
 30
0.0
 10
2.8896899549
 20
0.401721664
 30
0.0
 10
2.889680912
 20
0.4023097148
 30
0.0
 10
2.8896589044
 20
0.4033166938
 30
0.0
 10
2.8896271754
 20
0.4048495197
 30
0.0
 10
2.8895830185
 20
0.4068118013
 30
0.0
 10
2.8895022417
 20
0.4102704874
 30
0.0
 10
2.8893635681
 20
0.4156144078
 30
0.0
 10
2.8891319919
 20
0.4232067597
 30
0.0
 10
2.8888067308
 20
0.4322985526
 30
0.0
 10
2.8883680835
 20
0.4427664095
 30
0.0
 10
2.8880048366
 20
0.4501878456
 30
0.0
 10
2.8877983764
 20
0.4541026227
 30
0.0
  0
SPLINE
  5
4E3
100
AcDbEntity
  8
0
100
AcDbSpline
 62
9
  6
CONTINUOUS
 70
0
 71
3
 72
18
 73
14
 74
0
 42
0.0000001
 43
0.0000001
 44
0.0000000001
 40
0.0
 40
0.0
 40
0.0
 40
0.0
 40
0.0042078685
 40
0.016766623
 40
0.0375800827
 40
0.0665521668
 40
0.1035868977
 40
0.1485884027
 40
0.2621087243
 40
0.4061013566
 40
0.5785700249
 40
0.7772786299
 40
1.0
 40
1.0
 40
1.0
 40
1.0
 10
2.8707007055
 20
1.3630630112
 30
0.0
 10
2.8706968498
 20
1.3629986219
 30
0.0
 10
2.870699831
 20
1.3627413669
 30
0.0
 10
2.870682933
 20
1.3621656239
 30
0.0
 10
2.8706682082
 20
1.3612099527
 30
0.0
 10
2.8706380437
 20
1.3598794068
 30
0.0
 10
2.8705988676
 20
1.3581781441
 30
0.0
 10
2.8705222562
 20
1.3551813379
 30
0.0
 10
2.8703891134
 20
1.3505458345
 30
0.0
 10
2.8701711503
 20
1.3439580026
 30
0.0
 10
2.8698612562
 20
1.3360667169
 30
0.0
 10
2.8694368907
 20
1.3269723471
 30
0.0
 10
2.8690814303
 20
1.3205217135
 30
0.0
 10
2.8688783317
 20
1.3171135495
 30
0.0
  0
LINE
  5
4E4
100
AcDbEntity
  8
0
100
AcDbLine
 62
7
  6
CONTINUOUS
 10
3.2799419961
 20
1.3768418343
 11
3.2745706831
 21
1.3717162396
  0
SPLINE
  5
4E5
100
AcDbEntity
  8
0
100
AcDbSpline
 62
9
  6
CONTINUOUS
 70
0
 71
3
 72
13
 73
9
 74
0
 42
0.0000001
 43
0.0000001
 44
0.0000000001
 40
0.0
 40
0.0
 40
0.0
 40
0.0
 40
0.1104742077
 40
0.2260990467
 40
0.3463729727
 40
0.4707805513
 40
0.7300564919
 40
1.0
 40
1.0
 40
1.0
 40
1.0
 10
2.8877983875
 20
0.4541026225
 30
0.0
 10
2.8871184864
 20
0.465543698
 30
0.0
 10
2.8860390439
 20
0.488978246
 30
0.0
 10
2.8850990915
 20
0.5249023006
 30
0.0
 10
2.8846748513
 20
0.5622812559
 30
0.0
 10
2.8846302879
 20
0.6145654769
 30
0.0
 10
2.8852937535
 20
0.6823744135
 30
0.0
 10
2.8859482007
 20
0.7372747136
 30
0.0
 10
2.886225835
 20
0.765278903
 30
0.0
  0
LINE
  5
4E6
100
AcDbEntity
  8
0
100
AcDbLine
 62
9
  6
CONTINUOUS
 10
2.886225835
 20
0.765278903
 11
2.886349604
 21
0.7781757901
  0
LINE
  5
4E7
100
AcDbEntity
  8
0
100
AcDbLine
 62
9
  6
CONTINUOUS
 10
2.8868352297
 20
0.852689433
 11
2.8868675623
 21
0.8641288506
  0
LINE
  5
4E8
100
AcDbEntity
  8
0
100
AcDbLine
 62
9
  6
CONTINUOUS
 10
2.8868675623
 20
0.8641288506
 11
2.8868756377
 21
0.8678782221
  0
LINE
  5
4E9
100
AcDbEntity
  8
0
100
AcDbLine
 62
9
  6
CONTINUOUS
 10
2.8868756377
 20
0.8678782221
 11
2.8868828992
 21
0.8718886867
  0
LINE
  5
4EA
100
AcDbEntity
  8
0
100
AcDbLine
 62
9
  6
CONTINUOUS
 10
2.8868828992
 20
0.8718886867
 11
2.8868921299
 21
0.8788510032
  0
LINE
  5
4EB
100
AcDbEntity
  8
0
100
AcDbLine
 62
9
  6
CONTINUOUS
 10
2.8868921299
 20
0.8788510032
 11
2.8868963712
 21
0.8843056797
  0
LINE
  5
4EC
100
AcDbEntity
  8
0
100
AcDbLine
 62
9
  6
CONTINUOUS
 10
2.8868963712
 20
0.8843056797
 11
2.8868963708
 21
0.8964707039
  0
LINE
  5
4ED
100
AcDbEntity
  8
0
100
AcDbLine
 62
9
  6
CONTINUOUS
 10
2.8868963708
 20
0.8964707039
 11
2.8868921292
 21
0.9019253838
  0
LINE
  5
4EE
100
AcDbEntity
  8
0
100
AcDbLine
 62
9
  6
CONTINUOUS
 10
2.8868921292
 20
0.9019253838
 11
2.886882898
 21
0.9088877077
  0
LINE
  5
4EF
100
AcDbEntity
  8
0
100
AcDbLine
 62
9
  6
CONTINUOUS
 10
2.886882898
 20
0.9088877077
 11
2.8868756034
 21
0.9129147337
  0
LINE
  5
4F0
100
AcDbEntity
  8
0
100
AcDbLine
 62
9
  6
CONTINUOUS
 10
2.8868756034
 20
0.9129147337
 11
2.8868675609
 21
0.916647517
  0
LINE
  5
4F1
100
AcDbEntity
  8
0
100
AcDbLine
 62
9
  6
CONTINUOUS
 10
2.8868675609
 20
0.916647517
 11
2.886835228
 21
0.9280869421
  0
LINE
  5
4F2
100
AcDbEntity
  8
0
100
AcDbLine
 62
9
  6
CONTINUOUS
 10
2.8863494532
 20
1.0026170647
 11
2.886225836
 21
1.0154974589
  0
SPLINE
  5
4F3
100
AcDbEntity
  8
0
100
AcDbSpline
 62
9
  6
CONTINUOUS
 70
0
 71
3
 72
13
 73
9
 74
0
 42
0.0000001
 43
0.0000001
 44
0.0000000001
 40
0.0
 40
0.0
 40
0.0
 40
0.0
 40
0.2699437087
 40
0.5292197572
 40
0.6536273167
 40
0.7739011774
 40
0.8895259179
 40
1.0
 40
1.0
 40
1.0
 40
1.0
 10
2.886225836
 20
1.0154974589
 30
0.0
 10
2.8859481981
 20
1.0435017848
 30
0.0
 10
2.8852937484
 20
1.0984023439
 30
0.0
 10
2.8846302849
 20
1.166211591
 30
0.0
 10
2.8846748551
 20
1.2184960306
 30
0.0
 10
2.8850991045
 20
1.2558751214
 30
0.0
 10
2.8860390707
 20
1.2917992943
 30
0.0
 10
2.8871185288
 20
1.3152339154
 30
0.0
 10
2.8877984401
 20
1.3266750248
 30
0.0
  0
SPLINE
  5
4F4
100
AcDbEntity
  8
0
100
AcDbSpline
 62
9
  6
CONTINUOUS
 70
0
 71
3
 72
18
 73
14
 74
0
 42
0.0000001
 43
0.0000001
 44
0.0000000001
 40
0.0
 40
0.0
 40
0.0
 40
0.0
 40
0.2227128946
 40
0.4214199747
 40
0.5938911558
 40
0.7378874259
 40
0.8514101592
 40
0.8964123508
 40
0.9334475057
 40
0.9624198142
 40
0.9832333614
 40
0.9957921294
 40
1.0
 40
1.0
 40
1.0
 40
1.0
 10
2.8688783334
 20
0.4636628396
 30
0.0
 10
2.8690814248
 20
0.460254806
 30
0.0
 10
2.8694368807
 20
0.4538043267
 30
0.0
 10
2.8698612209
 20
0.4447100729
 30
0.0
 10
2.8701711788
 20
0.4368187188
 30
0.0
 10
2.8703889867
 20
0.4302307545
 30
0.0
 10
2.8705225196
 20
0.425595155
 30
0.0
 10
2.8705985402
 20
0.4225982859
 30
0.0
 10
2.8706389745
 20
0.4208970232
 30
0.0
 10
2.8706658665
 20
0.4195664138
 30
0.0
 10
2.8706880493
 20
0.4186108575
 30
0.0
 10
2.8706917792
 20
0.4180349016
 30
0.0
 10
2.8707024921
 20
0.4177778662
 30
0.0
 10
2.8707007055
 20
0.4177133864
 30
0.0
  0
SPLINE
  5
4F5
100
AcDbEntity
  8
0
100
AcDbSpline
 62
9
  6
CONTINUOUS
 70
0
 71
3
 72
19
 73
15
 74
0
 42
0.0000001
 43
0.0000001
 44
0.0000000001
 40
0.0
 40
0.0
 40
0.0
 40
0.0
 40
0.0541362772
 40
0.1115312799
 40
0.1717795145
 40
0.2344533745
 40
0.3652447038
 40
0.4999996051
 40
0.6347547834
 40
0.7655461338
 40
0.8282196234
 40
0.8884675375
 40
0.9458626881
 40
1.0
 40
1.0
 40
1.0
 40
1.0
 10
2.8688783385
 20
1.3171135568
 30
0.0
 10
2.8679620889
 20
1.3017377253
 30
0.0
 10
2.8666715756
 20
1.2700243308
 30
0.0
 10
2.8659150708
 20
1.2211519977
 30
0.0
 10
2.865957707
 20
1.1698459337
 30
0.0
 10
2.8666631718
 20
1.0976613756
 30
0.0
 10
2.8679303051
 20
1.0042836712
 30
0.0
 10
2.8688305804
 20
0.890388461
 30
0.0
 10
2.8679303229
 20
0.7764932446
 30
0.0
 10
2.8666631895
 20
0.6831155608
 30
0.0
 10
2.8659576948
 20
0.6109311936
 30
0.0
 10
2.8659150422
 20
0.5596252842
 30
0.0
 10
2.866671553
 20
0.5107527055
 30
0.0
 10
2.8679620858
 20
0.4790389753
 30
0.0
 10
2.8688783411
 20
0.4636628493
 30
0.0
  0
SPLINE
  5
4F6
100
AcDbEntity
  8
0
100
AcDbSpline
 62
9
  6
CONTINUOUS
 70
0
 71
3
 72
14
 73
10
 74
0
 42
0.0000001
 43
0.0000001
 44
0.0000000001
 40
0.0
 40
0.0
 40
0.0
 40
0.0
 40
0.1104537813
 40
0.2260834362
 40
0.3463608218
 40
0.4707686496
 40
0.5988257656
 40
0.7300514885
 40
1.0
 40
1.0
 40
1.0
 40
1.0
 10
2.8877983875
 20
0.4541026225
 30
0.0
 10
2.8872487597
 20
0.4655484022
 30
0.0
 10
2.8862781729
 20
0.4889839855
 30
0.0
 10
2.8852515194
 20
0.5249032467
 30
0.0
 10
2.8846651945
 20
0.56228049
 30
0.0
 10
2.8845767597
 20
0.6009512185
 30
0.0
 10
2.8848414287
 20
0.6407563838
 30
0.0
 10
2.8854644941
 20
0.6956577061
 30
0.0
 10
2.8859661303
 20
0.7372743259
 30
0.0
 10
2.8862391502
 20
0.7652786597
 30
0.0
  0
LINE
  5
4F7
100
AcDbEntity
  8
0
100
AcDbLine
 62
9
  6
CONTINUOUS
 10
2.8862391502
 20
0.7652786597
 11
2.8863604193
 21
0.7781756052
  0
LINE
  5
4F8
100
AcDbEntity
  8
0
100
AcDbLine
 62
9
  6
CONTINUOUS
 10
2.8868302126
 20
0.8526894713
 11
2.8868613764
 21
0.864128881
  0
LINE
  5
4F9
100
AcDbEntity
  8
0
100
AcDbLine
 62
9
  6
CONTINUOUS
 10
2.8868613764
 20
0.864128881
 11
2.8868691598
 21
0.8678782485
  0
LINE
  5
4FA
100
AcDbEntity
  8
0
100
AcDbLine
 62
9
  6
CONTINUOUS
 10
2.8868691598
 20
0.8678782485
 11
2.8868761588
 21
0.87188871
  0
LINE
  5
4FB
100
AcDbEntity
  8
0
100
AcDbLine
 62
9
  6
CONTINUOUS
 10
2.8868761588
 20
0.87188871
 11
2.8868850558
 21
0.8788510191
  0
LINE
  5
4FC
100
AcDbEntity
  8
0
100
AcDbLine
 62
9
  6
CONTINUOUS
 10
2.8868850558
 20
0.8788510191
 11
2.8868891437
 21
0.8843056884
  0
LINE
  5
4FD
100
AcDbEntity
  8
0
100
AcDbLine
 62
9
  6
CONTINUOUS
 10
2.8868891437
 20
0.8843056884
 11
2.8868891431
 21
0.8964706953
  0
LINE
  5
4FE
100
AcDbEntity
  8
0
100
AcDbLine
 62
9
  6
CONTINUOUS
 10
2.8868891431
 20
0.8964706953
 11
2.8868850548
 21
0.901925368
  0
LINE
  5
4FF
100
AcDbEntity
  8
0
100
AcDbLine
 62
9
  6
CONTINUOUS
 10
2.8868850548
 20
0.901925368
 11
2.8868761572
 21
0.9088876844
  0
LINE
  5
500
100
AcDbEntity
  8
0
100
AcDbLine
 62
9
  6
CONTINUOUS
 10
2.8868761572
 20
0.9088876844
 11
2.8868691261
 21
0.9129147073
  0
LINE
  5
501
100
AcDbEntity
  8
0
100
AcDbLine
 62
9
  6
CONTINUOUS
 10
2.8868691261
 20
0.9129147073
 11
2.8868613742
 21
0.9166474866
  0
LINE
  5
502
100
AcDbEntity
  8
0
100
AcDbLine
 62
9
  6
CONTINUOUS
 10
2.8868613742
 20
0.9166474866
 11
2.8868302096
 21
0.9280869038
  0
LINE
  5
503
100
AcDbEntity
  8
0
100
AcDbLine
 62
9
  6
CONTINUOUS
 10
2.8863602645
 20
1.0026172496
 11
2.8862391433
 21
1.015497702
  0
SPLINE
  5
504
100
AcDbEntity
  8
0
100
AcDbSpline
 62
9
  6
CONTINUOUS
 70
0
 71
3
 72
14
 73
10
 74
0
 42
0.0000001
 43
0.0000001
 44
0.0000000001
 40
0.0
 40
0.0
 40
0.0
 40
0.0
 40
0.2699487087
 40
0.4011745055
 40
0.5292316547
 40
0.6536394605
 40
0.7739167718
 40
0.8895463243
 40
1.0
 40
1.0
 40
1.0
 40
1.0
 10
2.8862391433
 20
1.015497702
 30
0.0
 10
2.88596612
 20
1.0435021723
 30
0.0
 10
2.8854644966
 20
1.0851189928
 30
0.0
 10
2.8848414617
 20
1.1400205747
 30
0.0
 10
2.8845767862
 20
1.1798259137
 30
0.0
 10
2.8846651575
 20
1.2184967959
 30
0.0
 10
2.8852514065
 20
1.2558741749
 30
0.0
 10
2.886278063
 20
1.2917935562
 30
0.0
 10
2.8872487362
 20
1.3152292121
 30
0.0
 10
2.8877984401
 20
1.3266750248
 30
0.0
  0
SPLINE
  5
505
100
AcDbEntity
  8
0
100
AcDbSpline
 62
9
  6
CONTINUOUS
 70
0
 71
3
 72
12
 73
8
 74
0
 42
0.0000001
 43
0.0000001
 44
0.0000000001
 40
0.0
 40
0.0
 40
0.0
 40
0.0
 40
0.2857024499
 40
0.4279538868
 40
0.5633336393
 40
0.8029360141
 40
1.0
 40
1.0
 40
1.0
 40
1.0
 10
2.887798474
 20
1.3266757927
 30
0.0
 10
2.8856591463
 20
1.3267069416
 30
0.0
 10
2.8824367965
 20
1.3263970611
 30
0.0
 10
2.8783479283
 20
1.3253316131
 30
0.0
 10
2.8747436239
 20
1.3238800124
 30
0.0
 10
2.8711864861
 20
1.3213610419
 30
0.0
 10
2.8693114684
 20
1.3185243237
 30
0.0
 10
2.8688783374
 20
1.3171135529
 30
0.0
  0
SPLINE
  5
506
100
AcDbEntity
  8
0
100
AcDbSpline
 62
9
  6
CONTINUOUS
 70
0
 71
3
 72
12
 73
8
 74
0
 42
0.0000001
 43
0.0000001
 44
0.0000000001
 40
0.0
 40
0.0
 40
0.0
 40
0.0
 40
0.2862775139
 40
0.4286644604
 40
0.5640634486
 40
0.8033823717
 40
1.0
 40
1.0
 40
1.0
 40
1.0
 10
2.8877984741
 20
0.4541006087
 30
0.0
 10
2.8856548156
 20
0.4540693962
 30
0.0
 10
2.8824270162
 20
0.4543808353
 30
0.0
 10
2.8783334169
 20
0.4554500383
 30
0.0
 10
2.8747308473
 20
0.4569034225
 30
0.0
 10
2.8711796865
 20
0.4594220733
 30
0.0
 10
2.8693104877
 20
0.4622552522
 30
0.0
 10
2.8688783322
 20
0.4636628436
 30
0.0
  0
SPLINE
  5
507
100
AcDbEntity
  8
0
100
AcDbSpline
 62
9
  6
CONTINUOUS
 70
0
 71
3
 72
27
 73
23
 74
0
 42
0.0000001
 43
0.0000001
 44
0.0000000001
 40
0.0
 40
0.0
 40
0.0
 40
0.0
 40
0.2220981226
 40
0.4209558772
 40
0.5935664811
 40
0.6692219602
 40
0.7375139831
 40
0.7982640262
 40
0.8512933407
 40
0.8964236678
 40
0.9335163649
 40
0.9490238888
 40
0.962493364
 40
0.9739156646
 40
0.9832816625
 40
0.9905822276
 40
0.9934551194
 40
0.9958082284
 40
0.9976404129
 40
0.998950531
 40
0.9997374408
 40
1.0
 40
1.0
 40
1.0
 40
1.0
 10
2.8877984359
 20
1.3266750247
 30
0.0
 10
2.8880048945
 20
1.3305897257
 30
0.0
 10
2.8883681331
 20
1.3380110049
 30
0.0
 10
2.8888067671
 20
1.3484786291
 30
0.0
 10
2.8890889064
 20
1.3563655877
 30
0.0
 10
2.8892656148
 20
1.3619502043
 30
0.0
 10
2.8893709157
 20
1.3655616858
 30
0.0
 10
2.8894573474
 20
1.3687741754
 30
0.0
 10
2.8895272471
 20
1.3715781401
 30
0.0
 10
2.8895831084
 20
1.3739647578
 30
0.0
 10
2.8896216362
 20
1.3756893196
 30
0.0
 10
2.8896466547
 20
1.376855215
 30
0.0
 10
2.8896615496
 20
1.3775681247
 30
0.0
 10
2.8896738829
 20
1.3781726725
 30
0.0
 10
2.8896836325
 20
1.3786683395
 30
0.0
 10
2.8896904455
 20
1.3790131979
 30
0.0
 10
2.8896943577
 20
1.3792341954
 30
0.0
 10
2.8896972038
 20
1.3793588874
 30
0.0
 10
2.8896976027
 20
1.379455524
 30
0.0
 10
2.8897019723
 20
1.3795256443
 30
0.0
 10
2.8896972375
 20
1.3795659176
 30
0.0
 10
2.8897032355
 20
1.3795858557
 30
0.0
 10
2.8897009851
 20
1.3795899069
 30
0.0
  0
SPLINE
  5
508
100
AcDbEntity
  8
0
100
AcDbSpline
 62
7
  6
CONTINUOUS
 70
0
 71
3
 72
14
 73
10
 74
0
 42
0.0000001
 43
0.0000001
 44
0.0000000001
 40
0.0
 40
0.0
 40
0.0
 40
0.0
 40
0.0243268847
 40
0.074784138
 40
0.1544460393
 40
0.2638917367
 40
0.4032807814
 40
0.5726404613
 40
1.0
 40
1.0
 40
1.0
 40
1.0
 10
3.3271115361
 20
1.1566825309
 30
0.0
 10
3.3271176599
 20
1.1567517257
 30
0.0
 10
3.3273335767
 20
1.1568898913
 30
0.0
 10
3.3277303357
 20
1.1570090024
 30
0.0
 10
3.3284126367
 20
1.1571596286
 30
0.0
 10
3.3293341365
 20
1.157301483
 30
0.0
 10
3.3305213653
 20
1.1574501996
 30
0.0
 10
3.3326114547
 20
1.1576640146
 30
0.0
 10
3.3343107579
 20
1.1577985358
 30
0.0
 10
3.335527884
 20
1.1578868146
 30
0.0
  0
SPLINE
  5
509
100
AcDbEntity
  8
0
100
AcDbSpline
 62
7
  6
CONTINUOUS
 70
0
 71
3
 72
10
 73
6
 74
0
 42
0.0000001
 43
0.0000001
 44
0.0000000001
 40
0.0
 40
0.0
 40
0.0
 40
0.0
 40
0.1774350832
 40
0.4064265528
 40
1.0
 40
1.0
 40
1.0
 40
1.0
 10
3.335527884
 20
1.1578868146
 30
0.0
 10
3.3380481771
 20
1.1580696127
 30
0.0
 10
3.3438267383
 20
1.1584083779
 30
0.0
 10
3.358052804
 20
1.1590689638
 30
0.0
 10
3.3697605829
 20
1.1594751371
 30
0.0
 10
3.3782094236
 20
1.1597491294
 30
0.0
  0
SPLINE
  5
50A
100
AcDbEntity
  8
0
100
AcDbSpline
 62
7
  6
CONTINUOUS
 70
0
 71
3
 72
23
 73
19
 74
0
 42
0.0000001
 43
0.0000001
 44
0.0000000001
 40
0.0
 40
0.0
 40
0.0
 40
0.0
 40
0.1441459638
 40
0.3044530904
 40
0.4698225862
 40
0.5507738235
 40
0.6286145341
 40
0.7020066068
 40
0.7697624431
 40
0.8307152516
 40
0.8837662509
 40
0.9278470367
 40
0.9462522144
 40
0.9621620991
 40
0.9755314864
 40
0.9863166719
 40
0.9944785365
 40
1.0
 40
1.0
 40
1.0
 40
1.0
 10
3.3782094236
 20
1.1597491294
 30
0.0
 10
3.388016654
 20
1.1600671738
 30
0.0
 10
3.4087328525
 20
1.1606708493
 30
0.0
 10
3.4407036621
 20
1.1615176719
 30
0.0
 10
3.4683747318
 20
1.1622288603
 30
0.0
 10
3.4904335209
 20
1.1628123194
 30
0.0
 10
3.5062329134
 20
1.1632468674
 30
0.0
 10
3.521133708
 20
1.1636813753
 30
0.0
 10
3.534884406
 20
1.1641148828
 30
0.0
 10
3.5472497547
 20
1.1645467926
 30
0.0
 10
3.5580024405
 20
1.1649762765
 30
0.0
 10
3.5658586632
 20
1.1653494551
 30
0.0
 10
3.5711863782
 20
1.1656579141
 30
0.0
 10
3.5744252677
 20
1.1658742739
 30
0.0
 10
3.5771439911
 20
1.166089753
 30
0.0
 10
3.5793341118
 20
1.1663021134
 30
0.0
 10
3.5809858874
 20
1.1665129814
 30
0.0
 10
3.5819051674
 20
1.1666749088
 30
0.0
 10
3.5822685637
 20
1.1667708984
 30
0.0
  0
LINE
  5
50B
100
AcDbEntity
  8
0
100
AcDbLine
 62
7
  6
CONTINUOUS
 10
3.5822685637
 20
1.1667708984
 11
3.5827643242
 21
1.1669510929
  0
SPLINE
  5
50C
100
AcDbEntity
  8
0
100
AcDbSpline
 62
7
  6
CONTINUOUS
 70
0
 71
3
 72
15
 73
11
 74
0
 42
0.0000001
 43
0.0000001
 44
0.0000000001
 40
0.0
 40
0.0
 40
0.0
 40
0.0
 40
0.0237087442
 40
0.0449319438
 40
0.0733412686
 40
0.1525940913
 40
0.2623148823
 40
0.4023315873
 40
0.5722542038
 40
1.0
 40
1.0
 40
1.0
 40
1.0
 10
3.5828912693
 20
1.1670986848
 30
0.0
 10
3.5828915455
 20
1.1671620454
 30
0.0
 10
3.5827709674
 20
1.1672513303
 30
0.0
 10
3.582600596
 20
1.1673255113
 30
0.0
 10
3.5822680767
 20
1.1674346344
 30
0.0
 10
3.5817026813
 20
1.1675560429
 30
0.0
 10
3.5808332306
 20
1.1676976288
 30
0.0
 10
3.5797210551
 20
1.1678390055
 30
0.0
 10
3.5777601678
 20
1.1680461475
 30
0.0
 10
3.5761680865
 20
1.1681758969
 30
0.0
 10
3.5750281351
 20
1.1682612585
 30
0.0
  0
LINE
  5
50D
100
AcDbEntity
  8
0
100
AcDbLine
 62
7
  6
CONTINUOUS
 10
3.327796883
 20
1.1771602652
 11
3.3271914061
 21
1.1773675501
  0
SPLINE
  5
50E
100
AcDbEntity
  8
0
100
AcDbSpline
 62
7
  6
CONTINUOUS
 70
0
 71
3
 72
12
 73
8
 74
0
 42
0.0000001
 43
0.0000001
 44
0.0000000001
 40
0.0
 40
0.0
 40
0.0
 40
0.0
 40
0.0311984393
 40
0.084712286
 40
0.2748550383
 40
0.5800593176
 40
1.0
 40
1.0
 40
1.0
 40
1.0
 10
3.3270691836
 20
1.1775138308
 30
0.0
 10
3.327070491
 20
1.1775508997
 30
0.0
 10
3.3271437159
 20
1.1776382315
 30
0.0
 10
3.3274364524
 20
1.1777743156
 30
0.0
 10
3.3280772254
 20
1.1779360674
 30
0.0
 10
3.3291472886
 20
1.1781137146
 30
0.0
 10
3.3300042986
 20
1.1782199266
 30
0.0
 10
3.3305004245
 20
1.1782758505
 30
0.0
  0
LINE
  5
50F
100
AcDbEntity
  8
0
100
AcDbLine
 62
7
  6
CONTINUOUS
 10
3.3305004245
 20
1.1782758505
 11
3.3345386309
 21
1.1786456318
  0
LINE
  5
510
100
AcDbEntity
  8
0
100
AcDbLine
 62
7
  6
CONTINUOUS
 10
3.3345386309
 20
1.1786456318
 11
3.346886587
 21
1.1793803336
  0
SPLINE
  5
511
100
AcDbEntity
  8
0
100
AcDbSpline
 62
7
  6
CONTINUOUS
 70
0
 71
3
 72
11
 73
7
 74
0
 42
0.0000001
 43
0.0000001
 44
0.0000000001
 40
0.0
 40
0.0
 40
0.0
 40
0.0
 40
0.1903186299
 40
0.4289782507
 40
0.7033544012
 40
1.0
 40
1.0
 40
1.0
 40
1.0
 10
3.346886587
 20
1.1793803336
 30
0.0
 10
3.3528398454
 20
1.1796700747
 30
0.0
 10
3.366264261
 20
1.1802015928
 30
0.0
 10
3.388279994
 20
1.1809152655
 30
0.0
 10
3.4136270066
 20
1.1816364356
 30
0.0
 10
3.4315037468
 20
1.1821085615
 30
0.0
 10
3.4407907909
 20
1.1823507163
 30
0.0
  0
SPLINE
  5
512
100
AcDbEntity
  8
0
100
AcDbSpline
 62
7
  6
CONTINUOUS
 70
0
 71
3
 72
10
 73
6
 74
0
 42
0.0000001
 43
0.0000001
 44
0.0000000001
 40
0.0
 40
0.0
 40
0.0
 40
0.0
 40
0.5705322814
 40
0.8089995676
 40
1.0
 40
1.0
 40
1.0
 40
1.0
 10
3.4692250411
 20
1.1830890563
 30
0.0
 10
3.487022388
 20
1.1835533298
 30
0.0
 10
3.5122585513
 20
1.1842188298
 30
0.0
 10
3.5434471577
 20
1.1852275793
 30
0.0
 10
3.5568385397
 20
1.1857577084
 30
0.0
 10
3.5627917781
 20
1.1860446385
 30
0.0
  0
LINE
  5
513
100
AcDbEntity
  8
0
100
AcDbLine
 62
7
  6
CONTINUOUS
 10
3.3187339589
 20
1.1631795612
 11
3.3220967887
 21
1.162902245
  0
SPLINE
  5
514
100
AcDbEntity
  8
0
100
AcDbSpline
 62
7
  6
CONTINUOUS
 70
0
 71
3
 72
13
 73
9
 74
0
 42
0.0000001
 43
0.0000001
 44
0.0000000001
 40
0.0
 40
0.0
 40
0.0
 40
0.0
 40
0.0429609557
 40
0.10901105
 40
0.1986075687
 40
0.3118391501
 40
0.6090433977
 40
1.0
 40
1.0
 40
1.0
 40
1.0
 10
3.5955105985
 20
1.1743010594
 30
0.0
 10
3.5954259123
 20
1.1742513373
 30
0.0
 10
3.5951883465
 20
1.1741677508
 30
0.0
 10
3.5947483018
 20
1.1740593777
 30
0.0
 10
3.5941429497
 20
1.1739488995
 30
0.0
 10
3.5930121668
 20
1.1737829621
 30
0.0
 10
3.5911903223
 20
1.173585053
 30
0.0
 10
3.5896228971
 20
1.1734523388
 30
0.0
 10
3.5887318632
 20
1.1733835605
 30
0.0
  0
LINE
  5
515
100
AcDbEntity
  8
0
100
AcDbLine
 62
7
  6
CONTINUOUS
 10
3.5887318632
 20
1.1733835605
 11
3.5767724819
 21
1.1726877976
  0
SPLINE
  5
516
100
AcDbEntity
  8
0
100
AcDbSpline
 62
7
  6
CONTINUOUS
 70
0
 71
3
 72
17
 73
13
 74
0
 42
0.0000001
 43
0.0000001
 44
0.0000000001
 40
0.0
 40
0.0
 40
0.0
 40
0.0
 40
0.0428653384
 40
0.094000791
 40
0.2170885797
 40
0.3602049827
 40
0.5128100521
 40
0.6636590749
 40
0.8016321889
 40
0.9165639132
 40
0.962666458
 40
1.0
 40
1.0
 40
1.0
 40
1.0
 10
3.5767724819
 20
1.1726877976
 30
0.0
 10
3.573216072
 20
1.1725206838
 30
0.0
 10
3.5654149907
 20
1.1721995479
 30
0.0
 10
3.5473948745
 20
1.1715697989
 30
0.0
 10
3.5210476048
 20
1.1708182104
 30
0.0
 10
3.4862727044
 20
1.1699517903
 30
0.0
 10
3.4491914002
 20
1.1690814973
 30
0.0
 10
3.4125373701
 20
1.1682121447
 30
0.0
 10
3.3790132992
 20
1.1673481143
 30
0.0
 10
3.3541892702
 20
1.1665949684
 30
0.0
 10
3.33772524
 20
1.1659617721
 30
0.0
 10
3.3308025119
 20
1.1656380327
 30
0.0
 10
3.3277063948
 20
1.1654663966
 30
0.0
  0
LINE
  5
517
100
AcDbEntity
  8
0
100
AcDbLine
 62
7
  6
CONTINUOUS
 10
3.3265224444
 20
1.1653992618
 11
3.3174466766
 21
1.1646965284
  0
LINE
  5
518
100
AcDbEntity
  8
0
100
AcDbLine
 62
7
  6
CONTINUOUS
 10
3.3174466766
 20
1.1646965284
 11
3.3151437415
 21
1.1643465185
  0
LINE
  5
519
100
AcDbEntity
  8
0
100
AcDbLine
 62
7
  6
CONTINUOUS
 10
3.3151437415
 20
1.1643465185
 11
3.3143676423
 21
1.1640080472
  0
SPLINE
  5
51A
100
AcDbEntity
  8
0
100
AcDbSpline
 62
7
  6
CONTINUOUS
 70
0
 71
3
 72
13
 73
9
 74
0
 42
0.0000001
 43
0.0000001
 44
0.0000000001
 40
0.0
 40
0.0
 40
0.0
 40
0.0
 40
0.0431829039
 40
0.1093761299
 40
0.1990501621
 40
0.312300088
 40
0.6093769203
 40
1.0
 40
1.0
 40
1.0
 40
1.0
 10
3.3144766239
 20
1.184715677
 30
0.0
 10
3.3145616865
 20
1.1846656546
 30
0.0
 10
3.3147998949
 20
1.184581578
 30
0.0
 10
3.3152408116
 20
1.1844730482
 30
0.0
 10
3.3158465607
 20
1.1843627785
 30
0.0
 10
3.3169770367
 20
1.184197667
 30
0.0
 10
3.318797449
 20
1.1840012484
 30
0.0
 10
3.3203634006
 20
1.183869453
 30
0.0
 10
3.3212534213
 20
1.1838010605
 30
0.0
  0
LINE
  5
51B
100
AcDbEntity
  8
0
100
AcDbLine
 62
7
  6
CONTINUOUS
 10
3.3174466753
 20
1.1855347308
 11
3.3151437411
 21
1.1851862548
  0
LINE
  5
51C
100
AcDbEntity
  8
0
100
AcDbLine
 62
7
  6
CONTINUOUS
 10
3.3151437411
 20
1.1851862548
 11
3.3143676423
 21
1.1848430472
  0
SPLINE
  5
51D
100
AcDbEntity
  8
0
100
AcDbSpline
 62
7
  6
CONTINUOUS
 70
0
 71
3
 72
9
 73
5
 74
0
 42
0.0000001
 43
0.0000001
 44
0.0000000001
 40
0.0
 40
0.0
 40
0.0
 40
0.0
 40
0.4999999988
 40
1.0
 40
1.0
 40
1.0
 40
1.0
 10
3.379387145
 20
10.7871073202
 30
0.0
 10
3.3681977174
 20
10.7885192232
 30
0.0
 10
3.3456177742
 20
10.7898908519
 30
0.0
 10
3.3230378303
 20
10.7885192399
 30
0.0
 10
3.3118484012
 20
10.7871073479
 30
0.0
  0
SPLINE
  5
51E
100
AcDbEntity
  8
0
100
AcDbSpline
 62
7
  6
CONTINUOUS
 70
0
 71
3
 72
9
 73
5
 74
0
 42
0.0000001
 43
0.0000001
 44
0.0000000001
 40
0.0
 40
0.0
 40
0.0
 40
0.0
 40
0.4999999975
 40
1.0
 40
1.0
 40
1.0
 40
1.0
 10
3.5981368193
 20
10.7871073574
 30
0.0
 10
3.5869473892
 20
10.7885192464
 30
0.0
 10
3.5643674434
 20
10.789890851
 30
0.0
 10
3.5417874992
 20
10.7885192166
 30
0.0
 10
3.530598071
 20
10.7871073109
 30
0.0
  0
SPLINE
  5
51F
100
AcDbEntity
  8
0
100
AcDbSpline
 62
7
  6
CONTINUOUS
 70
0
 71
3
 72
11
 73
7
 74
0
 42
0.0000001
 43
0.0000001
 44
0.0000000001
 40
0.0
 40
0.0
 40
0.0
 40
0.0
 40
0.2511004771
 40
0.4999999936
 40
0.7488995076
 40
1.0
 40
1.0
 40
1.0
 40
1.0
 10
3.2508191187
 20
10.6044665452
 30
0.0
 10
3.2658278949
 20
10.598301984
 30
0.0
 10
3.2971691837
 20
10.5893733074
 30
0.0
 10
3.345617641
 20
10.5851765493
 30
0.0
 10
3.3940661019
 20
10.5893732966
 30
0.0
 10
3.4254073887
 20
10.5983019837
 30
0.0
 10
3.4404161658
 20
10.6044665452
 30
0.0
  0
SPLINE
  5
520
100
AcDbEntity
  8
0
100
AcDbSpline
 62
7
  6
CONTINUOUS
 70
0
 71
3
 72
11
 73
7
 74
0
 42
0.0000001
 43
0.0000001
 44
0.0000000001
 40
0.0
 40
0.0
 40
0.0
 40
0.0
 40
0.2511004909
 40
0.500000007
 40
0.7488995213
 40
1.0
 40
1.0
 40
1.0
 40
1.0
 10
3.4695691187
 20
10.6044665452
 30
0.0
 10
3.4845778957
 20
10.5983019837
 30
0.0
 10
3.5159191833
 20
10.5893732994
 30
0.0
 10
3.5643676434
 20
10.5851765506
 30
0.0
 10
3.6128161017
 20
10.589373304
 30
0.0
 10
3.6441573895
 20
10.598301984
 30
0.0
 10
3.6591661658
 20
10.6044665452
 30
0.0
  0
SPLINE
  5
521
100
AcDbEntity
  8
0
100
AcDbSpline
 62
7
  6
CONTINUOUS
 70
0
 71
3
 72
13
 73
9
 74
0
 42
0.0000001
 43
0.0000001
 44
0.0000000001
 40
0.0
 40
0.0
 40
0.0
 40
0.0
 40
0.0434001676
 40
0.1096692124
 40
0.1993169193
 40
0.3125086767
 40
0.6096464124
 40
1.0
 40
1.0
 40
1.0
 40
1.0
 10
3.3145006675
 20
1.1468797781
 30
0.0
 10
3.3145969232
 20
1.1469330313
 30
0.0
 10
3.3148630304
 20
1.1470221937
 30
0.0
 10
3.3153542903
 20
1.1471367283
 30
0.0
 10
3.3160272445
 20
1.1472523884
 30
0.0
 10
3.3172826058
 20
1.1474248882
 30
0.0
 10
3.3193024564
 20
1.1476288645
 30
0.0
 10
3.3210395642
 20
1.1477660678
 30
0.0
 10
3.3220263959
 20
1.1478375199
 30
0.0
  0
LINE
  5
522
100
AcDbEntity
  8
0
100
AcDbLine
 62
7
  6
CONTINUOUS
 10
3.3220263959
 20
1.1478375199
 11
3.3349348302
 21
1.1485543925
  0
SPLINE
  5
523
100
AcDbEntity
  8
0
100
AcDbSpline
 62
7
  6
CONTINUOUS
 70
0
 71
3
 72
10
 73
6
 74
0
 42
0.0000001
 43
0.0000001
 44
0.0000000001
 40
0.0
 40
0.0
 40
0.0
 40
0.0
 40
0.1953530912
 40
0.431343707
 40
1.0
 40
1.0
 40
1.0
 40
1.0
 10
3.3349348302
 20
1.1485543925
 30
0.0
 10
3.3393994134
 20
1.1487566078
 30
0.0
 10
3.3492600894
 20
1.1491409982
 30
0.0
 10
3.3721252908
 20
1.1498877733
 30
0.0
 10
3.3905271778
 20
1.1503752378
 30
0.0
 10
3.4035323503
 20
1.1507047883
 30
0.0
  0
LINE
  5
524
100
AcDbEntity
  8
0
100
AcDbLine
 62
7
  6
CONTINUOUS
 10
3.4035323503
 20
1.1507047883
 11
3.4179507736
 21
1.1510632032
  0
LINE
  5
525
100
AcDbEntity
  8
0
100
AcDbLine
 62
7
  6
CONTINUOUS
 10
3.4179507736
 20
1.1510632032
 11
3.4479086489
 21
1.1517799862
  0
LINE
  5
526
100
AcDbEntity
  8
0
100
AcDbLine
 62
7
  6
CONTINUOUS
 10
3.4479086489
 20
1.1517799862
 11
3.5074044342
 21
1.1532136816
  0
SPLINE
  5
527
100
AcDbEntity
  8
0
100
AcDbSpline
 62
7
  6
CONTINUOUS
 70
0
 71
3
 72
10
 73
6
 74
0
 42
0.0000001
 43
0.0000001
 44
0.0000000001
 40
0.0
 40
0.0
 40
0.0
 40
0.0
 40
0.5696839769
 40
0.805492595
 40
1.0
 40
1.0
 40
1.0
 40
1.0
 10
3.5074044342
 20
1.1532136816
 30
0.0
 10
3.5203532228
 20
1.1535428319
 30
0.0
 10
3.5386614874
 20
1.1540296724
 30
0.0
 10
3.561386414
 20
1.1547757112
 30
0.0
 10
3.5711631057
 20
1.1551620724
 30
0.0
 10
3.5755809708
 20
1.1553653144
 30
0.0
  0
LINE
  5
528
100
AcDbEntity
  8
0
100
AcDbLine
 62
7
  6
CONTINUOUS
 10
3.5822171514
 20
1.155698425
 11
3.5923379875
 21
1.156434182
  0
LINE
  5
529
100
AcDbEntity
  8
0
100
AcDbLine
 62
7
  6
CONTINUOUS
 10
3.5923379875
 20
1.156434182
 11
3.5947905298
 21
1.1567901214
  0
LINE
  5
52A
100
AcDbEntity
  8
0
100
AcDbLine
 62
7
  6
CONTINUOUS
 10
3.5947905298
 20
1.1567901214
 11
3.5956176423
 21
1.1571558503
  0
SPLINE
  5
52B
100
AcDbEntity
  8
0
100
AcDbSpline
 62
7
  6
CONTINUOUS
 70
0
 71
3
 72
13
 73
9
 74
0
 42
0.0000001
 43
0.0000001
 44
0.0000000001
 40
0.0
 40
0.0
 40
0.0
 40
0.0
 40
0.0432474552
 40
0.1094102165
 40
0.1990011657
 40
0.3121822674
 40
0.6094341568
 40
1.0
 40
1.0
 40
1.0
 40
1.0
 10
3.327249865
 20
1.1542249141
 30
0.0
 10
3.3273551055
 20
1.1542837814
 30
0.0
 10
3.3276470371
 20
1.1543822158
 30
0.0
 10
3.3281864076
 20
1.1545086546
 30
0.0
 10
3.3289261476
 20
1.1546363409
 30
0.0
 10
3.3303071413
 20
1.1548268171
 30
0.0
 10
3.3325299277
 20
1.1550518313
 30
0.0
 10
3.3344417328
 20
1.1552030355
 30
0.0
 10
3.335527884
 20
1.1552818146
 30
0.0
  0
SPLINE
  5
52C
100
AcDbEntity
  8
0
100
AcDbSpline
 62
7
  6
CONTINUOUS
 70
0
 71
3
 72
11
 73
7
 74
0
 42
0.0000001
 43
0.0000001
 44
0.0000000001
 40
0.0
 40
0.0
 40
0.0
 40
0.0
 40
0.1666964376
 40
0.3952470781
 40
0.6765838495
 40
1.0
 40
1.0
 40
1.0
 40
1.0
 10
3.335527884
 20
1.1552818146
 30
0.0
 10
3.3392555775
 20
1.1555521861
 30
0.0
 10
3.3481057715
 20
1.1560254137
 30
0.0
 10
3.3632624586
 20
1.1566481937
 30
0.0
 10
3.3819355093
 20
1.1572774725
 30
0.0
 10
3.3954886962
 20
1.1576777681
 30
0.0
 10
3.402737057
 20
1.1578836498
 30
0.0
  0
LINE
  5
52D
100
AcDbEntity
  8
0
100
AcDbLine
 62
7
  6
CONTINUOUS
 10
3.402737057
 20
1.1578836498
 11
3.4159856276
 21
1.158251642
  0
LINE
  5
52E
100
AcDbEntity
  8
0
100
AcDbLine
 62
7
  6
CONTINUOUS
 10
3.4159856276
 20
1.158251642
 11
3.4577448622
 21
1.159350987
  0
SPLINE
  5
52F
100
AcDbEntity
  8
0
100
AcDbSpline
 62
7
  6
CONTINUOUS
 70
0
 71
3
 72
20
 73
16
 74
0
 42
0.0000001
 43
0.0000001
 44
0.0000000001
 40
0.0
 40
0.0
 40
0.0
 40
0.0
 40
0.1849381172
 40
0.3629977557
 40
0.5282779665
 40
0.6756740638
 40
0.7411418568
 40
0.8003571723
 40
0.8527529169
 40
0.8978070232
 40
0.935241237
 40
0.9648634733
 40
0.9864905133
 40
0.9942617671
 40
1.0
 40
1.0
 40
1.0
 40
1.0
 10
3.4577448622
 20
1.159350987
 30
0.0
 10
3.4654265634
 20
1.1595501561
 30
0.0
 10
3.4805042452
 20
1.1599415396
 30
0.0
 10
3.5024465509
 20
1.1605322765
 30
0.0
 10
3.5228283643
 20
1.1611229447
 30
0.0
 10
3.5385323401
 20
1.1616300514
 30
0.0
 10
3.5498298062
 20
1.1620445213
 30
0.0
 10
3.5571815215
 20
1.1623422891
 30
0.0
 10
3.5636843445
 20
1.162638862
 30
0.0
 10
3.5692810394
 20
1.1629350177
 30
0.0
 10
3.5739302948
 20
1.1632285515
 30
0.0
 10
3.5776034705
 20
1.1635202021
 30
0.0
 10
3.5800437117
 20
1.1637743468
 30
0.0
 10
3.5814871231
 20
1.1639938083
 30
0.0
 10
3.5820380434
 20
1.1641050074
 30
0.0
 10
3.5822685637
 20
1.1641658984
 30
0.0
  0
LINE
  5
530
100
AcDbEntity
  8
0
100
AcDbLine
 62
7
  6
CONTINUOUS
 10
3.5822685637
 20
1.1641658984
 11
3.5828912693
 21
1.1644936848
  0
SPLINE
  5
531
100
AcDbEntity
  8
0
100
AcDbSpline
 62
7
  6
CONTINUOUS
 70
0
 71
3
 72
13
 73
9
 74
0
 42
0.0000001
 43
0.0000001
 44
0.0000000001
 40
0.0
 40
0.0
 40
0.0
 40
0.0
 40
0.0428909652
 40
0.1089117454
 40
0.198759933
 40
0.3124339947
 40
0.6102467958
 40
1.0
 40
1.0
 40
1.0
 40
1.0
 10
3.5827676844
 20
1.1646397267
 30
0.0
 10
3.5826712671
 20
1.1646964846
 30
0.0
 10
3.5824001718
 20
1.1647913849
 30
0.0
 10
3.5818970859
 20
1.164912877
 30
0.0
 10
3.5812038725
 20
1.165035411
 30
0.0
 10
3.5799091111
 20
1.1652181626
 30
0.0
 10
3.577829528
 20
1.165434412
 30
0.0
 10
3.5760419835
 20
1.1655803397
 30
0.0
 10
3.5750281351
 20
1.1656562585
 30
0.0
  0
LINE
  5
532
100
AcDbEntity
  8
0
100
AcDbLine
 62
7
  6
CONTINUOUS
 10
3.327796883
 20
1.1745552652
 11
3.3270691836
 21
1.1749088308
  0
SPLINE
  5
533
100
AcDbEntity
  8
0
100
AcDbSpline
 62
7
  6
CONTINUOUS
 70
0
 71
3
 72
13
 73
9
 74
0
 42
0.0000001
 43
0.0000001
 44
0.0000000001
 40
0.0
 40
0.0
 40
0.0
 40
0.0
 40
0.0446524726
 40
0.1118654962
 40
0.2021280668
 40
0.3155519474
 40
0.6117774175
 40
1.0
 40
1.0
 40
1.0
 40
1.0
 10
3.5954935202
 20
1.1572987546
 30
0.0
 10
3.5954051701
 20
1.1573492962
 30
0.0
 10
3.5951622437
 20
1.1574346729
 30
0.0
 10
3.5947151307
 20
1.1575432757
 30
0.0
 10
3.5941066449
 20
1.1576522615
 30
0.0
 10
3.5929786288
 20
1.1578133644
 30
0.0
 10
3.5911692118
 20
1.1580033225
 30
0.0
 10
3.5896142998
 20
1.1581311758
 30
0.0
 10
3.5887318632
 20
1.158197837
 30
0.0
  0
SPLINE
  5
534
100
AcDbEntity
  8
0
100
AcDbSpline
 62
7
  6
CONTINUOUS
 70
0
 71
3
 72
13
 73
9
 74
0
 42
0.0000001
 43
0.0000001
 44
0.0000000001
 40
0.0
 40
0.0
 40
0.0
 40
0.0
 40
0.0440646604
 40
0.11085683
 40
0.200870456
 40
0.3142153387
 40
0.610782779
 40
1.0
 40
1.0
 40
1.0
 40
1.0
 10
3.3144852565
 20
1.1677107123
 30
0.0
 10
3.3145721538
 20
1.1677613076
 30
0.0
 10
3.3148131082
 20
1.1678465151
 30
0.0
 10
3.3152576735
 20
1.1679552604
 30
0.0
 10
3.3158650486
 20
1.1680647389
 30
0.0
 10
3.3169941324
 20
1.1682271756
 30
0.0
 10
3.3188082259
 20
1.1684190948
 30
0.0
 10
3.3203677907
 20
1.1685481338
 30
0.0
 10
3.3212534213
 20
1.168615337
 30
0.0
  0
LINE
  5
535
100
AcDbEntity
  8
0
100
AcDbLine
 62
7
  6
CONTINUOUS
 10
3.3212534213
 20
1.168615337
 11
3.333212806
 21
1.1693090682
  0
SPLINE
  5
536
100
AcDbEntity
  8
0
100
AcDbSpline
 62
7
  6
CONTINUOUS
 70
0
 71
3
 72
15
 73
11
 74
0
 42
0.0000001
 43
0.0000001
 44
0.0000000001
 40
0.0
 40
0.0
 40
0.0
 40
0.0
 40
0.0894218741
 40
0.2051257108
 40
0.3400130807
 40
0.4857913924
 40
0.6334846282
 40
0.7740120126
 40
0.8987403261
 40
1.0
 40
1.0
 40
1.0
 40
1.0
 10
3.333212806
 20
1.1693090682
 30
0.0
 10
3.3402289589
 20
1.1696406437
 30
0.0
 10
3.3563310598
 20
1.1702328414
 30
0.0
 10
3.3830270179
 20
1.1710201022
 30
0.0
 10
3.4141513346
 20
1.1718147531
 30
0.0
 10
3.4477889219
 20
1.1726138274
 30
0.0
 10
3.4818696448
 20
1.1734135363
 30
0.0
 10
3.5142965538
 20
1.1742103872
 30
0.0
 10
3.5430750098
 20
1.1750020965
 30
0.0
 10
3.5608167282
 20
1.1755887678
 30
0.0
 10
3.5687641685
 20
1.1759074912
 30
0.0
  0
LINE
  5
537
100
AcDbEntity
  8
0
100
AcDbLine
 62
7
  6
CONTINUOUS
 10
3.5834628377
 20
1.1766018689
 11
3.5925386097
 21
1.1772967328
  0
LINE
  5
538
100
AcDbEntity
  8
0
100
AcDbLine
 62
7
  6
CONTINUOUS
 10
3.5925386097
 20
1.1772967328
 11
3.5948415435
 21
1.1776440428
  0
LINE
  5
539
100
AcDbEntity
  8
0
100
AcDbLine
 62
7
  6
CONTINUOUS
 10
3.5948415435
 20
1.1776440428
 11
3.5956176423
 21
1.1779908503
  0
SPLINE
  5
53A
100
AcDbEntity
  8
0
100
AcDbSpline
 62
7
  6
CONTINUOUS
 70
0
 71
3
 72
11
 73
7
 74
0
 42
0.0000001
 43
0.0000001
 44
0.0000000001
 40
0.0
 40
0.0
 40
0.0
 40
0.0
 40
0.1305409589
 40
0.3404446494
 40
0.6304251099
 40
1.0
 40
1.0
 40
1.0
 40
1.0
 10
3.327199151
 20
1.1750534896
 30
0.0
 10
3.3273265507
 20
1.1751259442
 30
0.0
 10
3.3276968165
 20
1.1752391572
 30
0.0
 10
3.3283869988
 20
1.175386482
 30
0.0
 10
3.3293533903
 20
1.1755342941
 30
0.0
 10
3.3300881043
 20
1.1756243733
 30
0.0
 10
3.3305004245
 20
1.1756708505
 30
0.0
  0
LINE
  5
53B
100
AcDbEntity
  8
0
100
AcDbLine
 62
7
  6
CONTINUOUS
 10
3.3305004245
 20
1.1756708505
 11
3.3345386309
 21
1.1760406318
  0
LINE
  5
53C
100
AcDbEntity
  8
0
100
AcDbLine
 62
7
  6
CONTINUOUS
 10
3.3345386309
 20
1.1760406318
 11
3.346886587
 21
1.1767753336
  0
SPLINE
  5
53D
100
AcDbEntity
  8
0
100
AcDbSpline
 62
7
  6
CONTINUOUS
 70
0
 71
3
 72
11
 73
7
 74
0
 42
0.0000001
 43
0.0000001
 44
0.0000000001
 40
0.0
 40
0.0
 40
0.0
 40
0.0
 40
0.1903186299
 40
0.4289782507
 40
0.7033544012
 40
1.0
 40
1.0
 40
1.0
 40
1.0
 10
3.346886587
 20
1.1767753336
 30
0.0
 10
3.3528398454
 20
1.1770650747
 30
0.0
 10
3.366264261
 20
1.1775965928
 30
0.0
 10
3.388279994
 20
1.1783102655
 30
0.0
 10
3.4136270066
 20
1.1790314356
 30
0.0
 10
3.4315037468
 20
1.1795035615
 30
0.0
 10
3.4407907909
 20
1.1797457163
 30
0.0
  0
SPLINE
  5
53E
100
AcDbEntity
  8
0
100
AcDbSpline
 62
7
  6
CONTINUOUS
 70
0
 71
3
 72
10
 73
6
 74
0
 42
0.0000001
 43
0.0000001
 44
0.0000000001
 40
0.0
 40
0.0
 40
0.0
 40
0.0
 40
0.5705322814
 40
0.8089995676
 40
1.0
 40
1.0
 40
1.0
 40
1.0
 10
3.4692250411
 20
1.1804840563
 30
0.0
 10
3.487022388
 20
1.1809483298
 30
0.0
 10
3.5122585513
 20
1.1816138298
 30
0.0
 10
3.5434471577
 20
1.1826225793
 30
0.0
 10
3.5568385397
 20
1.1831527084
 30
0.0
 10
3.5627917781
 20
1.1834396385
 30
0.0
  0
SPLINE
  5
53F
100
AcDbEntity
  8
0
100
AcDbSpline
 62
7
  6
CONTINUOUS
 70
0
 71
3
 72
12
 73
8
 74
0
 42
0.0000001
 43
0.0000001
 44
0.0000000001
 40
0.0
 40
0.0
 40
0.0
 40
0.0
 40
0.3647247135
 40
0.6550105858
 40
0.8676272069
 40
0.9439849219
 40
1.0
 40
1.0
 40
1.0
 40
1.0
 10
3.5627917781
 20
1.1834396385
 30
0.0
 10
3.5651274184
 20
1.1835522101
 30
0.0
 10
3.56932147
 20
1.1837688468
 30
0.0
 10
3.5748723485
 20
1.1841275237
 30
0.0
 10
3.5785741489
 20
1.1844394003
 30
0.0
 10
3.5807695086
 20
1.1847089367
 30
0.0
 10
3.581607887
 20
1.1848455264
 30
0.0
 10
3.5819589895
 20
1.1849210252
 30
0.0
  0
LINE
  5
540
100
AcDbEntity
  8
0
100
AcDbLine
 62
7
  6
CONTINUOUS
 10
3.5819589895
 20
1.1849210252
 11
3.5828837575
 21
1.1853227721
  0
SPLINE
  5
541
100
AcDbEntity
  8
0
100
AcDbSpline
 62
7
  6
CONTINUOUS
 70
0
 71
3
 72
13
 73
9
 74
0
 42
0.0000001
 43
0.0000001
 44
0.0000000001
 40
0.0
 40
0.0
 40
0.0
 40
0.0
 40
0.0435024081
 40
0.1099073912
 40
0.1996989747
 40
0.3129794784
 40
0.6098723057
 40
1.0
 40
1.0
 40
1.0
 40
1.0
 10
3.5955057008
 20
1.1781220992
 30
0.0
 10
3.5954200313
 20
1.178172436
 30
0.0
 10
3.5951808619
 20
1.1782570641
 30
0.0
 10
3.5947386539
 20
1.1783657421
 30
0.0
 10
3.5941323236
 20
1.1784757182
 30
0.0
 10
3.5930023209
 20
1.1786397543
 30
0.0
 10
3.591184088
 20
1.1788342946
 30
0.0
 10
3.5896203571
 20
1.1789649354
 30
0.0
 10
3.5887318632
 20
1.179032837
 30
0.0
  0
ELLIPSE
  5
542
100
AcDbEntity
  8
0
100
AcDbEllipse
 62
7
  6
CONTINUOUS
 10
3.4549926423
 20
1.1732309112
 30
0.0
 11
0.140625
 21
0.0
 31
0.0
 40
1.0
 41
-2.5116434242
 42
-2.1360655108
  0
ELLIPSE
  5
543
100
AcDbEntity
  8
0
100
AcDbEllipse
 62
7
  6
CONTINUOUS
 10
3.4549926423
 20
1.1732309112
 30
0.0
 11
0.140625
 21
-0.0
 31
0.0
 40
1.0
 41
-1.0055271428
 42
-0.6299492294
  0
ELLIPSE
  5
544
100
AcDbEntity
  8
0
100
AcDbEllipse
 62
7
  6
CONTINUOUS
 10
3.4549926423
 20
1.1732309112
 30
0.0
 11
0.140625
 21
-0.0
 31
0.0
 40
1.0
 41
-1.9050381946
 42
-1.236554459
  0
ENDSEC
  0
SECTION
  2
OBJECTS
  0
DICTIONARY
  5
C
100
AcDbDictionary
280
0
281
1
  3
ACAD_GROUP
350
D
  3
ACAD_MLINESTYLE
350
17
  3
ACAD_LAYOUT
350
1A
  3
ACAD_PLOTSETTINGS
350
19
  3
ACAD_PLOTSTYLENAME
350
E
  0
DICTIONARY
  5
D
102
{ACAD_REACTORS
330
C
102
}
100
AcDbDictionary
280
0
281
1
  0
ACDBDICTIONARYWDFLT
  5
E
102
{ACAD_REACTORS
330
C
102
}
100
AcDbDictionary
281
1
  3
Normal
350
F
100
AcDbDictionaryWithDefault
340
F
  0
DICTIONARY
  5
17
102
{ACAD_REACTORS
330
C
102
}
100
AcDbDictionary
280
0
281
1
  3
Standard
350
18
  0
DICTIONARY
  5
19
102
{ACAD_REACTORS
330
C
102
}
100
AcDbDictionary
281
1
  0
DICTIONARY
  5
1A
102
{ACAD_REACTORS
330
C
102
}
100
AcDbDictionary
281
1
  3
Model
350
545
  3
Layout1
350
546
  0
ACDBPLACEHOLDER
  5
F
102
{ACAD_REACTORS
330
E
102
}
  0
MLINESTYLE
  5
18
102
{ACAD_REACTORS
330
17
102
}
100
AcDbMlineStyle
  2
STANDARD
 70
0
  3

 62
256
 51
90.0
 52
90.0
 71
2
 49
0.5
 62
256
  6
BYLAYER
 49
-0.5
 62
256
  6
BYLAYER
  0
LAYOUT
  5
545
102
{ACAD_REACTORS
330
1A
102
}
100
AcDbPlotSettings
  1

  2
none_device
  4

  6

 40
0.0
 41
0.0
 42
0.0
 43
0.0
 44
215.9
 45
279.4
 46
0.0
 47
0.0
 48
0.0
 49
0.0
140
0.0
141
0.0
142
1.0
143
1.0
 70
1024
 72
0
 73
0
 74
0
  7

 75
0
147
1.0
148
0.0
149
0.0
100
AcDbLayout
  1
Model
 70
0
 71
0
 10
0.0
 20
0.0
 11
8.5
 21
11.0
 12
0.0
 22
0.0
 32
0.0
 14
0.0
 24
0.0
 34
0.0
 15
0.0
 25
0.0
 35
0.0
146
0.0
 13
0.0
 23
0.0
 33
0.0
 16
1.0
 26
0.0
 36
0.0
 17
0.0
 27
1.0
 37
0.0
 76
0
330
23E
345
0
346
0
  0
LAYOUT
  5
546
102
{ACAD_REACTORS
330
1A
102
}
100
AcDbPlotSettings
  1

  2
none_device
  4

  6

 40
0.0
 41
0.0
 42
0.0
 43
0.0
 44
215.9
 45
279.4
 46
0.0
 47
0.0
 48
0.0
 49
0.0
140
0.0
141
0.0
142
1.0
143
1.0
 70
0
 72
0
 73
0
 74
0
  7

 75
0
147
1.0
148
0.0
149
0.0
100
AcDbLayout
  1
Layout1
 70
0
 71
1
 10
0.0
 20
0.0
 11
8.5
 21
11.0
 12
0.0
 22
0.0
 32
0.0
 14
0.0
 24
0.0
 34
0.0
 15
0.0
 25
0.0
 35
0.0
146
0.0
 13
0.0
 23
0.0
 33
0.0
 16
1.0
 26
0.0
 36
0.0
 17
0.0
 27
1.0
 37
0.0
 76
0
330
23F
345
0
346
0
  0
ENDSEC
  0
EOF
