999
DXF file: C:\Prowork\plots\495_front.dxf
999
Pro/ENGINEER 2018500 by Parametric Technology Corporation
  0
SECTION
  2
HEADER
  9
$ACADVER
  1
AC1032
  9
$DWGCODEPAGE
  3
ANSI_1252
  9
$EXTMAX
 10
8.5
 20
11.0
 30
0.0
  9
$EXTMIN
 10
0.0
 20
0.0
 30
0.0
  9
$LIMMIN
 10
0.0
 20
0.0
  9
$LIMMAX
 10
8.5
 20
11.0
  9
$VIEWCTR
 10
4.25
 20
5.5
  9
$VIEWSIZE
 40
11.0
  9
$CLAYER
  8
0
  9
$LTSCALE
 40
0.717037037
  9
$CELTYPE
  6
BYLAYER
  9
$DIMSCALE
 40
1.0
  9
$DIMASZ
 40
0.1
  9
$DIMEXO
 40
0.0625
  9
$DIMDLI
 40
0.4954074074
  9
$DIMEXE
 40
0.125
  9
$DIMCEN
 40
0.1173333333
  9
$DIMLFAC
 40
1.0
  9
$DIMBLK
  1
_FILLED
  9
$DIMALT
 70
1
  9
$DIMALTD
 70
2
  9
$DIMALTTD
 70
2
  9
$DIMALTF
 40
25.4
  9
$DIMTXT
 40
0.08
  9
$DIMTOL
 70
1
  9
$DIMLIM
 70
0
  9
$DIMTFAC
 40
1.0
  9
$DIMTP
 40
0.001
  9
$DIMTM
 40
0.001
  9
$DIMGAP
 40
0.09
  9
$DIMDSEP
 70
46
  9
$AUNITS
 70
0
  9
$PDMODE
 70
3
  9
$PDSIZE
 40
0.06
  9
$HANDSEED
  5
285
  9
$TILEMODE
 70
1
  9
$MEASUREMENT
 70
0
  9
$INSUNITS
 70
1
  0
ENDSEC
  0
SECTION
  2
CLASSES
  0
CLASS
  1
ACDBDICTIONARYWDFLT
  2
AcDbDictionaryWithDefault
  3
AutoCAD 2000
 90
0
 91
1
280
0
281
0
  0
CLASS
  1
ACDBPLACEHOLDER
  2
AcDbPlaceHolder
  3
AutoCAD 2000
 90
0
 91
1
280
0
281
0
  0
CLASS
  1
LAYOUT
  2
AcDbLayout
  3
AutoCAD 2000
 90
0
 91
0
280
0
281
0
  0
ENDSEC
  0
SECTION
  2
TABLES
  0
TABLE
  2
VPORT
  5
8
100
AcDbSymbolTable
 70
2
  0
VPORT
  5
1F4
100
AcDbSymbolTableRecord
100
AcDbViewportTableRecord
  2
*ACTIVE
 70
0
 10
0.0
 20
0.0
 11
1.0
 21
1.0
 12
4.25
 22
5.5
 13
0.0
 23
0.0
 14
1.0
 24
1.0
 15
0.0
 25
0.0
 16
0.0
 26
0.0
 36
1.0
 17
0.0
 27
0.0
 37
0.0
 40
11.0
 41
0.7727272727
 42
50.0
 43
0.0
 44
0.0
 50
0.0
 51
0.0
 71
0
 72
100
 73
1
 74
1
 75
0
 76
0
 77
0
 78
0
  0
ENDTAB
  0
TABLE
  2
LTYPE
  5
5
100
AcDbSymbolTable
 70
6
  0
LTYPE
  5
14
100
AcDbSymbolTableRecord
100
AcDbLinetypeTableRecord
  2
BYBLOCK
 70
0
  3

 72
65
 73
0
 40
0.0
  0
LTYPE
  5
15
100
AcDbSymbolTableRecord
100
AcDbLinetypeTableRecord
  2
BYLAYER
 70
0
  3

 72
65
 73
0
 40
0.0
  0
LTYPE
  5
16
100
AcDbSymbolTableRecord
100
AcDbLinetypeTableRecord
  2
CONTINUOUS
 70
64
  3
Solid line
 72
65
 73
0
 40
0.0
  0
LTYPE
  5
1F5
100
AcDbSymbolTableRecord
100
AcDbLinetypeTableRecord
  2
CENTER
 70
64
  3
____ _ ____ _ ____ _ ____ _ ____ _ ____ _ ____
 72
65
 73
4
 40
0.6
 49
0.375
 74
0
 49
-0.075
 74
0
 49
0.075
 74
0
 49
-0.075
 74
0
  0
LTYPE
  5
1F6
100
AcDbSymbolTableRecord
100
AcDbLinetypeTableRecord
  2
HIDDEN
 70
64
  3
- - - - - - - - - - - - - - - - - - - -
 72
65
 73
2
 40
0.2
 49
0.1
 74
0
 49
-0.1
 74
0
  0
LTYPE
  5
1F7
100
AcDbSymbolTableRecord
100
AcDbLinetypeTableRecord
  2
PHANTOM
 70
64
  3
_____ _ _ _____ _ _ _____ _ _ _____
 72
65
 73
6
 40
0.8
 49
0.45
 74
0
 49
-0.05
 74
0
 49
0.1
 74
0
 49
-0.05
 74
0
 49
0.1
 74
0
 49
-0.05
 74
0
  0
LTYPE
  5
1F8
100
AcDbSymbolTableRecord
100
AcDbLinetypeTableRecord
  2
DOT
 70
64
  3
. . . . . . . . . . . . . . . . . . . .
 72
65
 73
2
 40
0.2
 49
0.1
 74
0
 49
-0.1
 74
0
  0
LTYPE
  5
1F9
100
AcDbSymbolTableRecord
100
AcDbLinetypeTableRecord
  2
DASHED
 70
64
  3
- - - - - - - - - - - - - - - - - - - -
 72
65
 73
2
 40
0.2
 49
0.1
 74
0
 49
-0.1
 74
0
  0
ENDTAB
  0
TABLE
  2
LAYER
  5
2
100
AcDbSymbolTable
 70
36
  0
LAYER
  5
10
100
AcDbSymbolTableRecord
100
AcDbLayerTableRecord
  2
0
 70
0
 62
7
  6
CONTINUOUS
370
-3
390
F
  0
LAYER
  5
1FA
100
AcDbSymbolTableRecord
100
AcDbLayerTableRecord
  2
DEFAULT_1
 70
0
 62
7
  6
CENTER
370
-3
390
F
  0
LAYER
  5
1FB
100
AcDbSymbolTableRecord
100
AcDbLayerTableRecord
  2
DEFAULT_2
 70
0
 62
8
  6
HIDDEN
370
-3
390
F
  0
LAYER
  5
1FC
100
AcDbSymbolTableRecord
100
AcDbLayerTableRecord
  2
DEFAULT_3
 70
0
 62
7
  6
PHANTOM
370
-3
390
F
  0
LAYER
  5
1FD
100
AcDbSymbolTableRecord
100
AcDbLayerTableRecord
  2
403
 70
0
 62
7
  6
CONTINUOUS
370
-3
390
F
  0
LAYER
  5
1FE
100
AcDbSymbolTableRecord
100
AcDbLayerTableRecord
  2
435
 70
0
 62
7
  6
CONTINUOUS
370
-3
390
F
  0
LAYER
  5
1FF
100
AcDbSymbolTableRecord
100
AcDbLayerTableRecord
  2
441
 70
0
 62
7
  6
CONTINUOUS
370
-3
390
F
  0
LAYER
  5
200
100
AcDbSymbolTableRecord
100
AcDbLayerTableRecord
  2
50350
 70
0
 62
7
  6
CONTINUOUS
370
-3
390
F
  0
LAYER
  5
201
100
AcDbSymbolTableRecord
100
AcDbLayerTableRecord
  2
50355
 70
0
 62
7
  6
CONTINUOUS
370
-3
390
F
  0
LAYER
  5
202
100
AcDbSymbolTableRecord
100
AcDbLayerTableRecord
  2
50359
 70
0
 62
7
  6
CONTINUOUS
370
-3
390
F
  0
LAYER
  5
203
100
AcDbSymbolTableRecord
100
AcDbLayerTableRecord
  2
50362
 70
0
 62
7
  6
CONTINUOUS
370
-3
390
F
  0
LAYER
  5
204
100
AcDbSymbolTableRecord
100
AcDbLayerTableRecord
  2
50391
 70
0
 62
7
  6
CONTINUOUS
370
-3
390
F
  0
LAYER
  5
205
100
AcDbSymbolTableRecord
100
AcDbLayerTableRecord
  2
50663
 70
0
 62
7
  6
CONTINUOUS
370
-3
390
F
  0
LAYER
  5
206
100
AcDbSymbolTableRecord
100
AcDbLayerTableRecord
  2
50664
 70
0
 62
7
  6
CONTINUOUS
370
-3
390
F
  0
LAYER
  5
207
100
AcDbSymbolTableRecord
100
AcDbLayerTableRecord
  2
50668
 70
0
 62
7
  6
CONTINUOUS
370
-3
390
F
  0
LAYER
  5
208
100
AcDbSymbolTableRecord
100
AcDbLayerTableRecord
  2
50675
 70
0
 62
7
  6
CONTINUOUS
370
-3
390
F
  0
LAYER
  5
209
100
AcDbSymbolTableRecord
100
AcDbLayerTableRecord
  2
50677
 70
0
 62
7
  6
CONTINUOUS
370
-3
390
F
  0
LAYER
  5
20A
100
AcDbSymbolTableRecord
100
AcDbLayerTableRecord
  2
50678
 70
0
 62
7
  6
CONTINUOUS
370
-3
390
F
  0
LAYER
  5
20B
100
AcDbSymbolTableRecord
100
AcDbLayerTableRecord
  2
6-403
 70
0
 62
7
  6
CONTINUOUS
370
-3
390
F
  0
LAYER
  5
20C
100
AcDbSymbolTableRecord
100
AcDbLayerTableRecord
  2
91203
 70
0
 62
7
  6
CONTINUOUS
370
-3
390
F
  0
LAYER
  5
20D
100
AcDbSymbolTableRecord
100
AcDbLayerTableRecord
  2
92073
 70
0
 62
7
  6
CONTINUOUS
370
-3
390
F
  0
LAYER
  5
20E
100
AcDbSymbolTableRecord
100
AcDbLayerTableRecord
  2
DEFAULT_COORDINATE_SYSTEM
 70
0
 62
7
  6
CONTINUOUS
370
-3
390
F
  0
LAYER
  5
20F
100
AcDbSymbolTableRecord
100
AcDbLayerTableRecord
  2
DEFAULT_DATUM_AXES
 70
0
 62
7
  6
CONTINUOUS
370
-3
390
F
  0
LAYER
  5
210
100
AcDbSymbolTableRecord
100
AcDbLayerTableRecord
  2
DEFAULT_DATUM_PLANES
 70
0
 62
7
  6
CONTINUOUS
370
-3
390
F
  0
LAYER
  5
211
100
AcDbSymbolTableRecord
100
AcDbLayerTableRecord
  2
INTF_441
 70
0
 62
7
  6
CONTINUOUS
370
-3
390
F
  0
LAYER
  5
212
100
AcDbSymbolTableRecord
100
AcDbLayerTableRecord
  2
INTF_50350
 70
0
 62
7
  6
CONTINUOUS
370
-3
390
F
  0
LAYER
  5
213
100
AcDbSymbolTableRecord
100
AcDbLayerTableRecord
  2
INTF_50355
 70
0
 62
7
  6
CONTINUOUS
370
-3
390
F
  0
LAYER
  5
214
100
AcDbSymbolTableRecord
100
AcDbLayerTableRecord
  2
INTF_50359
 70
0
 62
7
  6
CONTINUOUS
370
-3
390
F
  0
LAYER
  5
215
100
AcDbSymbolTableRecord
100
AcDbLayerTableRecord
  2
INTF_50362
 70
0
 62
7
  6
CONTINUOUS
370
-3
390
F
  0
LAYER
  5
216
100
AcDbSymbolTableRecord
100
AcDbLayerTableRecord
  2
INTF_50391
 70
0
 62
7
  6
CONTINUOUS
370
-3
390
F
  0
LAYER
  5
217
100
AcDbSymbolTableRecord
100
AcDbLayerTableRecord
  2
INTF_50663
 70
0
 62
7
  6
CONTINUOUS
370
-3
390
F
  0
LAYER
  5
218
100
AcDbSymbolTableRecord
100
AcDbLayerTableRecord
  2
INTF_50664
 70
0
 62
7
  6
CONTINUOUS
370
-3
390
F
  0
LAYER
  5
219
100
AcDbSymbolTableRecord
100
AcDbLayerTableRecord
  2
INTF_50668
 70
0
 62
7
  6
CONTINUOUS
370
-3
390
F
  0
LAYER
  5
21A
100
AcDbSymbolTableRecord
100
AcDbLayerTableRecord
  2
INTF_50675
 70
0
 62
7
  6
CONTINUOUS
370
-3
390
F
  0
LAYER
  5
21B
100
AcDbSymbolTableRecord
100
AcDbLayerTableRecord
  2
INTF_50677
 70
0
 62
7
  6
CONTINUOUS
370
-3
390
F
  0
LAYER
  5
21C
100
AcDbSymbolTableRecord
100
AcDbLayerTableRecord
  2
INTF_50678
 70
0
 62
7
  6
CONTINUOUS
370
-3
390
F
  0
LAYER
  5
21D
100
AcDbSymbolTableRecord
100
AcDbLayerTableRecord
  2
INTF_91203
 70
0
 62
7
  6
CONTINUOUS
370
-3
390
F
  0
LAYER
  5
21E
100
AcDbSymbolTableRecord
100
AcDbLayerTableRecord
  2
INTF_92073
 70
0
 62
7
  6
CONTINUOUS
370
-3
390
F
  0
LAYER
  5
21F
100
AcDbSymbolTableRecord
100
AcDbLayerTableRecord
  2
INTF_BLANK
 70
0
 62
7
  6
CONTINUOUS
370
-3
390
F
  0
LAYER
  5
220
100
AcDbSymbolTableRecord
100
AcDbLayerTableRecord
  2
NONE
 70
0
 62
7
  6
CONTINUOUS
370
-3
390
F
  0
LAYER
  5
221
100
AcDbSymbolTableRecord
100
AcDbLayerTableRecord
  2
PLATED_SURFACE
 70
0
 62
7
  6
CONTINUOUS
370
-3
390
F
  0
LAYER
  5
222
100
AcDbSymbolTableRecord
100
AcDbLayerTableRecord
  2
WETTED_SURFACE
 70
0
 62
7
  6
CONTINUOUS
370
-3
390
F
  0
LAYER
  5
223
100
AcDbSymbolTableRecord
100
AcDbLayerTableRecord
  2
_BLACK_HOLE
 70
0
 62
7
  6
CONTINUOUS
370
-3
390
F
  0
ENDTAB
  0
TABLE
  2
STYLE
  5
3
100
AcDbSymbolTable
 70
1
  0
STYLE
  5
11
100
AcDbSymbolTableRecord
100
AcDbTextStyleTableRecord
  2
STANDARD
 70
0
 40
0.0
 41
0.8
 50
0.0
 71
0
 42
0.2
  3
txt
  4

  0
STYLE
  5
224
100
AcDbSymbolTableRecord
100
AcDbTextStyleTableRecord
  2
TEXTSTYLE_1
 70
0
 40
0.0
 41
0.8
 50
0.0
 71
0
 42
0.2
  3
gdt
  4

  0
ENDTAB
  0
TABLE
  2
VIEW
  5
6
100
AcDbSymbolTable
 70
0
  0
ENDTAB
  0
TABLE
  2
UCS
  5
7
100
AcDbSymbolTable
 70
0
  0
ENDTAB
  0
TABLE
  2
APPID
  5
9
100
AcDbSymbolTable
 70
1
  0
APPID
  5
225
100
AcDbSymbolTableRecord
100
AcDbRegAppTableRecord
  2
ACAD
 70
0
  0
ENDTAB
  0
TABLE
  2
BLOCK_RECORD
  5
1
100
AcDbSymbolTable
 70
0
  0
BLOCK_RECORD
  5
226
100
AcDbSymbolTableRecord
100
AcDbBlockTableRecord
  2
*Model_Space
  0
BLOCK_RECORD
  5
227
100
AcDbSymbolTableRecord
100
AcDbBlockTableRecord
  2
*Paper_Space
  0
BLOCK_RECORD
  5
228
100
AcDbSymbolTableRecord
100
AcDbBlockTableRecord
  2
_FILLED
  0
ENDTAB
  0
TABLE
  2
DIMSTYLE
  5
A
100
AcDbSymbolTable
 70
1
100
AcDbDimStyleTable
 71
0
  0
DIMSTYLE
105
229
100
AcDbSymbolTableRecord
100
AcDbDimStyleTableRecord
  2
STANDARD
 70
0
  3

  4

 40
1.0
 41
0.1
 42
0.0625
 43
0.38
 44
0.125
 45
0.0
 46
0.0
 47
0.001
 48
0.001
140
0.08
141
0.09
142
0.0
143
25.4
144
1.0
145
0.0
146
1.0
147
0.09
 71
1.0
 72
0.0
 73
1
 74
1
 75
0
 76
0
 77
0
 78
4
 79
1
170
1
171
2
172
0
173
0
174
0
175
0
176
0
177
0
178
0
270
2
179
3
271
3
272
3
273
2
274
2
275
0
280
0
281
0
282
0
283
1
284
4
285
0
286
0
287
3
288
0
340
11
278
46
341
228
342
228
343
228
344
228
  0
ENDTAB
  0
ENDSEC
  0
SECTION
  2
BLOCKS
  0
BLOCK
  5
20
100
AcDbEntity
  8
0
100
AcDbBlockBegin
  2
*Model_Space
 70
0
 10
0.0
 20
0.0
 30
0.0
  3
*Model_Space
  1

  0
ENDBLK
  5
21
100
AcDbEntity
  8
0
100
AcDbBlockEnd
  0
BLOCK
  5
1C
100
AcDbEntity
  8
0
100
AcDbBlockBegin
  2
*Paper_Space
 70
0
 10
0.0
 20
0.0
 30
0.0
  3
*Paper_Space
  1

  0
ENDBLK
  5
1D
100
AcDbEntity
  8
0
100
AcDbBlockEnd
  0
BLOCK
  5
22A
100
AcDbEntity
  8
0
100
AcDbBlockBegin
  2
_FILLED
 70
64
 10
0.0
 20
0.0
  3
_FILLED
  1

  0
SOLID
  5
22B
100
AcDbEntity
  8
0
  6
BYBLOCK
 62
0
100
AcDbTrace
 10
0.0
 20
0.0
 11
-1.0
 21
0.2
 12
-1.0
 22
-0.2
 13
-1.0
 23
-0.2
  0
ENDBLK
  5
22C
100
AcDbEntity
  8
0
  6
BYBLOCK
 62
0
100
AcDbBlockEnd
  0
ENDSEC
  0
SECTION
  2
ENTITIES
  0
MTEXT
  5
22D
100
AcDbEntity
  8
0
100
AcDbMText
 62
7
  6
CONTINUOUS
  7
STANDARD
 71
1
 72
1
 10
7.1459976708
 20
0.3310131988
 30
0.0
 11
1.0
 21
0.0
 31
0.0
 73
2
 44
0.9
  1
SCALE: .813
 40
0.08
 41
0.704
  0
LINE
  5
22E
100
AcDbEntity
  8
0
100
AcDbLine
 62
7
  6
CONTINUOUS
 10
0.0
 20
0.0
 11
8.5
 21
0.0
  0
LINE
  5
22F
100
AcDbEntity
  8
0
100
AcDbLine
 62
7
  6
CONTINUOUS
 10
0.0
 20
0.0
 11
0.0
 21
11.0
  0
LINE
  5
230
100
AcDbEntity
  8
0
100
AcDbLine
 62
7
  6
CONTINUOUS
 10
8.5
 20
0.0
 11
8.5
 21
11.0
  0
LINE
  5
231
100
AcDbEntity
  8
0
100
AcDbLine
 62
7
  6
CONTINUOUS
 10
0.0
 20
11.0
 11
8.5
 21
11.0
  0
LINE
  5
232
100
AcDbEntity
  8
0
100
AcDbLine
 62
7
  6
CONTINUOUS
 10
4.1034468721
 20
1.1726747065
 11
4.2032356506
 21
1.1726747065
  0
LINE
  5
233
100
AcDbEntity
  8
0
100
AcDbLine
 62
7
  6
CONTINUOUS
 10
4.2356798139
 20
1.1726747065
 11
4.2774149291
 21
1.1726747065
  0
LINE
  5
234
100
AcDbEntity
  8
0
100
AcDbLine
 62
7
  6
CONTINUOUS
 10
4.1776261506
 20
1.1854794565
 11
4.2032356506
 21
1.1854794565
  0
LINE
  5
235
100
AcDbEntity
  8
0
100
AcDbLine
 62
7
  6
CONTINUOUS
 10
4.2774149291
 20
1.1982842065
 11
4.2356798139
 21
1.1982842065
  0
LINE
  5
236
100
AcDbEntity
  8
0
100
AcDbLine
 62
7
  6
CONTINUOUS
 10
4.2088937499
 20
1.1982842065
 11
4.1034468721
 21
1.1982842065
  0
LINE
  5
237
100
AcDbEntity
  8
0
100
AcDbLine
 62
9
  6
CONTINUOUS
 10
4.3759068493
 20
0.4728649792
 11
4.3719928877
 21
0.4760791094
  0
LINE
  5
238
100
AcDbEntity
  8
0
100
AcDbLine
 62
7
  6
CONTINUOUS
 10
4.4444934007
 20
2.0074224565
 11
3.9363684006
 21
2.0074224565
  0
LINE
  5
239
100
AcDbEntity
  8
0
100
AcDbLine
 62
7
  6
CONTINUOUS
 10
4.3408359006
 20
10.4496144565
 11
4.3936809006
 21
10.5187194565
  0
LINE
  5
23A
100
AcDbEntity
  8
0
100
AcDbLine
 62
9
  6
CONTINUOUS
 10
4.004954952
 20
1.8980939338
 11
4.0088689112
 21
1.8948798008
  0
LINE
  5
23B
100
AcDbEntity
  8
0
100
AcDbLine
 62
7
  6
CONTINUOUS
 10
4.1776261506
 20
1.1982842065
 11
4.2032356506
 21
1.1726747065
  0
LINE
  5
23C
100
AcDbEntity
  8
0
100
AcDbLine
 62
7
  6
CONTINUOUS
 10
3.8469384006
 20
10.7829444565
 11
3.8469384006
 21
10.6813194565
  0
LINE
  5
23D
100
AcDbEntity
  8
0
100
AcDbLine
 62
7
  6
CONTINUOUS
 10
3.9363684006
 20
1.8039720572
 11
3.9363684006
 21
2.0074224565
  0
LINE
  5
23E
100
AcDbEntity
  8
0
100
AcDbLine
 62
7
  6
CONTINUOUS
 10
3.9871809006
 20
10.5187194565
 11
3.9871809006
 21
10.6244094565
  0
LINE
  5
23F
100
AcDbEntity
  8
0
100
AcDbLine
 62
7
  6
CONTINUOUS
 10
4.0400259006
 20
2.0074224565
 11
4.0400259006
 21
10.4496144565
  0
LINE
  5
240
100
AcDbEntity
  8
0
100
AcDbLine
 62
7
  6
CONTINUOUS
 10
4.1776261506
 20
1.272463485
 11
4.1776261506
 21
1.2307283698
  0
LINE
  5
241
100
AcDbEntity
  8
0
100
AcDbLine
 62
7
  6
CONTINUOUS
 10
4.1776261506
 20
1.1982842065
 11
4.1776261506
 21
1.098495428
  0
LINE
  5
242
100
AcDbEntity
  8
0
100
AcDbLine
 62
7
  6
CONTINUOUS
 10
4.1904309006
 20
1.3135269565
 11
4.1904309006
 21
1.3082755399
  0
LINE
  5
243
100
AcDbEntity
  8
0
100
AcDbLine
 62
7
  6
CONTINUOUS
 10
4.1904309006
 20
1.1982842065
 11
4.1904309006
 21
1.1726747065
  0
LINE
  5
244
100
AcDbEntity
  8
0
100
AcDbLine
 62
7
  6
CONTINUOUS
 10
4.1904309006
 20
1.0626833732
 11
4.1904309006
 21
1.0574319565
  0
LINE
  5
245
100
AcDbEntity
  8
0
100
AcDbLine
 62
7
  6
CONTINUOUS
 10
4.2032356506
 20
1.272463485
 11
4.2032356506
 21
1.2307283698
  0
LINE
  5
246
100
AcDbEntity
  8
0
100
AcDbLine
 62
7
  6
CONTINUOUS
 10
4.2032356506
 20
1.1982842065
 11
4.2032356506
 21
1.098495428
  0
LINE
  5
247
100
AcDbEntity
  8
0
100
AcDbLine
 62
7
  6
CONTINUOUS
 10
4.3408359006
 20
2.0074224565
 11
4.3408359006
 21
10.4496144565
  0
LINE
  5
248
100
AcDbEntity
  8
0
100
AcDbLine
 62
7
  6
CONTINUOUS
 10
4.3936809006
 20
10.5187194565
 11
4.3936809006
 21
10.6244094565
  0
LINE
  5
249
100
AcDbEntity
  8
0
100
AcDbLine
 62
7
  6
CONTINUOUS
 10
4.4444934006
 20
1.8039679766
 11
4.4444934006
 21
2.0074224565
  0
LINE
  5
24A
100
AcDbEntity
  8
0
100
AcDbLine
 62
7
  6
CONTINUOUS
 10
4.5339234006
 20
10.7829444565
 11
4.5339234006
 21
10.6813194565
  0
LINE
  5
24B
100
AcDbEntity
  8
0
100
AcDbLine
 62
9
  6
CONTINUOUS
 10
4.3759068493
 20
1.8980939338
 11
4.3719912256
 21
1.8948818355
  0
LINE
  5
24C
100
AcDbEntity
  8
0
100
AcDbLine
 62
7
  6
CONTINUOUS
 10
4.0400259006
 20
10.4496144565
 11
3.9871809006
 21
10.5187194565
  0
LINE
  5
24D
100
AcDbEntity
  8
0
100
AcDbLine
 62
7
  6
CONTINUOUS
 10
4.1776261506
 20
1.1726747065
 11
4.2032356506
 21
1.1982842065
  0
LINE
  5
24E
100
AcDbEntity
  8
0
100
AcDbLine
 62
9
  6
CONTINUOUS
 10
4.0088705749
 20
0.4760770781
 11
4.004954952
 21
0.4728649792
  0
LINE
  5
24F
100
AcDbEntity
  8
0
100
AcDbLine
 62
7
  6
CONTINUOUS
 10
4.2106664614
 20
1.1920543888
 11
4.211836079
 21
1.1924344206
  0
LINE
  5
250
100
AcDbEntity
  8
0
100
AcDbLine
 62
7
  6
CONTINUOUS
 10
4.3408359006
 20
10.4496144565
 11
4.0400259006
 21
10.4496144565
  0
LINE
  5
251
100
AcDbEntity
  8
0
100
AcDbLine
 62
7
  6
CONTINUOUS
 10
3.9871809006
 20
10.5187194565
 11
4.3936809006
 21
10.5187194565
  0
LINE
  5
252
100
AcDbEntity
  8
0
100
AcDbLine
 62
7
  6
CONTINUOUS
 10
3.8936859006
 20
10.6244094565
 11
3.8972946274
 21
10.6246392175
  0
LINE
  5
253
100
AcDbEntity
  8
0
100
AcDbLine
 62
7
  6
CONTINUOUS
 10
4.4835671738
 20
10.6246392175
 11
4.4871759006
 21
10.6244094565
  0
LINE
  5
254
100
AcDbEntity
  8
0
100
AcDbLine
 62
9
  6
CONTINUOUS
 10
4.4835671738
 20
10.6246392175
 11
3.8972946274
 21
10.6246392175
  0
LINE
  5
255
100
AcDbEntity
  8
0
100
AcDbLine
 62
7
  6
CONTINUOUS
 10
4.5339234006
 20
10.6813194565
 11
3.8469384006
 21
10.6813194565
  0
LINE
  5
256
100
AcDbEntity
  8
0
100
AcDbLine
 62
7
  6
CONTINUOUS
 10
4.5339234006
 20
10.7829444565
 11
3.8469384006
 21
10.7829444565
  0
ARC
  5
257
100
AcDbEntity
  8
0
100
AcDbCircle
 62
7
  6
CONTINUOUS
 10
3.5066401826
 20
1.1854794565
 40
1.1240302181
100
AcDbArc
 50
320.6555074171
 51
39.3444925829
  0
ARC
  5
258
100
AcDbEntity
  8
0
100
AcDbCircle
 62
7
  6
CONTINUOUS
 10
3.9336406508
 20
1.1854794565
 40
0.3440126684
100
AcDbArc
 50
357.866858652
 51
2.133141348
  0
ARC
  5
259
100
AcDbEntity
  8
0
100
AcDbCircle
 62
7
  6
CONTINUOUS
 10
4.1904309006
 20
0.6249159565
 40
0.239835
100
AcDbArc
 50
219.3444925829
 51
320.6555074171
  0
ARC
  5
25A
100
AcDbEntity
  8
0
100
AcDbCircle
 62
9
  6
CONTINUOUS
 10
4.1904309001
 20
0.6246243192
 40
0.2345910766
100
AcDbArc
 50
219.2890068806
 51
320.7116342323
  0
ARC
  5
25B
100
AcDbEntity
  8
0
100
AcDbCircle
 62
7
  6
CONTINUOUS
 10
4.1904309006
 20
1.1854794565
 40
1.01625
100
AcDbArc
 50
98.5149099722
 51
81.4854216687
  0
ARC
  5
25C
100
AcDbEntity
  8
0
100
AcDbCircle
 62
9
  6
CONTINUOUS
 10
4.1904309006
 20
1.1854794565
 40
0.9492365724
100
AcDbArc
 50
99.121316668
 51
80.8786623456
  0
ARC
  5
25D
100
AcDbEntity
  8
0
100
AcDbCircle
 62
7
  6
CONTINUOUS
 10
4.1904309006
 20
0.9286892067
 40
0.3440126684
100
AcDbArc
 50
87.866858652
 51
92.133141348
  0
CIRCLE
  5
25E
100
AcDbEntity
  8
0
100
AcDbCircle
 62
7
  6
CONTINUOUS
 10
4.1904309006
 20
1.1854794565
 40
0.134145
  0
CIRCLE
  5
25F
100
AcDbEntity
  8
0
100
AcDbCircle
 62
7
  6
CONTINUOUS
 10
4.1904309006
 20
1.1854794565
 40
0.1280475
  0
CIRCLE
  5
260
100
AcDbEntity
  8
0
100
AcDbCircle
 62
9
  6
CONTINUOUS
 10
4.1904309006
 20
1.1854794565
 40
0.1227960834
  0
ARC
  5
261
100
AcDbEntity
  8
0
100
AcDbCircle
 62
7
  6
CONTINUOUS
 10
4.1451564272
 20
1.1404200795
 40
0.0322546372
100
AcDbArc
 50
15.2337485916
 51
89.95459607
  0
ARC
  5
262
100
AcDbEntity
  8
0
100
AcDbCircle
 62
7
  6
CONTINUOUS
 10
4.1904309006
 20
1.4422697063
 40
0.3440126684
100
AcDbArc
 50
267.866858652
 51
272.133141348
  0
ARC
  5
263
100
AcDbEntity
  8
0
100
AcDbCircle
 62
7
  6
CONTINUOUS
 10
3.9337300782
 20
1.1854811199
 40
0.3439232411
100
AcDbArc
 50
359.9997228933
 51
2.1334189671
  0
ARC
  5
264
100
AcDbEntity
  8
0
100
AcDbCircle
 62
7
  6
CONTINUOUS
 10
4.1904309006
 20
1.7460429565
 40
0.239835
100
AcDbArc
 50
39.3444925829
 51
140.6555074171
  0
ARC
  5
265
100
AcDbEntity
  8
0
100
AcDbCircle
 62
9
  6
CONTINUOUS
 10
4.1904309012
 20
1.7463345957
 40
0.2345910749
100
AcDbArc
 50
39.2890067711
 51
140.7116354552
  0
ARC
  5
266
100
AcDbEntity
  8
0
100
AcDbCircle
 62
7
  6
CONTINUOUS
 10
4.1584144506
 20
1.192711599
 40
0.0534223475
100
AcDbArc
 50
357.3436736594
 51
359.7027232149
  0
ARC
  5
267
100
AcDbEntity
  8
0
100
AcDbCircle
 62
7
  6
CONTINUOUS
 10
4.1453717172
 20
1.2307538878
 40
0.0322544435
100
AcDbArc
 50
285.2418723395
 51
359.954670715
  0
ARC
  5
268
100
AcDbEntity
  8
0
100
AcDbCircle
 62
7
  6
CONTINUOUS
 10
3.8936859006
 20
10.6528644565
 40
0.028455
100
AcDbArc
 50
90.0
 51
277.286
  0
ARC
  5
269
100
AcDbEntity
  8
0
100
AcDbCircle
 62
7
  6
CONTINUOUS
 10
4.8742216187
 20
1.1854794565
 40
1.1240302181
100
AcDbArc
 50
140.6555074171
 51
219.3444925829
  0
ARC
  5
26A
100
AcDbEntity
  8
0
100
AcDbCircle
 62
9
  6
CONTINUOUS
 10
4.8743472193
 20
1.1854794543
 40
1.1189724353
100
AcDbArc
 50
140.6598026882
 51
219.3403316799
  0
ARC
  5
26B
100
AcDbEntity
  8
0
100
AcDbCircle
 62
7
  6
CONTINUOUS
 10
4.4472211504
 20
1.1854794565
 40
0.3440126684
100
AcDbArc
 50
177.866858652
 51
182.133141348
  0
ARC
  5
26C
100
AcDbEntity
  8
0
100
AcDbCircle
 62
7
  6
CONTINUOUS
 10
4.2357053741
 20
1.2305388336
 40
0.0322546372
100
AcDbArc
 50
195.2337493194
 51
269.95459607
  0
ARC
  5
26D
100
AcDbEntity
  8
0
100
AcDbCircle
 62
7
  6
CONTINUOUS
 10
4.235490084
 20
1.1402050253
 40
0.0322544435
100
AcDbArc
 50
105.2418716118
 51
179.9546707149
  0
ARC
  5
26E
100
AcDbEntity
  8
0
100
AcDbCircle
 62
7
  6
CONTINUOUS
 10
4.1945416378
 20
1.1809390444
 40
0.0195847087
100
AcDbArc
 50
30.5793613793
 51
33.2840632126
  0
ARC
  5
26F
100
AcDbEntity
  8
0
100
AcDbCircle
 62
7
  6
CONTINUOUS
 10
4.4871759006
 20
10.6528644565
 40
0.028455
100
AcDbArc
 50
262.714
 51
90.0
  0
SPLINE
  5
270
100
AcDbEntity
  8
0
100
AcDbSpline
 62
7
  6
CONTINUOUS
 70
0
 71
3
 72
12
 73
8
 74
0
 42
0.0000001
 43
0.0000001
 44
0.0000000001
 40
0.0
 40
0.0
 40
0.0
 40
0.0
 40
0.2478786778
 40
0.3722826538
 40
0.4969717212
 40
0.7475180685
 40
1.0
 40
1.0
 40
1.0
 40
1.0
 10
4.3174621506
 20
2.0074224565
 30
0.0
 10
4.3091723912
 20
2.0074224565
 30
0.0
 10
4.2967050138
 20
2.0065888855
 30
0.0
 10
4.2802894353
 20
2.0039482577
 30
0.0
 10
4.2639718327
 20
2.000306617
 30
0.0
 10
4.2439020003
 20
1.9940164455
 30
0.0
 10
4.2283670987
 20
1.9875046213
 30
0.0
 10
4.2207097736
 20
1.983946317
 30
0.0
  0
SPLINE
  5
271
100
AcDbEntity
  8
0
100
AcDbSpline
 62
7
  6
CONTINUOUS
 70
0
 71
3
 72
13
 73
9
 74
0
 42
0.0000001
 43
0.0000001
 44
0.0000000001
 40
0.0
 40
0.0
 40
0.0
 40
0.0
 40
0.2534683499
 40
0.3793175877
 40
0.5045425547
 40
0.6291223409
 40
0.753188486
 40
1.0
 40
1.0
 40
1.0
 40
1.0
 10
4.4444934006
 20
1.968118851
 30
0.0
 10
4.4346533745
 20
1.9737999927
 30
0.0
 10
4.4195958992
 20
1.9817633209
 30
0.0
 10
4.3988421693
 20
1.9907778727
 30
0.0
 10
4.38302184
 20
1.9965782261
 30
0.0
 10
4.3669241741
 20
2.0012982163
 30
0.0
 10
4.3451905891
 20
2.0059375099
 30
0.0
 10
4.3285260266
 20
2.0074224565
 30
0.0
 10
4.3174621506
 20
2.0074224565
 30
0.0
  0
SPLINE
  5
272
100
AcDbEntity
  8
0
100
AcDbSpline
 62
7
  6
CONTINUOUS
 70
0
 71
3
 72
13
 73
9
 74
0
 42
0.0000001
 43
0.0000001
 44
0.0000000001
 40
0.0
 40
0.0
 40
0.0
 40
0.0
 40
0.2468115137
 40
0.3708776587
 40
0.4954574448
 40
0.6206824117
 40
0.7465316495
 40
1.0
 40
1.0
 40
1.0
 40
1.0
 10
4.0633996506
 20
2.0074224565
 30
0.0
 10
4.0523357746
 20
2.0074224565
 30
0.0
 10
4.0356712122
 20
2.0059375095
 30
0.0
 10
4.0139376273
 20
2.0012982158
 30
0.0
 10
3.9978399613
 20
1.9965782259
 30
0.0
 10
3.9820196319
 20
1.9907778728
 30
0.0
 10
3.961265902
 20
1.9817633211
 30
0.0
 10
3.9462084268
 20
1.9737999928
 30
0.0
 10
3.9363684006
 20
1.968118851
 30
0.0
  0
SPLINE
  5
273
100
AcDbEntity
  8
0
100
AcDbSpline
 62
7
  6
CONTINUOUS
 70
0
 71
3
 72
12
 73
8
 74
0
 42
0.0000001
 43
0.0000001
 44
0.0000000001
 40
0.0
 40
0.0
 40
0.0
 40
0.0
 40
0.2524820123
 40
0.503028393
 40
0.6277174469
 40
0.7521213988
 40
1.0
 40
1.0
 40
1.0
 40
1.0
 10
4.1601543514
 20
1.983945237
 30
0.0
 10
4.1524968559
 20
1.9875036924
 30
0.0
 10
4.1369616034
 20
1.994015802
 30
0.0
 10
4.116891296
 20
2.0003062675
 30
0.0
 10
4.1005732957
 20
2.0039480859
 30
0.0
 10
4.084157312
 20
2.0065888436
 30
0.0
 10
4.0716896191
 20
2.0074224565
 30
0.0
 10
4.0633996506
 20
2.0074224565
 30
0.0
  0
SPLINE
  5
274
100
AcDbEntity
  8
0
100
AcDbSpline
 62
7
  6
CONTINUOUS
 70
0
 71
3
 72
9
 73
5
 74
0
 42
0.0000001
 43
0.0000001
 44
0.0000000001
 40
0.0
 40
0.0
 40
0.0
 40
0.0
 40
0.2516427393
 40
1.0
 40
1.0
 40
1.0
 40
1.0
 10
4.1536571102
 20
1.1994245185
 30
0.0
 10
4.1529637901
 20
1.1992360347
 30
0.0
 10
4.150184837
 20
1.1985778177
 30
0.0
 10
4.1473186774
 20
1.1982842065
 30
0.0
 10
4.1451819873
 20
1.1982842065
 30
0.0
  0
SPLINE
  5
275
100
AcDbEntity
  8
0
100
AcDbSpline
 62
7
  6
CONTINUOUS
 70
0
 71
3
 72
9
 73
5
 74
0
 42
0.0000001
 43
0.0000001
 44
0.0000000001
 40
0.0
 40
0.0
 40
0.0
 40
0.0
 40
0.2516417391
 40
1.0
 40
1.0
 40
1.0
 40
1.0
 10
4.1764870612
 20
1.1487012066
 30
0.0
 10
4.176675345
 20
1.1480082354
 30
0.0
 10
4.1773328635
 20
1.1452306953
 30
0.0
 10
4.1776261506
 20
1.1423660875
 30
0.0
 10
4.1776261506
 20
1.1402305432
 30
0.0
  0
SPLINE
  5
276
100
AcDbEntity
  8
0
100
AcDbSpline
 62
7
  6
CONTINUOUS
 70
0
 71
3
 72
9
 73
5
 74
0
 42
0.0000001
 43
0.0000001
 44
0.0000000001
 40
0.0
 40
0.0
 40
0.0
 40
0.0
 40
0.2516427393
 40
1.0
 40
1.0
 40
1.0
 40
1.0
 10
4.227204691
 20
1.1715343945
 30
0.0
 10
4.2278980111
 20
1.1717228783
 30
0.0
 10
4.2306769642
 20
1.1723810953
 30
0.0
 10
4.2335431238
 20
1.1726747065
 30
0.0
 10
4.2356798139
 20
1.1726747065
 30
0.0
  0
SPLINE
  5
277
100
AcDbEntity
  8
0
100
AcDbSpline
 62
7
  6
CONTINUOUS
 70
0
 71
3
 72
9
 73
5
 74
0
 42
0.0000001
 43
0.0000001
 44
0.0000000001
 40
0.0
 40
0.0
 40
0.0
 40
0.0
 40
0.2516417391
 40
1.0
 40
1.0
 40
1.0
 40
1.0
 10
4.20437474
 20
1.2222577064
 30
0.0
 10
4.2041864562
 20
1.2229506776
 30
0.0
 10
4.2035289378
 20
1.2257282177
 30
0.0
 10
4.2032356506
 20
1.2285928256
 30
0.0
 10
4.2032356506
 20
1.2307283698
 30
0.0
  0
LINE
  5
278
100
AcDbEntity
  8
0
100
AcDbLine
 62
7
  6
CONTINUOUS
 10
4.2106664614
 20
1.1920543888
 11
4.2117793953
 21
1.1902357385
  0
SPLINE
  5
279
100
AcDbEntity
  8
0
100
AcDbSpline
 62
9
  6
CONTINUOUS
 70
0
 71
3
 72
20
 73
16
 74
0
 42
0.0000001
 43
0.0000001
 44
0.0000000001
 40
0.0
 40
0.0
 40
0.0
 40
0.0
 40
0.0035894149
 40
0.0090381348
 40
0.0259987864
 40
0.0512185364
 40
0.0846708653
 40
0.1262682339
 40
0.1759030096
 40
0.2334591729
 40
0.2988166895
 40
0.4510768044
 40
0.6248477704
 40
0.8109012403
 40
1.0
 40
1.0
 40
1.0
 40
1.0
 10
4.3719901598
 20
0.4760758351
 30
0.0
 10
4.3719594835
 20
0.4760680115
 30
0.0
 10
4.3718774313
 20
0.4760740833
 30
0.0
 10
4.3716573731
 20
0.4761360694
 30
0.0
 10
4.371274299
 20
0.4763151242
 30
0.0
 10
4.3706911049
 20
0.4766371913
 30
0.0
 10
4.3699363977
 20
0.4770994603
 30
0.0
 10
4.3690146596
 20
0.4776990842
 30
0.0
 10
4.3679292334
 20
0.4784368707
 30
0.0
 10
4.3666838544
 20
0.4793116127
 30
0.0
 10
4.3647155315
 20
0.4807316054
 30
0.0
 10
4.3619484864
 20
0.4827958498
 30
0.0
 10
4.3583621654
 20
0.4855413986
 30
0.0
 10
4.3545466819
 20
0.4885217385
 30
0.0
 10
4.351956383
 20
0.4905805911
 30
0.0
 10
4.3506552645
 20
0.4916240291
 30
0.0
  0
SPLINE
  5
27A
100
AcDbEntity
  8
0
100
AcDbSpline
 62
9
  6
CONTINUOUS
 70
0
 71
3
 72
20
 73
16
 74
0
 42
0.0000001
 43
0.0000001
 44
0.0000000001
 40
0.0
 40
0.0
 40
0.0
 40
0.0
 40
0.1895435861
 40
0.3758748843
 40
0.5497595426
 40
0.7019720245
 40
0.7672479798
 40
0.8246945663
 40
0.8742033681
 40
0.9156699818
 40
0.9489983843
 40
0.9741126205
 40
0.9909976357
 40
0.9964230991
 40
1.0
 40
1.0
 40
1.0
 40
1.0
 10
4.0302065386
 20
1.8793348812
 30
0.0
 10
4.0289023584
 20
1.8803807747
 30
0.0
 10
4.0263070391
 20
1.8824435596
 30
0.0
 10
4.0224856298
 20
1.8854283036
 30
0.0
 10
4.0188967505
 20
1.8881755069
 30
0.0
 10
4.0161296778
 20
1.8902394914
 30
0.0
 10
4.0141629264
 20
1.8916580666
 30
0.0
 10
4.0129197254
 20
1.892531046
 30
0.0
 10
4.0118368469
 20
1.8932668353
 30
0.0
 10
4.0109177855
 20
1.8938644209
 30
0.0
 10
4.0101656456
 20
1.8943247953
 30
0.0
 10
4.0095846611
 20
1.8946453164
 30
0.0
 10
4.0092031227
 20
1.8948233624
 30
0.0
 10
4.0089839431
 20
1.8948849018
 30
0.0
 10
4.0089022212
 20
1.8948908669
 30
0.0
 10
4.0088716516
 20
1.8948830707
 30
0.0
  0
SPLINE
  5
27B
100
AcDbEntity
  8
0
100
AcDbSpline
 62
9
  6
CONTINUOUS
 70
0
 71
3
 72
20
 73
16
 74
0
 42
0.0000001
 43
0.0000001
 44
0.0000000001
 40
0.0
 40
0.0
 40
0.0
 40
0.0
 40
0.0035768968
 40
0.0090023566
 40
0.0258873669
 40
0.0510016016
 40
0.0843300056
 40
0.1257966233
 40
0.175305431
 40
0.2327520251
 40
0.298027989
 40
0.4502404885
 40
0.624125157
 40
0.8104564481
 40
1.0
 40
1.0
 40
1.0
 40
1.0
 10
4.0088716349
 20
0.4760758288
 30
0.0
 10
4.0089022044
 20
0.4760680327
 30
0.0
 10
4.0089839263
 20
0.4760739977
 30
0.0
 10
4.009203106
 20
0.4761355371
 30
0.0
 10
4.0095846446
 20
0.4763135831
 30
0.0
 10
4.0101656294
 20
0.4766341045
 30
0.0
 10
4.0109177699
 20
0.4770944793
 30
0.0
 10
4.0118368321
 20
0.4776920654
 30
0.0
 10
4.0129197116
 20
0.4784278554
 30
0.0
 10
4.0141629136
 20
0.4793008357
 30
0.0
 10
4.0161296667
 20
0.4807194121
 30
0.0
 10
4.0188967418
 20
0.4827833985
 30
0.0
 10
4.0224856238
 20
0.485530604
 30
0.0
 10
4.0263070357
 20
0.4885153502
 30
0.0
 10
4.0289023566
 20
0.4905781365
 30
0.0
 10
4.0302065376
 20
0.4916240306
 30
0.0
  0
SPLINE
  5
27C
100
AcDbEntity
  8
0
100
AcDbSpline
 62
9
  6
CONTINUOUS
 70
0
 71
3
 72
23
 73
19
 74
0
 42
0.0000001
 43
0.0000001
 44
0.0000000001
 40
0.0
 40
0.0
 40
0.0
 40
0.0
 40
0.0624296549
 40
0.1249596652
 40
0.1874851139
 40
0.2499857522
 40
0.3124825977
 40
0.3749868124
 40
0.4374931964
 40
0.5000000357
 40
0.5625068744
 40
0.6250132558
 40
0.6875174721
 40
0.7500143272
 40
0.8125149669
 40
0.8750403877
 40
0.9375703618
 40
1.0
 40
1.0
 40
1.0
 40
1.0
 10
4.0088689112
 20
1.8948798008
 30
0.0
 10
3.9886425864
 20
1.8701257014
 30
0.0
 10
3.9502548419
 20
1.8188219677
 30
0.0
 10
3.8993927906
 20
1.7372724003
 30
0.0
 10
3.8556626624
 20
1.6516356889
 30
0.0
 10
3.8194224496
 20
1.5625910559
 30
0.0
 10
3.7909434532
 20
1.4707794182
 30
0.0
 10
3.7704420242
 20
1.3768614206
 30
0.0
 10
3.7580587605
 20
1.2815265672
 30
0.0
 10
3.7539360708
 20
1.1854780857
 30
0.0
 10
3.7580589988
 20
1.0894296162
 30
0.0
 10
3.770442486
 20
0.9940947923
 30
0.0
 10
3.7909441562
 20
0.9001768427
 30
0.0
 10
3.8194233769
 20
0.8083652677
 30
0.0
 10
3.8556638164
 20
0.7193207369
 30
0.0
 10
3.8993941143
 20
0.633684149
 30
0.0
 10
3.9502563354
 20
0.5521347352
 30
0.0
 10
3.9886441935
 20
0.5008311203
 30
0.0
 10
4.0088705749
 20
0.4760770781
 30
0.0
  0
SPLINE
  5
27D
100
AcDbEntity
  8
0
100
AcDbSpline
 62
9
  6
CONTINUOUS
 70
0
 71
3
 72
23
 73
19
 74
0
 42
0.0000001
 43
0.0000001
 44
0.0000000001
 40
0.0
 40
0.0
 40
0.0
 40
0.0
 40
0.0624296549
 40
0.1249596653
 40
0.1874851138
 40
0.2499857521
 40
0.3124825977
 40
0.3749868123
 40
0.4374931963
 40
0.5000000356
 40
0.5625068743
 40
0.6250132557
 40
0.687517472
 40
0.7500143271
 40
0.8125149668
 40
0.8750403876
 40
0.9375703618
 40
1.0
 40
1.0
 40
1.0
 40
1.0
 10
4.3719928877
 20
0.4760791094
 30
0.0
 10
4.3922192124
 20
0.5008332091
 30
0.0
 10
4.430606957
 20
0.5521369429
 30
0.0
 10
4.4814690091
 20
0.6336865102
 30
0.0
 10
4.5251991379
 20
0.7193232216
 30
0.0
 10
4.5614393509
 20
0.8083678547
 30
0.0
 10
4.5899183474
 20
0.9001794926
 30
0.0
 10
4.6104197766
 20
0.9940974904
 30
0.0
 10
4.6228030406
 20
1.0894323442
 30
0.0
 10
4.6269257305
 20
1.1854808259
 30
0.0
 10
4.6228028025
 20
1.2815292957
 30
0.0
 10
4.6104193154
 20
1.3768641199
 30
0.0
 10
4.5899176453
 20
1.4707820697
 30
0.0
 10
4.5614384244
 20
1.562593645
 30
0.0
 10
4.5251979849
 20
1.6516381761
 30
0.0
 10
4.4814676868
 20
1.7372747644
 30
0.0
 10
4.4306054656
 20
1.8188241785
 30
0.0
 10
4.3922176073
 20
1.8701277935
 30
0.0
 10
4.3719912258
 20
1.8948818356
 30
0.0
  0
SPLINE
  5
27E
100
AcDbEntity
  8
0
100
AcDbSpline
 62
9
  6
CONTINUOUS
 70
0
 71
3
 72
21
 73
17
 74
0
 42
0.0000001
 43
0.0000001
 44
0.0000000001
 40
0.0
 40
0.0
 40
0.0
 40
0.0
 40
0.0626367928
 40
0.1252589584
 40
0.1878445127
 40
0.2503779578
 40
0.3128614256
 40
0.3753075854
 40
0.499999772
 40
0.6246921937
 40
0.6871384157
 40
0.7496217001
 40
0.8121546616
 40
0.874739795
 40
0.9373620789
 40
1.0
 40
1.0
 40
1.0
 40
1.0
 10
4.0302065298
 20
0.4916240244
 30
0.0
 10
4.0101209325
 20
0.5158078227
 30
0.0
 10
3.9720137025
 20
0.5659227325
 30
0.0
 10
3.9214954027
 20
0.6456518875
 30
0.0
 10
3.8779830351
 20
0.7293616906
 30
0.0
 10
3.8418687437
 20
0.8164441545
 30
0.0
 10
3.8135439041
 20
0.9062980796
 30
0.0
 10
3.7863673275
 20
1.028730493
 30
0.0
 10
3.7724722579
 20
1.1854792243
 30
0.0
 10
3.7863675651
 20
1.3422279448
 30
0.0
 10
3.813544008
 20
1.4646604398
 30
0.0
 10
3.8418685317
 20
1.5545141431
 30
0.0
 10
3.8779823726
 20
1.6415962043
 30
0.0
 10
3.9214944759
 20
1.7253057054
 30
0.0
 10
3.9720130433
 20
1.8050351852
 30
0.0
 10
4.010120652
 20
1.855150587
 30
0.0
 10
4.0302065462
 20
1.8793348748
 30
0.0
  0
SPLINE
  5
27F
100
AcDbEntity
  8
0
100
AcDbSpline
 62
9
  6
CONTINUOUS
 70
0
 71
3
 72
15
 73
11
 74
0
 42
0.0000001
 43
0.0000001
 44
0.0000000001
 40
0.0
 40
0.0
 40
0.0
 40
0.0
 40
0.1245656296
 40
0.2494941328
 40
0.3746749425
 40
0.4999994292
 40
0.6253241643
 40
0.7505046729
 40
0.8754318391
 40
1.0
 40
1.0
 40
1.0
 40
1.0
 10
4.350655273
 20
0.4916240226
 30
0.0
 10
4.3409874474
 20
0.4799842373
 30
0.0
 10
4.3189112039
 20
0.4587976711
 30
0.0
 10
4.2797300986
 20
0.4349582654
 30
0.0
 10
4.2361663427
 20
0.4202730344
 30
0.0
 10
4.1904310749
 20
0.4152278073
 30
0.0
 10
4.1446958721
 20
0.4202731408
 30
0.0
 10
4.1011322192
 20
0.4349580527
 30
0.0
 10
4.061950794
 20
0.4587971958
 30
0.0
 10
4.0398745739
 20
0.4799840203
 30
0.0
 10
4.030206545
 20
0.4916240364
 30
0.0
  0
SPLINE
  5
280
100
AcDbEntity
  8
0
100
AcDbSpline
 62
9
  6
CONTINUOUS
 70
0
 71
3
 72
21
 73
17
 74
0
 42
0.0000001
 43
0.0000001
 44
0.0000000001
 40
0.0
 40
0.0
 40
0.0
 40
0.0
 40
0.0626367833
 40
0.1252589337
 40
0.1878444692
 40
0.2503778938
 40
0.3128613409
 40
0.3753074816
 40
0.4999996425
 40
0.6246920655
 40
0.687138299
 40
0.7496216027
 40
0.8121545913
 40
0.8747397543
 40
0.9373620639
 40
1.0
 40
1.0
 40
1.0
 40
1.0
 10
4.3506552715
 20
1.8793348886
 30
0.0
 10
4.3707408659
 20
1.8551510942
 30
0.0
 10
4.4088480892
 20
1.8050361949
 30
0.0
 10
4.4593663794
 20
1.7253070598
 30
0.0
 10
4.5028787378
 20
1.6415972828
 30
0.0
 10
4.5389930234
 20
1.5545148493
 30
0.0
 10
4.5673178638
 20
1.4646609564
 30
0.0
 10
4.59449445
 20
1.3422285788
 30
0.0
 10
4.6083895415
 20
1.1854798719
 30
0.0
 10
4.5944942656
 20
1.0287311553
 30
0.0
 10
4.5673178407
 20
0.9062986396
 30
0.0
 10
4.5389933201
 20
0.8164449047
 30
0.0
 10
4.5028794709
 20
0.7293628056
 30
0.0
 10
4.4593673536
 20
0.6456532651
 30
0.0
 10
4.4088487722
 20
0.5659237523
 30
0.0
 10
4.3707411536
 20
0.5158083323
 30
0.0
 10
4.350655255
 20
0.4916240383
 30
0.0
  0
SPLINE
  5
281
100
AcDbEntity
  8
0
100
AcDbSpline
 62
9
  6
CONTINUOUS
 70
0
 71
3
 72
15
 73
11
 74
0
 42
0.0000001
 43
0.0000001
 44
0.0000000001
 40
0.0
 40
0.0
 40
0.0
 40
0.0
 40
0.1245656753
 40
0.2494942129
 40
0.3746750247
 40
0.4999995008
 40
0.6253242323
 40
0.7505047338
 40
0.8754318767
 40
1.0
 40
1.0
 40
1.0
 40
1.0
 10
4.0302065283
 20
1.8793348904
 30
0.0
 10
4.039874358
 20
1.8909746794
 30
0.0
 10
4.0619506108
 20
1.9121612503
 30
0.0
 10
4.1011317261
 20
1.9360006587
 30
0.0
 10
4.1446954865
 20
1.950685887
 30
0.0
 10
4.1904307539
 20
1.9557311054
 30
0.0
 10
4.2361659531
 20
1.9506857652
 30
0.0
 10
4.2797296008
 20
1.9360008515
 30
0.0
 10
4.3189110174
 20
1.9121617102
 30
0.0
 10
4.3409872308
 20
1.8909748897
 30
0.0
 10
4.3506552563
 20
1.8793348767
 30
0.0
  0
SPLINE
  5
282
100
AcDbEntity
  8
0
100
AcDbSpline
 62
9
  6
CONTINUOUS
 70
0
 71
3
 72
20
 73
16
 74
0
 42
0.0000001
 43
0.0000001
 44
0.0000000001
 40
0.0
 40
0.0
 40
0.0
 40
0.0
 40
0.1890988269
 40
0.3751523333
 40
0.5489233107
 40
0.7011834175
 40
0.7665409244
 40
0.8240970753
 40
0.8737318367
 40
0.9153291897
 40
0.9487815027
 40
0.9740012373
 40
0.990961875
 40
0.9964105892
 40
1.0
 40
1.0
 40
1.0
 40
1.0
 10
4.3506552642
 20
1.8793348839
 30
0.0
 10
4.351956382
 20
1.8803783214
 30
0.0
 10
4.3545466795
 20
1.8824371725
 30
0.0
 10
4.3583621606
 20
1.8854175102
 30
0.0
 10
4.3619484788
 20
1.8881630566
 30
0.0
 10
4.3647155216
 20
1.890227299
 30
0.0
 10
4.3666838425
 20
1.8916472901
 30
0.0
 10
4.3679292203
 20
1.892522031
 30
0.0
 10
4.3690146453
 20
1.8932598166
 30
0.0
 10
4.3699363823
 20
1.8938594396
 30
0.0
 10
4.3706910886
 20
1.8943217079
 30
0.0
 10
4.3712742819
 20
1.8946437743
 30
0.0
 10
4.3716573554
 20
1.8948228287
 30
0.0
 10
4.3718774133
 20
1.8948848146
 30
0.0
 10
4.3719594653
 20
1.8948908863
 30
0.0
 10
4.3719901416
 20
1.8948830626
 30
0.0
  0
ENDSEC
  0
SECTION
  2
OBJECTS
  0
DICTIONARY
  5
C
100
AcDbDictionary
280
0
281
1
  3
ACAD_GROUP
350
D
  3
ACAD_MLINESTYLE
350
17
  3
ACAD_LAYOUT
350
1A
  3
ACAD_PLOTSETTINGS
350
19
  3
ACAD_PLOTSTYLENAME
350
E
  0
DICTIONARY
  5
D
102
{ACAD_REACTORS
330
C
102
}
100
AcDbDictionary
280
0
281
1
  0
ACDBDICTIONARYWDFLT
  5
E
102
{ACAD_REACTORS
330
C
102
}
100
AcDbDictionary
281
1
  3
Normal
350
F
100
AcDbDictionaryWithDefault
340
F
  0
DICTIONARY
  5
17
102
{ACAD_REACTORS
330
C
102
}
100
AcDbDictionary
280
0
281
1
  3
Standard
350
18
  0
DICTIONARY
  5
19
102
{ACAD_REACTORS
330
C
102
}
100
AcDbDictionary
281
1
  0
DICTIONARY
  5
1A
102
{ACAD_REACTORS
330
C
102
}
100
AcDbDictionary
281
1
  3
Model
350
283
  3
Layout1
350
284
  0
ACDBPLACEHOLDER
  5
F
102
{ACAD_REACTORS
330
E
102
}
  0
MLINESTYLE
  5
18
102
{ACAD_REACTORS
330
17
102
}
100
AcDbMlineStyle
  2
STANDARD
 70
0
  3

 62
256
 51
90.0
 52
90.0
 71
2
 49
0.5
 62
256
  6
BYLAYER
 49
-0.5
 62
256
  6
BYLAYER
  0
LAYOUT
  5
283
102
{ACAD_REACTORS
330
1A
102
}
100
AcDbPlotSettings
  1

  2
none_device
  4

  6

 40
0.0
 41
0.0
 42
0.0
 43
0.0
 44
215.9
 45
279.4
 46
0.0
 47
0.0
 48
0.0
 49
0.0
140
0.0
141
0.0
142
1.0
143
1.0
 70
1024
 72
0
 73
0
 74
0
  7

 75
0
147
1.0
148
0.0
149
0.0
100
AcDbLayout
  1
Model
 70
0
 71
0
 10
0.0
 20
0.0
 11
8.5
 21
11.0
 12
0.0
 22
0.0
 32
0.0
 14
0.0
 24
0.0
 34
0.0
 15
0.0
 25
0.0
 35
0.0
146
0.0
 13
0.0
 23
0.0
 33
0.0
 16
1.0
 26
0.0
 36
0.0
 17
0.0
 27
1.0
 37
0.0
 76
0
330
226
345
0
346
0
  0
LAYOUT
  5
284
102
{ACAD_REACTORS
330
1A
102
}
100
AcDbPlotSettings
  1

  2
none_device
  4

  6

 40
0.0
 41
0.0
 42
0.0
 43
0.0
 44
215.9
 45
279.4
 46
0.0
 47
0.0
 48
0.0
 49
0.0
140
0.0
141
0.0
142
1.0
143
1.0
 70
0
 72
0
 73
0
 74
0
  7

 75
0
147
1.0
148
0.0
149
0.0
100
AcDbLayout
  1
Layout1
 70
0
 71
1
 10
0.0
 20
0.0
 11
8.5
 21
11.0
 12
0.0
 22
0.0
 32
0.0
 14
0.0
 24
0.0
 34
0.0
 15
0.0
 25
0.0
 35
0.0
146
0.0
 13
0.0
 23
0.0
 33
0.0
 16
1.0
 26
0.0
 36
0.0
 17
0.0
 27
1.0
 37
0.0
 76
0
330
227
345
0
346
0
  0
ENDSEC
  0
EOF
