999
DXF file: C:\Prowork\plots\495_right.dxf
999
Pro/ENGINEER 2018500 by Parametric Technology Corporation
  0
SECTION
  2
HEADER
  9
$ACADVER
  1
AC1032
  9
$DWGCODEPAGE
  3
ANSI_1252
  9
$EXTMAX
 10
8.5
 20
11.0
 30
0.0
  9
$EXTMIN
 10
0.0
 20
0.0
 30
0.0
  9
$LIMMIN
 10
0.0
 20
0.0
  9
$LIMMAX
 10
8.5
 20
11.0
  9
$VIEWCTR
 10
4.25
 20
5.5
  9
$VIEWSIZE
 40
11.0
  9
$CLAYER
  8
0
  9
$LTSCALE
 40
0.717037037
  9
$CELTYPE
  6
BYLAYER
  9
$DIMSCALE
 40
1.0
  9
$DIMASZ
 40
0.1
  9
$DIMEXO
 40
0.0625
  9
$DIMDLI
 40
0.4954074074
  9
$DIMEXE
 40
0.125
  9
$DIMCEN
 40
0.1173333333
  9
$DIMLFAC
 40
1.0
  9
$DIMBLK
  1
_FILLED
  9
$DIMALT
 70
1
  9
$DIMALTD
 70
2
  9
$DIMALTTD
 70
2
  9
$DIMALTF
 40
25.4
  9
$DIMTXT
 40
0.08
  9
$DIMTOL
 70
1
  9
$DIMLIM
 70
0
  9
$DIMTFAC
 40
1.0
  9
$DIMTP
 40
0.001
  9
$DIMTM
 40
0.001
  9
$DIMGAP
 40
0.09
  9
$DIMDSEP
 70
46
  9
$AUNITS
 70
0
  9
$PDMODE
 70
3
  9
$PDSIZE
 40
0.06
  9
$HANDSEED
  5
48E
  9
$TILEMODE
 70
1
  9
$MEASUREMENT
 70
0
  9
$INSUNITS
 70
1
  0
ENDSEC
  0
SECTION
  2
CLASSES
  0
CLASS
  1
ACDBDICTIONARYWDFLT
  2
AcDbDictionaryWithDefault
  3
AutoCAD 2000
 90
0
 91
1
280
0
281
0
  0
CLASS
  1
ACDBPLACEHOLDER
  2
AcDbPlaceHolder
  3
AutoCAD 2000
 90
0
 91
1
280
0
281
0
  0
CLASS
  1
LAYOUT
  2
AcDbLayout
  3
AutoCAD 2000
 90
0
 91
0
280
0
281
0
  0
ENDSEC
  0
SECTION
  2
TABLES
  0
TABLE
  2
VPORT
  5
8
100
AcDbSymbolTable
 70
2
  0
VPORT
  5
1F4
100
AcDbSymbolTableRecord
100
AcDbViewportTableRecord
  2
*ACTIVE
 70
0
 10
0.0
 20
0.0
 11
1.0
 21
1.0
 12
4.25
 22
5.5
 13
0.0
 23
0.0
 14
1.0
 24
1.0
 15
0.0
 25
0.0
 16
0.0
 26
0.0
 36
1.0
 17
0.0
 27
0.0
 37
0.0
 40
11.0
 41
0.7727272727
 42
50.0
 43
0.0
 44
0.0
 50
0.0
 51
0.0
 71
0
 72
100
 73
1
 74
1
 75
0
 76
0
 77
0
 78
0
  0
ENDTAB
  0
TABLE
  2
LTYPE
  5
5
100
AcDbSymbolTable
 70
6
  0
LTYPE
  5
14
100
AcDbSymbolTableRecord
100
AcDbLinetypeTableRecord
  2
BYBLOCK
 70
0
  3

 72
65
 73
0
 40
0.0
  0
LTYPE
  5
15
100
AcDbSymbolTableRecord
100
AcDbLinetypeTableRecord
  2
BYLAYER
 70
0
  3

 72
65
 73
0
 40
0.0
  0
LTYPE
  5
16
100
AcDbSymbolTableRecord
100
AcDbLinetypeTableRecord
  2
CONTINUOUS
 70
64
  3
Solid line
 72
65
 73
0
 40
0.0
  0
LTYPE
  5
1F5
100
AcDbSymbolTableRecord
100
AcDbLinetypeTableRecord
  2
CENTER
 70
64
  3
____ _ ____ _ ____ _ ____ _ ____ _ ____ _ ____
 72
65
 73
4
 40
0.6
 49
0.375
 74
0
 49
-0.075
 74
0
 49
0.075
 74
0
 49
-0.075
 74
0
  0
LTYPE
  5
1F6
100
AcDbSymbolTableRecord
100
AcDbLinetypeTableRecord
  2
HIDDEN
 70
64
  3
- - - - - - - - - - - - - - - - - - - -
 72
65
 73
2
 40
0.2
 49
0.1
 74
0
 49
-0.1
 74
0
  0
LTYPE
  5
1F7
100
AcDbSymbolTableRecord
100
AcDbLinetypeTableRecord
  2
PHANTOM
 70
64
  3
_____ _ _ _____ _ _ _____ _ _ _____
 72
65
 73
6
 40
0.8
 49
0.45
 74
0
 49
-0.05
 74
0
 49
0.1
 74
0
 49
-0.05
 74
0
 49
0.1
 74
0
 49
-0.05
 74
0
  0
LTYPE
  5
1F8
100
AcDbSymbolTableRecord
100
AcDbLinetypeTableRecord
  2
DOT
 70
64
  3
. . . . . . . . . . . . . . . . . . . .
 72
65
 73
2
 40
0.2
 49
0.1
 74
0
 49
-0.1
 74
0
  0
LTYPE
  5
1F9
100
AcDbSymbolTableRecord
100
AcDbLinetypeTableRecord
  2
DASHED
 70
64
  3
- - - - - - - - - - - - - - - - - - - -
 72
65
 73
2
 40
0.2
 49
0.1
 74
0
 49
-0.1
 74
0
  0
ENDTAB
  0
TABLE
  2
LAYER
  5
2
100
AcDbSymbolTable
 70
36
  0
LAYER
  5
10
100
AcDbSymbolTableRecord
100
AcDbLayerTableRecord
  2
0
 70
0
 62
7
  6
CONTINUOUS
370
-3
390
F
  0
LAYER
  5
1FA
100
AcDbSymbolTableRecord
100
AcDbLayerTableRecord
  2
DEFAULT_1
 70
0
 62
7
  6
CENTER
370
-3
390
F
  0
LAYER
  5
1FB
100
AcDbSymbolTableRecord
100
AcDbLayerTableRecord
  2
DEFAULT_2
 70
0
 62
8
  6
HIDDEN
370
-3
390
F
  0
LAYER
  5
1FC
100
AcDbSymbolTableRecord
100
AcDbLayerTableRecord
  2
DEFAULT_3
 70
0
 62
7
  6
PHANTOM
370
-3
390
F
  0
LAYER
  5
1FD
100
AcDbSymbolTableRecord
100
AcDbLayerTableRecord
  2
403
 70
0
 62
7
  6
CONTINUOUS
370
-3
390
F
  0
LAYER
  5
1FE
100
AcDbSymbolTableRecord
100
AcDbLayerTableRecord
  2
435
 70
0
 62
7
  6
CONTINUOUS
370
-3
390
F
  0
LAYER
  5
1FF
100
AcDbSymbolTableRecord
100
AcDbLayerTableRecord
  2
441
 70
0
 62
7
  6
CONTINUOUS
370
-3
390
F
  0
LAYER
  5
200
100
AcDbSymbolTableRecord
100
AcDbLayerTableRecord
  2
50350
 70
0
 62
7
  6
CONTINUOUS
370
-3
390
F
  0
LAYER
  5
201
100
AcDbSymbolTableRecord
100
AcDbLayerTableRecord
  2
50355
 70
0
 62
7
  6
CONTINUOUS
370
-3
390
F
  0
LAYER
  5
202
100
AcDbSymbolTableRecord
100
AcDbLayerTableRecord
  2
50359
 70
0
 62
7
  6
CONTINUOUS
370
-3
390
F
  0
LAYER
  5
203
100
AcDbSymbolTableRecord
100
AcDbLayerTableRecord
  2
50362
 70
0
 62
7
  6
CONTINUOUS
370
-3
390
F
  0
LAYER
  5
204
100
AcDbSymbolTableRecord
100
AcDbLayerTableRecord
  2
50391
 70
0
 62
7
  6
CONTINUOUS
370
-3
390
F
  0
LAYER
  5
205
100
AcDbSymbolTableRecord
100
AcDbLayerTableRecord
  2
50663
 70
0
 62
7
  6
CONTINUOUS
370
-3
390
F
  0
LAYER
  5
206
100
AcDbSymbolTableRecord
100
AcDbLayerTableRecord
  2
50664
 70
0
 62
7
  6
CONTINUOUS
370
-3
390
F
  0
LAYER
  5
207
100
AcDbSymbolTableRecord
100
AcDbLayerTableRecord
  2
50668
 70
0
 62
7
  6
CONTINUOUS
370
-3
390
F
  0
LAYER
  5
208
100
AcDbSymbolTableRecord
100
AcDbLayerTableRecord
  2
50675
 70
0
 62
7
  6
CONTINUOUS
370
-3
390
F
  0
LAYER
  5
209
100
AcDbSymbolTableRecord
100
AcDbLayerTableRecord
  2
50677
 70
0
 62
7
  6
CONTINUOUS
370
-3
390
F
  0
LAYER
  5
20A
100
AcDbSymbolTableRecord
100
AcDbLayerTableRecord
  2
50678
 70
0
 62
7
  6
CONTINUOUS
370
-3
390
F
  0
LAYER
  5
20B
100
AcDbSymbolTableRecord
100
AcDbLayerTableRecord
  2
6-403
 70
0
 62
7
  6
CONTINUOUS
370
-3
390
F
  0
LAYER
  5
20C
100
AcDbSymbolTableRecord
100
AcDbLayerTableRecord
  2
91203
 70
0
 62
7
  6
CONTINUOUS
370
-3
390
F
  0
LAYER
  5
20D
100
AcDbSymbolTableRecord
100
AcDbLayerTableRecord
  2
92073
 70
0
 62
7
  6
CONTINUOUS
370
-3
390
F
  0
LAYER
  5
20E
100
AcDbSymbolTableRecord
100
AcDbLayerTableRecord
  2
DEFAULT_COORDINATE_SYSTEM
 70
0
 62
7
  6
CONTINUOUS
370
-3
390
F
  0
LAYER
  5
20F
100
AcDbSymbolTableRecord
100
AcDbLayerTableRecord
  2
DEFAULT_DATUM_AXES
 70
0
 62
7
  6
CONTINUOUS
370
-3
390
F
  0
LAYER
  5
210
100
AcDbSymbolTableRecord
100
AcDbLayerTableRecord
  2
DEFAULT_DATUM_PLANES
 70
0
 62
7
  6
CONTINUOUS
370
-3
390
F
  0
LAYER
  5
211
100
AcDbSymbolTableRecord
100
AcDbLayerTableRecord
  2
INTF_441
 70
0
 62
7
  6
CONTINUOUS
370
-3
390
F
  0
LAYER
  5
212
100
AcDbSymbolTableRecord
100
AcDbLayerTableRecord
  2
INTF_50350
 70
0
 62
7
  6
CONTINUOUS
370
-3
390
F
  0
LAYER
  5
213
100
AcDbSymbolTableRecord
100
AcDbLayerTableRecord
  2
INTF_50355
 70
0
 62
7
  6
CONTINUOUS
370
-3
390
F
  0
LAYER
  5
214
100
AcDbSymbolTableRecord
100
AcDbLayerTableRecord
  2
INTF_50359
 70
0
 62
7
  6
CONTINUOUS
370
-3
390
F
  0
LAYER
  5
215
100
AcDbSymbolTableRecord
100
AcDbLayerTableRecord
  2
INTF_50362
 70
0
 62
7
  6
CONTINUOUS
370
-3
390
F
  0
LAYER
  5
216
100
AcDbSymbolTableRecord
100
AcDbLayerTableRecord
  2
INTF_50391
 70
0
 62
7
  6
CONTINUOUS
370
-3
390
F
  0
LAYER
  5
217
100
AcDbSymbolTableRecord
100
AcDbLayerTableRecord
  2
INTF_50663
 70
0
 62
7
  6
CONTINUOUS
370
-3
390
F
  0
LAYER
  5
218
100
AcDbSymbolTableRecord
100
AcDbLayerTableRecord
  2
INTF_50664
 70
0
 62
7
  6
CONTINUOUS
370
-3
390
F
  0
LAYER
  5
219
100
AcDbSymbolTableRecord
100
AcDbLayerTableRecord
  2
INTF_50668
 70
0
 62
7
  6
CONTINUOUS
370
-3
390
F
  0
LAYER
  5
21A
100
AcDbSymbolTableRecord
100
AcDbLayerTableRecord
  2
INTF_50675
 70
0
 62
7
  6
CONTINUOUS
370
-3
390
F
  0
LAYER
  5
21B
100
AcDbSymbolTableRecord
100
AcDbLayerTableRecord
  2
INTF_50677
 70
0
 62
7
  6
CONTINUOUS
370
-3
390
F
  0
LAYER
  5
21C
100
AcDbSymbolTableRecord
100
AcDbLayerTableRecord
  2
INTF_50678
 70
0
 62
7
  6
CONTINUOUS
370
-3
390
F
  0
LAYER
  5
21D
100
AcDbSymbolTableRecord
100
AcDbLayerTableRecord
  2
INTF_91203
 70
0
 62
7
  6
CONTINUOUS
370
-3
390
F
  0
LAYER
  5
21E
100
AcDbSymbolTableRecord
100
AcDbLayerTableRecord
  2
INTF_92073
 70
0
 62
7
  6
CONTINUOUS
370
-3
390
F
  0
LAYER
  5
21F
100
AcDbSymbolTableRecord
100
AcDbLayerTableRecord
  2
INTF_BLANK
 70
0
 62
7
  6
CONTINUOUS
370
-3
390
F
  0
LAYER
  5
220
100
AcDbSymbolTableRecord
100
AcDbLayerTableRecord
  2
NONE
 70
0
 62
7
  6
CONTINUOUS
370
-3
390
F
  0
LAYER
  5
221
100
AcDbSymbolTableRecord
100
AcDbLayerTableRecord
  2
PLATED_SURFACE
 70
0
 62
7
  6
CONTINUOUS
370
-3
390
F
  0
LAYER
  5
222
100
AcDbSymbolTableRecord
100
AcDbLayerTableRecord
  2
WETTED_SURFACE
 70
0
 62
7
  6
CONTINUOUS
370
-3
390
F
  0
LAYER
  5
223
100
AcDbSymbolTableRecord
100
AcDbLayerTableRecord
  2
_BLACK_HOLE
 70
0
 62
7
  6
CONTINUOUS
370
-3
390
F
  0
ENDTAB
  0
TABLE
  2
STYLE
  5
3
100
AcDbSymbolTable
 70
1
  0
STYLE
  5
11
100
AcDbSymbolTableRecord
100
AcDbTextStyleTableRecord
  2
STANDARD
 70
0
 40
0.0
 41
0.8
 50
0.0
 71
0
 42
0.2
  3
txt
  4

  0
STYLE
  5
224
100
AcDbSymbolTableRecord
100
AcDbTextStyleTableRecord
  2
TEXTSTYLE_1
 70
0
 40
0.0
 41
0.8
 50
0.0
 71
0
 42
0.2
  3
gdt
  4

  0
ENDTAB
  0
TABLE
  2
VIEW
  5
6
100
AcDbSymbolTable
 70
0
  0
ENDTAB
  0
TABLE
  2
UCS
  5
7
100
AcDbSymbolTable
 70
0
  0
ENDTAB
  0
TABLE
  2
APPID
  5
9
100
AcDbSymbolTable
 70
1
  0
APPID
  5
225
100
AcDbSymbolTableRecord
100
AcDbRegAppTableRecord
  2
ACAD
 70
0
  0
ENDTAB
  0
TABLE
  2
BLOCK_RECORD
  5
1
100
AcDbSymbolTable
 70
0
  0
BLOCK_RECORD
  5
226
100
AcDbSymbolTableRecord
100
AcDbBlockTableRecord
  2
*Model_Space
  0
BLOCK_RECORD
  5
227
100
AcDbSymbolTableRecord
100
AcDbBlockTableRecord
  2
*Paper_Space
  0
BLOCK_RECORD
  5
228
100
AcDbSymbolTableRecord
100
AcDbBlockTableRecord
  2
_FILLED
  0
ENDTAB
  0
TABLE
  2
DIMSTYLE
  5
A
100
AcDbSymbolTable
 70
1
100
AcDbDimStyleTable
 71
0
  0
DIMSTYLE
105
229
100
AcDbSymbolTableRecord
100
AcDbDimStyleTableRecord
  2
STANDARD
 70
0
  3

  4

 40
1.0
 41
0.1
 42
0.0625
 43
0.38
 44
0.125
 45
0.0
 46
0.0
 47
0.001
 48
0.001
140
0.08
141
0.09
142
0.0
143
25.4
144
1.0
145
0.0
146
1.0
147
0.09
 71
1.0
 72
0.0
 73
1
 74
1
 75
0
 76
0
 77
0
 78
4
 79
1
170
1
171
2
172
0
173
0
174
0
175
0
176
0
177
0
178
0
270
2
179
3
271
3
272
3
273
2
274
2
275
0
280
0
281
0
282
0
283
1
284
4
285
0
286
0
287
3
288
0
340
11
278
46
341
228
342
228
343
228
344
228
  0
ENDTAB
  0
ENDSEC
  0
SECTION
  2
BLOCKS
  0
BLOCK
  5
20
100
AcDbEntity
  8
0
100
AcDbBlockBegin
  2
*Model_Space
 70
0
 10
0.0
 20
0.0
 30
0.0
  3
*Model_Space
  1

  0
ENDBLK
  5
21
100
AcDbEntity
  8
0
100
AcDbBlockEnd
  0
BLOCK
  5
1C
100
AcDbEntity
  8
0
100
AcDbBlockBegin
  2
*Paper_Space
 70
0
 10
0.0
 20
0.0
 30
0.0
  3
*Paper_Space
  1

  0
ENDBLK
  5
1D
100
AcDbEntity
  8
0
100
AcDbBlockEnd
  0
BLOCK
  5
22A
100
AcDbEntity
  8
0
100
AcDbBlockBegin
  2
_FILLED
 70
64
 10
0.0
 20
0.0
  3
_FILLED
  1

  0
SOLID
  5
22B
100
AcDbEntity
  8
0
  6
BYBLOCK
 62
0
100
AcDbTrace
 10
0.0
 20
0.0
 11
-1.0
 21
0.2
 12
-1.0
 22
-0.2
 13
-1.0
 23
-0.2
  0
ENDBLK
  5
22C
100
AcDbEntity
  8
0
  6
BYBLOCK
 62
0
100
AcDbBlockEnd
  0
ENDSEC
  0
SECTION
  2
ENTITIES
  0
MTEXT
  5
22D
100
AcDbEntity
  8
0
100
AcDbMText
 62
7
  6
CONTINUOUS
  7
STANDARD
 71
1
 72
1
 10
7.099068323
 20
0.340621118
 30
0.0
 11
1.0
 21
0.0
 31
0.0
 73
2
 44
0.9
  1
SCALE: .813
 40
0.08
 41
0.704
  0
LINE
  5
22E
100
AcDbEntity
  8
0
100
AcDbLine
 62
7
  6
CONTINUOUS
 10
0.0
 20
0.0
 11
8.5
 21
0.0
  0
LINE
  5
22F
100
AcDbEntity
  8
0
100
AcDbLine
 62
7
  6
CONTINUOUS
 10
0.0
 20
0.0
 11
0.0
 21
11.0
  0
LINE
  5
230
100
AcDbEntity
  8
0
100
AcDbLine
 62
7
  6
CONTINUOUS
 10
8.5
 20
0.0
 11
8.5
 21
11.0
  0
LINE
  5
231
100
AcDbEntity
  8
0
100
AcDbLine
 62
7
  6
CONTINUOUS
 10
0.0
 20
11.0
 11
8.5
 21
11.0
  0
LINE
  5
232
100
AcDbEntity
  8
0
100
AcDbLine
 62
7
  6
CONTINUOUS
 10
4.9397449048
 20
0.279400264
 11
5.0299740313
 21
0.279400264
  0
LINE
  5
233
100
AcDbEntity
  8
0
100
AcDbLine
 62
7
  6
CONTINUOUS
 10
2.1035183072
 20
0.5002080941
 11
2.2454490313
 21
0.495251764
  0
LINE
  5
234
100
AcDbEntity
  8
0
100
AcDbLine
 62
9
  6
CONTINUOUS
 10
2.2454490313
 20
0.5830357867
 11
2.1004191731
 21
0.5862499169
  0
LINE
  5
235
100
AcDbEntity
  8
0
100
AcDbLine
 62
7
  6
CONTINUOUS
 10
3.9921795313
 20
0.8849377162
 11
3.5348670313
 21
0.8849377162
  0
LINE
  5
236
100
AcDbEntity
  8
0
100
AcDbLine
 62
7
  6
CONTINUOUS
 10
2.5288195308
 20
0.8912262931
 11
2.3920405205
 21
0.8912262931
  0
LINE
  5
237
100
AcDbEntity
  8
0
100
AcDbLine
 62
9
  6
CONTINUOUS
 10
2.3897422309
 20
0.8966723604
 11
2.5311178204
 21
0.8966723604
  0
LINE
  5
238
100
AcDbEntity
  8
0
100
AcDbLine
 62
7
  6
CONTINUOUS
 10
2.5543890313
 20
0.946060264
 11
2.5747140313
 21
0.946060264
  0
LINE
  5
239
100
AcDbEntity
  8
0
100
AcDbLine
 62
7
  6
CONTINUOUS
 10
2.6771520313
 20
0.965369014
 11
2.6167309268
 21
0.965369014
  0
LINE
  5
23A
100
AcDbEntity
  8
0
100
AcDbLine
 62
7
  6
CONTINUOUS
 10
2.5831030395
 20
0.965369014
 11
2.5760857316
 21
0.965369014
  0
LINE
  5
23B
100
AcDbEntity
  8
0
100
AcDbLine
 62
7
  6
CONTINUOUS
 10
3.4291770313
 20
0.965369014
 11
3.4550450702
 21
0.965369014
  0
LINE
  5
23C
100
AcDbEntity
  8
0
100
AcDbLine
 62
7
  6
CONTINUOUS
 10
3.4886743627
 20
0.965369014
 11
3.5002220076
 21
0.965369014
  0
LINE
  5
23D
100
AcDbEntity
  8
0
100
AcDbLine
 62
7
  6
CONTINUOUS
 10
2.7584520313
 20
0.970450264
 11
3.2869020313
 21
0.970450264
  0
LINE
  5
23E
100
AcDbEntity
  8
0
100
AcDbLine
 62
7
  6
CONTINUOUS
 10
3.4291770313
 20
0.978580264
 11
3.2869020313
 21
0.978580264
  0
LINE
  5
23F
100
AcDbEntity
  8
0
100
AcDbLine
 62
7
  6
CONTINUOUS
 10
3.5192999858
 20
0.989555764
 11
3.5148078576
 21
0.989555764
  0
LINE
  5
240
100
AcDbEntity
  8
0
100
AcDbLine
 62
7
  6
CONTINUOUS
 10
3.4744030274
 20
0.989555764
 11
3.4696147738
 21
0.989555764
  0
LINE
  5
241
100
AcDbEntity
  8
0
100
AcDbLine
 62
7
  6
CONTINUOUS
 10
2.7584520313
 20
0.989555764
 11
2.6771520313
 21
0.989555764
  0
LINE
  5
242
100
AcDbEntity
  8
0
100
AcDbLine
 62
7
  6
CONTINUOUS
 10
2.6022241376
 20
0.989555764
 11
2.5976155855
 21
0.989555764
  0
LINE
  5
243
100
AcDbEntity
  8
0
100
AcDbLine
 62
7
  6
CONTINUOUS
 10
2.619692079
 20
1.0284471198
 11
2.6533119837
 21
1.0284471198
  0
LINE
  5
244
100
AcDbEntity
  8
0
100
AcDbLine
 62
7
  6
CONTINUOUS
 10
2.3023590313
 20
1.039961764
 11
2.3226840313
 21
1.039961764
  0
LINE
  5
245
100
AcDbEntity
  8
0
100
AcDbLine
 62
7
  6
CONTINUOUS
 10
2.6390426563
 20
1.0484421366
 11
2.6339614063
 21
1.0484421366
  0
LINE
  5
246
100
AcDbEntity
  8
0
100
AcDbLine
 62
9
  6
CONTINUOUS
 10
2.5933114063
 20
1.0484549953
 11
2.5983926563
 21
1.0484549953
  0
LINE
  5
247
100
AcDbEntity
  8
0
100
AcDbLine
 62
9
  6
CONTINUOUS
 10
2.5311178204
 20
1.0785593459
 11
2.3897422309
 21
1.0785593459
  0
LINE
  5
248
100
AcDbEntity
  8
0
100
AcDbLine
 62
7
  6
CONTINUOUS
 10
3.9921795313
 20
1.0902939901
 11
3.5348670313
 21
1.0902939901
  0
LINE
  5
249
100
AcDbEntity
  8
0
100
AcDbLine
 62
9
  6
CONTINUOUS
 10
3.5079364063
 20
1.1094382254
 11
3.5130176563
 21
1.1094382254
  0
LINE
  5
24A
100
AcDbEntity
  8
0
100
AcDbLine
 62
9
  6
CONTINUOUS
 10
2.3897422309
 20
1.1137632785
 11
2.5311178204
 21
1.1137632785
  0
LINE
  5
24B
100
AcDbEntity
  8
0
100
AcDbLine
 62
7
  6
CONTINUOUS
 10
2.2454490313
 20
1.1433939892
 11
2.3023590313
 21
1.143212764
  0
LINE
  5
24C
100
AcDbEntity
  8
0
100
AcDbLine
 62
7
  6
CONTINUOUS
 10
2.2625220313
 20
1.1500346502
 11
2.2454490313
 21
1.1500346502
  0
LINE
  5
24D
100
AcDbEntity
  8
0
100
AcDbLine
 62
7
  6
CONTINUOUS
 10
2.2454490313
 20
1.155117682
 11
2.2625220313
 21
1.155117682
  0
LINE
  5
24E
100
AcDbEntity
  8
0
100
AcDbLine
 62
7
  6
CONTINUOUS
 10
2.7584520313
 20
1.1609480135
 11
3.2869020313
 21
1.1609480135
  0
LINE
  5
24F
100
AcDbEntity
  8
0
100
AcDbLine
 62
7
  6
CONTINUOUS
 10
2.2625220313
 20
1.1742387033
 11
2.2454490313
 21
1.1742387033
  0
LINE
  5
250
100
AcDbEntity
  8
0
100
AcDbLine
 62
7
  6
CONTINUOUS
 10
2.2454490313
 20
1.1837916783
 11
2.2625220313
 21
1.1837916783
  0
LINE
  5
251
100
AcDbEntity
  8
0
100
AcDbLine
 62
7
  6
CONTINUOUS
 10
2.2625220313
 20
1.2050030836
 11
2.2454490313
 21
1.2050030836
  0
LINE
  5
252
100
AcDbEntity
  8
0
100
AcDbLine
 62
7
  6
CONTINUOUS
 10
2.2454490313
 20
1.2112310249
 11
2.2625220313
 21
1.2112310249
  0
LINE
  5
253
100
AcDbEntity
  8
0
100
AcDbLine
 62
7
  6
CONTINUOUS
 10
2.2625220313
 20
1.2130867824
 11
2.2454490313
 21
1.2130867824
  0
LINE
  5
254
100
AcDbEntity
  8
0
100
AcDbLine
 62
7
  6
CONTINUOUS
 10
2.2454490313
 20
1.2259574708
 11
2.2625220313
 21
1.2259574708
  0
LINE
  5
255
100
AcDbEntity
  8
0
100
AcDbLine
 62
7
  6
CONTINUOUS
 10
2.2625220313
 20
1.2452549654
 11
2.2454490313
 21
1.2452549654
  0
LINE
  5
256
100
AcDbEntity
  8
0
100
AcDbLine
 62
7
  6
CONTINUOUS
 10
2.2454490313
 20
1.2528946664
 11
2.2625220313
 21
1.2528946664
  0
LINE
  5
257
100
AcDbEntity
  8
0
100
AcDbLine
 62
7
  6
CONTINUOUS
 10
2.2625220313
 20
1.2618932359
 11
2.2454490313
 21
1.2618932359
  0
LINE
  5
258
100
AcDbEntity
  8
0
100
AcDbLine
 62
7
  6
CONTINUOUS
 10
2.2454490313
 20
1.2765292427
 11
2.2625220313
 21
1.2765292427
  0
LINE
  5
259
100
AcDbEntity
  8
0
100
AcDbLine
 62
7
  6
CONTINUOUS
 10
1.9725994484
 20
1.282845514
 11
1.9831339122
 21
1.282845514
  0
LINE
  5
25A
100
AcDbEntity
  8
0
100
AcDbLine
 62
7
  6
CONTINUOUS
 10
2.2625220313
 20
1.291585264
 11
2.2454490313
 21
1.291585264
  0
LINE
  5
25B
100
AcDbEntity
  8
0
100
AcDbLine
 62
7
  6
CONTINUOUS
 10
2.2625220313
 20
1.299715264
 11
2.2454490313
 21
1.299715264
  0
LINE
  5
25C
100
AcDbEntity
  8
0
100
AcDbLine
 62
7
  6
CONTINUOUS
 10
1.9831339122
 20
1.308455014
 11
1.9725994484
 21
1.308455014
  0
LINE
  5
25D
100
AcDbEntity
  8
0
100
AcDbLine
 62
7
  6
CONTINUOUS
 10
2.2625220313
 20
1.3147712852
 11
2.2454490313
 21
1.3147712852
  0
LINE
  5
25E
100
AcDbEntity
  8
0
100
AcDbLine
 62
7
  6
CONTINUOUS
 10
2.2454490313
 20
1.329407292
 11
2.2625220313
 21
1.329407292
  0
LINE
  5
25F
100
AcDbEntity
  8
0
100
AcDbLine
 62
7
  6
CONTINUOUS
 10
2.2625220313
 20
1.3384058615
 11
2.2454490313
 21
1.3384058615
  0
LINE
  5
260
100
AcDbEntity
  8
0
100
AcDbLine
 62
7
  6
CONTINUOUS
 10
2.2625220313
 20
1.3460455625
 11
2.2454490313
 21
1.3460455625
  0
LINE
  5
261
100
AcDbEntity
  8
0
100
AcDbLine
 62
7
  6
CONTINUOUS
 10
2.2625220313
 20
1.3653430572
 11
2.2454490313
 21
1.3653430572
  0
LINE
  5
262
100
AcDbEntity
  8
0
100
AcDbLine
 62
7
  6
CONTINUOUS
 10
2.2454490313
 20
1.3782137455
 11
2.2625220313
 21
1.3782137455
  0
LINE
  5
263
100
AcDbEntity
  8
0
100
AcDbLine
 62
7
  6
CONTINUOUS
 10
2.2625220313
 20
1.380069503
 11
2.2454490313
 21
1.380069503
  0
LINE
  5
264
100
AcDbEntity
  8
0
100
AcDbLine
 62
7
  6
CONTINUOUS
 10
2.2625220313
 20
1.3862974444
 11
2.2454490313
 21
1.3862974444
  0
LINE
  5
265
100
AcDbEntity
  8
0
100
AcDbLine
 62
7
  6
CONTINUOUS
 10
2.2625220313
 20
1.4075088497
 11
2.2454490313
 21
1.4075088497
  0
LINE
  5
266
100
AcDbEntity
  8
0
100
AcDbLine
 62
7
  6
CONTINUOUS
 10
2.2454490313
 20
1.4170618247
 11
2.2625220313
 21
1.4170618247
  0
LINE
  5
267
100
AcDbEntity
  8
0
100
AcDbLine
 62
7
  6
CONTINUOUS
 10
3.2869020313
 20
1.4303525145
 11
2.7584520313
 21
1.4303525145
  0
LINE
  5
268
100
AcDbEntity
  8
0
100
AcDbLine
 62
7
  6
CONTINUOUS
 10
2.2625220313
 20
1.4361828459
 11
2.2454490313
 21
1.4361828459
  0
LINE
  5
269
100
AcDbEntity
  8
0
100
AcDbLine
 62
7
  6
CONTINUOUS
 10
2.2454490313
 20
1.4412658777
 11
2.2625220313
 21
1.4412658777
  0
LINE
  5
26A
100
AcDbEntity
  8
0
100
AcDbLine
 62
7
  6
CONTINUOUS
 10
2.2454490313
 20
1.4479065387
 11
2.3023590313
 21
1.448087764
  0
LINE
  5
26B
100
AcDbEntity
  8
0
100
AcDbLine
 62
9
  6
CONTINUOUS
 10
2.5311178204
 20
1.4775372494
 11
2.3897422309
 21
1.4775372494
  0
LINE
  5
26C
100
AcDbEntity
  8
0
100
AcDbLine
 62
7
  6
CONTINUOUS
 10
3.9921795313
 20
1.5010065378
 11
3.5348670313
 21
1.5010065378
  0
LINE
  5
26D
100
AcDbEntity
  8
0
100
AcDbLine
 62
9
  6
CONTINUOUS
 10
2.3897422309
 20
1.5127411821
 11
2.5311178204
 21
1.5127411821
  0
LINE
  5
26E
100
AcDbEntity
  8
0
100
AcDbLine
 62
7
  6
CONTINUOUS
 10
2.7584520313
 20
1.539550264
 11
3.2869020313
 21
1.539550264
  0
LINE
  5
26F
100
AcDbEntity
  8
0
100
AcDbLine
 62
7
  6
CONTINUOUS
 10
2.3226840313
 20
1.551338764
 11
2.3023590313
 21
1.551338764
  0
LINE
  5
270
100
AcDbEntity
  8
0
100
AcDbLine
 62
7
  6
CONTINUOUS
 10
2.7584520313
 20
1.5624650145
 11
2.9001988782
 21
1.5624650145
  0
LINE
  5
271
100
AcDbEntity
  8
0
100
AcDbLine
 62
7
  6
CONTINUOUS
 10
3.1451551845
 20
1.5624650145
 11
3.2869020313
 21
1.5624650145
  0
LINE
  5
272
100
AcDbEntity
  8
0
100
AcDbLine
 62
7
  6
CONTINUOUS
 10
2.5760769871
 20
0.965369014
 11
2.5758621989
 21
0.9655510091
  0
LINE
  5
273
100
AcDbEntity
  8
0
100
AcDbLine
 62
7
  6
CONTINUOUS
 10
2.6167269852
 20
0.965369014
 11
2.616511283
 21
0.9655525644
  0
LINE
  5
274
100
AcDbEntity
  8
0
100
AcDbLine
 62
7
  6
CONTINUOUS
 10
2.9984576585
 20
1.7661161477
 11
3.0402392512
 21
1.7672007586
  0
LINE
  5
275
100
AcDbEntity
  8
0
100
AcDbLine
 62
7
  6
CONTINUOUS
 10
2.9984576585
 20
1.7703518777
 11
3.0402392512
 21
1.7714364886
  0
LINE
  5
276
100
AcDbEntity
  8
0
100
AcDbLine
 62
7
  6
CONTINUOUS
 10
3.4969995847
 20
1.601744764
 11
3.4922127326
 21
1.601744764
  0
LINE
  5
277
100
AcDbEntity
  8
0
100
AcDbLine
 62
7
  6
CONTINUOUS
 10
3.4517963108
 20
1.601744764
 11
3.4470086086
 21
1.601744764
  0
LINE
  5
278
100
AcDbEntity
  8
0
100
AcDbLine
 62
7
  6
CONTINUOUS
 10
2.7584520313
 20
1.601744764
 11
2.6771520313
 21
1.601744764
  0
LINE
  5
279
100
AcDbEntity
  8
0
100
AcDbLine
 62
7
  6
CONTINUOUS
 10
2.6225445744
 20
1.601744764
 11
2.6179408032
 21
1.601744764
  0
LINE
  5
27A
100
AcDbEntity
  8
0
100
AcDbLine
 62
7
  6
CONTINUOUS
 10
2.5818998848
 20
1.601744764
 11
2.577056253
 21
1.601744764
  0
LINE
  5
27B
100
AcDbEntity
  8
0
100
AcDbLine
 62
7
  6
CONTINUOUS
 10
3.2869020313
 20
1.612720264
 11
3.4291770313
 21
1.612720264
  0
LINE
  5
27C
100
AcDbEntity
  8
0
100
AcDbLine
 62
7
  6
CONTINUOUS
 10
2.7584520313
 20
1.620850264
 11
2.8379096523
 21
1.620850264
  0
LINE
  5
27D
100
AcDbEntity
  8
0
100
AcDbLine
 62
7
  6
CONTINUOUS
 10
3.2074444104
 20
1.620850264
 11
3.2869020313
 21
1.620850264
  0
LINE
  5
27E
100
AcDbEntity
  8
0
100
AcDbLine
 62
7
  6
CONTINUOUS
 10
2.6771520313
 20
1.625931514
 11
2.637066199
 21
1.625931514
  0
LINE
  5
27F
100
AcDbEntity
  8
0
100
AcDbLine
 62
7
  6
CONTINUOUS
 10
2.6034178358
 20
1.625931514
 11
2.5964111879
 21
1.625931514
  0
LINE
  5
280
100
AcDbEntity
  8
0
100
AcDbLine
 62
7
  6
CONTINUOUS
 10
3.4291770313
 20
1.625931514
 11
3.4324441861
 21
1.625931514
  0
LINE
  5
281
100
AcDbEntity
  8
0
100
AcDbLine
 62
7
  6
CONTINUOUS
 10
3.4660726052
 20
1.625931514
 11
3.477644096
 21
1.625931514
  0
LINE
  5
282
100
AcDbEntity
  8
0
100
AcDbLine
 62
7
  6
CONTINUOUS
 10
3.5112782861
 20
1.625931514
 11
3.5228536508
 21
1.625931514
  0
LINE
  5
283
100
AcDbEntity
  8
0
100
AcDbLine
 62
7
  6
CONTINUOUS
 10
2.5543890313
 20
1.645240264
 11
2.5747140313
 21
1.645240264
  0
LINE
  5
284
100
AcDbEntity
  8
0
100
AcDbLine
 62
9
  6
CONTINUOUS
 10
2.5311178204
 20
1.6946281675
 11
2.3897422309
 21
1.6946281675
  0
LINE
  5
285
100
AcDbEntity
  8
0
100
AcDbLine
 62
7
  6
CONTINUOUS
 10
2.5288195308
 20
1.7000742348
 11
2.3920405205
 21
1.7000742348
  0
LINE
  5
286
100
AcDbEntity
  8
0
100
AcDbLine
 62
7
  6
CONTINUOUS
 10
3.9921795313
 20
1.7063628117
 11
3.5348670313
 21
1.7063628117
  0
LINE
  5
287
100
AcDbEntity
  8
0
100
AcDbLine
 62
7
  6
CONTINUOUS
 10
3.1330674425
 20
1.714345264
 11
2.9001988782
 21
1.714345264
  0
LINE
  5
288
100
AcDbEntity
  8
0
100
AcDbLine
 62
7
  6
CONTINUOUS
 10
3.2767395314
 20
1.776946264
 11
2.7686145313
 21
1.776946264
  0
LINE
  5
289
100
AcDbEntity
  8
0
100
AcDbLine
 62
7
  6
CONTINUOUS
 10
2.7942205861
 20
1.6725830448
 11
2.8149007361
 21
1.6606312359
  0
LINE
  5
28A
100
AcDbEntity
  8
0
100
AcDbLine
 62
7
  6
CONTINUOUS
 10
2.7942122013
 20
1.7064578217
 11
2.8148805123
 21
1.6945139983
  0
LINE
  5
28B
100
AcDbEntity
  8
0
100
AcDbLine
 62
7
  6
CONTINUOUS
 10
2.7941916122
 20
1.7403782517
 11
2.814911336
 21
1.7284029687
  0
LINE
  5
28C
100
AcDbEntity
  8
0
100
AcDbLine
 62
7
  6
CONTINUOUS
 10
2.7941957135
 20
1.7742322013
 11
2.8148808427
 21
1.7622786491
  0
LINE
  5
28D
100
AcDbEntity
  8
0
100
AcDbLine
 62
7
  6
CONTINUOUS
 10
3.2259270313
 20
10.628890264
 11
3.1730820313
 21
10.559785264
  0
LINE
  5
28E
100
AcDbEntity
  8
0
100
AcDbLine
 62
7
  6
CONTINUOUS
 10
2.1035106611
 20
2.09109212
 11
2.1004758386
 21
2.090843295
  0
LINE
  5
28F
100
AcDbEntity
  8
0
100
AcDbLine
 62
7
  6
CONTINUOUS
 10
2.1035183078
 20
2.0910924339
 11
2.2454490313
 21
2.096048764
  0
LINE
  5
290
100
AcDbEntity
  8
0
100
AcDbLine
 62
9
  6
CONTINUOUS
 10
2.2454490313
 20
2.0082647413
 11
2.1004192518
 21
2.0050526429
  0
LINE
  5
291
100
AcDbEntity
  8
0
100
AcDbLine
 62
7
  6
CONTINUOUS
 10
3.2767395314
 20
2.117593264
 11
2.7686145313
 21
2.117593264
  0
LINE
  5
292
100
AcDbEntity
  8
0
100
AcDbLine
 62
7
  6
CONTINUOUS
 10
5.0299740313
 20
2.311900264
 11
4.9397449048
 21
2.311900264
  0
LINE
  5
293
100
AcDbEntity
  8
0
100
AcDbLine
 62
7
  6
CONTINUOUS
 10
3.2511334516
 20
1.6618736458
 11
3.2304483243
 21
1.6738286149
  0
LINE
  5
294
100
AcDbEntity
  8
0
100
AcDbLine
 62
7
  6
CONTINUOUS
 10
3.2511388
 20
1.6957393146
 11
3.2304386076
 21
1.7077035407
  0
LINE
  5
295
100
AcDbEntity
  8
0
100
AcDbLine
 62
7
  6
CONTINUOUS
 10
3.2511340057
 20
1.7296375485
 11
3.2304635997
 21
1.7415831588
  0
LINE
  5
296
100
AcDbEntity
  8
0
100
AcDbLine
 62
7
  6
CONTINUOUS
 10
3.2511535951
 20
1.7635024176
 11
3.2304783904
 21
1.7754499455
  0
LINE
  5
297
100
AcDbEntity
  8
0
100
AcDbLine
 62
7
  6
CONTINUOUS
 10
3.4886697108
 20
0.965369014
 11
3.4884007271
 21
0.9655998361
  0
LINE
  5
298
100
AcDbEntity
  8
0
100
AcDbLine
 62
7
  6
CONTINUOUS
 10
2.6034320735
 20
1.625931514
 11
2.6036536657
 21
1.6257378104
  0
LINE
  5
299
100
AcDbEntity
  8
0
100
AcDbLine
 62
7
  6
CONTINUOUS
 10
3.5338725234
 20
0.965369014
 11
3.5335909539
 21
0.9656219166
  0
LINE
  5
29A
100
AcDbEntity
  8
0
100
AcDbLine
 62
9
  6
CONTINUOUS
 10
2.5983926563
 20
1.0484549953
 11
2.6126619837
 21
1.0284610185
  0
LINE
  5
29B
100
AcDbEntity
  8
0
100
AcDbLine
 62
7
  6
CONTINUOUS
 10
2.6390426563
 20
1.0484421366
 11
2.6533119837
 21
1.0284471198
  0
LINE
  5
29C
100
AcDbEntity
  8
0
100
AcDbLine
 62
7
  6
CONTINUOUS
 10
2.1004758386
 20
2.090843295
 11
2.0964825197
 21
2.0900702468
  0
LINE
  5
29D
100
AcDbEntity
  8
0
100
AcDbLine
 62
7
  6
CONTINUOUS
 10
3.5228540037
 20
1.625931514
 11
3.5231211345
 21
1.6257038572
  0
LINE
  5
29E
100
AcDbEntity
  8
0
100
AcDbLine
 62
7
  6
CONTINUOUS
 10
3.4324484019
 20
1.625931514
 11
3.4327172413
 21
1.6257009391
  0
LINE
  5
29F
100
AcDbEntity
  8
0
100
AcDbLine
 62
7
  6
CONTINUOUS
 10
3.4776512005
 20
1.625931514
 11
3.4779213392
 21
1.6256987077
  0
LINE
  5
2A0
100
AcDbEntity
  8
0
100
AcDbLine
 62
7
  6
CONTINUOUS
 10
2.7293109258
 20
1.8162498695
 11
2.7686145313
 21
1.776946264
  0
LINE
  5
2A1
100
AcDbEntity
  8
0
100
AcDbLine
 62
9
  6
CONTINUOUS
 10
3.5272869837
 20
1.0943600837
 11
3.5130176563
 21
1.1094227827
  0
LINE
  5
2A2
100
AcDbEntity
  8
0
100
AcDbLine
 62
7
  6
CONTINUOUS
 10
2.7940207813
 20
1.6728007248
 11
2.7942205785
 21
1.6725753019
  0
LINE
  5
2A3
100
AcDbEntity
  8
0
100
AcDbLine
 62
7
  6
CONTINUOUS
 10
2.7940207813
 20
1.7066784288
 11
2.7942122013
 21
1.7064577889
  0
LINE
  5
2A4
100
AcDbEntity
  8
0
100
AcDbLine
 62
7
  6
CONTINUOUS
 10
2.8148808427
 20
1.7622786491
 11
2.814674624
 21
1.7625165354
  0
LINE
  5
2A5
100
AcDbEntity
  8
0
100
AcDbLine
 62
7
  6
CONTINUOUS
 10
2.814911336
 20
1.7284029687
 11
2.8147018355
 21
1.7286447909
  0
LINE
  5
2A6
100
AcDbEntity
  8
0
100
AcDbLine
 62
7
  6
CONTINUOUS
 10
2.8146914889
 20
1.660873328
 11
2.8149007361
 21
1.6606312359
  0
LINE
  5
2A7
100
AcDbEntity
  8
0
100
AcDbLine
 62
7
  6
CONTINUOUS
 10
2.8146746089
 20
1.6947527805
 11
2.8148805123
 21
1.6945139983
  0
LINE
  5
2A8
100
AcDbEntity
  8
0
100
AcDbLine
 62
7
  6
CONTINUOUS
 10
2.6022241376
 20
0.9902958162
 11
2.6165188378
 21
0.9655525693
  0
LINE
  5
2A9
100
AcDbEntity
  8
0
100
AcDbLine
 62
7
  6
CONTINUOUS
 10
2.3895440669
 20
0.8965799551
 11
2.3226840313
 21
1.039961764
  0
LINE
  5
2AA
100
AcDbEntity
  8
0
100
AcDbLine
 62
7
  6
CONTINUOUS
 10
3.2767395313
 20
2.117593264
 11
3.3160431369
 21
2.0782896584
  0
LINE
  5
2AB
100
AcDbEntity
  8
0
100
AcDbLine
 62
7
  6
CONTINUOUS
 10
3.2513332813
 20
1.6616590366
 11
3.2511334622
 21
1.6618844734
  0
LINE
  5
2AC
100
AcDbEntity
  8
0
100
AcDbLine
 62
7
  6
CONTINUOUS
 10
3.2513332813
 20
1.6277813329
 11
3.2511385589
 21
1.6280038695
  0
LINE
  5
2AD
100
AcDbEntity
  8
0
100
AcDbLine
 62
7
  6
CONTINUOUS
 10
3.2513332813
 20
1.6955367437
 11
3.2511388192
 21
1.6957591407
  0
LINE
  5
2AE
100
AcDbEntity
  8
0
100
AcDbLine
 62
7
  6
CONTINUOUS
 10
3.2306830329
 20
1.7752139279
 11
3.2304783904
 21
1.7754499455
  0
LINE
  5
2AF
100
AcDbEntity
  8
0
100
AcDbLine
 62
7
  6
CONTINUOUS
 10
3.2304386076
 20
1.7077035407
 11
3.2306499281
 21
1.7074592395
  0
LINE
  5
2B0
100
AcDbEntity
  8
0
100
AcDbLine
 62
7
  6
CONTINUOUS
 10
3.2304483243
 20
1.6738286149
 11
3.2306582247
 21
1.6735858054
  0
LINE
  5
2B1
100
AcDbEntity
  8
0
100
AcDbLine
 62
7
  6
CONTINUOUS
 10
3.230668709
 20
1.7413456589
 11
3.2304635997
 21
1.7415831588
  0
LINE
  5
2B2
100
AcDbEntity
  8
0
100
AcDbLine
 62
7
  6
CONTINUOUS
 10
2.6179408032
 20
1.6009869992
 11
2.6036409118
 21
1.6257378018
  0
LINE
  5
2B3
100
AcDbEntity
  8
0
100
AcDbLine
 62
7
  6
CONTINUOUS
 10
2.3920405205
 20
0.8912262931
 11
2.3897422309
 21
0.8966723604
  0
LWPOLYLINE
  5
2B4
100
AcDbEntity
  8
0
100
AcDbPolyline
 62
7
  6
CONTINUOUS
 90
12
 70
0
 10
2.072618333
 20
0.5270810714
 10
2.073629368
 20
0.522940632
 10
2.0751323117
 20
0.5190560309
 10
2.0770976097
 20
0.515430175
 10
2.0794777746
 20
0.5121166858
 10
2.0822767756
 20
0.5091057522
 10
2.0854341461
 20
0.506471363
 10
2.0888688541
 20
0.5042730269
 10
2.0925853271
 20
0.5025083774
 10
2.0964825371
 20
0.5012302767
 10
2.1004758538
 20
0.5004572311
 10
2.1035106602
 20
0.5002084081
  0
LINE
  5
2B5
100
AcDbEntity
  8
0
100
AcDbLine
 62
7
  6
CONTINUOUS
 10
3.4741093536
 20
0.9903462108
 11
3.4884080451
 21
0.965599842
  0
LINE
  5
2B6
100
AcDbEntity
  8
0
100
AcDbLine
 62
7
  6
CONTINUOUS
 10
3.5192999858
 20
0.9903874026
 11
3.5336116477
 21
0.9656219342
  0
LINE
  5
2B7
100
AcDbEntity
  8
0
100
AcDbLine
 62
7
  6
CONTINUOUS
 10
2.5543890313
 20
1.645240264
 11
2.5313159844
 21
1.6947205729
  0
LINE
  5
2B8
100
AcDbEntity
  8
0
100
AcDbLine
 62
7
  6
CONTINUOUS
 10
2.5311178204
 20
1.6946281675
 11
2.5288195308
 21
1.7000742348
  0
LINE
  5
2B9
100
AcDbEntity
  8
0
100
AcDbLine
 62
7
  6
CONTINUOUS
 10
2.5298454353
 20
1.6976349807
 11
2.5295316209
 21
1.6983823422
  0
LINE
  5
2BA
100
AcDbEntity
  8
0
100
AcDbLine
 62
7
  6
CONTINUOUS
 10
2.5288462215
 20
1.7000078699
 11
2.5288195308
 21
1.7000742348
  0
LINE
  5
2BB
100
AcDbEntity
  8
0
100
AcDbLine
 62
7
  6
CONTINUOUS
 10
2.0077047825
 20
1.4290710956
 11
2.0076651811
 21
1.4295158147
  0
LINE
  5
2BC
100
AcDbEntity
  8
0
100
AcDbLine
 62
7
  6
CONTINUOUS
 10
3.4470086086
 20
1.6009551223
 11
3.4357590376
 21
1.6204242662
  0
LINE
  5
2BD
100
AcDbEntity
  8
0
100
AcDbLine
 62
7
  6
CONTINUOUS
 10
3.4922127326
 20
1.6009498995
 11
3.4779124304
 21
1.6256987005
  0
LINE
  5
2BE
100
AcDbEntity
  8
0
100
AcDbLine
 62
7
  6
CONTINUOUS
 10
3.533277891
 20
1.6081222834
 11
3.5231196832
 21
1.6257038561
  0
LINE
  5
2BF
100
AcDbEntity
  8
0
100
AcDbLine
 62
7
  6
CONTINUOUS
 10
2.0076671822
 20
1.4294033569
 11
2.0076402967
 21
1.429795264
  0
LINE
  5
2C0
100
AcDbEntity
  8
0
100
AcDbLine
 62
7
  6
CONTINUOUS
 10
2.0076900289
 20
1.4290654514
 11
2.0076478015
 21
1.4296860164
  0
LINE
  5
2C1
100
AcDbEntity
  8
0
100
AcDbLine
 62
9
  6
CONTINUOUS
 10
1.9978724709
 20
1.4184463473
 11
1.9978724709
 21
1.1728541806
  0
LINE
  5
2C2
100
AcDbEntity
  8
0
100
AcDbLine
 62
7
  6
CONTINUOUS
 10
2.2454490313
 20
2.0960252039
 11
2.2454490313
 21
0.4952753241
  0
LINE
  5
2C3
100
AcDbEntity
  8
0
100
AcDbLine
 62
7
  6
CONTINUOUS
 10
2.2625220313
 20
1.1433939892
 11
2.2625220313
 21
1.1500346502
  0
LINE
  5
2C4
100
AcDbEntity
  8
0
100
AcDbLine
 62
7
  6
CONTINUOUS
 10
2.2625220313
 20
1.155117682
 11
2.2625220313
 21
1.1742387033
  0
LINE
  5
2C5
100
AcDbEntity
  8
0
100
AcDbLine
 62
7
  6
CONTINUOUS
 10
2.2625220313
 20
1.1837916783
 11
2.2625220313
 21
1.2130867824
  0
LINE
  5
2C6
100
AcDbEntity
  8
0
100
AcDbLine
 62
7
  6
CONTINUOUS
 10
2.2625220313
 20
1.2259574708
 11
2.2625220313
 21
1.2618932359
  0
LINE
  5
2C7
100
AcDbEntity
  8
0
100
AcDbLine
 62
7
  6
CONTINUOUS
 10
2.2625220313
 20
1.2765292427
 11
2.2625220313
 21
1.3147712852
  0
LINE
  5
2C8
100
AcDbEntity
  8
0
100
AcDbLine
 62
7
  6
CONTINUOUS
 10
2.2625220313
 20
1.329407292
 11
2.2625220313
 21
1.3653430572
  0
LINE
  5
2C9
100
AcDbEntity
  8
0
100
AcDbLine
 62
7
  6
CONTINUOUS
 10
2.2625220313
 20
1.3782137455
 11
2.2625220313
 21
1.4075088497
  0
LINE
  5
2CA
100
AcDbEntity
  8
0
100
AcDbLine
 62
7
  6
CONTINUOUS
 10
2.2625220313
 20
1.4170618247
 11
2.2625220313
 21
1.4361828459
  0
LINE
  5
2CB
100
AcDbEntity
  8
0
100
AcDbLine
 62
7
  6
CONTINUOUS
 10
2.2625220313
 20
1.4412658777
 11
2.2625220313
 21
1.4479065387
  0
LINE
  5
2CC
100
AcDbEntity
  8
0
100
AcDbLine
 62
7
  6
CONTINUOUS
 10
2.3023590313
 20
1.551338764
 11
2.3023590313
 21
1.039961764
  0
LINE
  5
2CD
100
AcDbEntity
  8
0
100
AcDbLine
 62
7
  6
CONTINUOUS
 10
2.3226840313
 20
1.039961764
 11
2.3226840313
 21
1.551338764
  0
LINE
  5
2CE
100
AcDbEntity
  8
0
100
AcDbLine
 62
7
  6
CONTINUOUS
 10
2.0078483729
 20
1.1644074102
 11
2.0080702092
 21
1.1680190364
  0
LINE
  5
2CF
100
AcDbEntity
  8
0
100
AcDbLine
 62
7
  6
CONTINUOUS
 10
2.0076477495
 20
1.1616144216
 11
2.0080702092
 21
1.1680190364
  0
LINE
  5
2D0
100
AcDbEntity
  8
0
100
AcDbLine
 62
7
  6
CONTINUOUS
 10
2.0076402327
 20
1.161505264
 11
2.0076669884
 21
1.1618948693
  0
LINE
  5
2D1
100
AcDbEntity
  8
0
100
AcDbLine
 62
7
  6
CONTINUOUS
 10
2.0076402327
 20
1.161505264
 11
2.0077050474
 21
1.1622312586
  0
LINE
  5
2D2
100
AcDbEntity
  8
0
100
AcDbLine
 62
7
  6
CONTINUOUS
 10
2.007688417
 20
1.1620370699
 11
2.0077067235
 21
1.1622391174
  0
LINE
  5
2D3
100
AcDbEntity
  8
0
100
AcDbLine
 62
7
  6
CONTINUOUS
 10
2.5874273181
 20
1.2855770301
 11
2.5868392793
 21
1.3133378097
  0
LINE
  5
2D4
100
AcDbEntity
  8
0
100
AcDbLine
 62
7
  6
CONTINUOUS
 10
2.5919204519
 20
1.3133414564
 11
2.5925085013
 21
1.2855801837
  0
LINE
  5
2D5
100
AcDbEntity
  8
0
100
AcDbLine
 62
7
  6
CONTINUOUS
 10
2.6274868283
 20
1.3134520647
 11
2.6280757375
 21
1.2856485701
  0
LINE
  5
2D6
100
AcDbEntity
  8
0
100
AcDbLine
 62
7
  6
CONTINUOUS
 10
2.6331570609
 20
1.2856451041
 11
2.632568148
 21
1.3134487809
  0
LINE
  5
2D7
100
AcDbEntity
  8
0
100
AcDbLine
 62
7
  6
CONTINUOUS
 10
2.6477248774
 20
1.2697405285
 11
2.6472144837
 21
1.295650264
  0
LINE
  5
2D8
100
AcDbEntity
  8
0
100
AcDbLine
 62
7
  6
CONTINUOUS
 10
2.5543890313
 20
1.645240264
 11
2.5543890313
 21
0.946060264
  0
LINE
  5
2D9
100
AcDbEntity
  8
0
100
AcDbLine
 62
7
  6
CONTINUOUS
 10
2.5747140313
 20
1.6452399456
 11
2.5747140313
 21
0.9460605824
  0
LINE
  5
2DA
100
AcDbEntity
  8
0
100
AcDbLine
 62
7
  6
CONTINUOUS
 10
2.6771520313
 20
1.625931514
 11
2.6771520313
 21
0.965369014
  0
LINE
  5
2DB
100
AcDbEntity
  8
0
100
AcDbLine
 62
7
  6
CONTINUOUS
 10
2.6791845313
 20
10.791490264
 11
2.6791845313
 21
10.893115264
  0
LINE
  5
2DC
100
AcDbEntity
  8
0
100
AcDbLine
 62
7
  6
CONTINUOUS
 10
2.7293109258
 20
1.8162498695
 11
2.7293109258
 21
2.0782896584
  0
LINE
  5
2DD
100
AcDbEntity
  8
0
100
AcDbLine
 62
7
  6
CONTINUOUS
 10
2.7584520313
 20
1.620850264
 11
2.7584520313
 21
0.970450264
  0
LINE
  5
2DE
100
AcDbEntity
  8
0
100
AcDbLine
 62
7
  6
CONTINUOUS
 10
2.7940207813
 20
1.776946264
 11
2.7940207813
 21
1.7744338475
  0
LINE
  5
2DF
100
AcDbEntity
  8
0
100
AcDbLine
 62
7
  6
CONTINUOUS
 10
2.7940207813
 20
1.7463533204
 11
2.7940207813
 21
1.7405561375
  0
LINE
  5
2E0
100
AcDbEntity
  8
0
100
AcDbLine
 62
7
  6
CONTINUOUS
 10
2.7940207813
 20
1.620850264
 11
2.7940207813
 21
1.6447072402
  0
LINE
  5
2E1
100
AcDbEntity
  8
0
100
AcDbLine
 62
7
  6
CONTINUOUS
 10
2.7940207813
 20
1.6728139194
 11
2.7940207813
 21
1.6785956406
  0
LINE
  5
2E2
100
AcDbEntity
  8
0
100
AcDbLine
 62
7
  6
CONTINUOUS
 10
2.7940207813
 20
1.7066808364
 11
2.7940207813
 21
1.7124553547
  0
LINE
  5
2E3
100
AcDbEntity
  8
0
100
AcDbLine
 62
7
  6
CONTINUOUS
 10
2.814674624
 20
1.7625165354
 11
2.814674624
 21
1.7582808054
  0
LINE
  5
2E4
100
AcDbEntity
  8
0
100
AcDbLine
 62
7
  6
CONTINUOUS
 10
2.8146746089
 20
1.6947527805
 11
2.8146746082
 21
1.6905166139
  0
LINE
  5
2E5
100
AcDbEntity
  8
0
100
AcDbLine
 62
7
  6
CONTINUOUS
 10
2.8146914889
 20
1.660873328
 11
2.8146914889
 21
1.656637598
  0
LINE
  5
2E6
100
AcDbEntity
  8
0
100
AcDbLine
 62
7
  6
CONTINUOUS
 10
2.8147018355
 20
1.7286447909
 11
2.8147018355
 21
1.7244090609
  0
LINE
  5
2E7
100
AcDbEntity
  8
0
100
AcDbLine
 62
7
  6
CONTINUOUS
 10
2.8194270313
 20
10.734580264
 11
2.8194270313
 21
10.628890264
  0
LINE
  5
2E8
100
AcDbEntity
  8
0
100
AcDbLine
 62
7
  6
CONTINUOUS
 10
2.8722720313
 20
10.559785264
 11
2.8722720313
 21
2.117593264
  0
LINE
  5
2E9
100
AcDbEntity
  8
0
100
AcDbLine
 62
7
  6
CONTINUOUS
 10
2.8759939786
 20
1.8162498695
 11
2.8759939786
 21
2.0782896584
  0
LINE
  5
2EA
100
AcDbEntity
  8
0
100
AcDbLine
 62
7
  6
CONTINUOUS
 10
2.9001988782
 20
1.714345264
 11
2.9001988782
 21
1.7121000338
  0
LINE
  5
2EB
100
AcDbEntity
  8
0
100
AcDbLine
 62
7
  6
CONTINUOUS
 10
2.9001988782
 20
1.6840195067
 11
2.9001988782
 21
1.6782223238
  0
LINE
  5
2EC
100
AcDbEntity
  8
0
100
AcDbLine
 62
7
  6
CONTINUOUS
 10
2.9001988782
 20
1.6501417967
 11
2.9001988782
 21
1.5624650145
  0
LINE
  5
2ED
100
AcDbEntity
  8
0
100
AcDbLine
 62
7
  6
CONTINUOUS
 10
2.9453224311
 20
1.7011709618
 11
2.9453224311
 21
1.6969352318
  0
LINE
  5
2EE
100
AcDbEntity
  8
0
100
AcDbLine
 62
7
  6
CONTINUOUS
 10
2.9453224311
 20
1.6672932518
 11
2.9453224311
 21
1.6630575218
  0
LINE
  5
2EF
100
AcDbEntity
  8
0
100
AcDbLine
 62
7
  6
CONTINUOUS
 10
3.1000316316
 20
1.6671665111
 11
3.1000316316
 21
1.6714022411
  0
LINE
  5
2F0
100
AcDbEntity
  8
0
100
AcDbLine
 62
7
  6
CONTINUOUS
 10
3.1000316316
 20
1.7010442211
 11
3.1000316316
 21
1.7052799511
  0
LINE
  5
2F1
100
AcDbEntity
  8
0
100
AcDbLine
 62
7
  6
CONTINUOUS
 10
3.1451551845
 20
1.5624650145
 11
3.1451551845
 21
1.6562374392
  0
LINE
  5
2F2
100
AcDbEntity
  8
0
100
AcDbLine
 62
7
  6
CONTINUOUS
 10
3.1451551845
 20
1.6843179662
 11
3.1451551845
 21
1.6901151492
  0
LINE
  5
2F3
100
AcDbEntity
  8
0
100
AcDbLine
 62
7
  6
CONTINUOUS
 10
3.1693600841
 20
1.8162498695
 11
3.1693600841
 21
2.0782896584
  0
LINE
  5
2F4
100
AcDbEntity
  8
0
100
AcDbLine
 62
7
  6
CONTINUOUS
 10
3.1730820313
 20
10.559785264
 11
3.1730820313
 21
2.117593264
  0
LINE
  5
2F5
100
AcDbEntity
  8
0
100
AcDbLine
 62
7
  6
CONTINUOUS
 10
3.2259270313
 20
10.734580264
 11
3.2259270313
 21
10.628890264
  0
LINE
  5
2F6
100
AcDbEntity
  8
0
100
AcDbLine
 62
7
  6
CONTINUOUS
 10
3.2306499281
 20
1.7074592395
 11
3.2306499281
 21
1.7116949695
  0
LINE
  5
2F7
100
AcDbEntity
  8
0
100
AcDbLine
 62
7
  6
CONTINUOUS
 10
3.2306582247
 20
1.6735858054
 11
3.2306582246
 21
1.6778213267
  0
LINE
  5
2F8
100
AcDbEntity
  8
0
100
AcDbLine
 62
7
  6
CONTINUOUS
 10
3.230668709
 20
1.7413456589
 11
3.230668709
 21
1.7455813889
  0
LINE
  5
2F9
100
AcDbEntity
  8
0
100
AcDbLine
 62
7
  6
CONTINUOUS
 10
3.2306830329
 20
1.7752139279
 11
3.2306830329
 21
1.776946264
  0
LINE
  5
2FA
100
AcDbEntity
  8
0
100
AcDbLine
 62
7
  6
CONTINUOUS
 10
3.2496923895
 20
1.6552155275
 11
3.2496923895
 21
1.6271350004
  0
LINE
  5
2FB
100
AcDbEntity
  8
0
100
AcDbLine
 62
7
  6
CONTINUOUS
 10
3.2513332813
 20
1.620850264
 11
3.2513332813
 21
1.6277767519
  0
LINE
  5
2FC
100
AcDbEntity
  8
0
100
AcDbLine
 62
7
  6
CONTINUOUS
 10
3.2513332813
 20
1.6558661692
 11
3.2513332813
 21
1.661643109
  0
LINE
  5
2FD
100
AcDbEntity
  8
0
100
AcDbLine
 62
7
  6
CONTINUOUS
 10
3.2513332813
 20
1.6897552817
 11
3.2513332813
 21
1.6955157086
  0
LINE
  5
2FE
100
AcDbEntity
  8
0
100
AcDbLine
 62
7
  6
CONTINUOUS
 10
3.2513332813
 20
1.7236172825
 11
3.2513332813
 21
1.7294144654
  0
LINE
  5
2FF
100
AcDbEntity
  8
0
100
AcDbLine
 62
7
  6
CONTINUOUS
 10
3.2513332813
 20
1.7574949925
 11
3.2513332813
 21
1.7632921754
  0
LINE
  5
300
100
AcDbEntity
  8
0
100
AcDbLine
 62
7
  6
CONTINUOUS
 10
3.2869020313
 20
0.970450264
 11
3.2869020313
 21
1.620850264
  0
LINE
  5
301
100
AcDbEntity
  8
0
100
AcDbLine
 62
7
  6
CONTINUOUS
 10
3.3160431369
 20
1.8162498695
 11
3.3160431369
 21
2.0782896584
  0
LINE
  5
302
100
AcDbEntity
  8
0
100
AcDbLine
 62
7
  6
CONTINUOUS
 10
3.3661695313
 20
10.893115264
 11
3.3661695313
 21
10.791490264
  0
LINE
  5
303
100
AcDbEntity
  8
0
100
AcDbLine
 62
7
  6
CONTINUOUS
 10
3.4291770313
 20
1.6259027719
 11
3.4291770313
 21
0.9654065097
  0
LINE
  5
304
100
AcDbEntity
  8
0
100
AcDbLine
 62
7
  6
CONTINUOUS
 10
3.5348670313
 20
0.8849377162
 11
3.5348670313
 21
1.7063628117
  0
LINE
  5
305
100
AcDbEntity
  8
0
100
AcDbLine
 62
7
  6
CONTINUOUS
 10
3.9921795313
 20
0.8849377162
 11
3.9921795313
 21
1.7063628117
  0
LINE
  5
306
100
AcDbEntity
  8
0
100
AcDbLine
 62
7
  6
CONTINUOUS
 10
2.3897422309
 20
1.6946281675
 11
2.3920405205
 21
1.7000742348
  0
LINE
  5
307
100
AcDbEntity
  8
0
100
AcDbLine
 62
7
  6
CONTINUOUS
 10
2.3226840313
 20
1.551338764
 11
2.3895440669
 21
1.6947205729
  0
LINE
  5
308
100
AcDbEntity
  8
0
100
AcDbLine
 62
7
  6
CONTINUOUS
 10
4.5665640313
 20
1.6711670314
 11
4.5665640313
 21
0.9201334966
  0
LINE
  5
309
100
AcDbEntity
  8
0
100
AcDbLine
 62
9
  6
CONTINUOUS
 10
4.583501909
 20
1.7273429331
 11
4.583501909
 21
0.8639575949
  0
LINE
  5
30A
100
AcDbEntity
  8
0
100
AcDbLine
 62
7
  6
CONTINUOUS
 10
2.5288195308
 20
0.8912262931
 11
2.5288463451
 21
0.8912927869
  0
LINE
  5
30B
100
AcDbEntity
  8
0
100
AcDbLine
 62
7
  6
CONTINUOUS
 10
2.5288463451
 20
0.8912927869
 11
2.5311178204
 21
0.8966723604
  0
LINE
  5
30C
100
AcDbEntity
  8
0
100
AcDbLine
 62
7
  6
CONTINUOUS
 10
2.5313159844
 20
0.8965799551
 11
2.5543890313
 21
0.946060264
  0
LINE
  5
30D
100
AcDbEntity
  8
0
100
AcDbLine
 62
9
  6
CONTINUOUS
 10
4.8441955475
 20
0.3464136916
 11
4.8441955475
 21
2.2448868363
  0
LINE
  5
30E
100
AcDbEntity
  8
0
100
AcDbLine
 62
9
  6
CONTINUOUS
 10
4.9397449048
 20
2.311900264
 11
4.9397449048
 21
0.279400264
  0
LINE
  5
30F
100
AcDbEntity
  8
0
100
AcDbLine
 62
7
  6
CONTINUOUS
 10
2.5962010371
 20
1.6257493877
 11
2.58268153
 21
1.6023485753
  0
LINE
  5
310
100
AcDbEntity
  8
0
100
AcDbLine
 62
7
  6
CONTINUOUS
 10
2.6368459376
 20
1.625740175
 11
2.6225445744
 21
1.6009868365
  0
LINE
  5
311
100
AcDbEntity
  8
0
100
AcDbLine
 62
7
  6
CONTINUOUS
 10
2.5833276668
 20
0.9655627906
 11
2.596051443
 21
0.9875870744
  0
LINE
  5
312
100
AcDbEntity
  8
0
100
AcDbLine
 62
7
  6
CONTINUOUS
 10
5.0299740313
 20
2.311900264
 11
5.0299740313
 21
0.279400264
  0
LWPOLYLINE
  5
313
100
AcDbEntity
  8
0
100
AcDbPolyline
 62
7
  6
CONTINUOUS
 90
7
 70
0
 10
2.0854341296
 20
2.084829153
 10
2.082276761
 20
2.0821947621
 10
2.0794777625
 20
2.0791838274
 10
2.0770976004
 20
2.0758703382
 10
2.0751323055
 20
2.0722444838
 10
2.0736293648
 20
2.068359886
 10
2.072618333
 20
2.0642194566
  0
LINE
  5
314
100
AcDbEntity
  8
0
100
AcDbLine
 62
7
  6
CONTINUOUS
 10
3.4657961322
 20
1.6256925755
 11
3.451503525
 21
1.600956568
  0
LINE
  5
315
100
AcDbEntity
  8
0
100
AcDbLine
 62
7
  6
CONTINUOUS
 10
3.5110012741
 20
1.6256915742
 11
3.4967056528
 21
1.6009508091
  0
LINE
  5
316
100
AcDbEntity
  8
0
100
AcDbLine
 62
9
  6
CONTINUOUS
 10
2.579042079
 20
1.0284610185
 11
2.5933114063
 21
1.0484549953
  0
LINE
  5
317
100
AcDbEntity
  8
0
100
AcDbLine
 62
7
  6
CONTINUOUS
 10
2.619692079
 20
1.0284471198
 11
2.6339614063
 21
1.0484421366
  0
LINE
  5
318
100
AcDbEntity
  8
0
100
AcDbLine
 62
7
  6
CONTINUOUS
 10
3.2513332813
 20
1.7574949925
 11
3.2511614737
 21
1.7572859637
  0
LINE
  5
319
100
AcDbEntity
  8
0
100
AcDbLine
 62
7
  6
CONTINUOUS
 10
2.7940207813
 20
1.6785978992
 11
2.7942023303
 21
1.6788127741
  0
LINE
  5
31A
100
AcDbEntity
  8
0
100
AcDbLine
 62
7
  6
CONTINUOUS
 10
2.7940207813
 20
1.6447201832
 11
2.7942046113
 21
1.64493641
  0
LINE
  5
31B
100
AcDbEntity
  8
0
100
AcDbLine
 62
7
  6
CONTINUOUS
 10
2.7940207813
 20
1.7463533204
 11
2.7942095867
 21
1.7465724468
  0
LINE
  5
31C
100
AcDbEntity
  8
0
100
AcDbLine
 62
7
  6
CONTINUOUS
 10
2.8147018355
 20
1.7244090609
 11
2.814908821
 21
1.7246487
  0
LINE
  5
31D
100
AcDbEntity
  8
0
100
AcDbLine
 62
7
  6
CONTINUOUS
 10
2.814674624
 20
1.7582808054
 11
2.8148778892
 21
1.7585160621
  0
LINE
  5
31E
100
AcDbEntity
  8
0
100
AcDbLine
 62
7
  6
CONTINUOUS
 10
2.8149021696
 20
1.6568809325
 11
2.8146914889
 21
1.656637598
  0
LINE
  5
31F
100
AcDbEntity
  8
0
100
AcDbLine
 62
7
  6
CONTINUOUS
 10
2.8148829441
 20
1.690757068
 11
2.8146746082
 21
1.6905166139
  0
LINE
  5
320
100
AcDbEntity
  8
0
100
AcDbLine
 62
7
  6
CONTINUOUS
 10
2.7940207814
 20
1.7124755992
 11
2.7942277585
 21
1.7127050412
  0
LINE
  5
321
100
AcDbEntity
  8
0
100
AcDbLine
 62
7
  6
CONTINUOUS
 10
2.7686145313
 20
2.117593264
 11
2.7293109258
 21
2.0782896584
  0
LINE
  5
322
100
AcDbEntity
  8
0
100
AcDbLine
 62
7
  6
CONTINUOUS
 10
2.0888688361
 20
2.0870274911
 11
2.0854341296
 21
2.084829153
  0
LINE
  5
323
100
AcDbEntity
  8
0
100
AcDbLine
 62
7
  6
CONTINUOUS
 10
3.4553217874
 20
0.9656082508
 11
3.4689101488
 21
0.9891254351
  0
LINE
  5
324
100
AcDbEntity
  8
0
100
AcDbLine
 62
7
  6
CONTINUOUS
 10
3.5004769799
 20
0.9655905482
 11
3.5148078576
 21
0.9903891445
  0
LINE
  5
325
100
AcDbEntity
  8
0
100
AcDbLine
 62
7
  6
CONTINUOUS
 10
3.2513332813
 20
1.6897395812
 11
3.2511476015
 21
1.6895222677
  0
LINE
  5
326
100
AcDbEntity
  8
0
100
AcDbLine
 62
7
  6
CONTINUOUS
 10
3.2306499281
 20
1.7116949695
 11
3.2304385923
 21
1.7114506538
  0
LINE
  5
327
100
AcDbEntity
  8
0
100
AcDbLine
 62
7
  6
CONTINUOUS
 10
3.2306582246
 20
1.6778213267
 11
3.2304471875
 21
1.6775777384
  0
LINE
  5
328
100
AcDbEntity
  8
0
100
AcDbLine
 62
7
  6
CONTINUOUS
 10
3.2304607229
 20
1.7453413922
 11
3.230668709
 21
1.7455813889
  0
LINE
  5
329
100
AcDbEntity
  8
0
100
AcDbLine
 62
7
  6
CONTINUOUS
 10
3.2513332813
 20
1.7236172825
 11
3.2511391025
 21
1.7233950593
  0
LINE
  5
32A
100
AcDbEntity
  8
0
100
AcDbLine
 62
7
  6
CONTINUOUS
 10
3.3160431369
 20
1.8162498695
 11
3.2767395313
 21
1.776946264
  0
LINE
  5
32B
100
AcDbEntity
  8
0
100
AcDbLine
 62
7
  6
CONTINUOUS
 10
2.6370519892
 20
1.625931514
 11
2.6368317592
 21
1.6257401844
  0
LINE
  5
32C
100
AcDbEntity
  8
0
100
AcDbLine
 62
7
  6
CONTINUOUS
 10
2.5964019873
 20
1.625931514
 11
2.5961871269
 21
1.6257493967
  0
LINE
  5
32D
100
AcDbEntity
  8
0
100
AcDbLine
 62
7
  6
CONTINUOUS
 10
2.0925853089
 20
2.0887921434
 11
2.0888688361
 21
2.0870274911
  0
LINE
  5
32E
100
AcDbEntity
  8
0
100
AcDbLine
 62
7
  6
CONTINUOUS
 10
2.8194270313
 20
10.628890264
 11
2.8722720313
 21
10.559785264
  0
LINE
  5
32F
100
AcDbEntity
  8
0
100
AcDbLine
 62
7
  6
CONTINUOUS
 10
2.8148778892
 20
1.7585160621
 11
2.7942095867
 21
1.7465723842
  0
LINE
  5
330
100
AcDbEntity
  8
0
100
AcDbLine
 62
7
  6
CONTINUOUS
 10
2.0964825197
 20
2.0900702468
 11
2.0925853089
 21
2.0887921434
  0
LINE
  5
331
100
AcDbEntity
  8
0
100
AcDbLine
 62
9
  6
CONTINUOUS
 10
3.5079364063
 20
1.1094227827
 11
3.493667079
 21
1.0943600837
  0
LINE
  5
332
100
AcDbEntity
  8
0
100
AcDbLine
 62
7
  6
CONTINUOUS
 10
2.814908821
 20
1.7246487
 11
2.7942277677
 21
1.7126958912
  0
LINE
  5
333
100
AcDbEntity
  8
0
100
AcDbLine
 62
7
  6
CONTINUOUS
 10
2.8148829441
 20
1.690757068
 11
2.7942023366
 21
1.6788060179
  0
LINE
  5
334
100
AcDbEntity
  8
0
100
AcDbLine
 62
7
  6
CONTINUOUS
 10
2.8149021696
 20
1.6568809325
 11
2.7942046278
 21
1.6449190015
  0
LINE
  5
335
100
AcDbEntity
  8
0
100
AcDbLine
 62
7
  6
CONTINUOUS
 10
3.2304607229
 20
1.7453413922
 11
3.24250332
 21
1.752301248
  0
LINE
  5
336
100
AcDbEntity
  8
0
100
AcDbLine
 62
7
  6
CONTINUOUS
 10
3.2304385923
 20
1.7114506538
 11
3.2424802502
 21
1.7184107032
  0
LINE
  5
337
100
AcDbEntity
  8
0
100
AcDbLine
 62
7
  6
CONTINUOUS
 10
3.2304471875
 20
1.6775777384
 11
3.2424893867
 21
1.6845378128
  0
LINE
  5
338
100
AcDbEntity
  8
0
100
AcDbLine
 62
7
  6
CONTINUOUS
 10
3.5002525894
 20
0.965369014
 11
3.500516099
 21
0.965590517
  0
LINE
  5
339
100
AcDbEntity
  8
0
100
AcDbLine
 62
7
  6
CONTINUOUS
 10
2.7295407582
 20
10.734810025
 11
2.7259320313
 21
10.734580264
  0
LINE
  5
33A
100
AcDbEntity
  8
0
100
AcDbLine
 62
7
  6
CONTINUOUS
 10
3.1730820313
 20
10.559785264
 11
2.8722720313
 21
10.559785264
  0
LINE
  5
33B
100
AcDbEntity
  8
0
100
AcDbLine
 62
7
  6
CONTINUOUS
 10
2.8194270313
 20
10.628890264
 11
3.2259270313
 21
10.628890264
  0
LINE
  5
33C
100
AcDbEntity
  8
0
100
AcDbLine
 62
7
  6
CONTINUOUS
 10
2.7259320313
 20
10.734580264
 11
2.7295407582
 21
10.734810025
  0
LINE
  5
33D
100
AcDbEntity
  8
0
100
AcDbLine
 62
7
  6
CONTINUOUS
 10
3.3158133045
 20
10.734810025
 11
3.3194220313
 21
10.734580264
  0
LINE
  5
33E
100
AcDbEntity
  8
0
100
AcDbLine
 62
9
  6
CONTINUOUS
 10
3.3158133045
 20
10.734810025
 11
2.7295407582
 21
10.734810025
  0
LINE
  5
33F
100
AcDbEntity
  8
0
100
AcDbLine
 62
7
  6
CONTINUOUS
 10
3.3661695313
 20
10.791490264
 11
2.6791845313
 21
10.791490264
  0
LINE
  5
340
100
AcDbEntity
  8
0
100
AcDbLine
 62
7
  6
CONTINUOUS
 10
3.3661695313
 20
10.893115264
 11
2.6791845313
 21
10.893115264
  0
LINE
  5
341
100
AcDbEntity
  8
0
100
AcDbLine
 62
7
  6
CONTINUOUS
 10
3.3158133045
 20
10.734810025
 11
3.3194220313
 21
10.734580264
  0
ARC
  5
342
100
AcDbEntity
  8
0
100
AcDbCircle
 62
7
  6
CONTINUOUS
 10
-27.3794416445
 20
0.6856179154
 40
30.8743517338
100
AcDbArc
 50
1.239278195
 51
1.4832528134
  0
ARC
  5
343
100
AcDbEntity
  8
0
100
AcDbCircle
 62
7
  6
CONTINUOUS
 10
-26.8937592288
 20
0.6974344491
 40
30.3769471901
100
AcDbArc
 50
1.2372807218
 51
1.4852502865
  0
ARC
  5
344
100
AcDbEntity
  8
0
100
AcDbCircle
 62
7
  6
CONTINUOUS
 10
-26.8012374164
 20
0.6985588925
 40
30.3296149305
100
AcDbArc
 50
1.2370872314
 51
1.4854437769
  0
ARC
  5
345
100
AcDbEntity
  8
0
100
AcDbCircle
 62
7
  6
CONTINUOUS
 10
3.5259088905
 20
-21.338643194
 40
23.0650370713
100
AcDbArc
 50
91.3571171808
 51
91.5061118474
  0
ARC
  5
346
100
AcDbEntity
  8
0
100
AcDbCircle
 62
7
  6
CONTINUOUS
 10
-7.6716645353
 20
1.2456984601
 40
10.2770586743
100
AcDbArc
 50
1.4622955861
 51
1.580782283
  0
ARC
  5
347
100
AcDbEntity
  8
0
100
AcDbCircle
 62
7
  6
CONTINUOUS
 10
-7.6307528352
 20
1.2456343493
 40
10.2767988426
100
AcDbArc
 50
1.4626901356
 51
1.581179831
  0
ARC
  5
348
100
AcDbEntity
  8
0
100
AcDbCircle
 62
7
  6
CONTINUOUS
 10
-7.102186801
 20
1.2604530376
 40
9.714418095
100
AcDbArc
 50
1.4598330097
 51
1.5851913871
  0
ARC
  5
349
100
AcDbEntity
  8
0
100
AcDbCircle
 62
7
  6
CONTINUOUS
 10
-6.323873072
 20
1.2460736277
 40
8.9099662549
100
AcDbArc
 50
1.5753942834
 51
1.7072643795
  0
ARC
  5
34A
100
AcDbEntity
  8
0
100
AcDbCircle
 62
7
  6
CONTINUOUS
 10
-6.2049874677
 20
1.2481366353
 40
8.8367829054
100
AcDbArc
 50
1.5779726292
 51
1.7111229532
  0
ARC
  5
34B
100
AcDbEntity
  8
0
100
AcDbCircle
 62
7
  6
CONTINUOUS
 10
-5.8222155224
 20
1.2603028988
 40
8.4131864769
100
AcDbArc
 50
1.5715383265
 51
1.7111944585
  0
ARC
  5
34C
100
AcDbEntity
  8
0
100
AcDbCircle
 62
7
  6
CONTINUOUS
 10
-5.7181126953
 20
1.2622610641
 40
8.344624515
100
AcDbArc
 50
1.574058424
 51
1.7150606015
  0
ARC
  5
34D
100
AcDbEntity
  8
0
100
AcDbCircle
 62
7
  6
CONTINUOUS
 10
-2.7244144942
 20
1.3363642116
 40
6.255889156
100
AcDbArc
 50
1.5708537972
 51
2.1088397176
  0
ARC
  5
34E
100
AcDbEntity
  8
0
100
AcDbCircle
 62
7
  6
CONTINUOUS
 10
-3.4133920851
 20
1.3328825495
 40
5.998190732
100
AcDbArc
 50
1.7373659902
 51
1.8856051228
  0
ARC
  5
34F
100
AcDbEntity
  8
0
100
AcDbCircle
 62
7
  6
CONTINUOUS
 10
-3.2429451399
 20
1.3379969344
 40
5.8327463048
100
AcDbArc
 50
1.704923301
 51
1.8888952544
  0
ARC
  5
350
100
AcDbEntity
  8
0
100
AcDbCircle
 62
7
  6
CONTINUOUS
 10
-3.157359638
 20
1.3395769192
 40
5.7827046547
100
AcDbArc
 50
1.7087146309
 51
1.8944511871
  0
ARC
  5
351
100
AcDbEntity
  8
0
100
AcDbCircle
 62
7
  6
CONTINUOUS
 10
-3.0541965868
 20
1.3425901499
 40
5.6845762941
100
AcDbArc
 50
1.7367806022
 51
1.9489869465
  0
ARC
  5
352
100
AcDbEntity
  8
0
100
AcDbCircle
 62
7
  6
CONTINUOUS
 10
-0.0151227799
 20
1.293291987
 40
2.0273665533
100
AcDbArc
 50
2.8854638165
 51
3.1357630288
  0
ARC
  5
353
100
AcDbEntity
  8
0
100
AcDbCircle
 62
7
  6
CONTINUOUS
 10
-0.0089712355
 20
1.2935993605
 40
2.0212073639
100
AcDbArc
 50
2.8866483512
 51
3.1379456763
  0
ARC
  5
354
100
AcDbEntity
  8
0
100
AcDbCircle
 62
7
  6
CONTINUOUS
 10
0.0041181237
 20
1.2942955629
 40
2.0080995617
100
AcDbArc
 50
3.1372023154
 51
3.8479413904
  0
ARC
  5
355
100
AcDbEntity
  8
0
100
AcDbCircle
 62
7
  6
CONTINUOUS
 10
0.0131699111
 20
1.2948404937
 40
1.9990314754
100
AcDbArc
 50
3.1371642555
 51
3.8500214504
  0
ARC
  5
356
100
AcDbEntity
  8
0
100
AcDbCircle
 62
7
  6
CONTINUOUS
 10
0.0360387507
 20
1.2956502002
 40
1.9761511882
100
AcDbArc
 50
357.1085793318
 51
2.8918489523
  0
ARC
  5
357
100
AcDbEntity
  8
0
100
AcDbCircle
 62
7
  6
CONTINUOUS
 10
2.551010972
 20
-0.4842640453
 40
2.439
100
AcDbArc
 50
19.9122926115
 51
33.5576949178
  0
ARC
  5
358
100
AcDbEntity
  8
0
100
AcDbCircle
 62
7
  6
CONTINUOUS
 10
2.2155863441
 20
0.944576711
 40
0.3427994443
100
AcDbArc
 50
22.6501517443
 51
23.0073033627
  0
ARC
  5
359
100
AcDbEntity
  8
0
100
AcDbCircle
 62
7
  6
CONTINUOUS
 10
2.2236106854
 20
0.9479208696
 40
0.334106146
100
AcDbArc
 50
22.1270229153
 51
22.6508316651
  0
ARC
  5
35A
100
AcDbEntity
  8
0
100
AcDbCircle
 62
7
  6
CONTINUOUS
 10
2.2420941028
 20
0.9553577055
 40
0.3141828531
100
AcDbArc
 50
20.6494935164
 51
22.1403109638
  0
ARC
  5
35B
100
AcDbEntity
  8
0
100
AcDbCircle
 62
7
  6
CONTINUOUS
 10
2.326703423
 20
1.295645511
 40
0.3438078659
100
AcDbArc
 50
180.7108246345
 51
182.1336199937
  0
ARC
  5
35C
100
AcDbEntity
  8
0
100
AcDbCircle
 62
7
  6
CONTINUOUS
 10
2.3266955304
 20
1.295645315
 40
0.3437999714
100
AcDbArc
 50
180.4739768011
 51
180.7108246345
  0
ARC
  5
35D
100
AcDbEntity
  8
0
100
AcDbCircle
 62
7
  6
CONTINUOUS
 10
2.2293992867
 20
1.0248644997
 40
0.3278220525
100
AcDbArc
 50
336.9806586092
 51
339.3162975858
  0
ARC
  5
35E
100
AcDbEntity
  8
0
100
AcDbCircle
 62
7
  6
CONTINUOUS
 10
2.2658357498
 20
1.0109706893
 40
0.2888267318
100
AcDbArc
 50
339.3418087065
 51
341.9295408956
  0
ARC
  5
35F
100
AcDbEntity
  8
0
100
AcDbCircle
 62
7
  6
CONTINUOUS
 10
2.3589949696
 20
0.987620559
 40
0.1925467686
100
AcDbArc
 50
354.6568771152
 51
1.7733937139
  0
ARC
  5
360
100
AcDbEntity
  8
0
100
AcDbCircle
 62
7
  6
CONTINUOUS
 10
2.1623540259
 20
1.2825286976
 40
0.1924551015
100
AcDbArc
 50
188.3012068002
 51
189.6096171299
  0
ARC
  5
361
100
AcDbEntity
  8
0
100
AcDbCircle
 62
7
  6
CONTINUOUS
 10
2.0064270313
 20
1.177196164
 40
0.0095934
100
AcDbArc
 50
206.9106905226
 51
275.9164079043
  0
ARC
  5
362
100
AcDbEntity
  8
0
100
AcDbCircle
 62
7
  6
CONTINUOUS
 10
2.8716423883
 20
0.6699076204
 40
1.012603428
100
AcDbArc
 50
92.6391495955
 51
93.21058548
  0
ARC
  5
363
100
AcDbEntity
  8
0
100
AcDbCircle
 62
7
  6
CONTINUOUS
 10
2.6849174541
 20
1.0222405145
 40
0.3207737111
100
AcDbArc
 50
200.6575737747
 51
203.0450021666
  0
ARC
  5
364
100
AcDbEntity
  8
0
100
AcDbCircle
 62
7
  6
CONTINUOUS
 10
-0.0197158802
 20
1.2982508248
 40
2.0319660348
100
AcDbArc
 50
356.8648618414
 51
357.1146456526
  0
ARC
  5
365
100
AcDbEntity
  8
0
100
AcDbCircle
 62
7
  6
CONTINUOUS
 10
-0.0130224749
 20
1.2979144075
 40
2.0252642006
100
AcDbArc
 50
356.8629150935
 51
357.1137881749
  0
ARC
  5
366
100
AcDbEntity
  8
0
100
AcDbCircle
 62
7
  6
CONTINUOUS
 10
-0.0063948234
 20
1.2977822672
 40
2.0186401026
100
AcDbArc
 50
356.3143427845
 51
356.6385678871
  0
ARC
  5
367
100
AcDbEntity
  8
0
100
AcDbCircle
 62
7
  6
CONTINUOUS
 10
0.0096014426
 20
1.2967501694
 40
2.0026110663
100
AcDbArc
 50
356.3157084037
 51
356.6426402764
  0
ARC
  5
368
100
AcDbEntity
  8
0
100
AcDbCircle
 62
7
  6
CONTINUOUS
 10
0.0145144212
 20
1.2963289644
 40
1.997681857
100
AcDbArc
 50
356.6464480151
 51
356.8662066522
  0
ARC
  5
369
100
AcDbEntity
  8
0
100
AcDbCircle
 62
7
  6
CONTINUOUS
 10
0.0215284059
 20
1.2959772049
 40
1.9906590826
100
AcDbArc
 50
356.6433081834
 51
356.8641670945
  0
ARC
  5
36A
100
AcDbEntity
  8
0
100
AcDbCircle
 62
7
  6
CONTINUOUS
 10
0.0360169708
 20
1.2956502999
 40
1.9761729685
100
AcDbArc
 50
357.1077567602
 51
2.8929479692
  0
ARC
  5
36B
100
AcDbEntity
  8
0
100
AcDbCircle
 62
7
  6
CONTINUOUS
 10
1.637266989
 20
1.5508961781
 40
0.9699904582
100
AcDbArc
 50
2.6047378114
 51
3.2569579419
  0
ARC
  5
36C
100
AcDbEntity
  8
0
100
AcDbCircle
 62
7
  6
CONTINUOUS
 10
2.1623571136
 20
1.3087712823
 40
0.1924582374
100
AcDbArc
 50
170.3903754701
 51
171.698749821
  0
ARC
  5
36D
100
AcDbEntity
  8
0
100
AcDbCircle
 62
7
  6
CONTINUOUS
 10
2.0064270313
 20
1.414104364
 40
0.0095934
100
AcDbArc
 50
83.2246367073
 51
153.0893094774
  0
ARC
  5
36E
100
AcDbEntity
  8
0
100
AcDbCircle
 62
7
  6
CONTINUOUS
 10
2.3268219362
 20
1.2956526687
 40
0.3439263991
100
AcDbArc
 50
178.3408312155
 51
180.7110034731
  0
ARC
  5
36F
100
AcDbEntity
  8
0
100
AcDbCircle
 62
7
  6
CONTINUOUS
 10
2.3264402656
 20
1.2956635239
 40
0.3435445743
100
AcDbArc
 50
177.8661638169
 51
178.3407978298
  0
ARC
  5
370
100
AcDbEntity
  8
0
100
AcDbCircle
 62
7
  6
CONTINUOUS
 10
2.2398048843
 20
1.295650264
 40
0.2710096107
100
AcDbArc
 50
189.6113601359
 51
206.9106905226
  0
ARC
  5
371
100
AcDbEntity
  8
0
100
AcDbCircle
 62
7
  6
CONTINUOUS
 10
2.2398048843
 20
1.295650264
 40
0.2710096107
100
AcDbArc
 50
153.0893094774
 51
170.3886398641
  0
ARC
  5
372
100
AcDbEntity
  8
0
100
AcDbCircle
 62
7
  6
CONTINUOUS
 10
2.2293992867
 20
1.6409333213
 40
0.3278220525
100
AcDbArc
 50
336.9806586092
 51
339.3162975859
  0
ARC
  5
373
100
AcDbEntity
  8
0
100
AcDbCircle
 62
7
  6
CONTINUOUS
 10
2.2359425104
 20
1.5690599722
 40
0.3207738071
100
AcDbArc
 50
20.6575592444
 51
23.0450028729
  0
ARC
  5
374
100
AcDbEntity
  8
0
100
AcDbCircle
 62
7
  6
CONTINUOUS
 10
2.2658357498
 20
1.6270395109
 40
0.2888267318
100
AcDbArc
 50
339.3418087065
 51
341.9295408957
  0
ARC
  5
375
100
AcDbEntity
  8
0
100
AcDbCircle
 62
7
  6
CONTINUOUS
 10
2.2713066815
 20
1.5822525969
 40
0.2830292661
100
AcDbArc
 50
18.0430478937
 51
20.6841644709
  0
ARC
  5
376
100
AcDbEntity
  8
0
100
AcDbCircle
 62
7
  6
CONTINUOUS
 10
2.2882082857
 20
1.619554981
 40
0.2652361631
100
AcDbArc
 50
341.9674967524
 51
342.6992160561
  0
ARC
  5
377
100
AcDbEntity
  8
0
100
AcDbCircle
 62
7
  6
CONTINUOUS
 10
2.3005185405
 20
1.6157454783
 40
0.2523499654
100
AcDbArc
 50
342.6938184169
 51
344.8188945415
  0
ARC
  5
378
100
AcDbEntity
  8
0
100
AcDbCircle
 62
7
  6
CONTINUOUS
 10
2.676346354
 20
1.5520824648
 40
0.8507288436
100
AcDbArc
 50
2.9233889219
 51
3.6664601883
  0
ARC
  5
379
100
AcDbEntity
  8
0
100
AcDbCircle
 62
7
  6
CONTINUOUS
 10
2.6375367532
 20
1.5552114117
 40
0.799039274
100
AcDbArc
 50
2.9534137702
 51
3.7326681374
  0
ARC
  5
37A
100
AcDbEntity
  8
0
100
AcDbCircle
 62
7
  6
CONTINUOUS
 10
2.6914609298
 20
1.5664359566
 40
0.3278222326
100
AcDbArc
 50
156.9806583701
 51
159.3163122996
  0
ARC
  5
37B
100
AcDbEntity
  8
0
100
AcDbCircle
 62
7
  6
CONTINUOUS
 10
2.3389751251
 20
1.6010035857
 40
0.2127506189
100
AcDbArc
 50
8.8101471179
 51
12.0998450251
  0
ARC
  5
37C
100
AcDbEntity
  8
0
100
AcDbCircle
 62
7
  6
CONTINUOUS
 10
2.3561324445
 20
1.6034970454
 40
0.1954139023
100
AcDbArc
 50
1.8037863564
 51
8.858170578
  0
ARC
  5
37D
100
AcDbEntity
  8
0
100
AcDbCircle
 62
7
  6
CONTINUOUS
 10
3.0310122745
 20
2.1492684841
 40
0.4562172056
100
AcDbArc
 50
256.6237814365
 51
259.1740109054
  0
ARC
  5
37E
100
AcDbEntity
  8
0
100
AcDbCircle
 62
7
  6
CONTINUOUS
 10
2.8027044456
 20
1.8409225266
 40
0.0639762837
100
AcDbArc
 50
263.1292936681
 51
269.9534358611
  0
ARC
  5
37F
100
AcDbEntity
  8
0
100
AcDbCircle
 62
7
  6
CONTINUOUS
 10
2.551010972
 20
3.0755645733
 40
2.439
100
AcDbArc
 50
326.4423050822
 51
340.0877073885
  0
ARC
  5
380
100
AcDbEntity
  8
0
100
AcDbCircle
 62
7
  6
CONTINUOUS
 10
3.17366636
 20
2.6987164673
 40
1.0128921312
100
AcDbArc
 50
272.6409631492
 51
273.212236714
  0
ARC
  5
381
100
AcDbEntity
  8
0
100
AcDbCircle
 62
7
  6
CONTINUOUS
 10
3.0510705557
 20
2.2322970773
 40
0.5416338497
100
AcDbArc
 50
253.8263642795
 51
256.5914156786
  0
ARC
  5
382
100
AcDbEntity
  8
0
100
AcDbCircle
 62
7
  6
CONTINUOUS
 10
2.9750463958
 20
2.2254783204
 40
0.535002479
100
AcDbArc
 50
283.5100653947
 51
287.1794300733
  0
ARC
  5
383
100
AcDbEntity
  8
0
100
AcDbCircle
 62
7
  6
CONTINUOUS
 10
7.3062946884
 20
1.2156614993
 40
4.6753241693
100
AcDbArc
 50
181.8369426721
 51
182.0495331031
  0
ARC
  5
384
100
AcDbEntity
  8
0
100
AcDbCircle
 62
7
  6
CONTINUOUS
 10
7.226717082
 20
1.2142794576
 40
4.6312935304
100
AcDbArc
 50
181.8370896921
 51
182.0517405402
  0
ARC
  5
385
100
AcDbEntity
  8
0
100
AcDbCircle
 62
7
  6
CONTINUOUS
 10
6.9925197309
 20
1.2048430451
 40
4.3562850744
100
AcDbArc
 50
181.8291614669
 51
182.0573176607
  0
ARC
  5
386
100
AcDbEntity
  8
0
100
AcDbCircle
 62
7
  6
CONTINUOUS
 10
6.8999521171
 20
1.2033584605
 40
4.3094250946
100
AcDbArc
 50
181.8290745767
 51
182.0597565931
  0
ARC
  5
387
100
AcDbEntity
  8
0
100
AcDbCircle
 62
7
  6
CONTINUOUS
 10
7.4550648135
 20
1.1772832516
 40
4.0072995735
100
AcDbArc
 50
181.9712737051
 51
182.261792279
  0
ARC
  5
388
100
AcDbEntity
  8
0
100
AcDbCircle
 62
7
  6
CONTINUOUS
 10
5.3335832879
 20
1.1173258459
 40
2.7223725262
100
AcDbArc
 50
181.8708978674
 51
182.459316381
  0
ARC
  5
389
100
AcDbEntity
  8
0
100
AcDbCircle
 62
7
  6
CONTINUOUS
 10
4.9397449048
 20
0.381025264
 40
0.101625
100
AcDbArc
 50
199.9122926115
 51
270.0
  0
ARC
  5
38A
100
AcDbEntity
  8
0
100
AcDbCircle
 62
7
  6
CONTINUOUS
 10
4.6681890313
 20
0.9201334966
 40
0.101625
100
AcDbArc
 50
180.0
 51
213.5576949178
  0
ARC
  5
38B
100
AcDbEntity
  8
0
100
AcDbCircle
 62
7
  6
CONTINUOUS
 10
6.4470330313
 20
1.295650264
 40
4.441419
100
AcDbArc
 50
170.0350404138
 51
178.2692217547
  0
ARC
  5
38C
100
AcDbEntity
  8
0
100
AcDbCircle
 62
7
  6
CONTINUOUS
 10
6.4470330313
 20
1.295650264
 40
4.441419
100
AcDbArc
 50
181.7307782453
 51
189.9649595851
  0
ARC
  5
38D
100
AcDbEntity
  8
0
100
AcDbCircle
 62
7
  6
CONTINUOUS
 10
4.9397449048
 20
2.210275264
 40
0.101625
100
AcDbArc
 50
90.0
 51
160.0877073885
  0
ARC
  5
38E
100
AcDbEntity
  8
0
100
AcDbCircle
 62
7
  6
CONTINUOUS
 10
4.6681890313
 20
1.6711670314
 40
0.101625
100
AcDbArc
 50
146.4423050822
 51
180.0
  0
ARC
  5
38F
100
AcDbEntity
  8
0
100
AcDbCircle
 62
7
  6
CONTINUOUS
 10
2.7259320313
 20
10.763035264
 40
0.028455
100
AcDbArc
 50
90.0
 51
270.0
  0
ARC
  5
390
100
AcDbEntity
  8
0
100
AcDbCircle
 62
7
  6
CONTINUOUS
 10
3.3194220313
 20
10.763035264
 40
0.028455
100
AcDbArc
 50
270.0
 51
90.0
  0
ARC
  5
391
100
AcDbEntity
  8
0
100
AcDbCircle
 62
7
  6
CONTINUOUS
 10
1.8583685491
 20
51.2985343069
 40
49.5912668739
100
AcDbArc
 50
271.3198014906
 51
271.4624316849
  0
ARC
  5
392
100
AcDbEntity
  8
0
100
AcDbCircle
 62
7
  6
CONTINUOUS
 10
42.7438095566
 20
2.0317607746
 40
40.1439655139
100
AcDbArc
 50
181.0876644431
 51
181.3278040349
  0
ARC
  5
393
100
AcDbEntity
  8
0
100
AcDbCircle
 62
7
  6
CONTINUOUS
 10
41.9664825567
 20
2.0184064209
 40
39.3595031958
100
AcDbArc
 50
181.0899184347
 51
181.3348578799
  0
ARC
  5
394
100
AcDbEntity
  8
0
100
AcDbCircle
 62
7
  6
CONTINUOUS
 10
41.1215291473
 20
1.9983479442
 40
38.4807027452
100
AcDbArc
 50
181.0849236544
 51
181.3354428467
  0
ARC
  5
395
100
AcDbEntity
  8
0
100
AcDbCircle
 62
7
  6
CONTINUOUS
 10
34.3206959021
 20
1.8478593921
 40
31.7524600266
100
AcDbArc
 50
181.157488509
 51
181.3468847735
  0
ARC
  5
396
100
AcDbEntity
  8
0
100
AcDbCircle
 62
7
  6
CONTINUOUS
 10
11.7929202212
 20
1.3161803363
 40
8.2686091382
100
AcDbArc
 50
181.5677587034
 51
181.691450811
  0
ARC
  5
397
100
AcDbEntity
  8
0
100
AcDbCircle
 62
7
  6
CONTINUOUS
 10
10.6781403925
 20
1.2890792971
 40
8.1032908515
100
AcDbArc
 50
181.4704318169
 51
181.8431647056
  0
ARC
  5
398
100
AcDbEntity
  8
0
100
AcDbCircle
 62
7
  6
CONTINUOUS
 10
9.8406184696
 20
1.2627073064
 40
7.1911231638
100
AcDbArc
 50
181.4466553601
 51
181.8668147922
  0
ARC
  5
399
100
AcDbEntity
  8
0
100
AcDbCircle
 62
7
  6
CONTINUOUS
 10
9.525956701
 20
1.2863482191
 40
6.8961113928
100
AcDbArc
 50
181.6729812761
 51
181.8327774265
  0
ARC
  5
39A
100
AcDbEntity
  8
0
100
AcDbCircle
 62
7
  6
CONTINUOUS
 10
9.4714898918
 20
1.2857716271
 40
6.8772044647
100
AcDbArc
 50
181.6725377596
 51
181.832865849
  0
ARC
  5
39B
100
AcDbEntity
  8
0
100
AcDbCircle
 62
7
  6
CONTINUOUS
 10
9.3365791502
 20
1.2493044453
 40
6.7275433867
100
AcDbArc
 50
181.4321791709
 51
181.8812909813
  0
ARC
  5
39C
100
AcDbEntity
  8
0
100
AcDbCircle
 62
7
  6
CONTINUOUS
 10
9.2947072622
 20
1.2478881944
 40
6.678621271
100
AcDbArc
 50
181.4306763764
 51
181.8829201901
  0
ARC
  5
39D
100
AcDbEntity
  8
0
100
AcDbCircle
 62
7
  6
CONTINUOUS
 10
9.1232451103
 20
1.2738684897
 40
6.4881280591
100
AcDbArc
 50
181.6679624592
 51
181.8378038177
  0
ARC
  5
39E
100
AcDbEntity
  8
0
100
AcDbCircle
 62
7
  6
CONTINUOUS
 10
9.0534548343
 20
1.2731352509
 40
6.4640577962
100
AcDbArc
 50
181.6674158502
 51
181.8379901144
  0
SPLINE
  5
39F
100
AcDbEntity
  8
0
100
AcDbSpline
 62
7
  6
CONTINUOUS
 70
0
 71
3
 72
19
 73
15
 74
0
 42
0.0000001
 43
0.0000001
 44
0.0000000001
 40
0.0
 40
0.0
 40
0.0
 40
0.0
 40
0.1971645884
 40
0.3831575476
 40
0.5516527774
 40
0.6974045558
 40
0.7603487199
 40
0.8161369567
 40
0.8644381324
 40
0.9050047852
 40
0.9378767631
 40
0.9635733161
 40
0.9833434897
 40
1.0
 40
1.0
 40
1.0
 40
1.0
 10
1.9719153249
 20
1.2547425991
 30
0.0
 10
1.9716409294
 20
1.256623375
 30
0.0
 10
1.971161145
 20
1.2602864418
 30
0.0
 10
1.9706430902
 20
1.2655802741
 30
0.0
 10
1.9703570857
 20
1.2703953263
 30
0.0
 10
1.9703121086
 20
1.2740335524
 30
0.0
 10
1.9704163482
 20
1.2765816792
 30
0.0
 10
1.9705507817
 20
1.2781868754
 30
0.0
 10
1.9707433479
 20
1.279568994
 30
0.0
 10
1.9709928868
 20
1.280717188
 30
0.0
 10
1.9712981476
 20
1.2816261236
 30
0.0
 10
1.9716570232
 20
1.2822955133
 30
0.0
 10
1.972083331
 20
1.2827370198
 30
0.0
 10
1.972438878
 20
1.282845514
 30
0.0
 10
1.9725994484
 20
1.282845514
 30
0.0
  0
LINE
  5
3A0
100
AcDbEntity
  8
0
100
AcDbLine
 62
7
  6
CONTINUOUS
 10
1.9725994484
 20
1.308455014
 11
1.9719148307
 21
1.3087537918
  0
SPLINE
  5
3A1
100
AcDbEntity
  8
0
100
AcDbSpline
 62
7
  6
CONTINUOUS
 70
0
 71
3
 72
13
 73
9
 74
0
 42
0.0000001
 43
0.0000001
 44
0.0000000001
 40
0.0
 40
0.0
 40
0.0
 40
0.0
 40
0.0614643858
 40
0.1393735142
 40
0.2357511426
 40
0.3514718467
 40
0.6399530772
 40
1.0
 40
1.0
 40
1.0
 40
1.0
 10
1.9719148307
 20
1.3087537918
 30
0.0
 10
1.9717730216
 20
1.3088872267
 30
0.0
 10
1.9715090615
 20
1.3092495817
 30
0.0
 10
1.9712014521
 20
1.3099325039
 30
0.0
 10
1.9709365614
 20
1.3108144372
 30
0.0
 10
1.9706231506
 20
1.3123704013
 30
0.0
 10
1.970386971
 20
1.3147849392
 30
0.0
 10
1.9703364735
 20
1.3168396933
 30
0.0
 10
1.9703365278
 20
1.3179803091
 30
0.0
  0
SPLINE
  5
3A2
100
AcDbEntity
  8
0
100
AcDbSpline
 62
7
  6
CONTINUOUS
 70
0
 71
3
 72
10
 73
6
 74
0
 42
0.0000001
 43
0.0000001
 44
0.0000000001
 40
0.0
 40
0.0
 40
0.0
 40
0.0
 40
0.2159491443
 40
0.4589378623
 40
1.0
 40
1.0
 40
1.0
 40
1.0
 10
1.9703365278
 20
1.3179803091
 30
0.0
 10
1.9703365916
 20
1.3193233337
 30
0.0
 10
1.970418679
 20
1.3221776737
 30
0.0
 10
1.9708456418
 20
1.3283831036
 30
0.0
 10
1.971429541
 20
1.3332282708
 30
0.0
 10
1.9719153307
 20
1.3365579777
 30
0.0
  0
SPLINE
  5
3A3
100
AcDbEntity
  8
0
100
AcDbSpline
 62
7
  6
CONTINUOUS
 70
0
 71
3
 72
9
 73
5
 74
0
 42
0.0000001
 43
0.0000001
 44
0.0000000001
 40
0.0
 40
0.0
 40
0.0
 40
0.0
 40
0.2521468988
 40
1.0
 40
1.0
 40
1.0
 40
1.0
 10
2.54041633
 20
0.9213805895
 30
0.0
 10
2.5411163491
 20
0.9235311121
 30
0.0
 10
2.5437853048
 20
0.932094213
 30
0.0
 10
2.545997892
 20
0.9408018932
 30
0.0
 10
2.5473498067
 20
0.94737198
 30
0.0
  0
SPLINE
  5
3A4
100
AcDbEntity
  8
0
100
AcDbSpline
 62
7
  6
CONTINUOUS
 70
0
 71
3
 72
9
 73
5
 74
0
 42
0.0000001
 43
0.0000001
 44
0.0000000001
 40
0.0
 40
0.0
 40
0.0
 40
0.0
 40
0.2512655319
 40
1.0
 40
1.0
 40
1.0
 40
1.0
 10
2.5473498067
 20
0.94737198
 30
0.0
 10
2.5477308955
 20
0.9492240095
 30
0.0
 10
2.5491524733
 20
0.9566139158
 30
0.0
 10
2.5501808066
 20
0.9640806548
 30
0.0
 10
2.5507051022
 20
0.9696906078
 30
0.0
  0
SPLINE
  5
3A5
100
AcDbEntity
  8
0
100
AcDbSpline
 62
7
  6
CONTINUOUS
 70
0
 71
3
 72
10
 73
6
 74
0
 42
0.0000001
 43
0.0000001
 44
0.0000000001
 40
0.0
 40
0.0
 40
0.0
 40
0.0
 40
0.247845364
 40
0.4967548125
 40
1.0
 40
1.0
 40
1.0
 40
1.0
 10
2.5514495157
 20
0.9935792302
 30
0.0
 10
2.5513246207
 20
0.9976017568
 30
0.0
 10
2.5508206224
 20
1.0056589076
 30
0.0
 10
2.5487964142
 20
1.0217773408
 30
0.0
 10
2.5462003777
 20
1.0337455657
 30
0.0
 10
2.5440636649
 20
1.0416328639
 30
0.0
  0
SPLINE
  5
3A6
100
AcDbEntity
  8
0
100
AcDbSpline
 62
7
  6
CONTINUOUS
 70
0
 71
3
 72
9
 73
5
 74
0
 42
0.0000001
 43
0.0000001
 44
0.0000000001
 40
0.0
 40
0.0
 40
0.0
 40
0.0
 40
0.2479350585
 40
1.0
 40
1.0
 40
1.0
 40
1.0
 10
2.5440636649
 20
1.0416328639
 30
0.0
 10
2.5435063354
 20
1.0436901474
 30
0.0
 10
2.5411482841
 20
1.0519578288
 30
0.0
 10
2.5383718376
 20
1.0601041665
 30
0.0
 10
2.5360923592
 20
1.0661543227
 30
0.0
  0
SPLINE
  5
3A7
100
AcDbEntity
  8
0
100
AcDbSpline
 62
7
  6
CONTINUOUS
 70
0
 71
3
 72
13
 73
9
 74
0
 42
0.0000001
 43
0.0000001
 44
0.0000000001
 40
0.0
 40
0.0
 40
0.0
 40
0.0
 40
0.086457738
 40
0.1867202175
 40
0.3000162544
 40
0.4250538831
 40
0.702571445
 40
1.0
 40
1.0
 40
1.0
 40
1.0
 10
2.5311178204
 20
1.0785593459
 30
0.0
 10
2.5307165817
 20
1.0795042991
 30
0.0
 10
2.5300290371
 20
1.0816214215
 30
0.0
 10
2.5293288138
 20
1.0851195624
 30
0.0
 10
2.5289046385
 20
1.0891226778
 30
0.0
 10
2.52872123
 20
1.0952496476
 30
0.0
 10
2.5292720236
 20
1.1035619918
 30
0.0
 10
2.5303843653
 20
1.1103085735
 30
0.0
 10
2.5311178204
 20
1.1137632785
 30
0.0
  0
SPLINE
  5
3A8
100
AcDbEntity
  8
0
100
AcDbSpline
 62
7
  6
CONTINUOUS
 70
0
 71
3
 72
15
 73
11
 74
0
 42
0.0000001
 43
0.0000001
 44
0.0000000001
 40
0.0
 40
0.0
 40
0.0
 40
0.0
 40
0.124991939
 40
0.2499956853
 40
0.3749969647
 40
0.4999999965
 40
0.6250030244
 40
0.7500043026
 40
0.8750080523
 40
1.0
 40
1.0
 40
1.0
 40
1.0
 10
2.5311178204
 20
1.1137632785
 30
0.0
 10
2.5342907605
 20
1.1287083965
 30
0.0
 10
2.5400461167
 20
1.1587306646
 30
0.0
 10
2.5465519975
 20
1.2041227714
 30
0.0
 10
2.5506238146
 20
1.2498049268
 30
0.0
 10
2.5520012246
 20
1.2956502623
 30
0.0
 10
2.5506238142
 20
1.3414955976
 30
0.0
 10
2.5465520022
 20
1.3871777533
 30
0.0
 10
2.5400461168
 20
1.4325698608
 30
0.0
 10
2.5342907607
 20
1.4625921304
 30
0.0
 10
2.5311178204
 20
1.4775372494
 30
0.0
  0
SPLINE
  5
3A9
100
AcDbEntity
  8
0
100
AcDbSpline
 62
7
  6
CONTINUOUS
 70
0
 71
3
 72
13
 73
9
 74
0
 42
0.0000001
 43
0.0000001
 44
0.0000000001
 40
0.0
 40
0.0
 40
0.0
 40
0.0
 40
0.2974300583
 40
0.5749489593
 40
0.6999859866
 40
0.8132811912
 40
0.913542699
 40
1.0
 40
1.0
 40
1.0
 40
1.0
 10
2.5311178204
 20
1.4775372494
 30
0.0
 10
2.5303843616
 20
1.4809919721
 30
0.0
 10
2.5292720547
 20
1.4877385941
 30
0.0
 10
2.5287212333
 20
1.4960509621
 30
0.0
 10
2.5289046284
 20
1.5021779317
 30
0.0
 10
2.5293287922
 20
1.5061810203
 30
0.0
 10
2.5300290307
 20
1.5096791323
 30
0.0
 10
2.5307165837
 20
1.5117962336
 30
0.0
 10
2.5311178204
 20
1.5127411821
 30
0.0
  0
SPLINE
  5
3AA
100
AcDbEntity
  8
0
100
AcDbSpline
 62
7
  6
CONTINUOUS
 70
0
 71
3
 72
10
 73
6
 74
0
 42
0.0000001
 43
0.0000001
 44
0.0000000001
 40
0.0
 40
0.0
 40
0.0
 40
0.0
 40
0.5032407234
 40
0.7519568566
 40
1.0
 40
1.0
 40
1.0
 40
1.0
 10
2.5440622251
 20
1.5496623585
 30
0.0
 10
2.546721891
 20
1.5594791639
 30
0.0
 10
2.549773181
 20
1.5744354327
 30
0.0
 10
2.551524296
 20
1.594585066
 30
0.0
 10
2.5516050908
 20
1.604637405
 30
0.0
 10
2.5514495157
 20
1.6096480518
 30
0.0
  0
SPLINE
  5
3AB
100
AcDbEntity
  8
0
100
AcDbSpline
 62
7
  6
CONTINUOUS
 70
0
 71
3
 72
9
 73
5
 74
0
 42
0.0000001
 43
0.0000001
 44
0.0000000001
 40
0.0
 40
0.0
 40
0.0
 40
0.0
 40
0.2481460158
 40
1.0
 40
1.0
 40
1.0
 40
1.0
 10
2.5469992345
 20
1.645599502
 30
0.0
 10
2.5465634065
 20
1.6476376608
 30
0.0
 10
2.5446917583
 20
1.6558263679
 30
0.0
 10
2.5423722748
 20
1.6639107608
 30
0.0
 10
2.5404177217
 20
1.6699156653
 30
0.0
  0
SPLINE
  5
3AC
100
AcDbEntity
  8
0
100
AcDbSpline
 62
7
  6
CONTINUOUS
 70
0
 71
3
 72
15
 73
11
 74
0
 42
0.0000001
 43
0.0000001
 44
0.0000000001
 40
0.0
 40
0.0
 40
0.0
 40
0.0
 40
0.1124230131
 40
0.2267759949
 40
0.3444067458
 40
0.4662960807
 40
0.5929066207
 40
0.7242227737
 40
0.8600544303
 40
1.0
 40
1.0
 40
1.0
 40
1.0
 10
3.2427016105
 20
2.117593264
 30
0.0
 10
3.2395032219
 20
2.117593264
 30
0.0
 10
3.2330422775
 20
2.1170908962
 30
0.0
 10
3.2234565811
 20
2.1149210262
 30
0.0
 10
3.2139948514
 20
2.1114036103
 30
0.0
 10
3.204699114
 20
2.1066617222
 30
0.0
 10
3.1955741586
 20
2.1008490833
 30
0.0
 10
3.1866220715
 20
2.0940988898
 30
0.0
 10
3.1778420894
 20
2.0865361199
 30
0.0
 10
3.1721753548
 20
2.0811049292
 30
0.0
 10
3.1693600841
 20
2.0782896584
 30
0.0
  0
SPLINE
  5
3AD
100
AcDbEntity
  8
0
100
AcDbSpline
 62
7
  6
CONTINUOUS
 70
0
 71
3
 72
12
 73
8
 74
0
 42
0.0000001
 43
0.0000001
 44
0.0000000001
 40
0.0
 40
0.0
 40
0.0
 40
0.0
 40
0.2499498823
 40
0.375028394
 40
0.500063111
 40
0.7500533
 40
1.0
 40
1.0
 40
1.0
 40
1.0
 10
3.0226770313
 20
1.776946264
 30
0.0
 10
3.0354406924
 20
1.776946264
 30
0.0
 10
3.0546260926
 20
1.7784213675
 30
0.0
 10
3.0797490575
 20
1.7830613363
 30
0.0
 10
3.1045189355
 20
1.7893473232
 30
0.0
 10
3.1347028899
 20
1.7999079741
 30
0.0
 10
3.157944064
 20
1.8105418594
 30
0.0
 10
3.1693600841
 20
1.8162498695
 30
0.0
  0
SPLINE
  5
3AE
100
AcDbEntity
  8
0
100
AcDbSpline
 62
7
  6
CONTINUOUS
 70
0
 71
3
 72
15
 73
11
 74
0
 42
0.0000001
 43
0.0000001
 44
0.0000000001
 40
0.0
 40
0.0
 40
0.0
 40
0.0
 40
0.1399492495
 40
0.2757860791
 40
0.4071016371
 40
0.5337079088
 40
0.655594275
 40
0.7732234886
 40
0.8875764427
 40
1.0
 40
1.0
 40
1.0
 40
1.0
 10
3.1693600841
 20
1.8162498695
 30
0.0
 10
3.1721754293
 20
1.8134345243
 30
0.0
 10
3.1778423549
 20
1.8080031673
 30
0.0
 10
3.1866225006
 20
1.8004402245
 30
0.0
 10
3.1955746135
 20
1.7936900436
 30
0.0
 10
3.2046994461
 20
1.7878776216
 30
0.0
 10
3.2139949836
 20
1.7831359002
 30
0.0
 10
3.223456567
 20
1.7796184577
 30
0.0
 10
3.2330422463
 20
1.7774486191
 30
0.0
 10
3.2395032059
 20
1.776946264
 30
0.0
 10
3.2427016105
 20
1.776946264
 30
0.0
  0
SPLINE
  5
3AF
100
AcDbEntity
  8
0
100
AcDbSpline
 62
7
  6
CONTINUOUS
 70
0
 71
3
 72
12
 73
8
 74
0
 42
0.0000001
 43
0.0000001
 44
0.0000000001
 40
0.0
 40
0.0
 40
0.0
 40
0.0
 40
0.2499467025
 40
0.4999369492
 40
0.6249716932
 40
0.7500501671
 40
1.0
 40
1.0
 40
1.0
 40
1.0
 10
2.8759939786
 20
1.8162498695
 30
0.0
 10
2.8874099988
 20
1.8105418594
 30
0.0
 10
2.9106511743
 20
1.7999079694
 30
0.0
 10
2.9408351356
 20
1.7893473243
 30
0.0
 10
2.9656050164
 20
1.7830613398
 30
0.0
 10
2.9907279762
 20
1.77842136
 30
0.0
 10
3.0099133729
 20
1.776946264
 30
0.0
 10
3.0226770313
 20
1.776946264
 30
0.0
  0
SPLINE
  5
3B0
100
AcDbEntity
  8
0
100
AcDbSpline
 62
7
  6
CONTINUOUS
 70
0
 71
3
 72
9
 73
5
 74
0
 42
0.0000001
 43
0.0000001
 44
0.0000000001
 40
0.0
 40
0.0
 40
0.0
 40
0.0
 40
0.4971222069
 40
1.0
 40
1.0
 40
1.0
 40
1.0
 10
3.2427016105
 20
1.776946264
 30
0.0
 10
3.2452644349
 20
1.776946264
 30
0.0
 10
3.2504242084
 20
1.777266782
 30
0.0
 10
3.255508328
 20
1.7781923671
 30
0.0
 10
3.2580297622
 20
1.7787951995
 30
0.0
  0
SPLINE
  5
3B1
100
AcDbEntity
  8
0
100
AcDbSpline
 62
7
  6
CONTINUOUS
 70
0
 71
3
 72
11
 73
7
 74
0
 42
0.0000001
 43
0.0000001
 44
0.0000000001
 40
0.0
 40
0.0
 40
0.0
 40
0.0
 40
0.2354979625
 40
0.4799075417
 40
0.7347012696
 40
1.0
 40
1.0
 40
1.0
 40
1.0
 10
3.2580297622
 20
1.7787951995
 30
0.0
 10
3.2615686581
 20
1.7796412899
 30
0.0
 10
3.2686553455
 20
1.7819252562
 30
0.0
 10
3.2789204513
 20
1.7868323086
 30
0.0
 10
3.2889771267
 20
1.7930638536
 30
0.0
 10
3.2954155527
 20
1.797888368
 30
0.0
 10
3.2986079073
 20
1.8004596174
 30
0.0
  0
SPLINE
  5
3B2
100
AcDbEntity
  8
0
100
AcDbSpline
 62
7
  6
CONTINUOUS
 70
0
 71
3
 72
9
 73
5
 74
0
 42
0.0000001
 43
0.0000001
 44
0.0000000001
 40
0.0
 40
0.0
 40
0.0
 40
0.0
 40
0.244343825
 40
1.0
 40
1.0
 40
1.0
 40
1.0
 10
3.2986079073
 20
1.8004596174
 30
0.0
 10
3.3001004161
 20
1.8016617433
 30
0.0
 10
3.3061275504
 20
1.8066822224
 30
0.0
 10
3.3118523076
 20
1.8120590402
 30
0.0
 10
3.3160431369
 20
1.8162498695
 30
0.0
  0
SPLINE
  5
3B3
100
AcDbEntity
  8
0
100
AcDbSpline
 62
7
  6
CONTINUOUS
 70
0
 71
3
 72
15
 73
11
 74
0
 42
0.0000001
 43
0.0000001
 44
0.0000000001
 40
0.0
 40
0.0
 40
0.0
 40
0.0
 40
0.1124235682
 40
0.2267765561
 40
0.344405789
 40
0.4662921325
 40
0.5928983797
 40
0.7242139282
 40
0.8600507532
 40
1.0
 40
1.0
 40
1.0
 40
1.0
 10
2.8026524522
 20
1.776946264
 30
0.0
 10
2.8058508571
 20
1.776946264
 30
0.0
 10
2.8123118179
 20
1.7774486215
 30
0.0
 10
2.8218974981
 20
1.7796184627
 30
0.0
 10
2.8313590849
 20
1.7831358983
 30
0.0
 10
2.8406546212
 20
1.787877621
 30
0.0
 10
2.8497794505
 20
1.7936900451
 30
0.0
 10
2.8587315618
 20
1.800440226
 30
0.0
 10
2.8675117077
 20
1.8080031679
 30
0.0
 10
2.8731786334
 20
1.8134345244
 30
0.0
 10
2.8759939786
 20
1.8162498695
 30
0.0
  0
SPLINE
  5
3B4
100
AcDbEntity
  8
0
100
AcDbSpline
 62
9
  6
CONTINUOUS
 70
0
 71
3
 72
35
 73
31
 74
0
 42
0.0000001
 43
0.0000001
 44
0.0000000001
 40
0.0
 40
0.0
 40
0.0
 40
0.0
 40
0.2222539636
 40
0.3248017723
 40
0.4211138015
 40
0.5108056225
 40
0.5935732612
 40
0.669207349
 40
0.7375035098
 40
0.7982569237
 40
0.8512717558
 40
0.874832257
 40
0.8964083627
 40
0.9159852389
 40
0.9335480476
 40
0.9490819474
 40
0.9625720934
 40
0.9740036376
 40
0.9833622073
 40
0.9872616893
 40
0.9906412405
 40
0.9935008609
 40
0.9958405506
 40
0.9976603093
 40
0.9983752146
 40
0.9989601372
 40
0.999415077
 40
0.9997400341
 40
0.9999350084
 40
1.0
 40
1.0
 40
1.0
 40
1.0
 10
2.1004192518
 20
2.0050526429
 30
0.0
 10
2.1007366864
 20
2.0114232257
 30
0.0
 10
2.1011842547
 20
2.0207340284
 30
0.0
 10
2.1017200665
 20
2.0328077388
 30
0.0
 10
2.1020642767
 20
2.0410817652
 30
0.0
 10
2.1023591266
 20
2.0487896412
 30
0.0
 10
2.1026056298
 20
2.055905446
 30
0.0
 10
2.1028101504
 20
2.0624082632
 30
0.0
 10
2.1029783369
 20
2.0682800964
 30
0.0
 10
2.1031158644
 20
2.073503372
 30
0.0
 10
2.1032135473
 20
2.0774433725
 30
0.0
 10
2.1032804374
 20
2.0802594354
 30
0.0
 10
2.1033233151
 20
2.0821161585
 30
0.0
 10
2.1033611705
 20
2.0838008231
 30
0.0
 10
2.1033942507
 20
2.0853121451
 30
0.0
 10
2.1034228038
 20
2.0866488406
 30
0.0
 10
2.1034470806
 20
2.0878096252
 30
0.0
 10
2.103467317
 20
2.0887932299
 30
0.0
 10
2.1034818045
 20
2.0895016491
 30
0.0
 10
2.1034915817
 20
2.0899790357
 30
0.0
 10
2.1034975296
 20
2.090269939
 30
0.0
 10
2.10350259
 20
2.0905161101
 30
0.0
 10
2.1035066541
 20
2.0907174612
 30
0.0
 10
2.1035096516
 20
2.0908574304
 30
0.0
 10
2.1035112788
 20
2.0909467746
 30
0.0
 10
2.1035127393
 20
2.090997473
 30
0.0
 10
2.1035124315
 20
2.0910357337
 30
0.0
 10
2.1035155136
 20
2.091065742
 30
0.0
 10
2.1035114561
 20
2.0910789544
 30
0.0
 10
2.1035161641
 20
2.0910901097
 30
0.0
 10
2.1035143315
 20
2.0910904567
 30
0.0
  0
SPLINE
  5
3B5
100
AcDbEntity
  8
0
100
AcDbSpline
 62
7
  6
CONTINUOUS
 70
0
 71
3
 72
13
 73
9
 74
0
 42
0.0000001
 43
0.0000001
 44
0.0000000001
 40
0.0
 40
0.0
 40
0.0
 40
0.0
 40
0.273533205
 40
0.5312689325
 40
0.653892836
 40
0.7724496029
 40
0.8875207986
 40
1.0
 40
1.0
 40
1.0
 40
1.0
 10
2.7293109258
 20
1.8162498695
 30
0.0
 10
2.7343220032
 20
1.8112387921
 30
0.0
 10
2.7444249802
 20
1.8018631156
 30
0.0
 10
2.7580913116
 20
1.7917527797
 30
0.0
 10
2.7693474829
 20
1.7853669274
 30
0.0
 10
2.7777859649
 20
1.7815861635
 30
0.0
 10
2.786345428
 20
1.7788486752
 30
0.0
 10
2.7921577072
 20
1.7777534229
 30
0.0
 10
2.7950510104
 20
1.7774056799
 30
0.0
  0
SPLINE
  5
3B6
100
AcDbEntity
  8
0
100
AcDbSpline
 62
7
  6
CONTINUOUS
 70
0
 71
3
 72
15
 73
11
 74
0
 42
0.0000001
 43
0.0000001
 44
0.0000000001
 40
0.0
 40
0.0
 40
0.0
 40
0.0
 40
0.139945569
 40
0.2757772246
 40
0.4070933778
 40
0.533703919
 40
0.6555932547
 40
0.7732240055
 40
0.887576987
 40
1.0
 40
1.0
 40
1.0
 40
1.0
 10
3.3160431369
 20
2.0782896584
 30
0.0
 10
3.3132278662
 20
2.0811049292
 30
0.0
 10
3.3075611316
 20
2.0865361199
 30
0.0
 10
3.2987811495
 20
2.0940988896
 30
0.0
 10
3.2898290624
 20
2.1008490831
 30
0.0
 10
3.280704107
 20
2.1066617223
 30
0.0
 10
3.2714083698
 20
2.1114036108
 30
0.0
 10
3.26194664
 20
2.1149210266
 30
0.0
 10
3.2523609435
 20
2.1170908963
 30
0.0
 10
3.2458999991
 20
2.117593264
 30
0.0
 10
3.2427016105
 20
2.117593264
 30
0.0
  0
SPLINE
  5
3B7
100
AcDbEntity
  8
0
100
AcDbSpline
 62
9
  6
CONTINUOUS
 70
0
 71
3
 72
18
 73
14
 74
0
 42
0.0000001
 43
0.0000001
 44
0.0000000001
 40
0.0
 40
0.0
 40
0.0
 40
0.0
 40
0.004159575
 40
0.0166380422
 40
0.0374282778
 40
0.06645245
 40
0.103592264
 40
0.1487289999
 40
0.2624974675
 40
0.4064277739
 40
0.578886958
 40
0.7777464045
 40
1.0
 40
1.0
 40
1.0
 40
1.0
 10
2.1035143302
 20
0.5002100715
 30
0.0
 10
2.10351412
 20
0.50032945
 30
0.0
 10
2.1034989097
 20
0.5008067972
 30
0.0
 10
2.1034821697
 20
0.5018808126
 30
0.0
 10
2.1034426415
 20
0.5036681959
 30
0.0
 10
2.1033912183
 20
0.5061632179
 30
0.0
 10
2.1033198193
 20
0.5093567292
 30
0.0
 10
2.1031880121
 20
0.5149816259
 30
0.0
 10
2.102966482
 20
0.5236701233
 30
0.0
 10
2.1025967817
 20
0.5360100779
 30
0.0
 10
2.1020550606
 20
0.5507877955
 30
0.0
 10
2.1013164251
 20
0.5678072414
 30
0.0
 10
2.1007366141
 20
0.5798791996
 30
0.0
 10
2.1004191551
 20
0.5862499173
 30
0.0
  0
SPLINE
  5
3B8
100
AcDbEntity
  8
0
100
AcDbSpline
 62
7
  6
CONTINUOUS
 70
0
 71
3
 72
14
 73
10
 74
0
 42
0.0000001
 43
0.0000001
 44
0.0000000001
 40
0.0
 40
0.0
 40
0.0
 40
0.0
 40
0.1162173154
 40
0.2336419479
 40
0.3531555038
 40
0.4754620613
 40
0.601115286
 40
0.7304224105
 40
1.0
 40
1.0
 40
1.0
 40
1.0
 10
2.8026524522
 20
2.117593264
 30
0.0
 10
2.8002409991
 20
2.117593264
 30
0.0
 10
2.7953888024
 20
2.1173097052
 30
0.0
 10
2.7881531294
 20
2.1160692018
 30
0.0
 10
2.7809652725
 20
2.1140459205
 30
0.0
 10
2.7738525046
 20
2.1112687605
 30
0.0
 10
2.7668270489
 20
2.1077960165
 30
0.0
 10
2.7574551024
 20
2.1022470325
 30
0.0
 10
2.7507648389
 20
2.0973333037
 30
0.0
 10
2.7464170115
 20
2.093814098
 30
0.0
  0
SPLINE
  5
3B9
100
AcDbEntity
  8
0
100
AcDbSpline
 62
7
  6
CONTINUOUS
 70
0
 71
3
 72
9
 73
5
 74
0
 42
0.0000001
 43
0.0000001
 44
0.0000000001
 40
0.0
 40
0.0
 40
0.0
 40
0.0
 40
0.2444632365
 40
1.0
 40
1.0
 40
1.0
 40
1.0
 10
2.7464170115
 20
2.093814098
 30
0.0
 10
2.7449534534
 20
2.0926294691
 30
0.0
 10
2.7390444417
 20
2.0876875275
 30
0.0
 10
2.7334257993
 20
2.0824045319
 30
0.0
 10
2.7293109258
 20
2.0782896584
 30
0.0
  0
SPLINE
  5
3BA
100
AcDbEntity
  8
0
100
AcDbSpline
 62
7
  6
CONTINUOUS
 70
0
 71
3
 72
15
 73
11
 74
0
 42
0.0000001
 43
0.0000001
 44
0.0000000001
 40
0.0
 40
0.0
 40
0.0
 40
0.0
 40
0.139945569
 40
0.2757772246
 40
0.4070933778
 40
0.533703919
 40
0.6555932547
 40
0.7732240055
 40
0.887576987
 40
1.0
 40
1.0
 40
1.0
 40
1.0
 10
2.8759939786
 20
2.0782896584
 30
0.0
 10
2.8731787079
 20
2.0811049292
 30
0.0
 10
2.8675119734
 20
2.0865361199
 30
0.0
 10
2.8587319912
 20
2.0940988896
 30
0.0
 10
2.8497799041
 20
2.1008490831
 30
0.0
 10
2.8406549487
 20
2.1066617223
 30
0.0
 10
2.8313592115
 20
2.1114036108
 30
0.0
 10
2.8218974817
 20
2.1149210266
 30
0.0
 10
2.8123117852
 20
2.1170908963
 30
0.0
 10
2.8058508408
 20
2.117593264
 30
0.0
 10
2.8026524522
 20
2.117593264
 30
0.0
  0
SPLINE
  5
3BB
100
AcDbEntity
  8
0
100
AcDbSpline
 62
7
  6
CONTINUOUS
 70
0
 71
3
 72
12
 73
8
 74
0
 42
0.0000001
 43
0.0000001
 44
0.0000000001
 40
0.0
 40
0.0
 40
0.0
 40
0.0
 40
0.2499492411
 40
0.3750294899
 40
0.5000670692
 40
0.7500613691
 40
1.0
 40
1.0
 40
1.0
 40
1.0
 10
3.0226770313
 20
2.117593264
 30
0.0
 10
3.0099134039
 20
2.117593264
 30
0.0
 10
2.9907279582
 20
2.1161180898
 30
0.0
 10
2.9656047783
 20
2.11147818
 30
0.0
 10
2.9408344912
 20
2.1051919863
 30
0.0
 10
2.9106506429
 20
2.0946312235
 30
0.0
 10
2.8874096295
 20
2.0839974839
 30
0.0
 10
2.8759939786
 20
2.0782896584
 30
0.0
  0
SPLINE
  5
3BC
100
AcDbEntity
  8
0
100
AcDbSpline
 62
7
  6
CONTINUOUS
 70
0
 71
3
 72
12
 73
8
 74
0
 42
0.0000001
 43
0.0000001
 44
0.0000000001
 40
0.0
 40
0.0
 40
0.0
 40
0.0
 40
0.2499386301
 40
0.4999329302
 40
0.6249705095
 40
0.7500507585
 40
1.0
 40
1.0
 40
1.0
 40
1.0
 10
3.1693600841
 20
2.0782896584
 30
0.0
 10
3.1579444333
 20
2.0839974839
 30
0.0
 10
3.1347034199
 20
2.0946312237
 30
0.0
 10
3.1045195719
 20
2.1051919875
 30
0.0
 10
3.0797492848
 20
2.1114781816
 30
0.0
 10
3.0546261047
 20
2.1161180908
 30
0.0
 10
3.0354406589
 20
2.117593264
 30
0.0
 10
3.0226770313
 20
2.117593264
 30
0.0
  0
SPLINE
  5
3BD
100
AcDbEntity
  8
0
100
AcDbSpline
 62
7
  6
CONTINUOUS
 70
0
 71
3
 72
16
 73
12
 74
0
 42
0.0000001
 43
0.0000001
 44
0.0000000001
 40
0.0
 40
0.0
 40
0.0
 40
0.0
 40
0.1272790619
 40
0.2522376671
 40
0.375472349
 40
0.497931822
 40
0.5592391082
 40
0.6207665224
 40
0.744930997
 40
0.8712164175
 40
1.0
 40
1.0
 40
1.0
 40
1.0
 10
2.384768601
 20
1.6822255574
 30
0.0
 10
2.3821615159
 20
1.6753060506
 30
0.0
 10
2.3774905253
 20
1.6613969852
 30
0.0
 10
2.3723966188
 20
1.6401538568
 30
0.0
 10
2.369510827
 20
1.6187736488
 30
0.0
 10
2.369107444
 20
1.600902099
 30
0.0
 10
2.3699726045
 20
1.5866716888
 30
0.0
 10
2.3716359713
 20
1.5724123186
 30
0.0
 10
2.3751633692
 20
1.5546000276
 30
0.0
 10
2.3814639978
 20
1.5334612716
 30
0.0
 10
2.3868180725
 20
1.5196278378
 30
0.0
 10
2.3897422309
 20
1.5127411821
 30
0.0
  0
SPLINE
  5
3BE
100
AcDbEntity
  8
0
100
AcDbSpline
 62
7
  6
CONTINUOUS
 70
0
 71
3
 72
13
 73
9
 74
0
 42
0.0000001
 43
0.0000001
 44
0.0000000001
 40
0.0
 40
0.0
 40
0.0
 40
0.0
 40
0.0864578944
 40
0.1867206256
 40
0.3000168001
 40
0.4250545151
 40
0.7025718373
 40
1.0
 40
1.0
 40
1.0
 40
1.0
 10
2.3897422309
 20
1.5127411821
 30
0.0
 10
2.3901434703
 20
1.5117962271
 30
0.0
 10
2.390831022
 20
1.5096791022
 30
0.0
 10
2.3915312588
 20
1.506180957
 30
0.0
 10
2.3919554356
 20
1.5021778351
 30
0.0
 10
2.3921388094
 20
1.4960508638
 30
0.0
 10
2.3915879983
 20
1.4877385295
 30
0.0
 10
2.390475685
 20
1.4809919501
 30
0.0
 10
2.3897422309
 20
1.4775372494
 30
0.0
  0
SPLINE
  5
3BF
100
AcDbEntity
  8
0
100
AcDbSpline
 62
7
  6
CONTINUOUS
 70
0
 71
3
 72
15
 73
11
 74
0
 42
0.0000001
 43
0.0000001
 44
0.0000000001
 40
0.0
 40
0.0
 40
0.0
 40
0.0
 40
0.1249919394
 40
0.2499956857
 40
0.3749969651
 40
0.4999999968
 40
0.6250030248
 40
0.750004303
 40
0.8750080527
 40
1.0
 40
1.0
 40
1.0
 40
1.0
 10
2.3897422309
 20
1.4775372494
 30
0.0
 10
2.3865692908
 20
1.4625921314
 30
0.0
 10
2.3808139338
 20
1.4325698634
 30
0.0
 10
2.3743080521
 20
1.3871777567
 30
0.0
 10
2.3702362361
 20
1.3414956012
 30
0.0
 10
2.3688588267
 20
1.2956502656
 30
0.0
 10
2.3702362377
 20
1.2498049304
 30
0.0
 10
2.3743080507
 20
1.2041227747
 30
0.0
 10
2.3808139352
 20
1.1587306672
 30
0.0
 10
2.3865692906
 20
1.1287083975
 30
0.0
 10
2.3897422309
 20
1.1137632785
 30
0.0
  0
SPLINE
  5
3C0
100
AcDbEntity
  8
0
100
AcDbSpline
 62
7
  6
CONTINUOUS
 70
0
 71
3
 72
13
 73
9
 74
0
 42
0.0000001
 43
0.0000001
 44
0.0000000001
 40
0.0
 40
0.0
 40
0.0
 40
0.0
 40
0.2974304484
 40
0.5749495909
 40
0.6999865337
 40
0.8132816012
 40
0.9135428563
 40
1.0
 40
1.0
 40
1.0
 40
1.0
 10
2.3897422309
 20
1.1137632785
 30
0.0
 10
2.3904756906
 20
1.1103085515
 30
0.0
 10
2.3915880259
 20
1.1035619272
 30
0.0
 10
2.3921388299
 20
1.0952495493
 30
0.0
 10
2.3919554001
 20
1.0891225812
 30
0.0
 10
2.3915312377
 20
1.0851194989
 30
0.0
 10
2.3908310127
 20
1.0816213914
 30
0.0
 10
2.3901434668
 20
1.0795042926
 30
0.0
 10
2.3897422309
 20
1.0785593459
 30
0.0
  0
SPLINE
  5
3C1
100
AcDbEntity
  8
0
100
AcDbSpline
 62
7
  6
CONTINUOUS
 70
0
 71
3
 72
16
 73
12
 74
0
 42
0.0000001
 43
0.0000001
 44
0.0000000001
 40
0.0
 40
0.0
 40
0.0
 40
0.0
 40
0.1287836445
 40
0.2550691585
 40
0.3792337467
 40
0.4407612123
 40
0.50206854
 40
0.6245280451
 40
0.7477626735
 40
0.8727211392
 40
1.0
 40
1.0
 40
1.0
 40
1.0
 10
2.3897422309
 20
1.0785593459
 30
0.0
 10
2.3868181128
 20
1.0716727851
 30
0.0
 10
2.3814641036
 20
1.0578395437
 30
0.0
 10
2.3751635265
 20
1.0367010855
 30
0.0
 10
2.3716361116
 20
1.0188890479
 30
0.0
 10
2.3699726997
 20
1.0046298773
 30
0.0
 10
2.3691074695
 20
0.9903996682
 30
0.0
 10
2.369510719
 20
0.9725283704
 30
0.0
 10
2.3723962936
 20
0.9511484538
 30
0.0
 10
2.3774899372
 20
0.9299056067
 30
0.0
 10
2.382160737
 20
0.9159967187
 30
0.0
 10
2.3847677238
 20
0.9090773001
 30
0.0
  0
SPLINE
  5
3C2
100
AcDbEntity
  8
0
100
AcDbSpline
 62
7
  6
CONTINUOUS
 70
0
 71
3
 72
14
 73
10
 74
0
 42
0.0000001
 43
0.0000001
 44
0.0000000001
 40
0.0
 40
0.0
 40
0.0
 40
0.0
 40
0.0475022224
 40
0.1166723509
 40
0.2080698762
 40
0.321832254
 40
0.4579674649
 40
0.6164278423
 40
1.0
 40
1.0
 40
1.0
 40
1.0
 10
3.4327171879
 20
1.6257014097
 30
0.0
 10
3.4327984927
 20
1.6255620314
 30
0.0
 10
3.4329416961
 20
1.6251889847
 30
0.0
 10
3.4331254712
 20
1.6245070419
 30
0.0
 10
3.4333112861
 20
1.6235930293
 30
0.0
 10
3.4334991058
 20
1.6224490188
 30
0.0
 10
3.4336878358
 20
1.6210745938
 30
0.0
 10
3.4339578801
 20
1.6187867615
 30
0.0
 10
3.4341329715
 20
1.6169536415
 30
0.0
 10
3.4342472912
 20
1.6156557188
 30
0.0
  0
LINE
  5
3C3
100
AcDbEntity
  8
0
100
AcDbLine
 62
7
  6
CONTINUOUS
 10
3.4342472912
 20
1.6156557188
 11
3.4348809947
 21
1.6072298878
  0
SPLINE
  5
3C4
100
AcDbEntity
  8
0
100
AcDbSpline
 62
7
  6
CONTINUOUS
 70
0
 71
3
 72
12
 73
8
 74
0
 42
0.0000001
 43
0.0000001
 44
0.0000000001
 40
0.0
 40
0.0
 40
0.0
 40
0.0
 40
0.0823732003
 40
0.1786414591
 40
0.4098897246
 40
0.6864546008
 40
1.0
 40
1.0
 40
1.0
 40
1.0
 10
3.4355147098
 20
1.5963810874
 30
0.0
 10
3.4357460497
 20
1.5919891796
 30
0.0
 10
3.4361969926
 20
1.5824618456
 30
0.0
 10
3.4370861147
 20
1.5605953596
 30
0.0
 10
3.4381587104
 20
1.5283602687
 30
0.0
 10
3.439394736
 20
1.4845243957
 30
0.0
 10
3.4401815247
 20
1.4530275283
 30
0.0
 10
3.4405845549
 20
1.4362918442
 30
0.0
  0
LINE
  5
3C5
100
AcDbEntity
  8
0
100
AcDbLine
 62
7
  6
CONTINUOUS
 10
3.4405845549
 20
1.4362918442
 11
3.4412185606
 21
1.4094553934
  0
LINE
  5
3C6
100
AcDbEntity
  8
0
100
AcDbLine
 62
7
  6
CONTINUOUS
 10
3.4412185606
 20
1.4094553934
 11
3.4424855256
 21
1.35336217
  0
SPLINE
  5
3C7
100
AcDbEntity
  8
0
100
AcDbSpline
 62
7
  6
CONTINUOUS
 70
0
 71
3
 72
12
 73
8
 74
0
 42
0.0000001
 43
0.0000001
 44
0.0000000001
 40
0.0
 40
0.0
 40
0.0
 40
0.0
 40
0.4022041626
 40
0.6969356176
 40
0.8054796123
 40
0.8898154559
 40
1.0
 40
1.0
 40
1.0
 40
1.0
 10
3.4769145578
 20
1.6242016127
 30
0.0
 10
3.476968615
 20
1.6244553011
 30
0.0
 10
3.4770723485
 20
1.6248930866
 30
0.0
 10
3.4772282571
 20
1.6253888537
 30
0.0
 10
3.4773647359
 20
1.6256750955
 30
0.0
 10
3.4774667476
 20
1.6258368759
 30
0.0
 10
3.4775801679
 20
1.6259283571
 30
0.0
 10
3.4776512262
 20
1.6259281163
 30
0.0
  0
SPLINE
  5
3C8
100
AcDbEntity
  8
0
100
AcDbSpline
 62
7
  6
CONTINUOUS
 70
0
 71
3
 72
17
 73
13
 74
0
 42
0.0000001
 43
0.0000001
 44
0.0000000001
 40
0.0
 40
0.0
 40
0.0
 40
0.0
 40
0.0146674678
 40
0.0355393797
 40
0.0627930233
 40
0.096502517
 40
0.183407693
 40
0.2962341071
 40
0.4346701638
 40
0.5983591423
 40
0.786929041
 40
1.0
 40
1.0
 40
1.0
 40
1.0
 10
3.4779213644
 20
1.6256950005
 30
0.0
 10
3.4779948354
 20
1.6255684671
 30
0.0
 10
3.4781266021
 20
1.6252365782
 30
0.0
 10
3.4782964446
 20
1.6246338985
 30
0.0
 10
3.4784681286
 20
1.6238351207
 30
0.0
 10
3.4787208835
 20
1.6223817821
 30
0.0
 10
3.4790221151
 20
1.620071718
 30
0.0
 10
3.479365925
 20
1.6167157844
 30
0.0
 10
3.4797118753
 20
1.6125906384
 30
0.0
 10
3.4800598689
 20
1.6077079724
 30
0.0
 10
3.4804088855
 20
1.6020791979
 30
0.0
 10
3.4806288121
 20
1.5980785935
 30
0.0
 10
3.4807399529
 20
1.5959559856
 30
0.0
  0
SPLINE
  5
3C9
100
AcDbEntity
  8
0
100
AcDbSpline
 62
7
  6
CONTINUOUS
 70
0
 71
3
 72
11
 73
7
 74
0
 42
0.0000001
 43
0.0000001
 44
0.0000000001
 40
0.0
 40
0.0
 40
0.0
 40
0.0
 40
0.1877828355
 40
0.4199443214
 40
0.6925910696
 40
1.0
 40
1.0
 40
1.0
 40
1.0
 10
3.4807399529
 20
1.5959559856
 30
0.0
 10
3.4811040104
 20
1.5890030768
 30
0.0
 10
3.4817941681
 20
1.5734476707
 30
0.0
 10
3.4827280985
 20
1.5477853367
 30
0.0
 10
3.4836638763
 20
1.5176851489
 30
0.0
 10
3.4842606938
 20
1.4961866586
 30
0.0
 10
3.4845651322
 20
1.4847929091
 30
0.0
  0
SPLINE
  5
3CA
100
AcDbEntity
  8
0
100
AcDbSpline
 62
7
  6
CONTINUOUS
 70
0
 71
3
 72
12
 73
8
 74
0
 42
0.0000001
 43
0.0000001
 44
0.0000000001
 40
0.0
 40
0.0
 40
0.0
 40
0.0
 40
0.3984727921
 40
0.6915041182
 40
0.8001222916
 40
0.8852969733
 40
1.0
 40
1.0
 40
1.0
 40
1.0
 10
3.5221680129
 20
1.6244311705
 30
0.0
 10
3.5222184065
 20
1.6246514232
 30
0.0
 10
3.5223151119
 20
1.6250317487
 30
0.0
 10
3.5224607662
 20
1.6254620521
 30
0.0
 10
3.5225875223
 20
1.6257095961
 30
0.0
 10
3.5226841972
 20
1.6258517686
 30
0.0
 10
3.5227891201
 20
1.6259286375
 30
0.0
 10
3.5228541591
 20
1.625928378
 30
0.0
  0
SPLINE
  5
3CB
100
AcDbEntity
  8
0
100
AcDbSpline
 62
7
  6
CONTINUOUS
 70
0
 71
3
 72
16
 73
12
 74
0
 42
0.0000001
 43
0.0000001
 44
0.0000000001
 40
0.0
 40
0.0
 40
0.0
 40
0.0
 40
0.0168810239
 40
0.0396035274
 40
0.1031788107
 40
0.1913428745
 40
0.3042569906
 40
0.441834265
 40
0.6038308887
 40
0.789979038
 40
1.0
 40
1.0
 40
1.0
 40
1.0
 10
3.5231213287
 20
1.6257002164
 30
0.0
 10
3.5231765481
 20
1.6256061379
 30
0.0
 10
3.5232794381
 20
1.6253703351
 30
0.0
 10
3.5234818709
 20
1.624734853
 30
0.0
 10
3.523716637
 20
1.6236299439
 30
0.0
 10
3.5239847333
 20
1.6219410736
 30
0.0
 10
3.5242543824
 20
1.6197688032
 30
0.0
 10
3.5245265283
 20
1.6171171597
 30
0.0
 10
3.5247996991
 20
1.6139901637
 30
0.0
 10
3.5250738011
 20
1.6103936296
 30
0.0
 10
3.5252466203
 20
1.6078393538
 30
0.0
 10
3.5253339455
 20
1.6064849897
 30
0.0
  0
LINE
  5
3CC
100
AcDbEntity
  8
0
100
AcDbLine
 62
7
  6
CONTINUOUS
 10
3.5259680771
 20
1.5954701691
 11
3.5272377259
 21
1.5665677128
  0
LINE
  5
3CD
100
AcDbEntity
  8
0
100
AcDbLine
 62
7
  6
CONTINUOUS
 10
3.5291236322
 20
1.5078577535
 11
3.5297679322
 21
1.4847929091
  0
SPLINE
  5
3CE
100
AcDbEntity
  8
0
100
AcDbSpline
 62
7
  6
CONTINUOUS
 70
0
 71
3
 72
15
 73
11
 74
0
 42
0.0000001
 43
0.0000001
 44
0.0000000001
 40
0.0
 40
0.0
 40
0.0
 40
0.0
 40
0.0255718697
 40
0.0565086208
 40
0.1341539234
 40
0.2322661771
 40
0.3501460256
 40
0.4870847208
 40
0.6421716254
 40
1.0
 40
1.0
 40
1.0
 40
1.0
 10
3.5131840694
 20
0.9953821201
 30
0.0
 10
3.5130617797
 20
0.9963478123
 30
0.0
 10
3.5128254609
 20
0.9984860714
 30
0.0
 10
3.512358728
 20
1.0035714713
 30
0.0
 10
3.5117986268
 20
1.011420075
 30
0.0
 10
3.5111575868
 20
1.0225792233
 30
0.0
 10
3.5105128303
 20
1.0359983819
 30
0.0
 10
3.5098645203
 20
1.0515882016
 30
0.0
 10
3.508954606
 20
1.0763085065
 30
0.0
 10
3.5083405079
 20
1.0958233267
 30
0.0
 10
3.5079364063
 20
1.1094382254
 30
0.0
  0
SPLINE
  5
3CF
100
AcDbEntity
  8
0
100
AcDbSpline
 62
7
  6
CONTINUOUS
 70
0
 71
3
 72
15
 73
11
 74
0
 42
0.0000001
 43
0.0000001
 44
0.0000000001
 40
0.0
 40
0.0
 40
0.0
 40
0.0
 40
0.0285213295
 40
0.0509126569
 40
0.0799284249
 40
0.1591150579
 40
0.2675599753
 40
0.4058514107
 40
0.57420944
 40
1.0
 40
1.0
 40
1.0
 40
1.0
 10
2.8147254162
 20
1.7286447907
 30
0.0
 10
2.8147261794
 20
1.7287135201
 30
0.0
 10
2.8148216993
 20
1.7288208047
 30
0.0
 10
2.8149834539
 20
1.72891614
 30
0.0
 10
2.8152735156
 20
1.7290455814
 30
0.0
 10
2.8157742579
 20
1.7291929571
 30
0.0
 10
2.8165418395
 20
1.7293629518
 30
0.0
 10
2.8175277198
 20
1.7295330268
 30
0.0
 10
2.8192754324
 20
1.7297817271
 30
0.0
 10
2.8206991769
 20
1.72993694
 30
0.0
 10
2.8217202017
 20
1.7300390088
 30
0.0
  0
SPLINE
  5
3D0
100
AcDbEntity
  8
0
100
AcDbSpline
 62
7
  6
CONTINUOUS
 70
0
 71
3
 72
33
 73
29
 74
0
 42
0.0000001
 43
0.0000001
 44
0.0000000001
 40
0.0
 40
0.0
 40
0.0
 40
0.0
 40
0.0136038268
 40
0.0309004094
 40
0.0517362294
 40
0.0759534859
 40
0.1338912375
 40
0.2031431943
 40
0.2813405735
 40
0.3659808722
 40
0.4545488023
 40
0.5443345613
 40
0.6325086952
 40
0.7162294579
 40
0.7928921139
 40
0.8278908952
 40
0.8603094948
 40
0.8898754828
 40
0.9163160697
 40
0.9393693882
 40
0.9588851478
 40
0.9747805732
 40
0.9813457984
 40
0.9869765541
 40
0.9916634133
 40
0.9953978491
 40
0.9981747768
 40
1.0
 40
1.0
 40
1.0
 40
1.0
 10
2.8217202017
 20
1.7300390088
 30
0.0
 10
2.8235658088
 20
1.7302235086
 30
0.0
 10
2.8277651311
 20
1.7305701136
 30
0.0
 10
2.8348038212
 20
1.731035101
 30
0.0
 10
2.843292087
 20
1.7315034924
 30
0.0
 10
2.8573184646
 20
1.7321720275
 30
0.0
 10
2.8779464357
 20
1.7329803958
 30
0.0
 10
2.9059345273
 20
1.733907439
 30
0.0
 10
2.9375649406
 20
1.7348408729
 30
0.0
 10
2.9718298809
 20
1.7357785108
 30
0.0
 10
3.0076753831
 20
1.736716489
 30
0.0
 10
3.0440028643
 20
1.7376543401
 30
0.0
 10
3.0796692617
 20
1.7385915083
 30
0.0
 10
3.1135457825
 20
1.7395276945
 30
0.0
 10
3.1401730593
 20
1.7403290039
 30
0.0
 10
3.1598067874
 20
1.7409803334
 30
0.0
 10
3.1730214909
 20
1.7414532122
 30
0.0
 10
3.185068563
 20
1.7419251577
 30
0.0
 10
3.1958377062
 20
1.7423957229
 30
0.0
 10
3.2052351687
 20
1.742865346
 30
0.0
 10
3.213192795
 20
1.7433336184
 30
0.0
 10
3.218901848
 20
1.743741513
 30
0.0
 10
3.2227172099
 20
1.7440777032
 30
0.0
 10
3.2250073207
 20
1.744312461
 30
0.0
 10
3.2269087585
 20
1.7445461538
 30
0.0
 10
3.2284194073
 20
1.7447761056
 30
0.0
 10
3.2295315688
 20
1.7450042007
 30
0.0
 10
3.2301384987
 20
1.7451805452
 30
0.0
 10
3.2303635247
 20
1.745286819
 30
0.0
  0
SPLINE
  5
3D1
100
AcDbEntity
  8
0
100
AcDbSpline
 62
7
  6
CONTINUOUS
 70
0
 71
3
 72
10
 73
6
 74
0
 42
0.0000001
 43
0.0000001
 44
0.0000000001
 40
0.0
 40
0.0
 40
0.0
 40
0.0
 40
0.175746724
 40
0.401728186
 40
1.0
 40
1.0
 40
1.0
 40
1.0
 10
3.4679277678
 20
0.9957857214
 30
0.0
 10
3.4677405531
 20
0.9973122663
 30
0.0
 10
3.4673886921
 20
1.0008108657
 30
0.0
 10
3.4666965802
 20
1.0095347573
 30
0.0
 10
3.4662807622
 20
1.0167367306
 30
0.0
 10
3.4660039668
 20
1.0219649619
 30
0.0
  0
SPLINE
  5
3D2
100
AcDbEntity
  8
0
100
AcDbSpline
 62
7
  6
CONTINUOUS
 70
0
 71
3
 72
12
 73
8
 74
0
 42
0.0000001
 43
0.0000001
 44
0.0000000001
 40
0.0
 40
0.0
 40
0.0
 40
0.0
 40
0.0847745867
 40
0.182859538
 40
0.4155979101
 40
0.6908919249
 40
1.0
 40
1.0
 40
1.0
 40
1.0
 10
3.4660039668
 20
1.0219649619
 30
0.0
 10
3.4657711868
 20
1.0263618103
 30
0.0
 10
3.4653160859
 20
1.0358483428
 30
0.0
 10
3.4644192125
 20
1.057415028
 30
0.0
 10
3.4633329183
 20
1.0888770065
 30
0.0
 10
3.4620804462
 20
1.1312990602
 30
0.0
 10
3.4612793716
 20
1.161641095
 30
0.0
 10
3.4608697752
 20
1.1776902646
 30
0.0
  0
LINE
  5
3D3
100
AcDbEntity
  8
0
100
AcDbLine
 62
7
  6
CONTINUOUS
 10
3.4608697752
 20
1.1776902646
 11
3.4550816873
 21
1.4169424704
  0
LINE
  5
3D4
100
AcDbEntity
  8
0
100
AcDbLine
 62
7
  6
CONTINUOUS
 10
3.4550816873
 20
1.4169424704
 11
3.4547414743
 21
1.4300650541
  0
SPLINE
  5
3D5
100
AcDbEntity
  8
0
100
AcDbSpline
 62
7
  6
CONTINUOUS
 70
0
 71
3
 72
10
 73
6
 74
0
 42
0.0000001
 43
0.0000001
 44
0.0000000001
 40
0.0
 40
0.0
 40
0.0
 40
0.0
 40
0.5673159194
 40
0.8030536247
 40
1.0
 40
1.0
 40
1.0
 40
1.0
 10
3.4547414743
 20
1.4300650541
 30
0.0
 10
3.4541050879
 20
1.4543405482
 30
0.0
 10
3.4531562635
 20
1.4887022976
 30
0.0
 10
3.4517048456
 20
1.5314825706
 30
0.0
 10
3.4509596293
 20
1.5499888037
 30
0.0
 10
3.4505711249
 20
1.5584100935
 30
0.0
  0
LINE
  5
3D6
100
AcDbEntity
  8
0
100
AcDbLine
 62
7
  6
CONTINUOUS
 10
3.4505711249
 20
1.5584100935
 11
3.4492809862
 21
1.5820083844
  0
SPLINE
  5
3D7
100
AcDbEntity
  8
0
100
AcDbSpline
 62
7
  6
CONTINUOUS
 70
0
 71
3
 72
12
 73
8
 74
0
 42
0.0000001
 43
0.0000001
 44
0.0000000001
 40
0.0
 40
0.0
 40
0.0
 40
0.0
 40
0.3599439176
 40
0.647378948
 40
0.860915802
 40
0.939729667
 40
1.0
 40
1.0
 40
1.0
 40
1.0
 10
3.4492809862
 20
1.5820083844
 30
0.0
 10
3.4491342284
 20
1.5841817963
 30
0.0
 10
3.4488502787
 20
1.5880896768
 30
0.0
 10
3.4483801505
 20
1.593278584
 30
0.0
 10
3.4479691782
 20
1.5967648602
 30
0.0
 10
3.4476180984
 20
1.5988700454
 30
0.0
 10
3.4474401225
 20
1.5996936234
 30
0.0
 10
3.4473449566
 20
1.6000457428
 30
0.0
  0
SPLINE
  5
3D8
100
AcDbEntity
  8
0
100
AcDbSpline
 62
7
  6
CONTINUOUS
 70
0
 71
3
 72
14
 73
10
 74
0
 42
0.0000001
 43
0.0000001
 44
0.0000000001
 40
0.0
 40
0.0
 40
0.0
 40
0.0
 40
0.0307335945
 40
0.054233317
 40
0.0842653265
 40
0.1650737107
 40
0.2743825058
 40
0.5794889576
 40
1.0
 40
1.0
 40
1.0
 40
1.0
 10
2.8147016369
 20
1.7625165574
 30
0.0
 10
2.8147062959
 20
1.7625812677
 30
0.0
 10
2.8147943372
 20
1.7626787791
 30
0.0
 10
2.8149429219
 20
1.7627694873
 30
0.0
 10
2.8152024929
 20
1.7628893596
 30
0.0
 10
2.8156463179
 20
1.7630274626
 30
0.0
 10
2.8166650514
 20
1.7632659521
 30
0.0
 10
2.8184074128
 20
1.7635405829
 30
0.0
 10
2.8199283414
 20
1.7637224459
 30
0.0
 10
2.8208108947
 20
1.7638177853
 30
0.0
  0
SPLINE
  5
3D9
100
AcDbEntity
  8
0
100
AcDbSpline
 62
7
  6
CONTINUOUS
 70
0
 71
3
 72
16
 73
12
 74
0
 42
0.0000001
 43
0.0000001
 44
0.0000000001
 40
0.0
 40
0.0
 40
0.0
 40
0.0
 40
0.0245847897
 40
0.0554702509
 40
0.1355348936
 40
0.2386890205
 40
0.3623754104
 40
0.5036956374
 40
0.6594298294
 40
0.8261606474
 40
1.0
 40
1.0
 40
1.0
 40
1.0
 10
2.8208108947
 20
1.7638177853
 30
0.0
 10
2.8222594051
 20
1.7639742631
 30
0.0
 10
2.8255336527
 20
1.7642710716
 30
0.0
 10
2.8335445564
 20
1.7648554247
 30
0.0
 10
2.8462146558
 20
1.7655481341
 30
0.0
 10
2.8643851845
 20
1.7663399009
 30
0.0
 10
2.8861886045
 20
1.7671380666
 30
0.0
 10
2.9111095708
 20
1.7679400438
 30
0.0
 10
2.9385825429
 20
1.7687448441
 30
0.0
 10
2.9679833527
 20
1.7695515485
 30
0.0
 10
2.9881591412
 20
1.7700830626
 30
0.0
 10
2.9984576585
 20
1.7703518777
 30
0.0
  0
SPLINE
  5
3DA
100
AcDbEntity
  8
0
100
AcDbSpline
 62
7
  6
CONTINUOUS
 70
0
 71
3
 72
13
 73
9
 74
0
 42
0.0000001
 43
0.0000001
 44
0.0000000001
 40
0.0
 40
0.0
 40
0.0
 40
0.0
 40
0.3074843609
 40
0.5883003482
 40
0.7129298593
 40
0.8242506675
 40
0.9204485868
 40
1.0
 40
1.0
 40
1.0
 40
1.0
 10
3.0402392512
 20
1.7714364886
 30
0.0
 10
3.0574992234
 20
1.7718853094
 30
0.0
 10
3.0905219292
 20
1.7727540127
 30
0.0
 10
3.1305380135
 20
1.7738977252
 30
0.0
 10
3.1595400835
 20
1.774841095
 30
0.0
 10
3.1781785825
 20
1.7755185988
 30
0.0
 10
3.1942840101
 20
1.776193943
 30
0.0
 10
3.2041405358
 20
1.7766880509
 30
0.0
 10
3.2086000255
 20
1.7769462248
 30
0.0
  0
SPLINE
  5
3DB
100
AcDbEntity
  8
0
100
AcDbSpline
 62
7
  6
CONTINUOUS
 70
0
 71
3
 72
17
 73
13
 74
0
 42
0.0000001
 43
0.0000001
 44
0.0000000001
 40
0.0
 40
0.0
 40
0.0
 40
0.0
 40
0.0149058426
 40
0.0359726241
 40
0.0633809651
 40
0.0972083858
 40
0.1842428697
 40
0.2970455623
 40
0.4353424604
 40
0.5988208917
 40
0.7871523159
 40
1.0
 40
1.0
 40
1.0
 40
1.0
 10
3.4884007301
 20
0.9656040444
 30
0.0
 10
3.4883299264
 20
0.9657253676
 30
0.0
 10
3.4882022472
 20
0.9660419745
 30
0.0
 10
3.4880374623
 20
0.9666159074
 30
0.0
 10
3.4878709246
 20
0.9673740671
 30
0.0
 10
3.4876260442
 20
0.9687498272
 30
0.0
 10
3.4873340204
 20
0.9709333064
 30
0.0
 10
3.4870006147
 20
0.9741024578
 30
0.0
 10
3.4866651906
 20
0.9779952299
 30
0.0
 10
3.4863278307
 20
0.9826017125
 30
0.0
 10
3.4859895172
 20
0.9879123337
 30
0.0
 10
3.4857763968
 20
0.9916870521
 30
0.0
 10
3.485668707
 20
0.993690031
 30
0.0
  0
SPLINE
  5
3DC
100
AcDbEntity
  8
0
100
AcDbSpline
 62
7
  6
CONTINUOUS
 70
0
 71
3
 72
15
 73
11
 74
0
 42
0.0000001
 43
0.0000001
 44
0.0000000001
 40
0.0
 40
0.0
 40
0.0
 40
0.0
 40
0.0338055906
 40
0.0731561961
 40
0.1673832209
 40
0.2801154487
 40
0.408263835
 40
0.5482526238
 40
0.6962633539
 40
1.0
 40
1.0
 40
1.0
 40
1.0
 10
3.485668707
 20
0.993690031
 30
0.0
 10
3.4854510318
 20
0.9977386843
 30
0.0
 10
3.4850263593
 20
1.0065025712
 30
0.0
 10
3.4841881249
 20
1.0265603871
 30
0.0
 10
3.4831746737
 20
1.0560847059
 30
0.0
 10
3.4820073695
 20
1.0962592167
 30
0.0
 10
3.4808352416
 20
1.1419241238
 30
0.0
 10
3.4796589019
 20
1.1918213086
 30
0.0
 10
3.478074117
 20
1.2627739755
 30
0.0
 10
3.4769124286
 20
1.3169422107
 30
0.0
 10
3.4761054303
 20
1.35336217
 30
0.0
  0
SPLINE
  5
3DD
100
AcDbEntity
  8
0
100
AcDbSpline
 62
7
  6
CONTINUOUS
 70
0
 71
3
 72
10
 73
6
 74
0
 42
0.0000001
 43
0.0000001
 44
0.0000000001
 40
0.0
 40
0.0
 40
0.0
 40
0.0
 40
0.175746724
 40
0.401728186
 40
1.0
 40
1.0
 40
1.0
 40
1.0
 10
3.4730090178
 20
0.9957857214
 30
0.0
 10
3.4728218031
 20
0.9973122663
 30
0.0
 10
3.4724699421
 20
1.0008108657
 30
0.0
 10
3.4717778302
 20
1.0095347573
 30
0.0
 10
3.4713620122
 20
1.0167367306
 30
0.0
 10
3.4710852168
 20
1.0219649619
 30
0.0
  0
SPLINE
  5
3DE
100
AcDbEntity
  8
0
100
AcDbSpline
 62
7
  6
CONTINUOUS
 70
0
 71
3
 72
16
 73
12
 74
0
 42
0.0000001
 43
0.0000001
 44
0.0000000001
 40
0.0
 40
0.0
 40
0.0
 40
0.0
 40
0.0357386674
 40
0.0773934698
 40
0.1768428224
 40
0.2948052617
 40
0.4270554533
 40
0.5688498162
 40
0.7151031455
 40
0.8605563966
 40
1.0
 40
1.0
 40
1.0
 40
1.0
 10
3.4710852168
 20
1.0219649619
 30
0.0
 10
3.4708363542
 20
1.0266655859
 30
0.0
 10
3.4703511601
 20
1.0368478136
 30
0.0
 10
3.4693962145
 20
1.0601206219
 30
0.0
 10
3.4682426006
 20
1.0942236212
 30
0.0
 10
3.4669129655
 20
1.1402591136
 30
0.0
 10
3.4655775625
 20
1.1918738803
 30
0.0
 10
3.4642381165
 20
1.2472159035
 30
0.0
 10
3.462897335
 20
1.3042973859
 30
0.0
 10
3.4615564928
 20
1.3610691544
 30
0.0
 10
3.4606339184
 20
1.3985821309
 30
0.0
 10
3.4601629373
 20
1.4169424704
 30
0.0
  0
LINE
  5
3DF
100
AcDbEntity
  8
0
100
AcDbLine
 62
7
  6
CONTINUOUS
 10
3.4601629373
 20
1.4169424704
 11
3.4598192394
 21
1.4301979732
  0
SPLINE
  5
3E0
100
AcDbEntity
  8
0
100
AcDbSpline
 62
7
  6
CONTINUOUS
 70
0
 71
3
 72
10
 73
6
 74
0
 42
0.0000001
 43
0.0000001
 44
0.0000000001
 40
0.0
 40
0.0
 40
0.0
 40
0.0
 40
0.5672915735
 40
0.8030310374
 40
1.0
 40
1.0
 40
1.0
 40
1.0
 10
3.4598192394
 20
1.4301979732
 30
0.0
 10
3.4591833889
 20
1.454447287
 30
0.0
 10
3.4582353153
 20
1.4887724845
 30
0.0
 10
3.456785098
 20
1.5315084512
 30
0.0
 10
3.4560405216
 20
1.5499965585
 30
0.0
 10
3.4556523749
 20
1.5584100935
 30
0.0
  0
LINE
  5
3E1
100
AcDbEntity
  8
0
100
AcDbLine
 62
7
  6
CONTINUOUS
 10
3.4556523749
 20
1.5584100935
 11
3.4543622362
 21
1.5820083844
  0
SPLINE
  5
3E2
100
AcDbEntity
  8
0
100
AcDbSpline
 62
7
  6
CONTINUOUS
 70
0
 71
3
 72
20
 73
16
 74
0
 42
0.0000001
 43
0.0000001
 44
0.0000000001
 40
0.0
 40
0.0
 40
0.0
 40
0.0
 40
0.229219668
 40
0.4290380952
 40
0.5990601534
 40
0.7389122812
 40
0.7974280777
 40
0.848328446
 40
0.8916359517
 40
0.9273931174
 40
0.9556835948
 40
0.9766899808
 40
0.9846018424
 40
0.9909376768
 40
1.0
 40
1.0
 40
1.0
 40
1.0
 10
3.4543622362
 20
1.5820083844
 30
0.0
 10
3.4542617052
 20
1.5834971995
 30
0.0
 10
3.4540632217
 20
1.5862831876
 30
0.0
 10
3.4537462531
 20
1.5901702307
 30
0.0
 10
3.45343046
 20
1.5934733408
 30
0.0
 10
3.4531556138
 20
1.5958560476
 30
0.0
 10
3.4529299123
 20
1.5974630774
 30
0.0
 10
3.4527712568
 20
1.5984446624
 30
0.0
 10
3.4526130946
 20
1.599275929
 30
0.0
 10
3.4524561685
 20
1.5999572855
 30
0.0
 10
3.4522997808
 20
1.600488767
 30
0.0
 10
3.4521627817
 20
1.6008362299
 30
0.0
 10
3.452045015
 20
1.6010348393
 30
0.0
 10
3.4519515383
 20
1.6011524358
 30
0.0
 10
3.4518552521
 20
1.6012105823
 30
0.0
 10
3.4517962579
 20
1.6012102492
 30
0.0
  0
SPLINE
  5
3E3
100
AcDbEntity
  8
0
100
AcDbSpline
 62
7
  6
CONTINUOUS
 70
0
 71
3
 72
9
 73
5
 74
0
 42
0.0000001
 43
0.0000001
 44
0.0000000001
 40
0.0
 40
0.0
 40
0.0
 40
0.0
 40
0.5000050324
 40
1.0
 40
1.0
 40
1.0
 40
1.0
 10
3.1451551845
 20
1.6562374392
 30
0.0
 10
3.1377194346
 20
1.6583870009
 30
0.0
 10
3.1227648495
 20
1.6624063863
 30
0.0
 10
3.1076340188
 20
1.6657131392
 30
0.0
 10
3.1000316316
 20
1.6671665111
 30
0.0
  0
SPLINE
  5
3E4
100
AcDbEntity
  8
0
100
AcDbSpline
 62
7
  6
CONTINUOUS
 70
0
 71
3
 72
9
 73
5
 74
0
 42
0.0000001
 43
0.0000001
 44
0.0000000001
 40
0.0
 40
0.0
 40
0.0
 40
0.0
 40
0.4999956306
 40
1.0
 40
1.0
 40
1.0
 40
1.0
 10
3.1000316316
 20
1.6714022411
 30
0.0
 10
3.1076410276
 20
1.6732231793
 30
0.0
 10
3.1227747564
 20
1.6772291704
 30
0.0
 10
3.1377225169
 20
1.6818733158
 30
0.0
 10
3.1451551845
 20
1.6843179662
 30
0.0
  0
SPLINE
  5
3E5
100
AcDbEntity
  8
0
100
AcDbSpline
 62
7
  6
CONTINUOUS
 70
0
 71
3
 72
9
 73
5
 74
0
 42
0.0000001
 43
0.0000001
 44
0.0000000001
 40
0.0
 40
0.0
 40
0.0
 40
0.0
 40
0.7499693809
 40
1.0
 40
1.0
 40
1.0
 40
1.0
 10
3.1451551845
 20
1.6901151492
 30
0.0
 10
3.1340040369
 20
1.6933435464
 30
0.0
 10
3.1189994261
 20
1.6972136494
 30
0.0
 10
3.1038332603
 20
1.7003182555
 30
0.0
 10
3.1000316316
 20
1.7010442211
 30
0.0
  0
SPLINE
  5
3E6
100
AcDbEntity
  8
0
100
AcDbSpline
 62
7
  6
CONTINUOUS
 70
0
 71
3
 72
9
 73
5
 74
0
 42
0.0000001
 43
0.0000001
 44
0.0000000001
 40
0.0
 40
0.0
 40
0.0
 40
0.0
 40
0.4999959626
 40
1.0
 40
1.0
 40
1.0
 40
1.0
 10
2.9453224311
 20
1.6969352318
 30
0.0
 10
2.9377122667
 20
1.6951174904
 30
0.0
 10
2.9225796063
 20
1.6911068931
 30
0.0
 10
2.9076318885
 20
1.6864630945
 30
0.0
 10
2.9001988782
 20
1.6840195067
 30
0.0
  0
SPLINE
  5
3E7
100
AcDbEntity
  8
0
100
AcDbSpline
 62
7
  6
CONTINUOUS
 70
0
 71
3
 72
9
 73
5
 74
0
 42
0.0000001
 43
0.0000001
 44
0.0000000001
 40
0.0
 40
0.0
 40
0.0
 40
0.0
 40
0.5000049516
 40
1.0
 40
1.0
 40
1.0
 40
1.0
 10
2.9001988782
 20
1.6782223238
 30
0.0
 10
2.9076348069
 20
1.6760733846
 30
0.0
 10
2.9225891417
 20
1.6720531821
 30
0.0
 10
2.9377199784
 20
1.6687462887
 30
0.0
 10
2.9453224311
 20
1.6672932518
 30
0.0
  0
SPLINE
  5
3E8
100
AcDbEntity
  8
0
100
AcDbSpline
 62
7
  6
CONTINUOUS
 70
0
 71
3
 72
9
 73
5
 74
0
 42
0.0000001
 43
0.0000001
 44
0.0000000001
 40
0.0
 40
0.0
 40
0.0
 40
0.0
 40
0.4999957022
 40
1.0
 40
1.0
 40
1.0
 40
1.0
 10
2.9453224311
 20
1.6630575218
 30
0.0
 10
2.9377129498
 20
1.6612369343
 30
0.0
 10
2.9225792365
 20
1.6572307591
 30
0.0
 10
2.9076317409
 20
1.6525858509
 30
0.0
 10
2.9001988782
 20
1.6501417967
 30
0.0
  0
SPLINE
  5
3E9
100
AcDbEntity
  8
0
100
AcDbSpline
 62
7
  6
CONTINUOUS
 70
0
 71
3
 72
13
 73
9
 74
0
 42
0.0000001
 43
0.0000001
 44
0.0000000001
 40
0.0
 40
0.0
 40
0.0
 40
0.0
 40
0.4074777172
 40
0.569736063
 40
0.7047779878
 40
0.8132535362
 40
0.8964301744
 40
1.0
 40
1.0
 40
1.0
 40
1.0
 10
3.4894941044
 20
0.9675351178
 30
0.0
 10
3.489433682
 20
0.9672179544
 30
0.0
 10
3.4893414901
 20
0.9667758044
 30
0.0
 10
3.4891940619
 20
0.966236584
 30
0.0
 10
3.4890935411
 20
0.9659318852
 30
0.0
 10
3.4889905629
 20
0.9656912248
 30
0.0
 10
3.4888795602
 20
0.9654932134
 30
0.0
 10
3.4887517715
 20
0.965373032
 30
0.0
 10
3.4886697075
 20
0.9653732356
 30
0.0
  0
SPLINE
  5
3EA
100
AcDbEntity
  8
0
100
AcDbSpline
 62
7
  6
CONTINUOUS
 70
0
 71
3
 72
13
 73
9
 74
0
 42
0.0000001
 43
0.0000001
 44
0.0000000001
 40
0.0
 40
0.0
 40
0.0
 40
0.0
 40
0.0488048996
 40
0.118892308
 40
0.2107773029
 40
0.324631261
 40
0.6183672605
 40
1.0
 40
1.0
 40
1.0
 40
1.0
 10
2.7941930188
 20
1.7403554688
 30
0.0
 10
2.7942916701
 20
1.7402972055
 30
0.0
 10
2.7945526313
 20
1.7401924868
 30
0.0
 10
2.795028015
 20
1.7400561062
 30
0.0
 10
2.7956609356
 20
1.7399168382
 30
0.0
 10
2.7968151643
 20
1.7397101478
 30
0.0
 10
2.7986519581
 20
1.7394619612
 30
0.0
 10
2.8002286605
 20
1.7392951346
 30
0.0
 10
2.8011204123
 20
1.7392090193
 30
0.0
  0
SPLINE
  5
3EB
100
AcDbEntity
  8
0
100
AcDbSpline
 62
7
  6
CONTINUOUS
 70
0
 71
3
 72
14
 73
10
 74
0
 42
0.0000001
 43
0.0000001
 44
0.0000000001
 40
0.0
 40
0.0
 40
0.0
 40
0.0
 40
0.0452864072
 40
0.1129180451
 40
0.2033918663
 40
0.31684057
 40
0.4532763754
 40
0.6126606634
 40
1.0
 40
1.0
 40
1.0
 40
1.0
 10
3.251159682
 20
1.7572924288
 30
0.0
 10
3.2510398281
 20
1.7572217885
 30
0.0
 10
3.2507118298
 20
1.7570993559
 30
0.0
 10
3.2501081987
 20
1.7569408348
 30
0.0
 10
3.2492889117
 20
1.7567791809
 30
0.0
 10
3.2482564399
 20
1.7566144314
 30
0.0
 10
3.2470100088
 20
1.7564481732
 30
0.0
 10
3.2449248941
 20
1.7562093481
 30
0.0
 10
3.2432522026
 20
1.7560550768
 30
0.0
 10
3.2420665158
 20
1.7559547132
 30
0.0
  0
LINE
  5
3EC
100
AcDbEntity
  8
0
100
AcDbLine
 62
7
  6
CONTINUOUS
 10
3.2420665158
 20
1.7559547132
 11
3.2259074699
 21
1.7549262533
  0
SPLINE
  5
3ED
100
AcDbEntity
  8
0
100
AcDbSpline
 62
7
  6
CONTINUOUS
 70
0
 71
3
 72
20
 73
16
 74
0
 42
0.0000001
 43
0.0000001
 44
0.0000000001
 40
0.0
 40
0.0
 40
0.0
 40
0.0
 40
0.0398614348
 40
0.0883273208
 40
0.1444720882
 40
0.2072704976
 40
0.3113179501
 40
0.4232849499
 40
0.5384731464
 40
0.6520422409
 40
0.759233877
 40
0.855547778
 40
0.9369353255
 40
0.9709499474
 40
1.0
 40
1.0
 40
1.0
 40
1.0
 10
3.2259074699
 20
1.7549262533
 30
0.0
 10
3.2205113132
 20
1.7546495793
 30
0.0
 10
3.2085498558
 20
1.7541219862
 30
0.0
 10
3.1889798229
 20
1.7533999427
 30
0.0
 10
3.1662989576
 20
1.7526736582
 30
0.0
 10
3.1360848123
 20
1.7518073104
 30
0.0
 10
3.0983041138
 20
1.7508305451
 30
0.0
 10
3.0534224246
 20
1.7497476874
 30
0.0
 10
3.0072497247
 20
1.7486640786
 30
0.0
 10
2.9617245078
 20
1.7475806372
 30
0.0
 10
2.918758361
 20
1.7465004482
 30
0.0
 10
2.8801558242
 20
1.7454259369
 30
0.0
 10
2.8514725137
 20
1.7444910648
 30
0.0
 10
2.8319071256
 20
1.7437177841
 30
0.0
 10
2.8233675197
 20
1.7433262469
 30
0.0
 10
2.8194349237
 20
1.7431247532
 30
0.0
  0
SPLINE
  5
3EE
100
AcDbEntity
  8
0
100
AcDbSpline
 62
7
  6
CONTINUOUS
 70
0
 71
3
 72
14
 73
10
 74
0
 42
0.0000001
 43
0.0000001
 44
0.0000000001
 40
0.0
 40
0.0
 40
0.0
 40
0.0
 40
0.3696607478
 40
0.5253823879
 40
0.6611570672
 40
0.776633184
 40
0.8716502432
 40
0.9461162988
 40
1.0
 40
1.0
 40
1.0
 40
1.0
 10
2.8194349237
 20
1.7431247532
 30
0.0
 10
2.8164228604
 20
1.7429704246
 30
0.0
 10
2.812142691
 20
1.7427342075
 30
0.0
 10
2.8067604382
 20
1.7423731765
 30
0.0
 10
2.8034497739
 20
1.7421173534
 30
0.0
 10
2.8006362772
 20
1.7418602624
 30
0.0
 10
2.7983250627
 20
1.7416047397
 30
0.0
 10
2.7965202087
 20
1.7413524626
 30
0.0
 10
2.7954893272
 20
1.7411615281
 30
0.0
 10
2.7950624401
 20
1.7410564468
 30
0.0
  0
SPLINE
  5
3EF
100
AcDbEntity
  8
0
100
AcDbSpline
 62
7
  6
CONTINUOUS
 70
0
 71
3
 72
12
 73
8
 74
0
 42
0.0000001
 43
0.0000001
 44
0.0000000001
 40
0.0
 40
0.0
 40
0.0
 40
0.0
 40
0.39605482
 40
0.6886590002
 40
0.7976671704
 40
0.8835408803
 40
1.0
 40
1.0
 40
1.0
 40
1.0
 10
2.7950624401
 20
1.7410564468
 30
0.0
 10
2.7949094938
 20
1.741018798
 30
0.0
 10
2.7946450089
 20
1.7409467829
 30
0.0
 10
2.7943460115
 20
1.7408394547
 30
0.0
 10
2.7941737852
 20
1.7407473902
 30
0.0
 10
2.794074345
 20
1.740677075
 30
0.0
 10
2.7940207813
 20
1.7406024536
 30
0.0
 10
2.7940207813
 20
1.7405561375
 30
0.0
  0
SPLINE
  5
3F0
100
AcDbEntity
  8
0
100
AcDbSpline
 62
7
  6
CONTINUOUS
 70
0
 71
3
 72
12
 73
8
 74
0
 42
0.0000001
 43
0.0000001
 44
0.0000000001
 40
0.0
 40
0.0
 40
0.0
 40
0.0
 40
0.0517310607
 40
0.1238012258
 40
0.330922029
 40
0.6231364021
 40
1.0
 40
1.0
 40
1.0
 40
1.0
 10
3.2511310454
 20
1.6618845263
 30
0.0
 10
3.2510344696
 20
1.6619391614
 30
0.0
 10
3.2507865209
 20
1.6620386592
 30
0.0
 10
3.2501043161
 20
1.6622346168
 30
0.0
 10
3.2488971061
 20
1.6624593253
 30
0.0
 10
3.2470358552
 20
1.6627167577
 30
0.0
 10
3.2456085461
 20
1.6628700621
 30
0.0
 10
3.2448041593
 20
1.6629499265
 30
0.0
  0
SPLINE
  5
3F1
100
AcDbEntity
  8
0
100
AcDbSpline
 62
7
  6
CONTINUOUS
 70
0
 71
3
 72
20
 73
16
 74
0
 42
0.0000001
 43
0.0000001
 44
0.0000000001
 40
0.0
 40
0.0
 40
0.0
 40
0.0
 40
0.1967350901
 40
0.3792844393
 40
0.5434192186
 40
0.6861833946
 40
0.7487991036
 40
0.8051886518
 40
0.8551047856
 40
0.8983050463
 40
0.9345490535
 40
0.9636232819
 40
0.9854438943
 40
0.9936282469
 40
1.0
 40
1.0
 40
1.0
 40
1.0
 10
2.9453354169
 20
1.6630575218
 30
0.0
 10
2.9368231047
 20
1.6628197405
 30
0.0
 10
2.9204125936
 20
1.6623494822
 30
0.0
 10
2.8969019931
 20
1.6616234895
 30
0.0
 10
2.8757287145
 20
1.660898108
 30
0.0
 10
2.8597464719
 20
1.6602726287
 30
0.0
 10
2.8484272939
 20
1.659762541
 30
0.0
 10
2.8411246655
 20
1.6593973077
 30
0.0
 10
2.8346635236
 20
1.6590330713
 30
0.0
 10
2.8290759183
 20
1.6586700483
 30
0.0
 10
2.8243922741
 20
1.658309952
 30
0.0
 10
2.8206375105
 20
1.6579517337
 30
0.0
 10
2.8180984854
 20
1.6576380257
 30
0.0
 10
2.8165463841
 20
1.6573719743
 30
0.0
 10
2.8159303642
 20
1.6572371021
 30
0.0
 10
2.815663981
 20
1.657165649
 30
0.0
  0
LINE
  5
3F2
100
AcDbEntity
  8
0
100
AcDbLine
 62
7
  6
CONTINUOUS
 10
2.815663981
 20
1.657165649
 11
2.8148915307
 21
1.6568809474
  0
SPLINE
  5
3F3
100
AcDbEntity
  8
0
100
AcDbSpline
 62
7
  6
CONTINUOUS
 70
0
 71
3
 72
25
 73
21
 74
0
 42
0.0000001
 43
0.0000001
 44
0.0000000001
 40
0.0
 40
0.0
 40
0.0
 40
0.0
 40
0.2118735179
 40
0.4065862862
 40
0.4957921924
 40
0.5789050664
 40
0.6555389495
 40
0.7253082244
 40
0.7878392237
 40
0.8428068593
 40
0.889899945
 40
0.9288100414
 40
0.95927171
 40
0.9811902157
 40
0.9889430487
 40
0.9920224808
 40
0.994576136
 40
0.9966138084
 40
0.9981565038
 40
1.0
 40
1.0
 40
1.0
 40
1.0
 10
2.9453354169
 20
1.6672932518
 30
0.0
 10
2.9360872673
 20
1.6670349158
 30
0.0
 10
2.9183404079
 20
1.6665252848
 30
0.0
 10
2.8967014321
 20
1.6658499434
 30
0.0
 10
2.8806838702
 20
1.6653010221
 30
0.0
 10
2.8698203193
 20
1.664901792
 30
0.0
 10
2.8598060907
 20
1.6645031307
 30
0.0
 10
2.8506913411
 20
1.6641050786
 30
0.0
 10
2.8425236554
 20
1.6637075716
 30
0.0
 10
2.8353473645
 20
1.663311289
 30
0.0
 10
2.8292043031
 20
1.662916603
 30
0.0
 10
2.8241333189
 20
1.6625259754
 30
0.0
 10
2.8201659943
 20
1.6621381071
 30
0.0
 10
2.8175605596
 20
1.6617980434
 30
0.0
 10
2.8161558984
 20
1.6615274404
 30
0.0
 10
2.8155885897
 20
1.6613838051
 30
0.0
 10
2.8152691292
 20
1.6612863469
 30
0.0
 10
2.8150169724
 20
1.6611857472
 30
0.0
 10
2.8148146186
 20
1.6610809637
 30
0.0
 10
2.8146870637
 20
1.6609537237
 30
0.0
 10
2.8146911464
 20
1.6608733284
 30
0.0
  0
SPLINE
  5
3F4
100
AcDbEntity
  8
0
100
AcDbSpline
 62
7
  6
CONTINUOUS
 70
0
 71
3
 72
11
 73
7
 74
0
 42
0.0000001
 43
0.0000001
 44
0.0000000001
 40
0.0
 40
0.0
 40
0.0
 40
0.0
 40
0.3089065032
 40
0.5826527243
 40
0.8145285129
 40
1.0
 40
1.0
 40
1.0
 40
1.0
 10
2.9001988782
 20
1.6782223238
 30
0.0
 10
2.8914153642
 20
1.6779723071
 30
0.0
 10
2.8748484543
 20
1.6774879792
 30
0.0
 10
2.8516906712
 20
1.6767367213
 30
0.0
 10
2.832046393
 20
1.6759828203
 30
0.0
 10
2.8201874971
 20
1.6754218015
 30
0.0
 10
2.8149200408
 20
1.6751239242
 30
0.0
  0
SPLINE
  5
3F5
100
AcDbEntity
  8
0
100
AcDbSpline
 62
7
  6
CONTINUOUS
 70
0
 71
3
 72
16
 73
12
 74
0
 42
0.0000001
 43
0.0000001
 44
0.0000000001
 40
0.0
 40
0.0
 40
0.0
 40
0.0
 40
0.2088050867
 40
0.3942755521
 40
0.5560700974
 40
0.6938553883
 40
0.8073131604
 40
0.8961574702
 40
0.9602443097
 40
0.9831053106
 40
1.0
 40
1.0
 40
1.0
 40
1.0
 10
2.8149200408
 20
1.6751239242
 30
0.0
 10
2.813476472
 20
1.6750422896
 30
0.0
 10
2.8107510639
 20
1.6748807022
 30
0.0
 10
2.8069090315
 20
1.6746247063
 30
0.0
 10
2.8035598962
 20
1.6743696039
 30
0.0
 10
2.8007110977
 20
1.6741154678
 30
0.0
 10
2.7983692246
 20
1.67386383
 30
0.0
 10
2.7965417938
 20
1.6736139462
 30
0.0
 10
2.7953425281
 20
1.6733952206
 30
0.0
 10
2.7946485899
 20
1.6732063315
 30
0.0
 10
2.7943893523
 20
1.673110457
 30
0.0
 10
2.7942844889
 20
1.6730585939
 30
0.0
  0
SPLINE
  5
3F6
100
AcDbEntity
  8
0
100
AcDbSpline
 62
7
  6
CONTINUOUS
 70
0
 71
3
 72
20
 73
16
 74
0
 42
0.0000001
 43
0.0000001
 44
0.0000000001
 40
0.0
 40
0.0
 40
0.0
 40
0.0
 40
0.196546836
 40
0.378923169
 40
0.5429737443
 40
0.6857035664
 40
0.7482927748
 40
0.8046457438
 40
0.8545348962
 40
0.8977394905
 40
0.9340407932
 40
0.963240998
 40
0.9852403197
 40
0.9935252079
 40
1.0
 40
1.0
 40
1.0
 40
1.0
 10
2.9453352698
 20
1.6969352318
 30
0.0
 10
2.9368325994
 20
1.6966978227
 30
0.0
 10
2.9204406102
 20
1.696228069
 30
0.0
 10
2.896953431
 20
1.6955025958
 30
0.0
 10
2.8757964804
 20
1.6947782744
 30
0.0
 10
2.8598232961
 20
1.694153982
 30
0.0
 10
2.848510305
 20
1.6936446386
 30
0.0
 10
2.8412128486
 20
1.6932798193
 30
0.0
 10
2.8347553987
 20
1.6929159229
 30
0.0
 10
2.8291672597
 20
1.6925531838
 30
0.0
 10
2.8244763019
 20
1.6921932416
 30
0.0
 10
2.820706435
 20
1.6918353173
 30
0.0
 10
2.8181501984
 20
1.6915219794
 30
0.0
 10
2.81658149
 20
1.6912565698
 30
0.0
 10
2.8159565313
 20
1.6911220116
 30
0.0
 10
2.8156855112
 20
1.6910508359
 30
0.0
  0
LINE
  5
3F7
100
AcDbEntity
  8
0
100
AcDbLine
 62
7
  6
CONTINUOUS
 10
2.8156855112
 20
1.6910508359
 11
2.8148754642
 21
1.6907570247
  0
SPLINE
  5
3F8
100
AcDbEntity
  8
0
100
AcDbSpline
 62
7
  6
CONTINUOUS
 70
0
 71
3
 72
26
 73
22
 74
0
 42
0.0000001
 43
0.0000001
 44
0.0000000001
 40
0.0
 40
0.0
 40
0.0
 40
0.0
 40
0.211816646
 40
0.406464405
 40
0.4956620753
 40
0.5787762052
 40
0.6554052506
 40
0.7251480178
 40
0.7876227494
 40
0.8425247364
 40
0.889569889
 40
0.9284768029
 40
0.9589985468
 40
0.9710762497
 40
0.9810202814
 40
0.9888282118
 40
0.9919343095
 40
0.9945131887
 40
0.9965738585
 40
0.9981362161
 40
1.0
 40
1.0
 40
1.0
 40
1.0
 10
2.9453352698
 20
1.7011709618
 30
0.0
 10
2.93608867
 20
1.7009127809
 30
0.0
 10
2.9183453483
 20
1.7004031836
 30
0.0
 10
2.8967098849
 20
1.6997277006
 30
0.0
 10
2.8806938473
 20
1.699179048
 30
0.0
 10
2.8698297105
 20
1.6987800669
 30
0.0
 10
2.8598157762
 20
1.6983816843
 30
0.0
 10
2.8507039317
 20
1.6979838714
 30
0.0
 10
2.8425418926
 20
1.6975864909
 30
0.0
 10
2.8353723534
 20
1.6971900666
 30
0.0
 10
2.8292336501
 20
1.6967956846
 30
0.0
 10
2.8241621599
 20
1.6964037984
 30
0.0
 10
2.8206187364
 20
1.6960605501
 30
0.0
 10
2.8183418466
 20
1.6957746394
 30
0.0
 10
2.8170538115
 20
1.6955780986
 30
0.0
 10
2.8161590289
 20
1.6954064809
 30
0.0
 10
2.8155867856
 20
1.695263025
 30
0.0
 10
2.8152639195
 20
1.6951655383
 30
0.0
 10
2.8150084105
 20
1.6950650906
 30
0.0
 10
2.81480328
 20
1.694960112
 30
0.0
 10
2.8146720637
 20
1.6948341344
 30
0.0
 10
2.8146745807
 20
1.6947527804
 30
0.0
  0
SPLINE
  5
3F9
100
AcDbEntity
  8
0
100
AcDbSpline
 62
7
  6
CONTINUOUS
 70
0
 71
3
 72
14
 73
10
 74
0
 42
0.0000001
 43
0.0000001
 44
0.0000000001
 40
0.0
 40
0.0
 40
0.0
 40
0.0
 40
0.0455217431
 40
0.1133059508
 40
0.2038625993
 40
0.3173310876
 40
0.4537275164
 40
0.6130157827
 40
1.0
 40
1.0
 40
1.0
 40
1.0
 10
2.7941975243
 20
1.7742266624
 30
0.0
 10
2.7943179245
 20
1.7741556317
 30
0.0
 10
2.7946468353
 20
1.7740325825
 30
0.0
 10
2.7952516861
 20
1.773873894
 30
0.0
 10
2.7960715135
 20
1.7737126083
 30
0.0
 10
2.7971039065
 20
1.773548679
 30
0.0
 10
2.7983496343
 20
1.7733835228
 30
0.0
 10
2.8004326231
 20
1.7731465144
 30
0.0
 10
2.8021033676
 20
1.772993355
 30
0.0
 10
2.8032875469
 20
1.7728935682
 30
0.0
  0
SPLINE
  5
3FA
100
AcDbEntity
  8
0
100
AcDbSpline
 62
7
  6
CONTINUOUS
 70
0
 71
3
 72
12
 73
8
 74
0
 42
0.0000001
 43
0.0000001
 44
0.0000000001
 40
0.0
 40
0.0
 40
0.0
 40
0.0
 40
0.396290008
 40
0.6887464365
 40
0.7976242723
 40
0.8833922671
 40
1.0
 40
1.0
 40
1.0
 40
1.0
 10
2.7951864857
 20
1.7119324121
 30
0.0
 10
2.7950160887
 20
1.7119723968
 30
0.0
 10
2.7947214798
 20
1.7120491362
 30
0.0
 10
2.7943881237
 20
1.7121646357
 30
0.0
 10
2.794195988
 20
1.7122648201
 30
0.0
 10
2.7940847918
 20
1.7123418433
 30
0.0
 10
2.7940248477
 20
1.7124243738
 30
0.0
 10
2.7940244036
 20
1.7124758729
 30
0.0
  0
SPLINE
  5
3FB
100
AcDbEntity
  8
0
100
AcDbSpline
 62
7
  6
CONTINUOUS
 70
0
 71
3
 72
11
 73
7
 74
0
 42
0.0000001
 43
0.0000001
 44
0.0000000001
 40
0.0
 40
0.0
 40
0.0
 40
0.0
 40
0.3089065794
 40
0.582652706
 40
0.8145284529
 40
1.0
 40
1.0
 40
1.0
 40
1.0
 10
2.9001988782
 20
1.7121000338
 30
0.0
 10
2.8914153806
 20
1.7118493631
 30
0.0
 10
2.8748484802
 20
1.7113647749
 30
0.0
 10
2.8516906657
 20
1.710614528
 30
0.0
 10
2.832046381
 20
1.7098607901
 30
0.0
 10
2.8201874935
 20
1.7092995742
 30
0.0
 10
2.8149200389
 20
1.7090016341
 30
0.0
  0
SPLINE
  5
3FC
100
AcDbEntity
  8
0
100
AcDbSpline
 62
7
  6
CONTINUOUS
 70
0
 71
3
 72
16
 73
12
 74
0
 42
0.0000001
 43
0.0000001
 44
0.0000000001
 40
0.0
 40
0.0
 40
0.0
 40
0.0
 40
0.2088053885
 40
0.3942760995
 40
0.556070823
 40
0.6938562121
 40
0.8073139862
 40
0.8961581791
 40
0.9602447524
 40
0.9831055558
 40
1.0
 40
1.0
 40
1.0
 40
1.0
 10
2.8149200389
 20
1.7090016341
 30
0.0
 10
2.8134764705
 20
1.7089199823
 30
0.0
 10
2.8107510632
 20
1.7087583679
 30
0.0
 10
2.8069090313
 20
1.7085023509
 30
0.0
 10
2.8035598964
 20
1.7082472454
 30
0.0
 10
2.8007110981
 20
1.7079931207
 30
0.0
 10
2.7983692254
 20
1.7077415052
 30
0.0
 10
2.7965417953
 20
1.7074916506
 30
0.0
 10
2.7953425299
 20
1.7072729549
 30
0.0
 10
2.7946485913
 20
1.7070840894
 30
0.0
 10
2.7943893533
 20
1.7069882258
 30
0.0
 10
2.7942844895
 20
1.7069363676
 30
0.0
  0
SPLINE
  5
3FD
100
AcDbEntity
  8
0
100
AcDbSpline
 62
7
  6
CONTINUOUS
 70
0
 71
3
 72
15
 73
11
 74
0
 42
0.0000001
 43
0.0000001
 44
0.0000000001
 40
0.0
 40
0.0
 40
0.0
 40
0.0
 40
0.0260362713
 40
0.0477474484
 40
0.0763929227
 40
0.1122711828
 40
0.1555228366
 40
0.2643903114
 40
0.5721646578
 40
1.0
 40
1.0
 40
1.0
 40
1.0
 10
3.2306586512
 20
1.6735858042
 30
0.0
 10
3.230662296
 20
1.6735058696
 30
0.0
 10
3.2305362831
 20
1.6733796691
 30
0.0
 10
3.2303358075
 20
1.673275186
 30
0.0
 10
3.2300865462
 20
1.6731752073
 30
0.0
 10
3.2297707871
 20
1.6730782735
 30
0.0
 10
3.229210235
 20
1.6729354789
 30
0.0
 10
3.2278222859
 20
1.6726664007
 30
0.0
 10
3.2252472973
 20
1.6723283
 30
0.0
 10
3.2229974906
 20
1.6721069372
 30
0.0
 10
3.221687802
 20
1.6719902856
 30
0.0
  0
SPLINE
  5
3FE
100
AcDbEntity
  8
0
100
AcDbSpline
 62
7
  6
CONTINUOUS
 70
0
 71
3
 72
14
 73
10
 74
0
 42
0.0000001
 43
0.0000001
 44
0.0000000001
 40
0.0
 40
0.0
 40
0.0
 40
0.0
 40
0.0659537484
 40
0.1514430203
 40
0.2553201877
 40
0.3763352698
 40
0.5130900973
 40
0.6641144683
 40
1.0
 40
1.0
 40
1.0
 40
1.0
 10
3.221687802
 20
1.6719902856
 30
0.0
 10
3.2190212244
 20
1.6717527784
 30
0.0
 10
3.2128890352
 20
1.6713131588
 30
0.0
 10
3.2025418509
 20
1.6707268592
 30
0.0
 10
3.1899567921
 20
1.6701362489
 30
0.0
 10
3.1752891275
 20
1.6695421739
 30
0.0
 10
3.1587064009
 20
1.6689457415
 30
0.0
 10
3.1334046133
 20
1.6681201787
 30
0.0
 10
3.1136486608
 20
1.6675472495
 30
0.0
 10
3.1000200219
 20
1.6671665111
 30
0.0
  0
SPLINE
  5
3FF
100
AcDbEntity
  8
0
100
AcDbSpline
 62
9
  6
CONTINUOUS
 70
0
 71
3
 72
18
 73
14
 74
0
 42
0.0000001
 43
0.0000001
 44
0.0000000001
 40
0.0
 40
0.0
 40
0.0
 40
0.0
 40
0.0041595538
 40
0.0166379626
 40
0.0374281057
 40
0.0664521682
 40
0.103591892
 40
0.1487286153
 40
0.2624975625
 40
0.4064282467
 40
0.5788842512
 40
0.7777376551
 40
1.0
 40
1.0
 40
1.0
 40
1.0
 10
2.1035135164
 20
0.5002100613
 30
0.0
 10
2.1035136115
 20
0.5003294395
 30
0.0
 10
2.1034979912
 20
0.5008067915
 30
0.0
 10
2.103482312
 20
0.5018808107
 30
0.0
 10
2.1034432289
 20
0.5036682061
 30
0.0
 10
2.1033927365
 20
0.5061632391
 30
0.0
 10
2.1033216488
 20
0.5093567573
 30
0.0
 10
2.1031893183
 20
0.5149816602
 30
0.0
 10
2.1029626664
 20
0.5236700671
 30
0.0
 10
2.1025881187
 20
0.5360098071
 30
0.0
 10
2.1020595422
 20
0.5507877246
 30
0.0
 10
2.1013460873
 20
0.5678082758
 30
0.0
 10
2.100755102
 20
0.5798798875
 30
0.0
 10
2.1004191551
 20
0.5862499173
 30
0.0
  0
SPLINE
  5
400
100
AcDbEntity
  8
0
100
AcDbSpline
 62
7
  6
CONTINUOUS
 70
0
 71
3
 72
12
 73
8
 74
0
 42
0.0000001
 43
0.0000001
 44
0.0000000001
 40
0.0
 40
0.0
 40
0.0
 40
0.0
 40
0.3947237085
 40
0.686635962
 40
0.7956190907
 40
0.8817602164
 40
1.0
 40
1.0
 40
1.0
 40
1.0
 10
2.7950624396
 20
1.7749411625
 30
0.0
 10
2.7949094606
 20
1.7749034153
 30
0.0
 10
2.7946448619
 20
1.7748310781
 30
0.0
 10
2.7943457491
 20
1.774722681
 30
0.0
 10
2.7941736655
 20
1.7746293247
 30
0.0
 10
2.7940736749
 20
1.7745572999
 30
0.0
 10
2.7940207813
 20
1.7744810469
 30
0.0
 10
2.7940207813
 20
1.7744338475
 30
0.0
  0
LINE
  5
401
100
AcDbEntity
  8
0
100
AcDbLine
 62
7
  6
CONTINUOUS
 10
3.2296299419
 20
1.70799263
 11
3.2304365629
 21
1.7077029415
  0
SPLINE
  5
402
100
AcDbEntity
  8
0
100
AcDbSpline
 62
7
  6
CONTINUOUS
 70
0
 71
3
 72
11
 73
7
 74
0
 42
0.0000001
 43
0.0000001
 44
0.0000000001
 40
0.0
 40
0.0
 40
0.0
 40
0.0
 40
0.3089057967
 40
0.582652954
 40
0.8145290937
 40
1.0
 40
1.0
 40
1.0
 40
1.0
 10
3.1451551845
 20
1.6901151492
 30
0.0
 10
3.153938855
 20
1.6903589118
 30
0.0
 10
3.1705058644
 20
1.6908407636
 30
0.0
 10
3.1936633517
 20
1.6916016949
 30
0.0
 10
3.2133075752
 20
1.692357077
 30
0.0
 10
3.2251665533
 20
1.6929162071
 30
0.0
 10
3.2304340238
 20
1.6932135489
 30
0.0
  0
SPLINE
  5
403
100
AcDbEntity
  8
0
100
AcDbSpline
 62
7
  6
CONTINUOUS
 70
0
 71
3
 72
16
 73
12
 74
0
 42
0.0000001
 43
0.0000001
 44
0.0000000001
 40
0.0
 40
0.0
 40
0.0
 40
0.0
 40
0.2088041344
 40
0.394274051
 40
0.5560684467
 40
0.6938539577
 40
0.8073122405
 40
0.8961571673
 40
0.960244395
 40
0.9831054284
 40
1.0
 40
1.0
 40
1.0
 40
1.0
 10
3.2304340238
 20
1.6932135489
 30
0.0
 10
3.2318775965
 20
1.6932950367
 30
0.0
 10
3.234603011
 20
1.6934564111
 30
0.0
 10
3.2384450463
 20
1.6937122845
 30
0.0
 10
3.2417941811
 20
1.6939674203
 30
0.0
 10
3.2446429767
 20
1.6942216864
 30
0.0
 10
3.2469848451
 20
1.6944734907
 30
0.0
 10
3.248812269
 20
1.6947235229
 30
0.0
 10
3.2500115308
 20
1.6949423123
 30
0.0
 10
3.2507054682
 20
1.695131215
 30
0.0
 10
3.2509647059
 20
1.6952270875
 30
0.0
 10
3.2510695701
 20
1.6952789475
 30
0.0
  0
LINE
  5
404
100
AcDbEntity
  8
0
100
AcDbLine
 62
7
  6
CONTINUOUS
 10
3.2295766074
 20
1.6741296779
 11
3.2304362293
 21
1.6738286408
  0
LINE
  5
405
100
AcDbEntity
  8
0
100
AcDbLine
 62
7
  6
CONTINUOUS
 10
3.2496923895
 20
1.6271350004
 11
3.2512495436
 21
1.6276441279
  0
LINE
  5
406
100
AcDbEntity
  8
0
100
AcDbLine
 62
7
  6
CONTINUOUS
 10
3.2508031083
 20
1.6562243682
 11
3.2513257634
 21
1.6558585176
  0
SPLINE
  5
407
100
AcDbEntity
  8
0
100
AcDbSpline
 62
7
  6
CONTINUOUS
 70
0
 71
3
 72
11
 73
7
 74
0
 42
0.0000001
 43
0.0000001
 44
0.0000000001
 40
0.0
 40
0.0
 40
0.0
 40
0.0
 40
0.3089063894
 40
0.5826527661
 40
0.8145286132
 40
1.0
 40
1.0
 40
1.0
 40
1.0
 10
3.1451551845
 20
1.6562374392
 30
0.0
 10
3.1539387254
 20
1.6564864036
 30
0.0
 10
3.170505652
 20
1.6569703148
 30
0.0
 10
3.1936633862
 20
1.6577232002
 30
0.0
 10
3.2133076553
 20
1.6584773513
 30
0.0
 10
3.2251665651
 20
1.6590380523
 30
0.0
 10
3.2304340238
 20
1.6593358389
 30
0.0
  0
SPLINE
  5
408
100
AcDbEntity
  8
0
100
AcDbSpline
 62
7
  6
CONTINUOUS
 70
0
 71
3
 72
16
 73
12
 74
0
 42
0.0000001
 43
0.0000001
 44
0.0000000001
 40
0.0
 40
0.0
 40
0.0
 40
0.0
 40
0.2088049068
 40
0.3942752613
 40
0.556069765
 40
0.6938550806
 40
0.8073129326
 40
0.8961573512
 40
0.9602442786
 40
0.9831053044
 40
1.0
 40
1.0
 40
1.0
 40
1.0
 10
3.2304340238
 20
1.6593358389
 30
0.0
 10
3.2318775932
 20
1.6594174486
 30
0.0
 10
3.2346030021
 20
1.6595789997
 30
0.0
 10
3.2384450348
 20
1.659834974
 30
0.0
 10
3.2417941697
 20
1.6600900815
 30
0.0
 10
3.2446429675
 20
1.6603442392
 30
0.0
 10
3.2469848397
 20
1.6605959055
 30
0.0
 10
3.2488122693
 20
1.6608458156
 30
0.0
 10
3.2500115343
 20
1.6610645543
 30
0.0
 10
3.2507054723
 20
1.6612534479
 30
0.0
 10
3.2509647099
 20
1.6613493232
 30
0.0
 10
3.2510695733
 20
1.6614011863
 30
0.0
  0
SPLINE
  5
409
100
AcDbEntity
  8
0
100
AcDbSpline
 62
7
  6
CONTINUOUS
 70
0
 71
3
 72
13
 73
9
 74
0
 42
0.0000001
 43
0.0000001
 44
0.0000000001
 40
0.0
 40
0.0
 40
0.0
 40
0.0
 40
0.0508540077
 40
0.1222560965
 40
0.2148282422
 40
0.3288464754
 40
0.6215578272
 40
1.0
 40
1.0
 40
1.0
 40
1.0
 10
3.2511451396
 20
1.6895222694
 30
0.0
 10
3.2510508191
 20
1.6894669263
 30
0.0
 10
3.2508058709
 20
1.6893666085
 30
0.0
 10
3.2503625681
 20
1.6892369554
 30
0.0
 10
3.2497788172
 20
1.6891059428
 30
0.0
 10
3.2487223978
 20
1.6889135433
 30
0.0
 10
3.2470489296
 20
1.6886839636
 30
0.0
 10
3.2456139972
 20
1.6885287391
 30
0.0
 10
3.2448041707
 20
1.688448263
 30
0.0
  0
LINE
  5
40A
100
AcDbEntity
  8
0
100
AcDbLine
 62
7
  6
CONTINUOUS
 10
3.2448041707
 20
1.688448263
 11
3.2304235089
 21
1.6874157724
  0
SPLINE
  5
40B
100
AcDbEntity
  8
0
100
AcDbSpline
 62
7
  6
CONTINUOUS
 70
0
 71
3
 72
10
 73
6
 74
0
 42
0.0000001
 43
0.0000001
 44
0.0000000001
 40
0.0
 40
0.0
 40
0.0
 40
0.0
 40
0.2014060122
 40
0.4377536824
 40
1.0
 40
1.0
 40
1.0
 40
1.0
 10
3.2203375754
 20
1.6869001464
 30
0.0
 10
3.2152926761
 20
1.6866638601
 30
0.0
 10
3.2043250844
 20
1.6862051252
 30
0.0
 10
3.1792654455
 20
1.6853016338
 30
0.0
 10
3.1592486684
 20
1.6847055365
 30
0.0
 10
3.1451551845
 20
1.6843179662
 30
0.0
  0
SPLINE
  5
40C
100
AcDbEntity
  8
0
100
AcDbSpline
 62
7
  6
CONTINUOUS
 70
0
 71
3
 72
14
 73
10
 74
0
 42
0.0000001
 43
0.0000001
 44
0.0000000001
 40
0.0
 40
0.0
 40
0.0
 40
0.0
 40
0.0477004964
 40
0.1169638491
 40
0.2083403296
 40
0.3220117876
 40
0.4580308418
 40
0.6163937196
 40
1.0
 40
1.0
 40
1.0
 40
1.0
 10
3.2304566378
 20
1.677577708
 30
0.0
 10
3.2303346648
 20
1.6775060119
 30
0.0
 10
3.2300085279
 20
1.6773795654
 30
0.0
 10
3.2294127603
 20
1.6772171352
 30
0.0
 10
3.228615117
 20
1.6770529095
 30
0.0
 10
3.227617191
 20
1.6768869625
 30
0.0
 10
3.2264182465
 20
1.6767202223
 30
0.0
 10
3.2244214235
 20
1.6764815909
 30
0.0
 10
3.2228211267
 20
1.6763269588
 30
0.0
 10
3.221687802
 20
1.6762260156
 30
0.0
  0
SPLINE
  5
40D
100
AcDbEntity
  8
0
100
AcDbSpline
 62
7
  6
CONTINUOUS
 70
0
 71
3
 72
14
 73
10
 74
0
 42
0.0000001
 43
0.0000001
 44
0.0000000001
 40
0.0
 40
0.0
 40
0.0
 40
0.0
 40
0.0659537484
 40
0.1514430203
 40
0.2553201877
 40
0.3763352698
 40
0.5130900973
 40
0.6641144683
 40
1.0
 40
1.0
 40
1.0
 40
1.0
 10
3.221687802
 20
1.6762260156
 30
0.0
 10
3.2190212244
 20
1.6759885084
 30
0.0
 10
3.2128890352
 20
1.6755488888
 30
0.0
 10
3.2025418509
 20
1.6749625892
 30
0.0
 10
3.1899567921
 20
1.6743719789
 30
0.0
 10
3.1752891275
 20
1.6737779039
 30
0.0
 10
3.1587064009
 20
1.6731814715
 30
0.0
 10
3.1334046133
 20
1.6723559087
 30
0.0
 10
3.1136486608
 20
1.6717829795
 30
0.0
 10
3.1000200219
 20
1.6714022411
 30
0.0
  0
SPLINE
  5
40E
100
AcDbEntity
  8
0
100
AcDbSpline
 62
7
  6
CONTINUOUS
 70
0
 71
3
 72
13
 73
9
 74
0
 42
0.0000001
 43
0.0000001
 44
0.0000000001
 40
0.0
 40
0.0
 40
0.0
 40
0.0
 40
0.0486452202
 40
0.1186976363
 40
0.2106779658
 40
0.3246900214
 40
0.6186656759
 40
1.0
 40
1.0
 40
1.0
 40
1.0
 10
2.7942292075
 20
1.7127051655
 30
0.0
 10
2.7943450406
 20
1.7127696669
 30
0.0
 10
2.7946500996
 20
1.7128841255
 30
0.0
 10
2.7952047768
 20
1.7130314085
 30
0.0
 10
2.7959428543
 20
1.7131803217
 30
0.0
 10
2.7972877374
 20
1.7133998494
 30
0.0
 10
2.7994237935
 20
1.7136615311
 30
0.0
 10
2.8012558462
 20
1.7138382264
 30
0.0
 10
2.8022911114
 20
1.7139298898
 30
0.0
  0
LINE
  5
40F
100
AcDbEntity
  8
0
100
AcDbLine
 62
7
  6
CONTINUOUS
 10
2.8022911114
 20
1.7139298898
 11
2.8172887444
 21
1.7149290261
  0
SPLINE
  5
410
100
AcDbEntity
  8
0
100
AcDbSpline
 62
7
  6
CONTINUOUS
 70
0
 71
3
 72
11
 73
7
 74
0
 42
0.0000001
 43
0.0000001
 44
0.0000000001
 40
0.0
 40
0.0
 40
0.0
 40
0.0
 40
0.1847896692
 40
0.4173173629
 40
0.6914185232
 40
1.0
 40
1.0
 40
1.0
 40
1.0
 10
2.8172887444
 20
1.7149290261
 30
0.0
 10
2.8235902677
 20
1.7152670435
 30
0.0
 10
2.8378281549
 20
1.7158988976
 30
0.0
 10
2.8614249611
 20
1.7167473195
 30
0.0
 10
2.8892514486
 20
1.7176021119
 30
0.0
 10
2.9091426548
 20
1.7181472777
 30
0.0
 10
2.9196770636
 20
1.7184255285
 30
0.0
  0
LINE
  5
411
100
AcDbEntity
  8
0
100
AcDbLine
 62
7
  6
CONTINUOUS
 10
2.9796377424
 20
1.7199240411
 11
3.0005964857
 21
1.7204235573
  0
LINE
  5
412
100
AcDbEntity
  8
0
100
AcDbLine
 62
7
  6
CONTINUOUS
 10
3.1240109073
 20
1.7234205947
 11
3.1425372414
 21
1.7239202364
  0
SPLINE
  5
413
100
AcDbEntity
  8
0
100
AcDbSpline
 62
7
  6
CONTINUOUS
 70
0
 71
3
 72
10
 73
6
 74
0
 42
0.0000001
 43
0.0000001
 44
0.0000000001
 40
0.0
 40
0.0
 40
0.0
 40
0.0
 40
0.5763246235
 40
0.8095970123
 40
1.0
 40
1.0
 40
1.0
 40
1.0
 10
3.1425372414
 20
1.7239202364
 30
0.0
 10
3.1588140194
 20
1.7243710804
 30
0.0
 10
3.1816781769
 20
1.7250432305
 30
0.0
 10
3.2099119658
 20
1.7260932994
 30
0.0
 10
3.2218702251
 20
1.7266344421
 30
0.0
 10
3.2272421888
 20
1.7269190091
 30
0.0
  0
SPLINE
  5
414
100
AcDbEntity
  8
0
100
AcDbSpline
 62
7
  6
CONTINUOUS
 70
0
 71
3
 72
13
 73
9
 74
0
 42
0.0000001
 43
0.0000001
 44
0.0000000001
 40
0.0
 40
0.0
 40
0.0
 40
0.0
 40
0.3698945543
 40
0.6613667063
 40
0.7767819537
 40
0.8717261592
 40
0.9461296735
 40
1.0
 40
1.0
 40
1.0
 40
1.0
 10
3.2272421888
 20
1.7269190091
 30
0.0
 10
3.2300994181
 20
1.727070364
 30
0.0
 10
3.235206946
 20
1.7273627662
 30
0.0
 10
3.2412010526
 20
1.7277874305
 30
0.0
 10
3.2450669734
 20
1.7281389091
 30
0.0
 10
3.2472569095
 20
1.7283791982
 30
0.0
 10
3.2489668934
 20
1.7286180708
 30
0.0
 10
3.2499433746
 20
1.7288017692
 30
0.0
 10
3.2503471533
 20
1.7289047402
 30
0.0
  0
SPLINE
  5
415
100
AcDbEntity
  8
0
100
AcDbSpline
 62
7
  6
CONTINUOUS
 70
0
 71
3
 72
12
 73
8
 74
0
 42
0.0000001
 43
0.0000001
 44
0.0000000001
 40
0.0
 40
0.0
 40
0.0
 40
0.0
 40
0.3899282646
 40
0.679475126
 40
0.7884583768
 40
0.8756339093
 40
1.0
 40
1.0
 40
1.0
 40
1.0
 10
3.2503471533
 20
1.7289047402
 30
0.0
 10
3.2504921306
 20
1.7289417121
 30
0.0
 10
3.2507431165
 20
1.7290128818
 30
0.0
 10
3.2510265867
 20
1.7291209525
 30
0.0
 10
3.2511890125
 20
1.7292146508
 30
0.0
 10
3.2512852437
 20
1.7292891725
 30
0.0
 10
3.2513332813
 20
1.7293667456
 30
0.0
 10
3.2513332813
 20
1.7294144654
 30
0.0
  0
SPLINE
  5
416
100
AcDbEntity
  8
0
100
AcDbSpline
 62
7
  6
CONTINUOUS
 70
0
 71
3
 72
12
 73
8
 74
0
 42
0.0000001
 43
0.0000001
 44
0.0000000001
 40
0.0
 40
0.0
 40
0.0
 40
0.0
 40
0.051403632
 40
0.1232253191
 40
0.3301339868
 40
0.62253959
 40
1.0
 40
1.0
 40
1.0
 40
1.0
 10
3.2511363847
 20
1.6957591886
 30
0.0
 10
3.2510406452
 20
1.6958140854
 30
0.0
 10
3.2507938243
 20
1.695913912
 30
0.0
 10
3.2501128849
 20
1.6961105216
 30
0.0
 10
3.2489051174
 20
1.6963357932
 30
0.0
 10
3.2470409437
 20
1.6965940065
 30
0.0
 10
3.2456105898
 20
1.6967477148
 30
0.0
 10
3.2448041641
 20
1.6968278118
 30
0.0
  0
SPLINE
  5
417
100
AcDbEntity
  8
0
100
AcDbSpline
 62
7
  6
CONTINUOUS
 70
0
 71
3
 72
13
 73
9
 74
0
 42
0.0000001
 43
0.0000001
 44
0.0000000001
 40
0.0
 40
0.0
 40
0.0
 40
0.0
 40
0.0512338083
 40
0.1228075742
 40
0.2154112784
 40
0.3294008291
 40
0.6220631994
 40
1.0
 40
1.0
 40
1.0
 40
1.0
 10
2.8149326728
 20
1.7246486932
 30
0.0
 10
2.8150346464
 20
1.7247079639
 30
0.0
 10
2.8152979524
 20
1.7248158579
 30
0.0
 10
2.8157737349
 20
1.7249554587
 30
0.0
 10
2.8163988962
 20
1.7250964523
 30
0.0
 10
2.8175295757
 20
1.7253033676
 30
0.0
 10
2.8193196502
 20
1.725549862
 30
0.0
 10
2.8208544524
 20
1.7257167324
 30
0.0
 10
2.8217202017
 20
1.7258032788
 30
0.0
  0
SPLINE
  5
418
100
AcDbEntity
  8
0
100
AcDbSpline
 62
7
  6
CONTINUOUS
 70
0
 71
3
 72
39
 73
35
 74
0
 42
0.0000001
 43
0.0000001
 44
0.0000000001
 40
0.0
 40
0.0
 40
0.0
 40
0.0
 40
0.0138883585
 40
0.0316063108
 40
0.0529913177
 40
0.0778762512
 40
0.1374667268
 40
0.208671983
 40
0.2889605607
 40
0.3756857223
 40
0.4661746275
 40
0.5575318643
 40
0.6467609183
 40
0.6896366423
 40
0.7308642408
 40
0.7701420951
 40
0.8071866597
 40
0.8417142982
 40
0.8734386143
 40
0.9020709529
 40
0.9273231227
 40
0.9489630468
 40
0.9668859516
 40
0.97442677
 40
0.9810065537
 40
0.9866152943
 40
0.99124304
 40
0.9948811186
 40
0.9963275857
 40
0.9975258824
 40
0.9984779872
 40
0.9991896257
 40
0.9996775843
 40
1.0
 40
1.0
 40
1.0
 40
1.0
 10
2.8217202017
 20
1.7258032788
 30
0.0
 10
2.823606461
 20
1.7259918425
 30
0.0
 10
2.8279065187
 20
1.7263453484
 30
0.0
 10
2.8351240057
 20
1.7268190648
 30
0.0
 10
2.8438449982
 20
1.7272963348
 30
0.0
 10
2.8582781742
 20
1.7279778931
 30
0.0
 10
2.8795118187
 20
1.7288012461
 30
0.0
 10
2.9083078726
 20
1.7297457137
 30
0.0
 10
2.9408091845
 20
1.7306969422
 30
0.0
 10
2.9759434633
 20
1.7316523043
 30
0.0
 10
3.0125890626
 20
1.7326077369
 30
0.0
 10
3.0495765359
 20
1.7335631293
 30
0.0
 10
3.0800668547
 20
1.7343688688
 30
0.0
 10
3.1037164608
 20
1.7350220527
 30
0.0
 10
3.1205501638
 20
1.7355055958
 30
0.0
 10
3.1365876206
 20
1.7359888974
 30
0.0
 10
3.1517101578
 20
1.7364717803
 30
0.0
 10
3.165801153
 20
1.7369540654
 30
0.0
 10
3.1787432498
 20
1.7374355095
 30
0.0
 10
3.1904183993
 20
1.7379157858
 30
0.0
 10
3.2007158961
 20
1.7383945301
 30
0.0
 10
3.2095498311
 20
1.738872711
 30
0.0
 10
3.2159659219
 20
1.7392884803
 30
0.0
 10
3.22032639
 20
1.7396294683
 30
0.0
 10
3.2230086343
 20
1.7398696491
 30
0.0
 10
3.2252916062
 20
1.7401086311
 30
0.0
 10
3.2271705424
 20
1.7403462745
 30
0.0
 10
3.2284802837
 20
1.7405543367
 30
0.0
 10
3.2293204385
 20
1.7407272548
 30
0.0
 10
3.2297967872
 20
1.7408466475
 30
0.0
 10
3.2301699624
 20
1.7409637659
 30
0.0
 10
3.2304394151
 20
1.7410825559
 30
0.0
 10
3.2306155229
 20
1.7411950595
 30
0.0
 10
3.2306745798
 20
1.7413016405
 30
0.0
 10
3.2306739247
 20
1.741345643
 30
0.0
  0
SPLINE
  5
419
100
AcDbEntity
  8
0
100
AcDbSpline
 62
7
  6
CONTINUOUS
 70
0
 71
3
 72
16
 73
12
 74
0
 42
0.0000001
 43
0.0000001
 44
0.0000000001
 40
0.0
 40
0.0
 40
0.0
 40
0.0
 40
0.0263706592
 40
0.0483269125
 40
0.0771925811
 40
0.1132505889
 40
0.1566360593
 40
0.265628453
 40
0.4044410452
 40
0.5731287236
 40
1.0
 40
1.0
 40
1.0
 40
1.0
 10
3.2306499295
 20
1.7074592421
 30
0.0
 10
3.2306500152
 20
1.7073774844
 30
0.0
 10
3.2305184548
 20
1.7072537622
 30
0.0
 10
3.2303134521
 20
1.7071482704
 30
0.0
 10
3.2300594914
 20
1.7070483666
 30
0.0
 10
3.229739095
 20
1.7069510611
 30
0.0
 10
3.2291719485
 20
1.706808071
 30
0.0
 10
3.2282853379
 20
1.7066367989
 30
0.0
 10
3.2270087931
 20
1.7064406843
 30
0.0
 10
3.2247498275
 20
1.7061551427
 30
0.0
 10
3.2229116692
 20
1.7059766376
 30
0.0
 10
3.2215934132
 20
1.7058595963
 30
0.0
  0
SPLINE
  5
41A
100
AcDbEntity
  8
0
100
AcDbSpline
 62
7
  6
CONTINUOUS
 70
0
 71
3
 72
14
 73
10
 74
0
 42
0.0000001
 43
0.0000001
 44
0.0000000001
 40
0.0
 40
0.0
 40
0.0
 40
0.0
 40
0.0660874588
 40
0.151678277
 40
0.2556594832
 40
0.3767755232
 40
0.5135612196
 40
0.6644830841
 40
1.0
 40
1.0
 40
1.0
 40
1.0
 10
3.2215934132
 20
1.7058595963
 30
0.0
 10
3.2189236268
 20
1.7056225596
 30
0.0
 10
3.212787044
 20
1.7051837207
 30
0.0
 10
3.2024348057
 20
1.7045985713
 30
0.0
 10
3.1898479327
 20
1.7040091687
 30
0.0
 10
3.1751830988
 20
1.7034161806
 30
0.0
 10
3.158613216
 20
1.7028207349
 30
0.0
 10
3.133350712
 20
1.70199646
 30
0.0
 10
3.1136306067
 20
1.7014242522
 30
0.0
 10
3.10002846
 20
1.7010442211
 30
0.0
  0
SPLINE
  5
41B
100
AcDbEntity
  8
0
100
AcDbSpline
 62
7
  6
CONTINUOUS
 70
0
 71
3
 72
14
 73
10
 74
0
 42
0.0000001
 43
0.0000001
 44
0.0000000001
 40
0.0
 40
0.0
 40
0.0
 40
0.0
 40
0.0465930693
 40
0.1151594419
 40
0.2061867234
 40
0.3198118264
 40
0.4560520494
 40
0.6148732957
 40
1.0
 40
1.0
 40
1.0
 40
1.0
 10
3.2511371033
 20
1.7233951468
 30
0.0
 10
3.251012062
 20
1.7233242229
 30
0.0
 10
3.2506757351
 20
1.7232007903
 30
0.0
 10
3.2500602742
 20
1.7230421265
 30
0.0
 10
3.2492319416
 20
1.7228816068
 30
0.0
 10
3.2481928401
 20
1.7227191118
 30
0.0
 10
3.246942369
 20
1.7225557745
 30
0.0
 10
3.2448567962
 20
1.7223218316
 30
0.0
 10
3.2431851759
 20
1.7221703854
 30
0.0
 10
3.2420010515
 20
1.7220715348
 30
0.0
  0
LINE
  5
41C
100
AcDbEntity
  8
0
100
AcDbLine
 62
7
  6
CONTINUOUS
 10
3.2420010515
 20
1.7220715348
 11
3.2257304597
 21
1.7210412915
  0
SPLINE
  5
41D
100
AcDbEntity
  8
0
100
AcDbSpline
 62
7
  6
CONTINUOUS
 70
0
 71
3
 72
13
 73
9
 74
0
 42
0.0000001
 43
0.0000001
 44
0.0000000001
 40
0.0
 40
0.0
 40
0.0
 40
0.0
 40
0.0789360888
 40
0.1765722646
 40
0.2905627026
 40
0.4181570499
 40
0.7016368063
 40
1.0
 40
1.0
 40
1.0
 40
1.0
 10
3.2257304597
 20
1.7210412915
 30
0.0
 10
3.2195010294
 20
1.7207218158
 30
0.0
 10
3.205560741
 20
1.7201193028
 30
0.0
 10
3.1826145709
 20
1.7193041391
 30
0.0
 10
3.1558214122
 20
1.7184839891
 30
0.0
 10
3.1143458116
 20
1.71734583
 30
0.0
 10
3.0583018636
 20
1.7159794254
 30
0.0
 10
3.0123365238
 20
1.7149066381
 30
0.0
 10
2.9887662183
 20
1.714345264
 30
0.0
  0
SPLINE
  5
41E
100
AcDbEntity
  8
0
100
AcDbSpline
 62
7
  6
CONTINUOUS
 70
0
 71
3
 72
13
 73
9
 74
0
 42
0.0000001
 43
0.0000001
 44
0.0000000001
 40
0.0
 40
0.0
 40
0.0
 40
0.0
 40
0.0484013838
 40
0.1181639069
 40
0.2098257465
 40
0.3235747137
 40
0.6175160132
 40
1.0
 40
1.0
 40
1.0
 40
1.0
 10
3.2304375261
 20
1.7114505843
 30
0.0
 10
3.2303147202
 20
1.711380023
 30
0.0
 10
3.2299895411
 20
1.7112549166
 30
0.0
 10
3.2293973841
 20
1.7110939516
 30
0.0
 10
3.228608086
 20
1.7109311881
 30
0.0
 10
3.2271666811
 20
1.7106911227
 30
0.0
 10
3.2248713377
 20
1.7104050961
 30
0.0
 10
3.2229013336
 20
1.7102124584
 30
0.0
 10
3.2217865661
 20
1.7101125069
 30
0.0
  0
SPLINE
  5
41F
100
AcDbEntity
  8
0
100
AcDbSpline
 62
7
  6
CONTINUOUS
 70
0
 71
3
 72
13
 73
9
 74
0
 42
0.0000001
 43
0.0000001
 44
0.0000000001
 40
0.0
 40
0.0
 40
0.0
 40
0.0
 40
0.0678645626
 40
0.1541778429
 40
0.2580159806
 40
0.3783967643
 40
0.6639882908
 40
1.0
 40
1.0
 40
1.0
 40
1.0
 10
3.2217865661
 20
1.7101125069
 30
0.0
 10
3.2194656684
 20
1.7099044124
 30
0.0
 10
3.2141856815
 20
1.7095141697
 30
0.0
 10
3.2053418007
 20
1.7089907383
 30
0.0
 10
3.1946922039
 20
1.7084636642
 30
0.0
 10
3.1772032467
 20
1.7077144242
 30
0.0
 10
3.151742214
 20
1.7068083817
 30
0.0
 10
3.1304087169
 20
1.7061554359
 30
0.0
 10
3.1188762982
 20
1.7058181552
 30
0.0
  0
LINE
  5
420
100
AcDbEntity
  8
0
100
AcDbLine
 62
7
  6
CONTINUOUS
 10
3.1188762982
 20
1.7058181552
 11
3.10002846
 21
1.7052799511
  0
SPLINE
  5
421
100
AcDbEntity
  8
0
100
AcDbSpline
 62
7
  6
CONTINUOUS
 70
0
 71
3
 72
12
 73
8
 74
0
 42
0.0000001
 43
0.0000001
 44
0.0000000001
 40
0.0
 40
0.0
 40
0.0
 40
0.0
 40
0.324439355
 40
0.6039786125
 40
0.8309032509
 40
0.9229701749
 40
1.0
 40
1.0
 40
1.0
 40
1.0
 10
3.4729822369
 20
1.4847929091
 30
0.0
 10
3.4726331307
 20
1.4980683453
 30
0.0
 10
3.4719443536
 20
1.5227810341
 30
0.0
 10
3.470842939
 20
1.5567739789
 30
0.0
 10
3.4698880811
 20
1.5812550493
 30
0.0
 10
3.4690943221
 20
1.5974457599
 30
0.0
 10
3.4686910434
 20
1.604355708
 30
0.0
 10
3.4684828862
 20
1.6075018318
 30
0.0
  0
SPLINE
  5
422
100
AcDbEntity
  8
0
100
AcDbSpline
 62
7
  6
CONTINUOUS
 70
0
 71
3
 72
13
 73
9
 74
0
 42
0.0000001
 43
0.0000001
 44
0.0000000001
 40
0.0
 40
0.0
 40
0.0
 40
0.0
 40
0.3708395246
 40
0.6618943951
 40
0.7770474186
 40
0.8717452269
 40
0.9459984446
 40
1.0
 40
1.0
 40
1.0
 40
1.0
 10
3.4684828862
 20
1.6075018318
 30
0.0
 10
3.4683376434
 20
1.6096970573
 30
0.0
 10
3.4680566969
 20
1.6136137722
 30
0.0
 10
3.4676444596
 20
1.6182058549
 30
0.0
 10
3.4673005653
 20
1.6211576436
 30
0.0
 10
3.4670649756
 20
1.6228269851
 30
0.0
 10
3.4668313999
 20
1.6241288597
 30
0.0
 10
3.4666528602
 20
1.6248700786
 30
0.0
 10
3.4665543441
 20
1.6251749222
 30
0.0
  0
SPLINE
  5
423
100
AcDbEntity
  8
0
100
AcDbSpline
 62
7
  6
CONTINUOUS
 70
0
 71
3
 72
10
 73
6
 74
0
 42
0.0000001
 43
0.0000001
 44
0.0000000001
 40
0.0
 40
0.0
 40
0.0
 40
0.0
 40
0.3800162208
 40
0.6667872201
 40
1.0
 40
1.0
 40
1.0
 40
1.0
 10
3.4665543441
 20
1.6251749222
 30
0.0
 10
3.4665183826
 20
1.6252861998
 30
0.0
 10
3.4664469084
 20
1.6254828892
 30
0.0
 10
3.4663208047
 20
1.6257485018
 30
0.0
 10
3.466170796
 20
1.6259275627
 30
0.0
 10
3.4660682552
 20
1.625927829
 30
0.0
  0
LINE
  5
424
100
AcDbEntity
  8
0
100
AcDbLine
 62
7
  6
CONTINUOUS
 10
3.4424855256
 20
1.35336217
 11
3.446311363
 21
1.1804904427
  0
LINE
  5
425
100
AcDbEntity
  8
0
100
AcDbLine
 62
7
  6
CONTINUOUS
 10
3.446311363
 20
1.1804904427
 11
3.446948889
 21
1.153547358
  0
SPLINE
  5
426
100
AcDbEntity
  8
0
100
AcDbSpline
 62
7
  6
CONTINUOUS
 70
0
 71
3
 72
9
 73
5
 74
0
 42
0.0000001
 43
0.0000001
 44
0.0000000001
 40
0.0
 40
0.0
 40
0.0
 40
0.0
 40
0.543711011
 40
1.0
 40
1.0
 40
1.0
 40
1.0
 10
3.446948889
 20
1.153547358
 30
0.0
 10
3.4474479882
 20
1.1328644897
 30
0.0
 10
3.4484095633
 20
1.0948253686
 30
0.0
 10
3.4495378045
 20
1.0567904773
 30
0.0
 10
3.4501367642
 20
1.0394384405
 30
0.0
  0
SPLINE
  5
427
100
AcDbEntity
  8
0
100
AcDbSpline
 62
7
  6
CONTINUOUS
 70
0
 71
3
 72
21
 73
17
 74
0
 42
0.0000001
 43
0.0000001
 44
0.0000000001
 40
0.0
 40
0.0
 40
0.0
 40
0.0
 40
0.2281131393
 40
0.42837786
 40
0.5996344816
 40
0.7410791358
 40
0.8004288311
 40
0.8520967984
 40
0.8960126199
 40
0.9321131013
 40
0.9603705444
 40
0.9715748765
 40
0.9808482134
 40
0.9882198105
 40
0.9937499061
 40
1.0
 40
1.0
 40
1.0
 40
1.0
 10
3.4508871874
 20
1.0191332892
 30
0.0
 10
3.451050923
 20
1.0150230941
 30
0.0
 10
3.4513741017
 20
1.0073050923
 30
0.0
 10
3.4518877122
 20
0.9965042868
 30
0.0
 10
3.452399725
 20
0.9872683041
 30
0.0
 10
3.4528452281
 20
0.9805738138
 30
0.0
 10
3.4532107965
 20
0.9760359139
 30
0.0
 10
3.4534680597
 20
0.9732538369
 30
0.0
 10
3.4537239241
 20
0.9708929915
 30
0.0
 10
3.4539786656
 20
0.9689568047
 30
0.0
 10
3.4542013314
 20
0.9676126108
 30
0.0
 10
3.4543876386
 20
0.9667524706
 30
0.0
 10
3.4545139573
 20
0.9662686127
 30
0.0
 10
3.4546441084
 20
0.9658833334
 30
0.0
 10
3.4547776007
 20
0.9655835871
 30
0.0
 10
3.4549370934
 20
0.9653735188
 30
0.0
 10
3.455049798
 20
0.9653732373
 30
0.0
  0
SPLINE
  5
428
100
AcDbEntity
  8
0
100
AcDbSpline
 62
7
  6
CONTINUOUS
 70
0
 71
3
 72
35
 73
31
 74
0
 42
0.0000001
 43
0.0000001
 44
0.0000000001
 40
0.0
 40
0.0
 40
0.0
 40
0.0
 40
0.0718787019
 40
0.1498038349
 40
0.2320949503
 40
0.3171768699
 40
0.4034628415
 40
0.4892706183
 40
0.5729279869
 40
0.6528276737
 40
0.7274261697
 40
0.7622887816
 40
0.7952915572
 40
0.8262767997
 40
0.8551016526
 40
0.8816237485
 40
0.9057036882
 40
0.9272309711
 40
0.9461119864
 40
0.9622537899
 40
0.9755693723
 40
0.9860074984
 40
0.9901372041
 40
0.9935362454
 40
0.9962033273
 40
0.9972632581
 40
0.9981422311
 40
0.9988432104
 40
0.9993732409
 40
1.0
 40
1.0
 40
1.0
 40
1.0
 10
3.5130176563
 20
1.1094227827
 30
0.0
 10
3.5126674581
 20
1.1212129545
 30
0.0
 10
3.5119779022
 20
1.1457862847
 30
0.0
 10
3.5109880168
 20
1.183860461
 30
0.0
 10
3.5099972888
 20
1.2241019664
 30
0.0
 10
3.5090061074
 20
1.2657158784
 30
0.0
 10
3.5080147867
 20
1.307907035
 30
0.0
 10
3.5070234163
 20
1.3498643556
 30
0.0
 10
3.5060324491
 20
1.3907733946
 30
0.0
 10
3.505042482
 20
1.4298424443
 30
0.0
 10
3.504200797
 20
1.4609053804
 30
0.0
 10
3.5035204649
 20
1.4842739623
 30
0.0
 10
3.5030219301
 20
1.5004878021
 30
0.0
 10
3.5025236453
 20
1.5157103521
 30
0.0
 10
3.5020258012
 20
1.5298688234
 30
0.0
 10
3.5015285755
 20
1.542893398
 30
0.0
 10
3.5010318168
 20
1.5547195018
 30
0.0
 10
3.5005359445
 20
1.565290526
 30
0.0
 10
3.5000414627
 20
1.5745573415
 30
0.0
 10
3.4995496767
 20
1.5824746521
 30
0.0
 10
3.4990602757
 20
1.5890033586
 30
0.0
 10
3.4986318159
 20
1.5935596422
 30
0.0
 10
3.4982750006
 20
1.5964865353
 30
0.0
 10
3.4980297259
 20
1.5981419415
 30
0.0
 10
3.4978155521
 20
1.599291765
 30
0.0
 10
3.49763646
 20
1.6000270393
 30
0.0
 10
3.4975148227
 20
1.6004414164
 30
0.0
 10
3.4973895033
 20
1.6007694025
 30
0.0
 10
3.4972587482
 20
1.6010313682
 30
0.0
 10
3.497102363
 20
1.6012014088
 30
0.0
 10
3.4969995266
 20
1.6011996276
 30
0.0
  0
SPLINE
  5
429
100
AcDbEntity
  8
0
100
AcDbSpline
 62
7
  6
CONTINUOUS
 70
0
 71
3
 72
28
 73
24
 74
0
 42
0.0000001
 43
0.0000001
 44
0.0000000001
 40
0.0
 40
0.0
 40
0.0
 40
0.0
 40
0.1452661601
 40
0.307458435
 40
0.3912555113
 40
0.4748405642
 40
0.5566744593
 40
0.6352796575
 40
0.7092210452
 40
0.7771722703
 40
0.8378768182
 40
0.8651696086
 40
0.8902491085
 40
0.9129924185
 40
0.9333063254
 40
0.9511054648
 40
0.9663049429
 40
0.9788287119
 40
0.9886349036
 40
0.9925097481
 40
0.9956952949
 40
0.998190773
 40
1.0
 40
1.0
 40
1.0
 40
1.0
 10
3.5079364063
 20
1.1094227827
 30
0.0
 10
3.5072298748
 20
1.1332096749
 30
0.0
 10
3.5058916384
 20
1.1835596753
 30
0.0
 10
3.5043506753
 20
1.2476362885
 30
0.0
 10
3.5030812904
 20
1.3016119749
 30
0.0
 10
3.5021189624
 20
1.3424269951
 30
0.0
 10
3.501156804
 20
1.3823912528
 30
0.0
 10
3.5001955944
 20
1.4207752456
 30
0.0
 10
3.4992353596
 20
1.4568842732
 30
0.0
 10
3.4982773968
 20
1.4900597785
 30
0.0
 10
3.4974550402
 20
1.5155939914
 30
0.0
 10
3.4967871176
 20
1.5341061237
 30
0.0
 10
3.4963046716
 20
1.5464020646
 30
0.0
 10
3.4958226542
 20
1.5575537876
 30
0.0
 10
3.4953415989
 20
1.5675116747
 30
0.0
 10
3.4948618899
 20
1.5762321687
 30
0.0
 10
3.4943848139
 20
1.5836745329
 30
0.0
 10
3.493909879
 20
1.5898043061
 30
0.0
 10
3.4934944123
 20
1.5940777587
 30
0.0
 10
3.493147806
 20
1.5968191121
 30
0.0
 10
3.4929105683
 20
1.5983669471
 30
0.0
 10
3.4926754882
 20
1.5995712177
 30
0.0
 10
3.4924955881
 20
1.6002549024
 30
0.0
 10
3.4923960692
 20
1.6005340811
 30
0.0
  0
SPLINE
  5
42A
100
AcDbEntity
  8
0
100
AcDbSpline
 62
7
  6
CONTINUOUS
 70
0
 71
3
 72
12
 73
8
 74
0
 42
0.0000001
 43
0.0000001
 44
0.0000000001
 40
0.0
 40
0.0
 40
0.0
 40
0.0
 40
0.0528068355
 40
0.1259664327
 40
0.3345715406
 40
0.6262446887
 40
1.0
 40
1.0
 40
1.0
 40
1.0
 10
3.2304639693
 20
1.741583158
 30
0.0
 10
3.2303641903
 20
1.7416399701
 30
0.0
 10
3.2301088767
 20
1.7417436028
 30
0.0
 10
3.2294105543
 20
1.741947453
 30
0.0
 10
3.2281835554
 20
1.7421818386
 30
0.0
 10
3.2263026488
 20
1.7424508356
 30
0.0
 10
3.2248643331
 20
1.7426115095
 30
0.0
 10
3.2240559763
 20
1.7426950854
 30
0.0
  0
SPLINE
  5
42B
100
AcDbEntity
  8
0
100
AcDbSpline
 62
7
  6
CONTINUOUS
 70
0
 71
3
 72
14
 73
10
 74
0
 42
0.0000001
 43
0.0000001
 44
0.0000000001
 40
0.0
 40
0.0
 40
0.0
 40
0.0
 40
0.0470800626
 40
0.1159506084
 40
0.2071366328
 40
0.3207934097
 40
0.4569486487
 40
0.6155749344
 40
1.0
 40
1.0
 40
1.0
 40
1.0
 10
3.2511319762
 20
1.7296466318
 30
0.0
 10
3.2510068913
 20
1.7297182474
 30
0.0
 10
3.2506712189
 20
1.7298426824
 30
0.0
 10
3.2500577498
 20
1.7300011589
 30
0.0
 10
3.2492342232
 20
1.7301602238
 30
0.0
 10
3.248202622
 20
1.730320213
 30
0.0
 10
3.2469623307
 20
1.7304803873
 30
0.0
 10
3.2448955312
 20
1.7307092737
 30
0.0
 10
3.2432394144
 20
1.7308575839
 30
0.0
 10
3.2420665158
 20
1.7309547447
 30
0.0
  0
SPLINE
  5
42C
100
AcDbEntity
  8
0
100
AcDbSpline
 62
7
  6
CONTINUOUS
 70
0
 71
3
 72
15
 73
11
 74
0
 42
0.0000001
 43
0.0000001
 44
0.0000000001
 40
0.0
 40
0.0
 40
0.0
 40
0.0
 40
0.4226603193
 40
0.5896948739
 40
0.7273376743
 40
0.8358340894
 40
0.9157285519
 40
0.9453794989
 40
0.968650863
 40
1.0
 40
1.0
 40
1.0
 40
1.0
 10
3.431078648
 20
1.6199631271
 30
0.0
 10
3.4311787721
 20
1.6208344551
 30
0.0
 10
3.4313313974
 20
1.6220489978
 30
0.0
 10
3.4315761291
 20
1.6235384988
 30
0.0
 10
3.4317434611
 20
1.6243796303
 30
0.0
 10
3.431910375
 20
1.6250357593
 30
0.0
 10
3.4320557867
 20
1.6254648432
 30
0.0
 10
3.4321822088
 20
1.625712062
 30
0.0
 10
3.4322787337
 20
1.6258542649
 30
0.0
 10
3.4323832378
 20
1.6259315149
 30
0.0
 10
3.4324482902
 20
1.6259316203
 30
0.0
  0
SPLINE
  5
42D
100
AcDbEntity
  8
0
100
AcDbSpline
 62
7
  6
CONTINUOUS
 70
0
 71
3
 72
11
 73
7
 74
0
 42
0.0000001
 43
0.0000001
 44
0.0000000001
 40
0.0
 40
0.0
 40
0.0
 40
0.0
 40
0.3126542887
 40
0.587023737
 40
0.8174042991
 40
1.0
 40
1.0
 40
1.0
 40
1.0
 10
3.493667079
 20
1.0943492931
 30
0.0
 10
3.4939724525
 20
1.0834511361
 30
0.0
 10
3.4945637198
 20
1.0629898136
 30
0.0
 10
3.4954852618
 20
1.0345012098
 30
0.0
 10
3.4964098602
 20
1.0105508066
 30
0.0
 10
3.4971002051
 20
0.9961660886
 30
0.0
 10
3.4974675831
 20
0.989809479
 30
0.0
  0
SPLINE
  5
42E
100
AcDbEntity
  8
0
100
AcDbSpline
 62
7
  6
CONTINUOUS
 70
0
 71
3
 72
12
 73
8
 74
0
 42
0.0000001
 43
0.0000001
 44
0.0000000001
 40
0.0
 40
0.0
 40
0.0
 40
0.0
 40
0.3435793299
 40
0.6254491199
 40
0.8445619901
 40
0.9302892785
 40
1.0
 40
1.0
 40
1.0
 40
1.0
 10
3.4974675831
 20
0.989809479
 30
0.0
 10
3.4976131878
 20
0.9872901337
 30
0.0
 10
3.4978968332
 20
0.9827049038
 30
0.0
 10
3.4983609549
 20
0.976518994
 30
0.0
 10
3.4987667002
 20
0.9722280727
 30
0.0
 10
3.4991062481
 20
0.9694979167
 30
0.0
 10
3.4992781803
 20
0.9683689532
 30
0.0
 10
3.4993676172
 20
0.967864808
 30
0.0
  0
SPLINE
  5
42F
100
AcDbEntity
  8
0
100
AcDbSpline
 62
7
  6
CONTINUOUS
 70
0
 71
3
 72
13
 73
9
 74
0
 42
0.0000001
 43
0.0000001
 44
0.0000000001
 40
0.0
 40
0.0
 40
0.0
 40
0.0
 40
0.4104861467
 40
0.5736787216
 40
0.7092241956
 40
0.8177028958
 40
0.9002623943
 40
1.0
 40
1.0
 40
1.0
 40
1.0
 10
3.4993676172
 20
0.967864808
 30
0.0
 10
3.499432418
 20
0.9674995334
 30
0.0
 10
3.4995312302
 20
0.9669904096
 30
0.0
 10
3.4996895489
 20
0.9663685529
 30
0.0
 10
3.4997972624
 20
0.9660176757
 30
0.0
 10
3.4999078757
 20
0.9657399663
 30
0.0
 10
3.5000250756
 20
0.9655151618
 30
0.0
 10
3.5001623412
 20
0.9653724806
 30
0.0
 10
3.5002524792
 20
0.9653726016
 30
0.0
  0
SPLINE
  5
430
100
AcDbEntity
  8
0
100
AcDbSpline
 62
7
  6
CONTINUOUS
 70
0
 71
3
 72
10
 73
6
 74
0
 42
0.0000001
 43
0.0000001
 44
0.0000000001
 40
0.0
 40
0.0
 40
0.0
 40
0.0
 40
0.2637639792
 40
0.5257671834
 40
1.0
 40
1.0
 40
1.0
 40
1.0
 10
3.4876883256
 20
1.35336217
 30
0.0
 10
3.4881876571
 20
1.3305888056
 30
0.0
 10
3.4891797718
 20
1.2851940188
 30
0.0
 10
3.4910661499
 20
1.198854011
 30
0.0
 10
3.4925489247
 20
1.1352890972
 30
0.0
 10
3.493667079
 20
1.0943492931
 30
0.0
  0
SPLINE
  5
431
100
AcDbEntity
  8
0
100
AcDbSpline
 62
7
  6
CONTINUOUS
 70
0
 71
3
 72
12
 73
8
 74
0
 42
0.0000001
 43
0.0000001
 44
0.0000000001
 40
0.0
 40
0.0
 40
0.0
 40
0.0
 40
0.3234600682
 40
0.6025920901
 40
0.8298184269
 40
0.9223263059
 40
1.0
 40
1.0
 40
1.0
 40
1.0
 10
3.5181850369
 20
1.4847929091
 30
0.0
 10
3.5178368461
 20
1.4979687136
 30
0.0
 10
3.5171527831
 20
1.52251379
 30
0.0
 10
3.5160622912
 20
1.5563098459
 30
0.0
 10
3.5151145734
 20
1.5806946041
 30
0.0
 10
3.5143274238
 20
1.5968692186
 30
0.0
 10
3.5139277677
 20
1.603792466
 30
0.0
 10
3.5137217673
 20
1.6069508156
 30
0.0
  0
SPLINE
  5
432
100
AcDbEntity
  8
0
100
AcDbSpline
 62
7
  6
CONTINUOUS
 70
0
 71
3
 72
13
 73
9
 74
0
 42
0.0000001
 43
0.0000001
 44
0.0000000001
 40
0.0
 40
0.0
 40
0.0
 40
0.0
 40
0.3663398065
 40
0.6559021408
 40
0.771443619
 40
0.8672852167
 40
0.9434213776
 40
1.0
 40
1.0
 40
1.0
 40
1.0
 10
3.5137217673
 20
1.6069508156
 30
0.0
 10
3.513577327
 20
1.6091653386
 30
0.0
 10
3.5132975449
 20
1.6131288904
 30
0.0
 10
3.5128884738
 20
1.6177848292
 30
0.0
 10
3.512548105
 20
1.6208004427
 30
0.0
 10
3.5123139187
 20
1.6225267062
 30
0.0
 10
3.5120815725
 20
1.6238916945
 30
0.0
 10
3.5119049819
 20
1.62467722
 30
0.0
 10
3.5118088867
 20
1.6250062175
 30
0.0
  0
SPLINE
  5
433
100
AcDbEntity
  8
0
100
AcDbSpline
 62
7
  6
CONTINUOUS
 70
0
 71
3
 72
11
 73
7
 74
0
 42
0.0000001
 43
0.0000001
 44
0.0000000001
 40
0.0
 40
0.0
 40
0.0
 40
0.0
 40
0.3833014402
 40
0.6701218326
 40
0.8678628472
 40
1.0
 40
1.0
 40
1.0
 40
1.0
 10
3.5118088867
 20
1.6250062175
 30
0.0
 10
3.5117691921
 20
1.6251421185
 30
0.0
 10
3.5116938634
 20
1.6253782918
 30
0.0
 10
3.5115623231
 20
1.6256715602
 30
0.0
 10
3.5114367407
 20
1.6258633868
 30
0.0
 10
3.511319892
 20
1.6259279475
 30
0.0
 10
3.511271085
 20
1.6259281144
 30
0.0
  0
LINE
  5
434
100
AcDbEntity
  8
0
100
AcDbLine
 62
7
  6
CONTINUOUS
 10
3.5297679322
 20
1.4847929091
 11
3.5328911256
 21
1.35336217
  0
LINE
  5
435
100
AcDbEntity
  8
0
100
AcDbLine
 62
7
  6
CONTINUOUS
 10
3.5328911256
 20
1.35336217
 11
3.5335295759
 21
1.3243434984
  0
LINE
  5
436
100
AcDbEntity
  8
0
100
AcDbLine
 62
7
  6
CONTINUOUS
 10
3.5272869837
 20
1.0943492931
 11
3.5267871304
 21
1.1129572566
  0
SPLINE
  5
437
100
AcDbEntity
  8
0
100
AcDbSpline
 62
7
  6
CONTINUOUS
 70
0
 71
3
 72
11
 73
7
 74
0
 42
0.0000001
 43
0.0000001
 44
0.0000000001
 40
0.0
 40
0.0
 40
0.0
 40
0.0
 40
0.2304789044
 40
0.4799723765
 40
0.7396373585
 40
1.0
 40
1.0
 40
1.0
 40
1.0
 10
3.5267871304
 20
1.1129572566
 30
0.0
 10
3.5263040218
 20
1.1314251664
 30
0.0
 10
3.5253665863
 20
1.1698863798
 30
0.0
 10
3.524020808
 20
1.2291573537
 30
0.0
 10
3.5226752933
 20
1.2908242814
 30
0.0
 10
3.5217739734
 20
1.3324977842
 30
0.0
 10
3.5213082303
 20
1.35336217
 30
0.0
  0
SPLINE
  5
438
100
AcDbEntity
  8
0
100
AcDbSpline
 62
7
  6
CONTINUOUS
 70
0
 71
3
 72
14
 73
10
 74
0
 42
0.0000001
 43
0.0000001
 44
0.0000000001
 40
0.0
 40
0.0
 40
0.0
 40
0.0
 40
0.0464565892
 40
0.1148788964
 40
0.2057986272
 40
0.3193698346
 40
0.4556181012
 40
0.6145139411
 40
1.0
 40
1.0
 40
1.0
 40
1.0
 10
2.7942115278
 20
1.7465765552
 30
0.0
 10
2.7943345545
 20
1.7466482923
 30
0.0
 10
2.7946673929
 20
1.7467726572
 30
0.0
 10
2.7952773268
 20
1.7469314529
 30
0.0
 10
2.7960993579
 20
1.7470913613
 30
0.0
 10
2.7971313323
 20
1.7472526511
 30
0.0
 10
2.7983739454
 20
1.7474143939
 30
0.0
 10
2.8004476103
 20
1.7476458151
 30
0.0
 10
2.8021098974
 20
1.7477956065
 30
0.0
 10
2.8032875469
 20
1.7478935997
 30
0.0
  0
LINE
  5
439
100
AcDbEntity
  8
0
100
AcDbLine
 62
7
  6
CONTINUOUS
 10
2.8032875469
 20
1.7478935997
 11
2.8194465966
 21
1.7489190547
  0
SPLINE
  5
43A
100
AcDbEntity
  8
0
100
AcDbSpline
 62
7
  6
CONTINUOUS
 70
0
 71
3
 72
19
 73
15
 74
0
 42
0.0000001
 43
0.0000001
 44
0.0000000001
 40
0.0
 40
0.0
 40
0.0
 40
0.0
 40
0.0398618369
 40
0.0883277055
 40
0.1444723556
 40
0.2072707205
 40
0.3479895498
 40
0.5000170287
 40
0.6520421801
 40
0.7927541825
 40
0.8555476065
 40
0.911686439
 40
0.9601456567
 40
1.0
 40
1.0
 40
1.0
 40
1.0
 10
2.8194465966
 20
1.7489190547
 30
0.0
 10
2.8248427294
 20
1.749197315
 30
0.0
 10
2.8368041071
 20
1.7497282542
 30
0.0
 10
2.8563742366
 20
1.7504492086
 30
0.0
 10
2.8790551266
 20
1.7511742497
 30
0.0
 10
2.9142380654
 20
1.7521830329
 30
0.0
 10
2.9624171006
 20
1.7534018251
 30
0.0
 10
3.0226894504
 20
1.754822997
 30
0.0
 10
3.0829608702
 20
1.756244351
 30
0.0
 10
3.1311379985
 20
1.7574629642
 30
0.0
 10
3.1663185555
 20
1.7584716535
 30
0.0
 10
3.1889970691
 20
1.7591972272
 30
0.0
 10
3.2085644708
 20
1.7599186238
 30
0.0
 10
3.2205239868
 20
1.760448185
 30
0.0
 10
3.2259191359
 20
1.7607257974
 30
0.0
  0
SPLINE
  5
43B
100
AcDbEntity
  8
0
100
AcDbSpline
 62
7
  6
CONTINUOUS
 70
0
 71
3
 72
14
 73
10
 74
0
 42
0.0000001
 43
0.0000001
 44
0.0000000001
 40
0.0
 40
0.0
 40
0.0
 40
0.0
 40
0.3696880268
 40
0.5254176252
 40
0.6611938183
 40
0.7766628148
 40
0.8716663268
 40
0.946118327
 40
1.0
 40
1.0
 40
1.0
 40
1.0
 10
3.2259191359
 20
1.7607257974
 30
0.0
 10
3.2289311861
 20
1.7608807853
 30
0.0
 10
3.233211299
 20
1.7611179003
 30
0.0
 10
3.2385935563
 20
1.7614778724
 30
0.0
 10
3.2419041767
 20
1.7617315271
 30
0.0
 10
3.244717677
 20
1.7619845881
 30
0.0
 10
3.2470289538
 20
1.7622355615
 30
0.0
 10
3.2488339126
 20
1.7624842666
 30
0.0
 10
3.249864884
 20
1.7626740471
 30
0.0
 10
3.2502916233
 20
1.7627795358
 30
0.0
  0
SPLINE
  5
43C
100
AcDbEntity
  8
0
100
AcDbSpline
 62
7
  6
CONTINUOUS
 70
0
 71
3
 72
12
 73
8
 74
0
 42
0.0000001
 43
0.0000001
 44
0.0000000001
 40
0.0
 40
0.0
 40
0.0
 40
0.0
 40
0.3937120612
 40
0.6850990422
 40
0.7940642293
 40
0.8804102448
 40
1.0
 40
1.0
 40
1.0
 40
1.0
 10
3.2502916233
 20
1.7627795358
 30
0.0
 10
3.2504446272
 20
1.7628173579
 30
0.0
 10
3.2507093146
 20
1.76288994
 30
0.0
 10
3.2510085122
 20
1.7629991521
 30
0.0
 10
3.2511804909
 20
1.7630934893
 30
0.0
 10
3.2512808867
 20
1.7631668218
 30
0.0
 10
3.2513332813
 20
1.7632443017
 30
0.0
 10
3.2513332813
 20
1.7632921754
 30
0.0
  0
SPLINE
  5
43D
100
AcDbEntity
  8
0
100
AcDbSpline
 62
7
  6
CONTINUOUS
 70
0
 71
3
 72
12
 73
8
 74
0
 42
0.0000001
 43
0.0000001
 44
0.0000000001
 40
0.0
 40
0.0
 40
0.0
 40
0.0
 40
0.0543460201
 40
0.1284056913
 40
0.337261882
 40
0.6278372915
 40
1.0
 40
1.0
 40
1.0
 40
1.0
 10
2.8149174539
 20
1.7585160685
 30
0.0
 10
2.8150120802
 20
1.7585698156
 30
0.0
 10
2.8152507983
 20
1.7586690344
 30
0.0
 10
2.815897442
 20
1.7588642237
 30
0.0
 10
2.8170256261
 20
1.7590897769
 30
0.0
 10
2.8187514741
 20
1.759347922
 30
0.0
 10
2.8200699691
 20
1.7595020155
 30
0.0
 10
2.8208108947
 20
1.7595820553
 30
0.0
  0
SPLINE
  5
43E
100
AcDbEntity
  8
0
100
AcDbSpline
 62
7
  6
CONTINUOUS
 70
0
 71
3
 72
16
 73
12
 74
0
 42
0.0000001
 43
0.0000001
 44
0.0000000001
 40
0.0
 40
0.0
 40
0.0
 40
0.0
 40
0.0245847897
 40
0.0554702509
 40
0.1355348936
 40
0.2386890205
 40
0.3623754104
 40
0.5036956374
 40
0.6594298294
 40
0.8261606474
 40
1.0
 40
1.0
 40
1.0
 40
1.0
 10
2.8208108947
 20
1.7595820553
 30
0.0
 10
2.8222594051
 20
1.7597385331
 30
0.0
 10
2.8255336527
 20
1.7600353416
 30
0.0
 10
2.8335445564
 20
1.7606196947
 30
0.0
 10
2.8462146558
 20
1.7613124041
 30
0.0
 10
2.8643851845
 20
1.7621041709
 30
0.0
 10
2.8861886045
 20
1.7629023366
 30
0.0
 10
2.9111095708
 20
1.7637043138
 30
0.0
 10
2.9385825429
 20
1.7645091141
 30
0.0
 10
2.9679833527
 20
1.7653158185
 30
0.0
 10
2.9881591412
 20
1.7658473326
 30
0.0
 10
2.9984576585
 20
1.7661161477
 30
0.0
  0
SPLINE
  5
43F
100
AcDbEntity
  8
0
100
AcDbSpline
 62
7
  6
CONTINUOUS
 70
0
 71
3
 72
30
 73
26
 74
0
 42
0.0000001
 43
0.0000001
 44
0.0000000001
 40
0.0
 40
0.0
 40
0.0
 40
0.0
 40
0.1990746794
 40
0.2952798606
 40
0.3881597341
 40
0.476894495
 40
0.5607326289
 40
0.6389682716
 40
0.7108981991
 40
0.7758945347
 40
0.8334366164
 40
0.8830129225
 40
0.9046621763
 40
0.9241643771
 40
0.9414874919
 40
0.9566000392
 40
0.9694714912
 40
0.9800731238
 40
0.9883809673
 40
0.9916740218
 40
0.9943973885
 40
0.9965582483
 40
0.9981717948
 40
0.9992767544
 40
1.0
 40
1.0
 40
1.0
 40
1.0
 10
3.0402392512
 20
1.7672007586
 30
0.0
 10
3.052894077
 20
1.7675298292
 30
0.0
 10
3.0716643976
 20
1.7680218531
 30
0.0
 10
3.0963381989
 20
1.7686946517
 30
0.0
 10
3.1139976524
 20
1.7691931666
 30
0.0
 10
3.130870379
 20
1.7696911518
 30
0.0
 10
3.1468114761
 20
1.7701885362
 30
0.0
 10
3.1616834287
 20
1.7706852832
 30
0.0
 10
3.175356528
 20
1.7711817522
 30
0.0
 10
3.1877128017
 20
1.7716779113
 30
0.0
 10
3.1986463887
 20
1.7721727246
 30
0.0
 10
3.2068236635
 20
1.7725997976
 30
0.0
 10
3.2125825543
 20
1.7729476327
 30
0.0
 10
3.2162926501
 20
1.7731962045
 30
0.0
 10
3.2195860905
 20
1.7734442216
 30
0.0
 10
3.2224565809
 20
1.7736915788
 30
0.0
 10
3.2248979999
 20
1.7739377592
 30
0.0
 10
3.2269041843
 20
1.7741825474
 30
0.0
 10
3.2283001708
 20
1.7743971437
 30
0.0
 10
3.2291935645
 20
1.7745757406
 30
0.0
 10
3.2296989205
 20
1.7746989502
 30
0.0
 10
3.2300944691
 20
1.7748197955
 30
0.0
 10
3.2303805372
 20
1.774942433
 30
0.0
 10
3.2305672938
 20
1.7750581453
 30
0.0
 10
3.2306327812
 20
1.7751679359
 30
0.0
 10
3.2306334746
 20
1.7752139216
 30
0.0
  0
SPLINE
  5
440
100
AcDbEntity
  8
0
100
AcDbSpline
 62
7
  6
CONTINUOUS
 70
0
 71
3
 72
14
 73
10
 74
0
 42
0.0000001
 43
0.0000001
 44
0.0000000001
 40
0.0
 40
0.0
 40
0.0
 40
0.0
 40
0.0480916749
 40
0.1177843578
 40
0.2095392305
 40
0.3234672541
 40
0.4595562862
 40
0.617740366
 40
1.0
 40
1.0
 40
1.0
 40
1.0
 10
2.8148880597
 20
1.6945140502
 30
0.0
 10
2.8150151214
 20
1.6944416523
 30
0.0
 10
2.8153527652
 20
1.6943140563
 30
0.0
 10
2.8159679977
 20
1.6941499163
 30
0.0
 10
2.816789504
 20
1.6939839751
 30
0.0
 10
2.8178151603
 20
1.6938162748
 30
0.0
 10
2.8190451096
 20
1.6936477752
 30
0.0
 10
2.821088248
 20
1.6934068339
 30
0.0
 10
2.8227244124
 20
1.6932503798
 30
0.0
 10
2.8238823129
 20
1.6931482269
 30
0.0
  0
SPLINE
  5
441
100
AcDbEntity
  8
0
100
AcDbSpline
 62
7
  6
CONTINUOUS
 70
0
 71
3
 72
12
 73
8
 74
0
 42
0.0000001
 43
0.0000001
 44
0.0000000001
 40
0.0
 40
0.0
 40
0.0
 40
0.0
 40
0.0535639519
 40
0.1268611176
 40
0.3348707863
 40
0.6260604082
 40
1.0
 40
1.0
 40
1.0
 40
1.0
 10
3.2304385588
 20
1.7754499158
 30
0.0
 10
3.2303506923
 20
1.7755026106
 30
0.0
 10
3.230126803
 20
1.7755999415
 30
0.0
 10
3.2295154385
 20
1.7757914127
 30
0.0
 10
3.2284405512
 20
1.7760121013
 30
0.0
 10
3.2267898843
 20
1.7762642207
 30
0.0
 10
3.2255261811
 20
1.7764147173
 30
0.0
 10
3.2248152115
 20
1.7764929863
 30
0.0
  0
SPLINE
  5
442
100
AcDbEntity
  8
0
100
AcDbSpline
 62
7
  6
CONTINUOUS
 70
0
 71
3
 72
14
 73
10
 74
0
 42
0.0000001
 43
0.0000001
 44
0.0000000001
 40
0.0
 40
0.0
 40
0.0
 40
0.0
 40
0.0458604782
 40
0.113870338
 40
0.2045526385
 40
0.3180541685
 40
0.4543954906
 40
0.6135434779
 40
1.0
 40
1.0
 40
1.0
 40
1.0
 10
3.251151737
 20
1.7635055847
 30
0.0
 10
3.2510304629
 20
1.7635770166
 30
0.0
 10
3.2507001817
 20
1.7637007391
 30
0.0
 10
3.2500935285
 20
1.7638595625
 30
0.0
 10
3.2492729116
 20
1.7640203334
 30
0.0
 10
3.2482406506
 20
1.7641831979
 30
0.0
 10
3.2469959947
 20
1.7643469489
 30
0.0
 10
3.2449162303
 20
1.7645816485
 30
0.0
 10
3.2432484238
 20
1.7647334047
 30
0.0
 10
3.2420665158
 20
1.7648324547
 30
0.0
  0
SPLINE
  5
443
100
AcDbEntity
  8
0
100
AcDbSpline
 62
7
  6
CONTINUOUS
 70
0
 71
3
 72
12
 73
8
 74
0
 42
0.0000001
 43
0.0000001
 44
0.0000000001
 40
0.0
 40
0.0
 40
0.0
 40
0.0
 40
0.0512172991
 40
0.1228971154
 40
0.3296840498
 40
0.6221982852
 40
1.0
 40
1.0
 40
1.0
 40
1.0
 10
2.7942146418
 20
1.7064578303
 30
0.0
 10
2.7943098952
 20
1.7064027706
 30
0.0
 10
2.794556064
 20
1.7063027311
 30
0.0
 10
2.7952362675
 20
1.7061057067
 30
0.0
 10
2.7964443521
 20
1.7058800933
 30
0.0
 10
2.7983102029
 20
1.7056214725
 30
0.0
 10
2.7997423043
 20
1.705467574
 30
0.0
 10
2.8005498999
 20
1.7053873645
 30
0.0
  0
SPLINE
  5
444
100
AcDbEntity
  8
0
100
AcDbSpline
 62
7
  6
CONTINUOUS
 70
0
 71
3
 72
13
 73
9
 74
0
 42
0.0000001
 43
0.0000001
 44
0.0000000001
 40
0.0
 40
0.0
 40
0.0
 40
0.0
 40
0.0505926008
 40
0.1217953199
 40
0.2142427709
 40
0.3282152157
 40
0.6210790632
 40
1.0
 40
1.0
 40
1.0
 40
1.0
 10
2.7942048031
 20
1.6788126887
 30
0.0
 10
2.794298434
 20
1.6788682536
 30
0.0
 10
2.7945424641
 20
1.6789688538
 30
0.0
 10
2.7949847186
 20
1.6790987728
 30
0.0
 10
2.7955680579
 20
1.6792300738
 30
0.0
 10
2.7966251533
 20
1.6794229875
 30
0.0
 10
2.7983010954
 20
1.6796531186
 30
0.0
 10
2.7997384383
 20
1.679808659
 30
0.0
 10
2.8005498911
 20
1.6798893095
 30
0.0
  0
LINE
  5
445
100
AcDbEntity
  8
0
100
AcDbLine
 62
7
  6
CONTINUOUS
 10
2.8005498911
 20
1.6798893095
 11
2.8149305537
 21
1.6809217006
  0
SPLINE
  5
446
100
AcDbEntity
  8
0
100
AcDbSpline
 62
7
  6
CONTINUOUS
 70
0
 71
3
 72
10
 73
6
 74
0
 42
0.0000001
 43
0.0000001
 44
0.0000000001
 40
0.0
 40
0.0
 40
0.0
 40
0.0
 40
0.2014059609
 40
0.4377538198
 40
1.0
 40
1.0
 40
1.0
 40
1.0
 10
2.8250164929
 20
1.681437021
 30
0.0
 10
2.8300613978
 20
1.6816731727
 30
0.0
 10
2.8410289999
 20
1.6821317334
 30
0.0
 10
2.866088576
 20
1.6830369181
 30
0.0
 10
2.8861053274
 20
1.6836344475
 30
0.0
 10
2.9001988782
 20
1.6840195067
 30
0.0
  0
SPLINE
  5
447
100
AcDbEntity
  8
0
100
AcDbSpline
 62
7
  6
CONTINUOUS
 70
0
 71
3
 72
14
 73
10
 74
0
 42
0.0000001
 43
0.0000001
 44
0.0000000001
 40
0.0
 40
0.0
 40
0.0
 40
0.0
 40
0.0484332481
 40
0.118337902
 40
0.210181053
 40
0.3240932328
 40
0.4600854833
 40
0.6181162847
 40
1.0
 40
1.0
 40
1.0
 40
1.0
 10
2.8149139312
 20
1.6606312262
 30
0.0
 10
2.8150431267
 20
1.6605589501
 30
0.0
 10
2.8153843614
 20
1.6604311931
 30
0.0
 10
2.8160049791
 20
1.6602666913
 30
0.0
 10
2.8168316789
 20
1.6601004138
 30
0.0
 10
2.8178626518
 20
1.6599324213
 30
0.0
 10
2.8190981995
 20
1.6597636443
 30
0.0
 10
2.8211500521
 20
1.6595223335
 30
0.0
 10
2.8227930838
 20
1.6593656593
 30
0.0
 10
2.8239558381
 20
1.6592633876
 30
0.0
  0
SPLINE
  5
448
100
AcDbEntity
  8
0
100
AcDbSpline
 62
7
  6
CONTINUOUS
 70
0
 71
3
 72
12
 73
8
 74
0
 42
0.0000001
 43
0.0000001
 44
0.0000000001
 40
0.0
 40
0.0
 40
0.0
 40
0.0
 40
0.0517299323
 40
0.1237992089
 40
0.3309191984
 40
0.6231342051
 40
1.0
 40
1.0
 40
1.0
 40
1.0
 10
2.7942229949
 20
1.6725752582
 30
0.0
 10
2.7943195672
 20
1.6725206207
 30
0.0
 10
2.7945675112
 20
1.672421119
 30
0.0
 10
2.7952497108
 20
1.6722251545
 30
0.0
 10
2.7964569236
 20
1.6720004416
 30
0.0
 10
2.7983181871
 20
1.6717430108
 30
0.0
 10
2.7997455089
 20
1.6715897093
 30
0.0
 10
2.8005499041
 20
1.6715098463
 30
0.0
  0
LINE
  5
449
100
AcDbEntity
  8
0
100
AcDbLine
 62
7
  6
CONTINUOUS
 10
2.8155129706
 20
1.7281716632
 11
2.8149302294
 21
1.7284029701
  0
SPLINE
  5
44A
100
AcDbEntity
  8
0
100
AcDbSpline
 62
9
  6
CONTINUOUS
 70
0
 71
3
 72
21
 73
17
 74
0
 42
0.0000001
 43
0.0000001
 44
0.0000000001
 40
0.0
 40
0.0
 40
0.0
 40
0.0
 40
0.0010540582
 40
0.0042078685
 40
0.0094493989
 40
0.0167666237
 40
0.037580082
 40
0.0665521643
 40
0.1035868927
 40
0.1485883949
 40
0.2014609061
 40
0.2621087719
 40
0.4061013949
 40
0.5785700521
 40
0.7772786442
 40
1.0
 40
1.0
 40
1.0
 40
1.0
 10
2.0726183422
 20
2.064219509
 30
0.0
 10
2.0726167717
 20
2.0641932827
 30
0.0
 10
2.07261808
 20
2.0640883027
 30
0.0
 10
2.0726115441
 20
2.0638529024
 30
0.0
 10
2.0726065155
 20
2.0634612514
 30
0.0
 10
2.0725907381
 20
2.06262959
 30
0.0
 10
2.0725637729
 20
2.0612065002
 30
0.0
 10
2.0725171383
 20
2.0590429429
 30
0.0
 10
2.0724525067
 20
2.0562767242
 30
0.0
 10
2.0723668921
 20
2.0529151055
 30
0.0
 10
2.072258161
 20
2.0489653155
 30
0.0
 10
2.0720680996
 20
2.0425494119
 30
0.0
 10
2.0717572915
 20
2.0331547631
 30
0.0
 10
2.0712533955
 20
2.0203235352
 30
0.0
 10
2.0705633799
 20
2.0055360889
 30
0.0
 10
2.0699854007
 20
1.9950473589
 30
0.0
 10
2.0696551625
 20
1.9895056842
 30
0.0
  0
SPLINE
  5
44B
100
AcDbEntity
  8
0
100
AcDbSpline
 62
7
  6
CONTINUOUS
 70
0
 71
3
 72
18
 73
14
 74
0
 42
0.0000001
 43
0.0000001
 44
0.0000000001
 40
0.0
 40
0.0
 40
0.0
 40
0.0
 40
0.0134682497
 40
0.0333795042
 40
0.0599179186
 40
0.0931555599
 40
0.1330946646
 40
0.1796958224
 40
0.2926854211
 40
0.431698195
 40
0.5962750262
 40
0.7859329972
 40
1.0
 40
1.0
 40
1.0
 40
1.0
 10
2.7942070788
 20
1.6449363913
 30
0.0
 10
2.7943268466
 20
1.6450070181
 30
0.0
 10
2.7946521813
 20
1.6451297902
 30
0.0
 10
2.7952497557
 20
1.6452871555
 30
0.0
 10
2.7960577148
 20
1.6454462927
 30
0.0
 10
2.7970744292
 20
1.6456072589
 30
0.0
 10
2.7983005117
 20
1.645769034
 30
0.0
 10
2.8003473664
 20
1.6460007157
 30
0.0
 10
2.80341751
 20
1.6462817837
 30
0.0
 10
2.8077061017
 20
1.6466041377
 30
0.0
 10
2.8127880168
 20
1.6469276403
 30
0.0
 10
2.8186460368
 20
1.6472517742
 30
0.0
 10
2.8228089601
 20
1.6474560647
 30
0.0
 10
2.8250164908
 20
1.6475594195
 30
0.0
  0
SPLINE
  5
44C
100
AcDbEntity
  8
0
100
AcDbSpline
 62
7
  6
CONTINUOUS
 70
0
 71
3
 72
10
 73
6
 74
0
 42
0.0000001
 43
0.0000001
 44
0.0000000001
 40
0.0
 40
0.0
 40
0.0
 40
0.0
 40
0.2014059772
 40
0.43775377
 40
1.0
 40
1.0
 40
1.0
 40
1.0
 10
2.8250164908
 20
1.6475594195
 30
0.0
 10
2.8300613937
 20
1.6477956176
 30
0.0
 10
2.8410289923
 20
1.6482542355
 30
0.0
 10
2.8660885901
 20
1.6491588358
 30
0.0
 10
2.8861053502
 20
1.6497558763
 30
0.0
 10
2.9001988782
 20
1.6501417967
 30
0.0
  0
SPLINE
  5
44D
100
AcDbEntity
  8
0
100
AcDbSpline
 62
7
  6
CONTINUOUS
 70
0
 71
3
 72
10
 73
6
 74
0
 42
0.0000001
 43
0.0000001
 44
0.0000000001
 40
0.0
 40
0.0
 40
0.0
 40
0.0
 40
0.2171072173
 40
0.4615194332
 40
1.0
 40
1.0
 40
1.0
 40
1.0
 10
2.592134116
 20
1.0850454615
 30
0.0
 10
2.5917098254
 20
1.0995555661
 30
0.0
 10
2.5908883945
 20
1.1304030196
 30
0.0
 10
2.5893007885
 20
1.1972465885
 30
0.0
 10
2.5881898081
 20
1.2495809315
 30
0.0
 10
2.5874272232
 20
1.2855769502
 30
0.0
  0
SPLINE
  5
44E
100
AcDbEntity
  8
0
100
AcDbSpline
 62
7
  6
CONTINUOUS
 70
0
 71
3
 72
10
 73
6
 74
0
 42
0.0000001
 43
0.0000001
 44
0.0000000001
 40
0.0
 40
0.0
 40
0.0
 40
0.0
 40
0.5315815959
 40
0.7768042865
 40
1.0
 40
1.0
 40
1.0
 40
1.0
 10
2.5868391904
 20
1.3133376401
 30
0.0
 10
2.58617139
 20
1.3448249591
 30
0.0
 10
2.585189583
 20
1.3908375287
 30
0.0
 10
2.5838014558
 20
1.4500678825
 30
0.0
 10
2.5830893055
 20
1.4778109874
 30
0.0
 10
2.5827253389
 20
1.4910295637
 30
0.0
  0
LINE
  5
44F
100
AcDbEntity
  8
0
100
AcDbLine
 62
7
  6
CONTINUOUS
 10
2.5821379667
 20
1.511528033
 11
2.5820412812
 21
1.5147363574
  0
LINE
  5
450
100
AcDbEntity
  8
0
100
AcDbLine
 62
7
  6
CONTINUOUS
 10
2.581550712
 20
1.530247482
 11
2.5813658629
 21
1.5357467678
  0
SPLINE
  5
451
100
AcDbEntity
  8
0
100
AcDbSpline
 62
7
  6
CONTINUOUS
 70
0
 71
3
 72
10
 73
6
 74
0
 42
0.0000001
 43
0.0000001
 44
0.0000000001
 40
0.0
 40
0.0
 40
0.0
 40
0.0
 40
0.5765541139
 40
0.8081791513
 40
1.0
 40
1.0
 40
1.0
 40
1.0
 10
2.5813658629
 20
1.5357467678
 30
0.0
 10
2.5810454573
 20
1.5451097348
 30
0.0
 10
2.580559716
 20
1.5582332167
 30
0.0
 10
2.5797933526
 20
1.5744642711
 30
0.0
 10
2.5794045145
 20
1.5813340765
 30
0.0
 10
2.5792027946
 20
1.5844444458
 30
0.0
  0
SPLINE
  5
452
100
AcDbEntity
  8
0
100
AcDbSpline
 62
7
  6
CONTINUOUS
 70
0
 71
3
 72
14
 73
10
 74
0
 42
0.0000001
 43
0.0000001
 44
0.0000000001
 40
0.0
 40
0.0
 40
0.0
 40
0.0
 40
0.375419636
 40
0.5321114412
 40
0.6679157474
 40
0.7826906437
 40
0.8763177427
 40
0.9487302813
 40
1.0
 40
1.0
 40
1.0
 40
1.0
 10
2.5792027946
 20
1.5844444458
 30
0.0
 10
2.579070583
 20
1.5864830491
 30
0.0
 10
2.5788680514
 20
1.58937168
 30
0.0
 10
2.5785583781
 20
1.5929930513
 30
0.0
 10
2.578341065
 20
1.5951986969
 30
0.0
 10
2.5781246506
 20
1.5970592184
 30
0.0
 10
2.5779103758
 20
1.5985727047
 30
0.0
 10
2.5776980681
 20
1.5997358156
 30
0.0
 10
2.5775349804
 20
1.6003907185
 30
0.0
 10
2.5774429711
 20
1.6006540994
 30
0.0
  0
SPLINE
  5
453
100
AcDbEntity
  8
0
100
AcDbSpline
 62
7
  6
CONTINUOUS
 70
0
 71
3
 72
24
 73
20
 74
0
 42
0.0000001
 43
0.0000001
 44
0.0000000001
 40
0.0
 40
0.0
 40
0.0
 40
0.0
 40
0.2270822195
 40
0.4274034392
 40
0.5993797408
 40
0.6742454296
 40
0.7414633456
 40
0.8009654255
 40
0.8527058428
 40
0.8966418283
 40
0.932736375
 40
0.9478352116
 40
0.9609664235
 40
0.9721321232
 40
0.9813399789
 40
0.9886114865
 40
0.9940003999
 40
0.9976435852
 40
1.0
 40
1.0
 40
1.0
 40
1.0
 10
2.5933114063
 20
1.0484549953
 30
0.0
 10
2.5934713416
 20
1.0440177466
 30
0.0
 10
2.593787407
 20
1.0356666884
 30
0.0
 10
2.5942896351
 20
1.0239577542
 30
0.0
 10
2.5947239058
 20
1.0152250556
 30
0.0
 10
2.5950777625
 20
1.0090944253
 30
0.0
 10
2.5953304608
 20
1.005160901
 30
0.0
 10
2.5955826166
 20
1.0016805484
 30
0.0
 10
2.5958339552
 20
0.9986566918
 30
0.0
 10
2.5960843364
 20
0.9960922834
 30
0.0
 10
2.5963023319
 20
0.9942447923
 30
0.0
 10
2.5964811887
 20
0.9929997614
 30
0.0
 10
2.5966069838
 20
0.992239736
 30
0.0
 10
2.5967320806
 20
0.9915965179
 30
0.0
 10
2.5968570512
 20
0.991070489
 30
0.0
 10
2.5969793586
 20
0.990660227
 30
0.0
 10
2.5971039553
 20
0.9903659063
 30
0.0
 10
2.5972203281
 20
0.9901746914
 30
0.0
 10
2.5973338197
 20
0.99011082
 30
0.0
 10
2.5973798654
 20
0.9901124576
 30
0.0
  0
LINE
  5
454
100
AcDbEntity
  8
0
100
AcDbLine
 62
7
  6
CONTINUOUS
 10
2.6111373794
 20
1.0811586539
 11
2.6106302952
 21
1.101525779
  0
LINE
  5
455
100
AcDbEntity
  8
0
100
AcDbLine
 62
7
  6
CONTINUOUS
 10
2.6070776494
 20
1.269740583
 11
2.6065644837
 21
1.295650264
  0
LINE
  5
456
100
AcDbEntity
  8
0
100
AcDbLine
 62
7
  6
CONTINUOUS
 10
2.6517873794
 20
1.0811586539
 11
2.6512783848
 21
1.1015257542
  0
LINE
  5
457
100
AcDbEntity
  8
0
100
AcDbLine
 62
7
  6
CONTINUOUS
 10
2.613594579
 20
1.295650264
 11
2.6141004964
 21
1.2697289215
  0
LINE
  5
458
100
AcDbEntity
  8
0
100
AcDbLine
 62
7
  6
CONTINUOUS
 10
2.6176606769
 20
1.1015048503
 11
2.6181679484
 21
1.0811402616
  0
SPLINE
  5
459
100
AcDbEntity
  8
0
100
AcDbSpline
 62
7
  6
CONTINUOUS
 70
0
 71
3
 72
10
 73
6
 74
0
 42
0.0000001
 43
0.0000001
 44
0.0000000001
 40
0.0
 40
0.0
 40
0.0
 40
0.0
 40
0.217067658
 40
0.4615401963
 40
1.0
 40
1.0
 40
1.0
 40
1.0
 10
2.6378661227
 20
1.0850164375
 30
0.0
 10
2.6374416023
 20
1.0995309009
 30
0.0
 10
2.6366196988
 20
1.1303946386
 30
0.0
 10
2.6350316426
 20
1.1972704937
 30
0.0
 10
2.6339198637
 20
1.2496327502
 30
0.0
 10
2.6331569931
 20
1.2856447639
 30
0.0
  0
SPLINE
  5
45A
100
AcDbEntity
  8
0
100
AcDbSpline
 62
7
  6
CONTINUOUS
 70
0
 71
3
 72
10
 73
6
 74
0
 42
0.0000001
 43
0.0000001
 44
0.0000000001
 40
0.0
 40
0.0
 40
0.0
 40
0.0
 40
0.5317828108
 40
0.7769685675
 40
1.0
 40
1.0
 40
1.0
 40
1.0
 10
2.6325680764
 20
1.313449156
 30
0.0
 10
2.6318987951
 20
1.3450081467
 30
0.0
 10
2.6309148285
 20
1.3911177474
 30
0.0
 10
2.6295232744
 20
1.4504604394
 30
0.0
 10
2.6288093026
 20
1.4782442122
 30
0.0
 10
2.6284443144
 20
1.491478099
 30
0.0
  0
LINE
  5
45B
100
AcDbEntity
  8
0
100
AcDbLine
 62
7
  6
CONTINUOUS
 10
2.6278549581
 20
1.5120055376
 11
2.6277682706
 21
1.5148777084
  0
SPLINE
  5
45C
100
AcDbEntity
  8
0
100
AcDbSpline
 62
7
  6
CONTINUOUS
 70
0
 71
3
 72
24
 73
20
 74
0
 42
0.0000001
 43
0.0000001
 44
0.0000000001
 40
0.0
 40
0.0
 40
0.0
 40
0.0
 40
0.2267576282
 40
0.4264694713
 40
0.5979219928
 40
0.6726896501
 40
0.7399596902
 40
0.7995991302
 40
0.8515302509
 40
0.8956965585
 40
0.9320466154
 40
0.960539687
 40
0.9718349683
 40
0.9811662616
 40
0.9885476388
 40
0.9940175662
 40
0.9960695182
 40
0.9977037424
 40
1.0
 40
1.0
 40
1.0
 40
1.0
 10
2.6270911999
 20
1.5359207685
 30
0.0
 10
2.6269214606
 20
1.540875848
 30
0.0
 10
2.6265866065
 20
1.550194491
 30
0.0
 10
2.6260546234
 20
1.5632570954
 30
0.0
 10
2.6255949842
 20
1.5729965442
 30
0.0
 10
2.6252207716
 20
1.5798407214
 30
0.0
 10
2.6249534533
 20
1.584242252
 30
0.0
 10
2.6246865714
 20
1.5881434818
 30
0.0
 10
2.6244203124
 20
1.5915382543
 30
0.0
 10
2.6241553673
 20
1.594422189
 30
0.0
 10
2.6238917898
 20
1.5967911313
 30
0.0
 10
2.6236612101
 20
1.5984403869
 30
0.0
 10
2.623469032
 20
1.5994971834
 30
0.0
 10
2.6233373219
 20
1.6000954841
 30
0.0
 10
2.6232061001
 20
1.6005627136
 30
0.0
 10
2.6230912735
 20
1.6008684915
 30
0.0
 10
2.6229922878
 20
1.601043976
 30
0.0
 10
2.6229145224
 20
1.6011472017
 30
0.0
 10
2.6228335472
 20
1.6012002618
 30
0.0
 10
2.6227833429
 20
1.6012007867
 30
0.0
  0
SPLINE
  5
45D
100
AcDbEntity
  8
0
100
AcDbSpline
 62
7
  6
CONTINUOUS
 70
0
 71
3
 72
10
 73
6
 74
0
 42
0.0000001
 43
0.0000001
 44
0.0000000001
 40
0.0
 40
0.0
 40
0.0
 40
0.0
 40
0.532134316
 40
0.7778672515
 40
1.0
 40
1.0
 40
1.0
 40
1.0
 10
2.6472144837
 20
1.295650264
 30
0.0
 10
2.6464699399
 20
1.3333105329
 30
0.0
 10
2.6454041215
 20
1.3883623156
 30
0.0
 10
2.6438822349
 20
1.4591319204
 30
0.0
 10
2.6430992247
 20
1.4922410319
 30
0.0
 10
2.6426974043
 20
1.5079597724
 30
0.0
  0
SPLINE
  5
45E
100
AcDbEntity
  8
0
100
AcDbSpline
 62
7
  6
CONTINUOUS
 70
0
 71
3
 72
24
 73
20
 74
0
 42
0.0000001
 43
0.0000001
 44
0.0000000001
 40
0.0
 40
0.0
 40
0.0
 40
0.0
 40
0.2243769102
 40
0.4234582422
 40
0.5129037733
 40
0.5952989339
 40
0.6704563019
 40
0.7382219891
 40
0.7984432798
 40
0.8509684661
 40
0.8956482274
 40
0.9323743171
 40
0.9611039406
 40
0.9818168184
 40
0.9891772265
 40
0.9945657195
 40
0.9965421614
 40
0.9980664817
 40
1.0
 40
1.0
 40
1.0
 40
1.0
 10
2.6421329379
 20
1.5292050542
 30
0.0
 10
2.6419320018
 20
1.5364594583
 30
0.0
 10
2.6415352915
 20
1.5501499523
 30
0.0
 10
2.6409955135
 20
1.5667304491
 30
0.0
 10
2.6405581313
 20
1.5787194908
 30
0.0
 10
2.6402420889
 20
1.5867020916
 30
0.0
 10
2.6399263283
 20
1.5939828998
 30
0.0
 10
2.6396110298
 20
1.6005458081
 30
0.0
 10
2.6392963204
 20
1.6063757938
 30
0.0
 10
2.6389826862
 20
1.6114579627
 30
0.0
 10
2.6386700263
 20
1.6157785509
 30
0.0
 10
2.6383604943
 20
1.6193275953
 30
0.0
 10
2.6380522806
 20
1.6220975825
 30
0.0
 10
2.6377846664
 20
1.6239164229
 30
0.0
 10
2.6375511466
 20
1.6249742222
 30
0.0
 10
2.6374169968
 20
1.6254310336
 30
0.0
 10
2.6372991164
 20
1.6256962637
 30
0.0
 10
2.6372126239
 20
1.6258439409
 30
0.0
 10
2.6371145264
 20
1.6259315106
 30
0.0
 10
2.6370519892
 20
1.625931514
 30
0.0
  0
SPLINE
  5
45F
100
AcDbEntity
  8
0
100
AcDbSpline
 62
7
  6
CONTINUOUS
 70
0
 71
3
 72
11
 73
7
 74
0
 42
0.0000001
 43
0.0000001
 44
0.0000000001
 40
0.0
 40
0.0
 40
0.0
 40
0.0
 40
0.2700153111
 40
0.5321343169
 40
0.7778672536
 40
1.0
 40
1.0
 40
1.0
 40
1.0
 10
2.6065644837
 20
1.295650264
 30
0.0
 10
2.6061827035
 20
1.3147597388
 30
0.0
 10
2.6054479588
 20
1.3524202004
 30
0.0
 10
2.6043449667
 20
1.4074712302
 30
0.0
 10
2.6032319103
 20
1.4591319127
 30
0.0
 10
2.6024489757
 20
1.4922410257
 30
0.0
 10
2.6020472575
 20
1.5079597689
 30
0.0
  0
LINE
  5
460
100
AcDbEntity
  8
0
100
AcDbLine
 62
7
  6
CONTINUOUS
 10
2.6014829379
 20
1.5292050542
 11
2.6013847071
 21
1.5327248603
  0
SPLINE
  5
461
100
AcDbEntity
  8
0
100
AcDbSpline
 62
7
  6
CONTINUOUS
 70
0
 71
3
 72
11
 73
7
 74
0
 42
0.0000001
 43
0.0000001
 44
0.0000000001
 40
0.0
 40
0.0
 40
0.0
 40
0.0
 40
0.3117089607
 40
0.5842502027
 40
0.814498262
 40
1.0
 40
1.0
 40
1.0
 40
1.0
 10
2.6013847071
 20
1.5327248603
 30
0.0
 10
2.6011704466
 20
1.5403423429
 30
0.0
 10
2.6007485824
 20
1.5546195776
 30
0.0
 10
2.6000787293
 20
1.574520828
 30
0.0
 10
2.5994122273
 20
1.5913346766
 30
0.0
 10
2.5989192776
 20
1.6014870706
 30
0.0
 10
2.5986600317
 20
1.6060147028
 30
0.0
  0
SPLINE
  5
462
100
AcDbEntity
  8
0
100
AcDbSpline
 62
7
  6
CONTINUOUS
 70
0
 71
3
 72
12
 73
8
 74
0
 42
0.0000001
 43
0.0000001
 44
0.0000000001
 40
0.0
 40
0.0
 40
0.0
 40
0.0
 40
0.3594886375
 40
0.6465277968
 40
0.8601276858
 40
0.9392792249
 40
1.0
 40
1.0
 40
1.0
 40
1.0
 10
2.5986600317
 20
1.6060147028
 30
0.0
 10
2.5985316245
 20
1.6082572862
 30
0.0
 10
2.5982832903
 20
1.6122896632
 30
0.0
 10
2.5978717952
 20
1.6176483544
 30
0.0
 10
2.5975117176
 20
1.6212543649
 30
0.0
 10
2.5972049592
 20
1.6234417795
 30
0.0
 10
2.5970494537
 20
1.6243024414
 30
0.0
 10
2.5969663204
 20
1.6246726341
 30
0.0
  0
SPLINE
  5
463
100
AcDbEntity
  8
0
100
AcDbSpline
 62
7
  6
CONTINUOUS
 70
0
 71
3
 72
12
 73
8
 74
0
 42
0.0000001
 43
0.0000001
 44
0.0000000001
 40
0.0
 40
0.0
 40
0.0
 40
0.0
 40
0.398910548
 40
0.6925336134
 40
0.8013184726
 40
0.8864493225
 40
1.0
 40
1.0
 40
1.0
 40
1.0
 10
2.5969663204
 20
1.6246726341
 30
0.0
 10
2.5969248436
 20
1.6248573305
 30
0.0
 10
2.5968452396
 20
1.625176477
 30
0.0
 10
2.5967255817
 20
1.6255378103
 30
0.0
 10
2.5966213161
 20
1.6257463526
 30
0.0
 10
2.5965422352
 20
1.6258657233
 30
0.0
 10
2.5964558709
 20
1.6259315118
 30
0.0
 10
2.5964019873
 20
1.625931514
 30
0.0
  0
SPLINE
  5
464
100
AcDbEntity
  8
0
100
AcDbSpline
 62
7
  6
CONTINUOUS
 70
0
 71
3
 72
12
 73
8
 74
0
 42
0.0000001
 43
0.0000001
 44
0.0000000001
 40
0.0
 40
0.0
 40
0.0
 40
0.0
 40
0.3989070019
 40
0.6925286909
 40
0.8013137755
 40
0.8864455298
 40
1.0
 40
1.0
 40
1.0
 40
1.0
 10
2.6028677835
 20
1.6246727972
 30
0.0
 10
2.6029092574
 20
1.6248574693
 30
0.0
 10
2.6029888557
 20
1.6251765741
 30
0.0
 10
2.603108505
 20
1.62553786
 30
0.0
 10
2.6032127623
 20
1.6257463749
 30
0.0
 10
2.6032918381
 20
1.6258657315
 30
0.0
 10
2.6033781946
 20
1.625931511
 30
0.0
 10
2.6034320735
 20
1.625931514
 30
0.0
  0
SPLINE
  5
465
100
AcDbEntity
  8
0
100
AcDbSpline
 62
7
  6
CONTINUOUS
 70
0
 71
3
 72
12
 73
8
 74
0
 42
0.0000001
 43
0.0000001
 44
0.0000000001
 40
0.0
 40
0.0
 40
0.0
 40
0.0
 40
0.3989106218
 40
0.6925337022
 40
0.8013185483
 40
0.8864493738
 40
1.0
 40
1.0
 40
1.0
 40
1.0
 10
2.5766413203
 20
0.9666278939
 30
0.0
 10
2.5765998434
 20
0.9664431974
 30
0.0
 10
2.5765202395
 20
0.9661240508
 30
0.0
 10
2.5764005816
 20
0.9657627175
 30
0.0
 10
2.5762963159
 20
0.9655541751
 30
0.0
 10
2.5762172351
 20
0.9654348045
 30
0.0
 10
2.5761308707
 20
0.965369016
 30
0.0
 10
2.5760769871
 20
0.965369014
 30
0.0
  0
LINE
  5
466
100
AcDbEntity
  8
0
100
AcDbLine
 62
7
  6
CONTINUOUS
 10
2.579042079
 20
1.0284471198
 11
2.5806232866
 21
0.9894116636
  0
SPLINE
  5
467
100
AcDbEntity
  8
0
100
AcDbSpline
 62
7
  6
CONTINUOUS
 70
0
 71
3
 72
14
 73
10
 74
0
 42
0.0000001
 43
0.0000001
 44
0.0000000001
 40
0.0
 40
0.0
 40
0.0
 40
0.0
 40
0.3842347961
 40
0.5432385466
 40
0.679894945
 40
0.7940122306
 40
0.8854188802
 40
0.9540229229
 40
1.0
 40
1.0
 40
1.0
 40
1.0
 10
2.5806232866
 20
0.9894116636
 30
0.0
 10
2.5807816798
 20
0.9863932361
 30
0.0
 10
2.5810235924
 20
0.9821265115
 30
0.0
 10
2.581395189
 20
0.9767910108
 30
0.0
 10
2.581654648
 20
0.9735777879
 30
0.0
 10
2.5819128955
 20
0.9708985256
 30
0.0
 10
2.5821673332
 20
0.9687562973
 30
0.0
 10
2.5824201552
 20
0.9671565154
 30
0.0
 10
2.5826150102
 20
0.9662732261
 30
0.0
 10
2.5827307505
 20
0.9659305668
 30
0.0
  0
LINE
  5
468
100
AcDbEntity
  8
0
100
AcDbLine
 62
7
  6
CONTINUOUS
 10
2.5827307505
 20
0.9659305668
 11
2.5831068402
 21
0.9653732085
  0
LINE
  5
469
100
AcDbEntity
  8
0
100
AcDbLine
 62
7
  6
CONTINUOUS
 10
2.5770087719
 20
1.1015048347
 11
2.5775179483
 21
1.0811402681
  0
SPLINE
  5
46A
100
AcDbEntity
  8
0
100
AcDbSpline
 62
7
  6
CONTINUOUS
 70
0
 71
3
 72
18
 73
14
 74
0
 42
0.0000001
 43
0.0000001
 44
0.0000000001
 40
0.0
 40
0.0
 40
0.0
 40
0.0
 40
0.0128726929
 40
0.0322243353
 40
0.0582298468
 40
0.09095472
 40
0.1304210295
 40
0.1766105855
 40
0.2890302511
 40
0.4279292931
 40
0.5929931356
 40
0.7838840088
 40
1.0
 40
1.0
 40
1.0
 40
1.0
 10
2.6165115428
 20
0.9655569233
 30
0.0
 10
2.6164351459
 20
0.9656868007
 30
0.0
 10
2.6163045137
 20
0.9660446166
 30
0.0
 10
2.6161371525
 20
0.9667044231
 30
0.0
 10
2.6159679372
 20
0.9676036094
 30
0.0
 10
2.6157964405
 20
0.968740081
 30
0.0
 10
2.6156240932
 20
0.9701152143
 30
0.0
 10
2.6153768621
 20
0.9724206029
 30
0.0
 10
2.6150771673
 20
0.97589048
 30
0.0
 10
2.6147337886
 20
0.9807523902
 30
0.0
 10
2.614389391
 20
0.9865347251
 30
0.0
 10
2.6140447319
 20
0.9932222328
 30
0.0
 10
2.6138279828
 20
0.9979815199
 30
0.0
 10
2.613718224
 20
1.0005088703
 30
0.0
  0
SPLINE
  5
46B
100
AcDbEntity
  8
0
100
AcDbSpline
 62
7
  6
CONTINUOUS
 70
0
 71
3
 72
14
 73
10
 74
0
 42
0.0000001
 43
0.0000001
 44
0.0000000001
 40
0.0
 40
0.0
 40
0.0
 40
0.0
 40
0.0449290199
 40
0.1122188501
 40
0.2024741603
 40
0.3158404308
 40
0.4523299489
 40
0.6119014333
 40
1.0
 40
1.0
 40
1.0
 40
1.0
 10
2.6022241541
 20
0.9903081209
 30
0.0
 10
2.6021436604
 20
0.9904439558
 30
0.0
 10
2.6020053673
 20
0.9908173978
 30
0.0
 10
2.6018283795
 20
0.9915056657
 30
0.0
 10
2.6016494832
 20
0.9924418012
 30
0.0
 10
2.601468251
 20
0.9936231379
 30
0.0
 10
2.6012861165
 20
0.9950506119
 30
0.0
 10
2.6010249294
 20
0.9974407618
 30
0.0
 10
2.6008562362
 20
0.9993582607
 30
0.0
 10
2.6007460389
 20
1.000717692
 30
0.0
  0
SPLINE
  5
46C
100
AcDbEntity
  8
0
100
AcDbSpline
 62
7
  6
CONTINUOUS
 70
0
 71
3
 72
11
 73
7
 74
0
 42
0.0000001
 43
0.0000001
 44
0.0000000001
 40
0.0
 40
0.0
 40
0.0
 40
0.0
 40
0.1777494101
 40
0.4054747902
 40
0.6805604967
 40
1.0
 40
1.0
 40
1.0
 40
1.0
 10
2.6007460389
 20
1.000717692
 30
0.0
 10
2.6005172215
 20
1.0035404633
 30
0.0
 10
2.600087688
 20
1.0099870135
 30
0.0
 10
2.5995142351
 20
1.0208151015
 30
0.0
 10
2.5989366716
 20
1.0339031957
 30
0.0
 10
2.5985759835
 20
1.0433687605
 30
0.0
 10
2.5983926563
 20
1.0484549953
 30
0.0
  0
SPLINE
  5
46D
100
AcDbEntity
  8
0
100
AcDbSpline
 62
7
  6
CONTINUOUS
 70
0
 71
3
 72
12
 73
8
 74
0
 42
0.0000001
 43
0.0000001
 44
0.0000000001
 40
0.0
 40
0.0
 40
0.0
 40
0.0
 40
0.0549083266
 40
0.1292441652
 40
0.3380724172
 40
0.628234405
 40
1.0
 40
1.0
 40
1.0
 40
1.0
 10
2.5961871193
 20
1.6257485989
 30
0.0
 10
2.5961412872
 20
1.6256706203
 30
0.0
 10
2.5960562019
 20
1.6254741819
 30
0.0
 10
2.5958888325
 20
1.6249428814
 30
0.0
 10
2.5956950507
 20
1.6240166558
 30
0.0
 10
2.5954734896
 20
1.6225996936
 30
0.0
 10
2.5953412456
 20
1.621517027
 30
0.0
 10
2.5952725702
 20
1.620908482
 30
0.0
  0
SPLINE
  5
46E
100
AcDbEntity
  8
0
100
AcDbSpline
 62
7
  6
CONTINUOUS
 70
0
 71
3
 72
12
 73
8
 74
0
 42
0.0000001
 43
0.0000001
 44
0.0000000001
 40
0.0
 40
0.0
 40
0.0
 40
0.0
 40
0.0556930261
 40
0.1306242188
 40
0.3399607591
 40
0.6296668601
 40
1.0
 40
1.0
 40
1.0
 40
1.0
 10
2.6036536703
 20
1.6257369696
 30
0.0
 10
2.6036989774
 20
1.6256574739
 30
0.0
 10
2.6037833117
 20
1.6254589632
 30
0.0
 10
2.6039492537
 20
1.6249254907
 30
0.0
 10
2.6041417813
 20
1.6240005769
 30
0.0
 10
2.604361815
 20
1.622589473
 30
0.0
 10
2.6044932885
 20
1.6215127609
 30
0.0
 10
2.6045615166
 20
1.6209081636
 30
0.0
  0
LINE
  5
46F
100
AcDbEntity
  8
0
100
AcDbLine
 62
7
  6
CONTINUOUS
 10
2.6045615166
 20
1.6209081636
 11
2.6051261046
 21
1.6146738115
  0
LINE
  5
470
100
AcDbEntity
  8
0
100
AcDbLine
 62
7
  6
CONTINUOUS
 10
2.6051261046
 20
1.6146738115
 11
2.6056906978
 21
1.6060052459
  0
SPLINE
  5
471
100
AcDbEntity
  8
0
100
AcDbSpline
 62
7
  6
CONTINUOUS
 70
0
 71
3
 72
10
 73
6
 74
0
 42
0.0000001
 43
0.0000001
 44
0.0000000001
 40
0.0
 40
0.0
 40
0.0
 40
0.0
 40
0.2022448981
 40
0.437609755
 40
1.0
 40
1.0
 40
1.0
 40
1.0
 10
2.6062552679
 20
1.5949779699
 30
0.0
 10
2.6064607811
 20
1.5905446852
 30
0.0
 10
2.6068619855
 20
1.5809500967
 30
0.0
 10
2.6076526477
 20
1.5590203656
 30
0.0
 10
2.6081717782
 20
1.5415220125
 30
0.0
 10
2.6085135693
 20
1.5291857006
 30
0.0
  0
SPLINE
  5
472
100
AcDbEntity
  8
0
100
AcDbSpline
 62
7
  6
CONTINUOUS
 70
0
 71
3
 72
10
 73
6
 74
0
 42
0.0000001
 43
0.0000001
 44
0.0000000001
 40
0.0
 40
0.0
 40
0.0
 40
0.0
 40
0.2221398188
 40
0.4678741304
 40
1.0
 40
1.0
 40
1.0
 40
1.0
 10
2.609078291
 20
1.5079388735
 30
0.0
 10
2.6094802352
 20
1.4922211847
 30
0.0
 10
2.6102634935
 20
1.4591147399
 30
0.0
 10
2.611778687
 20
1.3883519719
 30
0.0
 10
2.6128638562
 20
1.3333064952
 30
0.0
 10
2.613594579
 20
1.295650264
 30
0.0
  0
SPLINE
  5
473
100
AcDbEntity
  8
0
100
AcDbSpline
 62
7
  6
CONTINUOUS
 70
0
 71
3
 72
12
 73
8
 74
0
 42
0.0000001
 43
0.0000001
 44
0.0000000001
 40
0.0
 40
0.0
 40
0.0
 40
0.0
 40
0.0739451712
 40
0.163159363
 40
0.3862447611
 40
0.6662933358
 40
1.0
 40
1.0
 40
1.0
 40
1.0
 10
2.619237229
 20
1.5926218588
 30
0.0
 10
2.6193742847
 20
1.5911009648
 30
0.0
 10
2.6196395382
 20
1.5877417889
 30
0.0
 10
2.6201630293
 20
1.5797824497
 30
0.0
 10
2.6207909792
 20
1.5675653695
 30
0.0
 10
2.6215110443
 20
1.5502985343
 30
0.0
 10
2.6219561236
 20
1.5376314701
 30
0.0
 10
2.6221843186
 20
1.5307438042
 30
0.0
  0
SPLINE
  5
474
100
AcDbEntity
  8
0
100
AcDbSpline
 62
7
  6
CONTINUOUS
 70
0
 71
3
 72
10
 73
6
 74
0
 42
0.0000001
 43
0.0000001
 44
0.0000000001
 40
0.0
 40
0.0
 40
0.0
 40
0.0
 40
0.2230309284
 40
0.4682164759
 40
1.0
 40
1.0
 40
1.0
 40
1.0
 10
2.6233630135
 20
1.4914799428
 30
0.0
 10
2.6237280003
 20
1.478246193
 30
0.0
 10
2.6244419693
 20
1.4504626873
 30
0.0
 10
2.6258335182
 20
1.3911204753
 30
0.0
 10
2.6268174795
 20
1.3450112175
 30
0.0
 10
2.6274867567
 20
1.3134524397
 30
0.0
  0
SPLINE
  5
475
100
AcDbEntity
  8
0
100
AcDbSpline
 62
7
  6
CONTINUOUS
 70
0
 71
3
 72
10
 73
6
 74
0
 42
0.0000001
 43
0.0000001
 44
0.0000000001
 40
0.0
 40
0.0
 40
0.0
 40
0.0
 40
0.538459488
 40
0.7829322055
 40
1.0
 40
1.0
 40
1.0
 40
1.0
 10
2.6280756697
 20
1.2856482302
 30
0.0
 10
2.6288385504
 20
1.2496357264
 30
0.0
 10
2.6299503424
 20
1.1972727359
 30
0.0
 10
2.631538416
 20
1.1303959316
 30
0.0
 10
2.632360329
 20
1.0995317347
 30
0.0
 10
2.6327848546
 20
1.0850170562
 30
0.0
  0
SPLINE
  5
476
100
AcDbEntity
  8
0
100
AcDbSpline
 62
7
  6
CONTINUOUS
 70
0
 71
3
 72
12
 73
8
 74
0
 42
0.0000001
 43
0.0000001
 44
0.0000000001
 40
0.0
 40
0.0
 40
0.0
 40
0.0
 40
0.0533549122
 40
0.1265398
 40
0.3344376817
 40
0.6256036884
 40
1.0
 40
1.0
 40
1.0
 40
1.0
 10
2.5833285394
 20
0.9655657607
 30
0.0
 10
2.583378327
 20
0.9656524198
 30
0.0
 10
2.5834700085
 20
0.9658724709
 30
0.0
 10
2.5836504702
 20
0.966472464
 30
0.0
 10
2.5838584367
 20
0.9675261094
 30
0.0
 10
2.5840963436
 20
0.9691445672
 30
0.0
 10
2.5842381651
 20
0.9703835467
 30
0.0
 10
2.5843119213
 20
0.9710809669
 30
0.0
  0
LINE
  5
477
100
AcDbEntity
  8
0
100
AcDbLine
 62
7
  6
CONTINUOUS
 10
2.5843119213
 20
0.9710809669
 11
2.5853657127
 21
0.9852926565
  0
SPLINE
  5
478
100
AcDbEntity
  8
0
100
AcDbSpline
 62
9
  6
CONTINUOUS
 70
0
 71
3
 72
32
 73
28
 74
0
 42
0.0000001
 43
0.0000001
 44
0.0000000001
 40
0.0
 40
0.0
 40
0.0
 40
0.0
 40
0.2222631518
 40
0.4211165182
 40
0.5108058473
 40
0.5935726017
 40
0.6692067291
 40
0.7375033041
 40
0.7982571305
 40
0.8512721529
 40
0.8964087514
 40
0.9159855836
 40
0.9335483348
 40
0.9490821725
 40
0.9625722593
 40
0.9740037535
 40
0.9833622856
 40
0.9872617514
 40
0.990641288
 40
0.9935008955
 40
0.995840574
 40
0.9976603237
 40
0.9989601445
 40
0.9994150816
 40
0.9997400366
 40
0.9999350094
 40
1.0
 40
1.0
 40
1.0
 40
1.0
 10
2.1004192518
 20
2.0050526429
 30
0.0
 10
2.1007551962
 20
2.0114225472
 30
0.0
 10
2.1013461481
 20
2.023493898
 30
0.0
 10
2.1019601613
 20
2.0381408191
 30
0.0
 10
2.1023555188
 20
2.0487897505
 30
0.0
 10
2.1025991604
 20
2.0559055611
 30
0.0
 10
2.1028042835
 20
2.0624083514
 30
0.0
 10
2.1029750766
 20
2.0682801392
 30
0.0
 10
2.1031156328
 20
2.0735033692
 30
0.0
 10
2.1032303386
 20
2.0780623749
 30
0.0
 10
2.103309925
 20
2.081440142
 30
0.0
 10
2.1033628035
 20
2.0838008039
 30
0.0
 10
2.1033956176
 20
2.0853121289
 30
0.0
 10
2.1034238067
 20
2.0866488278
 30
0.0
 10
2.1034476727
 20
2.0878096192
 30
0.0
 10
2.1034675007
 20
2.0887932233
 30
0.0
 10
2.1034816765
 20
2.0895016608
 30
0.0
 10
2.1034912494
 20
2.0899790268
 30
0.0
 10
2.1034970649
 20
2.0902699858
 30
0.0
 10
2.1035020366
 20
2.0905159999
 30
0.0
 10
2.1035059633
 20
2.09071779
 30
0.0
 10
2.1035093813
 20
2.0908734333
 30
0.0
 10
2.1035108578
 20
2.0909780724
 30
0.0
 10
2.1035128313
 20
2.0910349585
 30
0.0
 10
2.1035121137
 20
2.0910675123
 30
0.0
 10
2.103514707
 20
2.0910762048
 30
0.0
 10
2.1035125192
 20
2.0910920429
 30
0.0
 10
2.1035135164
 20
2.0910904667
 30
0.0
  0
SPLINE
  5
479
100
AcDbEntity
  8
0
100
AcDbSpline
 62
9
  6
CONTINUOUS
 70
0
 71
3
 72
14
 73
10
 74
0
 42
0.0000001
 43
0.0000001
 44
0.0000000001
 40
0.0
 40
0.0
 40
0.0
 40
0.0
 40
0.0934894973
 40
0.1975224128
 40
0.4364504635
 40
0.5716282924
 40
0.7137826556
 40
0.8582848181
 40
1.0
 40
1.0
 40
1.0
 40
1.0
 10
2.0696551645
 20
1.9895056914
 30
0.0
 10
2.069989831
 20
1.9905957433
 30
0.0
 10
2.0710280621
 20
1.9928022692
 30
0.0
 10
2.0743062051
 20
1.9970329688
 30
0.0
 10
2.0791764264
 20
2.0005025887
 30
0.0
 10
2.0850274387
 20
2.002857886
 30
0.0
 10
2.0900181731
 20
2.0041646469
 30
0.0
 10
2.0951951568
 20
2.0049293214
 30
0.0
 10
2.0986910308
 20
2.0050790347
 30
0.0
 10
2.1004193147
 20
2.0050538701
 30
0.0
  0
SPLINE
  5
47A
100
AcDbEntity
  8
0
100
AcDbSpline
 62
9
  6
CONTINUOUS
 70
0
 71
3
 72
21
 73
17
 74
0
 42
0.0000001
 43
0.0000001
 44
0.0000000001
 40
0.0
 40
0.0
 40
0.0
 40
0.0
 40
0.0541362771
 40
0.1115312799
 40
0.1717795144
 40
0.2344533744
 40
0.2991046937
 40
0.3652447039
 40
0.4999996051
 40
0.6347547833
 40
0.7008949121
 40
0.765546134
 40
0.8282196235
 40
0.8884675376
 40
0.9458626881
 40
1.0
 40
1.0
 40
1.0
 40
1.0
 10
2.0696551735
 20
1.9895056961
 30
0.0
 10
2.0681653517
 20
1.9645045942
 30
0.0
 10
2.0660669936
 20
1.9129386137
 30
0.0
 10
2.0648368367
 20
1.833472205
 30
0.0
 10
2.0649064791
 20
1.7500485254
 30
0.0
 10
2.0657532853
 20
1.6632739908
 30
0.0
 10
2.0668564583
 20
1.5737765377
 30
0.0
 10
2.0683476969
 20
1.4509344498
 30
0.0
 10
2.0695791256
 20
1.2956506904
 30
0.0
 10
2.0683477203
 20
1.140366876
 30
0.0
 10
2.0668564851
 20
1.01752465
 30
0.0
 10
2.0657532998
 20
0.9280273587
 30
0.0
 10
2.0649064594
 20
0.8412531892
 30
0.0
 10
2.0648367902
 20
0.7578297609
 30
0.0
 10
2.0660669568
 20
0.678362953
 30
0.0
 10
2.0681653466
 20
0.6267964267
 30
0.0
 10
2.0696551777
 20
0.6017948457
 30
0.0
  0
SPLINE
  5
47B
100
AcDbEntity
  8
0
100
AcDbSpline
 62
9
  6
CONTINUOUS
 70
0
 71
3
 72
18
 73
14
 74
0
 42
0.0000001
 43
0.0000001
 44
0.0000000001
 40
0.0
 40
0.0
 40
0.0
 40
0.0
 40
0.2227125378
 40
0.4214193461
 40
0.5938903515
 40
0.7378865537
 40
0.8514093317
 40
0.8964115878
 40
0.933446836
 40
0.9624192669
 40
0.9832329662
 40
0.9957919165
 40
1.0
 40
1.0
 40
1.0
 40
1.0
 10
2.0696551652
 20
0.60179483
 30
0.0
 10
2.0699853912
 20
0.5962533762
 30
0.0
 10
2.0705633603
 20
0.5857649125
 30
0.0
 10
2.0712533426
 20
0.5709776757
 30
0.0
 10
2.0717573165
 20
0.5581463472
 30
0.0
 10
2.0721115224
 20
0.5474343212
 30
0.0
 10
2.0723285303
 20
0.5398968377
 30
0.0
 10
2.0724523205
 20
0.5350239201
 30
0.0
 10
2.0725176842
 20
0.5322576674
 30
0.0
 10
2.0725624068
 20
0.5300940678
 30
0.0
 10
2.0725962066
 20
0.5285403662
 30
0.0
 10
2.0726062785
 20
0.5276037701
 30
0.0
 10
2.0726195306
 20
0.5271859021
 30
0.0
 10
2.0726183422
 20
0.527081019
 30
0.0
  0
SPLINE
  5
47C
100
AcDbEntity
  8
0
100
AcDbSpline
 62
9
  6
CONTINUOUS
 70
0
 71
3
 72
25
 73
21
 74
0
 42
0.0000001
 43
0.0000001
 44
0.0000000001
 40
0.0
 40
0.0
 40
0.0
 40
0.0
 40
0.0541574478
 40
0.1116073347
 40
0.1718895608
 40
0.2345596803
 40
0.2666544381
 40
0.2991818263
 40
0.3652918238
 40
0.4323964055
 40
0.5000002471
 40
0.567604081
 40
0.6347086392
 40
0.7008186024
 40
0.7333459722
 40
0.7654407086
 40
0.828110766
 40
0.8883928959
 40
0.9458426663
 40
1.0
 40
1.0
 40
1.0
 40
1.0
 10
2.1004191731
 20
0.5862499169
 30
0.0
 10
2.0988995535
 20
0.611821403
 30
0.0
 10
2.0967269555
 20
0.6645768712
 30
0.0
 10
2.0953527122
 20
0.7458735022
 30
0.0
 10
2.0952469914
 20
0.8312063793
 30
0.0
 10
2.0958264991
 20
0.9045420964
 30
0.0
 10
2.0964699599
 20
0.9647481855
 30
0.0
 10
2.0971678741
 20
1.0265808585
 30
0.0
 10
2.0980347328
 20
1.1049724147
 30
0.0
 10
2.0987924292
 20
1.1999573062
 30
0.0
 10
2.0990368113
 20
1.2956516282
 30
0.0
 10
2.0987924126
 20
1.391345939
 30
0.0
 10
2.0980347183
 20
1.4863307995
 30
0.0
 10
2.0971678381
 20
1.5647223195
 30
0.0
 10
2.0964699316
 20
1.6265549576
 30
0.0
 10
2.095826482
 20
1.6867609987
 30
0.0
 10
2.0952469827
 20
1.7600966308
 30
0.0
 10
2.0953527294
 20
1.8454293779
 30
0.0
 10
2.0967270016
 20
1.9267258538
 30
0.0
 10
2.0988996242
 20
1.979481212
 30
0.0
 10
2.1004192587
 20
2.0050526431
 30
0.0
  0
SPLINE
  5
47D
100
AcDbEntity
  8
0
100
AcDbSpline
 62
9
  6
CONTINUOUS
 70
0
 71
3
 72
14
 73
10
 74
0
 42
0.0000001
 43
0.0000001
 44
0.0000000001
 40
0.0
 40
0.0
 40
0.0
 40
0.0
 40
0.1417152022
 40
0.2862173834
 40
0.4283717589
 40
0.56354959
 40
0.802477616
 40
0.9065105158
 40
1.0
 40
1.0
 40
1.0
 40
1.0
 10
2.1004193139
 20
0.5862466425
 30
0.0
 10
2.0986910292
 20
0.586221478
 30
0.0
 10
2.0951951537
 20
0.5863711919
 30
0.0
 10
2.0900181679
 20
0.5871358678
 30
0.0
 10
2.0850274319
 20
0.5884426305
 30
0.0
 10
2.0791764188
 20
0.5907979304
 30
0.0
 10
2.0743061981
 20
0.5942675539
 30
0.0
 10
2.0710280578
 20
0.5984982569
 30
0.0
 10
2.0699898286
 20
0.6007047841
 30
0.0
 10
2.0696551632
 20
0.6017948365
 30
0.0
  0
LINE
  5
47E
100
AcDbEntity
  8
0
100
AcDbLine
 62
7
  6
CONTINUOUS
 10
2.5836970107
 20
1.592298604
 11
2.5842838304
 21
1.5844477482
  0
SPLINE
  5
47F
100
AcDbEntity
  8
0
100
AcDbSpline
 62
7
  6
CONTINUOUS
 70
0
 71
3
 72
10
 73
6
 74
0
 42
0.0000001
 43
0.0000001
 44
0.0000000001
 40
0.0
 40
0.0
 40
0.0
 40
0.0
 40
0.1887701963
 40
0.4195502766
 40
1.0
 40
1.0
 40
1.0
 40
1.0
 10
2.5842838304
 20
1.5844477482
 30
0.0
 10
2.5845047622
 20
1.5810414734
 30
0.0
 10
2.5849281977
 20
1.5734665234
 30
0.0
 10
2.585761696
 20
1.5554031568
 30
0.0
 10
2.5862852586
 20
1.5407430715
 30
0.0
 10
2.5866317855
 20
1.5302528264
 30
0.0
  0
SPLINE
  5
480
100
AcDbEntity
  8
0
100
AcDbSpline
 62
7
  6
CONTINUOUS
 70
0
 71
3
 72
10
 73
6
 74
0
 42
0.0000001
 43
0.0000001
 44
0.0000000001
 40
0.0
 40
0.0
 40
0.0
 40
0.0
 40
0.2231938847
 40
0.4684161102
 40
1.0
 40
1.0
 40
1.0
 40
1.0
 10
2.5878064335
 20
1.4910352031
 30
0.0
 10
2.5881704085
 20
1.4778165871
 30
0.0
 10
2.588882574
 20
1.450073307
 30
0.0
 10
2.5902707294
 20
1.3908422888
 30
0.0
 10
2.5912525518
 20
1.3448290946
 30
0.0
 10
2.5919203631
 20
1.3133412865
 30
0.0
  0
SPLINE
  5
481
100
AcDbEntity
  8
0
100
AcDbSpline
 62
7
  6
CONTINUOUS
 70
0
 71
3
 72
10
 73
6
 74
0
 42
0.0000001
 43
0.0000001
 44
0.0000000001
 40
0.0
 40
0.0
 40
0.0
 40
0.0
 40
0.5384804805
 40
0.7828928239
 40
1.0
 40
1.0
 40
1.0
 40
1.0
 10
2.5925084063
 20
1.2855801039
 30
0.0
 10
2.5932710022
 20
1.2495835609
 30
0.0
 10
2.5943819967
 20
1.1972484445
 30
0.0
 10
2.5959696221
 20
1.1304038912
 30
0.0
 10
2.5967910638
 20
1.0995559777
 30
0.0
 10
2.5972153602
 20
1.0850456622
 30
0.0
  0
LINE
  5
482
100
AcDbEntity
  8
0
100
AcDbLine
 62
7
  6
CONTINUOUS
 10
3.2511305594
 20
1.6280066871
 11
3.2499364578
 21
1.6283779957
  0
LINE
  5
483
100
AcDbEntity
  8
0
100
AcDbLine
 62
7
  6
CONTINUOUS
 10
3.5335910872
 20
0.9656245017
 11
3.5329868695
 21
0.9678684844
  0
SPLINE
  5
484
100
AcDbEntity
  8
0
100
AcDbSpline
 62
7
  6
CONTINUOUS
 70
0
 71
3
 72
10
 73
6
 74
0
 42
0.0000001
 43
0.0000001
 44
0.0000000001
 40
0.0
 40
0.0
 40
0.0
 40
0.0
 40
0.1737525991
 40
0.3986450494
 40
1.0
 40
1.0
 40
1.0
 40
1.0
 10
3.5329868695
 20
0.9678684844
 30
0.0
 10
3.5328629797
 20
0.9685668157
 30
0.0
 10
3.5326308396
 20
0.970178078
 30
0.0
 10
3.5321729873
 20
0.9742343508
 30
0.0
 10
3.5319006984
 20
0.9775968187
 30
0.0
 10
3.531719725
 20
0.9800447915
 30
0.0
  0
LINE
  5
485
100
AcDbEntity
  8
0
100
AcDbLine
 62
7
  6
CONTINUOUS
 10
3.531719725
 20
0.9800447915
 11
3.5310395534
 21
0.990648102
  0
SPLINE
  5
486
100
AcDbEntity
  8
0
100
AcDbSpline
 62
7
  6
CONTINUOUS
 70
0
 71
3
 72
10
 73
6
 74
0
 42
0.0000001
 43
0.0000001
 44
0.0000000001
 40
0.0
 40
0.0
 40
0.0
 40
0.0
 40
0.1902419675
 40
0.4221324535
 40
1.0
 40
1.0
 40
1.0
 40
1.0
 10
3.5310395534
 20
0.990648102
 30
0.0
 10
3.5307469187
 20
0.9958098672
 30
0.0
 10
3.5301870697
 20
1.0072684614
 30
0.0
 10
3.5290853498
 20
1.0344224207
 30
0.0
 10
3.5283776915
 20
1.0564175965
 30
0.0
 10
3.5279139183
 20
1.0721149906
 30
0.0
  0
LINE
  5
487
100
AcDbEntity
  8
0
100
AcDbLine
 62
7
  6
CONTINUOUS
 10
3.5274062818
 20
1.0899583265
 11
3.5272869837
 21
1.0943492931
  0
SPLINE
  5
488
100
AcDbEntity
  8
0
100
AcDbSpline
 62
7
  6
CONTINUOUS
 70
0
 71
3
 72
15
 73
11
 74
0
 42
0.0000001
 43
0.0000001
 44
0.0000000001
 40
0.0
 40
0.0
 40
0.0
 40
0.0
 40
0.0255718697
 40
0.0565086208
 40
0.1341539234
 40
0.2322661771
 40
0.3501460256
 40
0.4870847208
 40
0.6421716254
 40
1.0
 40
1.0
 40
1.0
 40
1.0
 10
3.5182653194
 20
0.9953821201
 30
0.0
 10
3.5181430297
 20
0.9963478123
 30
0.0
 10
3.5179067109
 20
0.9984860714
 30
0.0
 10
3.517439978
 20
1.0035714713
 30
0.0
 10
3.5168798768
 20
1.011420075
 30
0.0
 10
3.5162388368
 20
1.0225792233
 30
0.0
 10
3.5155940803
 20
1.0359983819
 30
0.0
 10
3.5149457703
 20
1.0515882016
 30
0.0
 10
3.514035856
 20
1.0763085065
 30
0.0
 10
3.5134217579
 20
1.0958233267
 30
0.0
 10
3.5130176563
 20
1.1094382254
 30
0.0
  0
ELLIPSE
  5
489
100
AcDbEntity
  8
0
100
AcDbEllipse
 62
7
  6
CONTINUOUS
 10
3.0226770313
 20
1.7555525145
 30
0.0
 11
0.22865625
 21
-0.0
 31
0.0
 40
1.0
 41
-2.5116434242
 42
-2.1360655108
  0
ELLIPSE
  5
48A
100
AcDbEntity
  8
0
100
AcDbEllipse
 62
7
  6
CONTINUOUS
 10
3.0226770313
 20
1.7555525145
 30
0.0
 11
0.22865625
 21
-0.0
 31
0.0
 40
1.0
 41
-1.0055271428
 42
-0.6299492294
  0
ELLIPSE
  5
48B
100
AcDbEntity
  8
0
100
AcDbEllipse
 62
7
  6
CONTINUOUS
 10
3.0226770313
 20
1.7555525145
 30
0.0
 11
0.0
 21
0.22865625
 31
0.0
 40
1.0
 41
-3.4758345214
 42
-2.8073507858
  0
ENDSEC
  0
SECTION
  2
OBJECTS
  0
DICTIONARY
  5
C
100
AcDbDictionary
280
0
281
1
  3
ACAD_GROUP
350
D
  3
ACAD_MLINESTYLE
350
17
  3
ACAD_LAYOUT
350
1A
  3
ACAD_PLOTSETTINGS
350
19
  3
ACAD_PLOTSTYLENAME
350
E
  0
DICTIONARY
  5
D
102
{ACAD_REACTORS
330
C
102
}
100
AcDbDictionary
280
0
281
1
  0
ACDBDICTIONARYWDFLT
  5
E
102
{ACAD_REACTORS
330
C
102
}
100
AcDbDictionary
281
1
  3
Normal
350
F
100
AcDbDictionaryWithDefault
340
F
  0
DICTIONARY
  5
17
102
{ACAD_REACTORS
330
C
102
}
100
AcDbDictionary
280
0
281
1
  3
Standard
350
18
  0
DICTIONARY
  5
19
102
{ACAD_REACTORS
330
C
102
}
100
AcDbDictionary
281
1
  0
DICTIONARY
  5
1A
102
{ACAD_REACTORS
330
C
102
}
100
AcDbDictionary
281
1
  3
Model
350
48C
  3
Layout1
350
48D
  0
ACDBPLACEHOLDER
  5
F
102
{ACAD_REACTORS
330
E
102
}
  0
MLINESTYLE
  5
18
102
{ACAD_REACTORS
330
17
102
}
100
AcDbMlineStyle
  2
STANDARD
 70
0
  3

 62
256
 51
90.0
 52
90.0
 71
2
 49
0.5
 62
256
  6
BYLAYER
 49
-0.5
 62
256
  6
BYLAYER
  0
LAYOUT
  5
48C
102
{ACAD_REACTORS
330
1A
102
}
100
AcDbPlotSettings
  1

  2
none_device
  4

  6

 40
0.0
 41
0.0
 42
0.0
 43
0.0
 44
215.9
 45
279.4
 46
0.0
 47
0.0
 48
0.0
 49
0.0
140
0.0
141
0.0
142
1.0
143
1.0
 70
1024
 72
0
 73
0
 74
0
  7

 75
0
147
1.0
148
0.0
149
0.0
100
AcDbLayout
  1
Model
 70
0
 71
0
 10
0.0
 20
0.0
 11
8.5
 21
11.0
 12
0.0
 22
0.0
 32
0.0
 14
0.0
 24
0.0
 34
0.0
 15
0.0
 25
0.0
 35
0.0
146
0.0
 13
0.0
 23
0.0
 33
0.0
 16
1.0
 26
0.0
 36
0.0
 17
0.0
 27
1.0
 37
0.0
 76
0
330
226
345
0
346
0
  0
LAYOUT
  5
48D
102
{ACAD_REACTORS
330
1A
102
}
100
AcDbPlotSettings
  1

  2
none_device
  4

  6

 40
0.0
 41
0.0
 42
0.0
 43
0.0
 44
215.9
 45
279.4
 46
0.0
 47
0.0
 48
0.0
 49
0.0
140
0.0
141
0.0
142
1.0
143
1.0
 70
0
 72
0
 73
0
 74
0
  7

 75
0
147
1.0
148
0.0
149
0.0
100
AcDbLayout
  1
Layout1
 70
0
 71
1
 10
0.0
 20
0.0
 11
8.5
 21
11.0
 12
0.0
 22
0.0
 32
0.0
 14
0.0
 24
0.0
 34
0.0
 15
0.0
 25
0.0
 35
0.0
146
0.0
 13
0.0
 23
0.0
 33
0.0
 16
1.0
 26
0.0
 36
0.0
 17
0.0
 27
1.0
 37
0.0
 76
0
330
227
345
0
346
0
  0
ENDSEC
  0
EOF
