999
DXF file: C:\Prowork\plots\495_top.dxf
999
Pro/ENGINEER 2018500 by Parametric Technology Corporation
  0
SECTION
  2
HEADER
  9
$ACADVER
  1
AC1032
  9
$DWGCODEPAGE
  3
ANSI_1252
  9
$EXTMAX
 10
8.5
 20
11.0
 30
0.0
  9
$EXTMIN
 10
0.0
 20
0.0
 30
0.0
  9
$LIMMIN
 10
0.0
 20
0.0
  9
$LIMMAX
 10
8.5
 20
11.0
  9
$VIEWCTR
 10
4.25
 20
5.5
  9
$VIEWSIZE
 40
11.0
  9
$CLAYER
  8
0
  9
$LTSCALE
 40
0.717037037
  9
$CELTYPE
  6
BYLAYER
  9
$DIMSCALE
 40
1.0
  9
$DIMASZ
 40
0.1
  9
$DIMEXO
 40
0.0625
  9
$DIMDLI
 40
0.4954074074
  9
$DIMEXE
 40
0.125
  9
$DIMCEN
 40
0.1173333333
  9
$DIMLFAC
 40
1.0
  9
$DIMBLK
  1
_FILLED
  9
$DIMALT
 70
1
  9
$DIMALTD
 70
2
  9
$DIMALTTD
 70
2
  9
$DIMALTF
 40
25.4
  9
$DIMTXT
 40
0.08
  9
$DIMTOL
 70
1
  9
$DIMLIM
 70
0
  9
$DIMTFAC
 40
1.0
  9
$DIMTP
 40
0.001
  9
$DIMTM
 40
0.001
  9
$DIMGAP
 40
0.09
  9
$DIMDSEP
 70
46
  9
$AUNITS
 70
0
  9
$PDMODE
 70
3
  9
$PDSIZE
 40
0.06
  9
$HANDSEED
  5
3A6
  9
$TILEMODE
 70
1
  9
$MEASUREMENT
 70
0
  9
$INSUNITS
 70
1
  0
ENDSEC
  0
SECTION
  2
CLASSES
  0
CLASS
  1
ACDBDICTIONARYWDFLT
  2
AcDbDictionaryWithDefault
  3
AutoCAD 2000
 90
0
 91
1
280
0
281
0
  0
CLASS
  1
ACDBPLACEHOLDER
  2
AcDbPlaceHolder
  3
AutoCAD 2000
 90
0
 91
1
280
0
281
0
  0
CLASS
  1
LAYOUT
  2
AcDbLayout
  3
AutoCAD 2000
 90
0
 91
0
280
0
281
0
  0
ENDSEC
  0
SECTION
  2
TABLES
  0
TABLE
  2
VPORT
  5
8
100
AcDbSymbolTable
 70
2
  0
VPORT
  5
1F4
100
AcDbSymbolTableRecord
100
AcDbViewportTableRecord
  2
*ACTIVE
 70
0
 10
0.0
 20
0.0
 11
1.0
 21
1.0
 12
4.25
 22
5.5
 13
0.0
 23
0.0
 14
1.0
 24
1.0
 15
0.0
 25
0.0
 16
0.0
 26
0.0
 36
1.0
 17
0.0
 27
0.0
 37
0.0
 40
11.0
 41
0.7727272727
 42
50.0
 43
0.0
 44
0.0
 50
0.0
 51
0.0
 71
0
 72
100
 73
1
 74
1
 75
0
 76
0
 77
0
 78
0
  0
ENDTAB
  0
TABLE
  2
LTYPE
  5
5
100
AcDbSymbolTable
 70
6
  0
LTYPE
  5
14
100
AcDbSymbolTableRecord
100
AcDbLinetypeTableRecord
  2
BYBLOCK
 70
0
  3

 72
65
 73
0
 40
0.0
  0
LTYPE
  5
15
100
AcDbSymbolTableRecord
100
AcDbLinetypeTableRecord
  2
BYLAYER
 70
0
  3

 72
65
 73
0
 40
0.0
  0
LTYPE
  5
16
100
AcDbSymbolTableRecord
100
AcDbLinetypeTableRecord
  2
CONTINUOUS
 70
64
  3
Solid line
 72
65
 73
0
 40
0.0
  0
LTYPE
  5
1F5
100
AcDbSymbolTableRecord
100
AcDbLinetypeTableRecord
  2
CENTER
 70
64
  3
____ _ ____ _ ____ _ ____ _ ____ _ ____ _ ____
 72
65
 73
4
 40
0.6
 49
0.375
 74
0
 49
-0.075
 74
0
 49
0.075
 74
0
 49
-0.075
 74
0
  0
LTYPE
  5
1F6
100
AcDbSymbolTableRecord
100
AcDbLinetypeTableRecord
  2
HIDDEN
 70
64
  3
- - - - - - - - - - - - - - - - - - - -
 72
65
 73
2
 40
0.2
 49
0.1
 74
0
 49
-0.1
 74
0
  0
LTYPE
  5
1F7
100
AcDbSymbolTableRecord
100
AcDbLinetypeTableRecord
  2
PHANTOM
 70
64
  3
_____ _ _ _____ _ _ _____ _ _ _____
 72
65
 73
6
 40
0.8
 49
0.45
 74
0
 49
-0.05
 74
0
 49
0.1
 74
0
 49
-0.05
 74
0
 49
0.1
 74
0
 49
-0.05
 74
0
  0
LTYPE
  5
1F8
100
AcDbSymbolTableRecord
100
AcDbLinetypeTableRecord
  2
DOT
 70
64
  3
. . . . . . . . . . . . . . . . . . . .
 72
65
 73
2
 40
0.2
 49
0.1
 74
0
 49
-0.1
 74
0
  0
LTYPE
  5
1F9
100
AcDbSymbolTableRecord
100
AcDbLinetypeTableRecord
  2
DASHED
 70
64
  3
- - - - - - - - - - - - - - - - - - - -
 72
65
 73
2
 40
0.2
 49
0.1
 74
0
 49
-0.1
 74
0
  0
ENDTAB
  0
TABLE
  2
LAYER
  5
2
100
AcDbSymbolTable
 70
36
  0
LAYER
  5
10
100
AcDbSymbolTableRecord
100
AcDbLayerTableRecord
  2
0
 70
0
 62
7
  6
CONTINUOUS
370
-3
390
F
  0
LAYER
  5
1FA
100
AcDbSymbolTableRecord
100
AcDbLayerTableRecord
  2
DEFAULT_1
 70
0
 62
7
  6
CENTER
370
-3
390
F
  0
LAYER
  5
1FB
100
AcDbSymbolTableRecord
100
AcDbLayerTableRecord
  2
DEFAULT_2
 70
0
 62
8
  6
HIDDEN
370
-3
390
F
  0
LAYER
  5
1FC
100
AcDbSymbolTableRecord
100
AcDbLayerTableRecord
  2
DEFAULT_3
 70
0
 62
7
  6
PHANTOM
370
-3
390
F
  0
LAYER
  5
1FD
100
AcDbSymbolTableRecord
100
AcDbLayerTableRecord
  2
403
 70
0
 62
7
  6
CONTINUOUS
370
-3
390
F
  0
LAYER
  5
1FE
100
AcDbSymbolTableRecord
100
AcDbLayerTableRecord
  2
435
 70
0
 62
7
  6
CONTINUOUS
370
-3
390
F
  0
LAYER
  5
1FF
100
AcDbSymbolTableRecord
100
AcDbLayerTableRecord
  2
441
 70
0
 62
7
  6
CONTINUOUS
370
-3
390
F
  0
LAYER
  5
200
100
AcDbSymbolTableRecord
100
AcDbLayerTableRecord
  2
50350
 70
0
 62
7
  6
CONTINUOUS
370
-3
390
F
  0
LAYER
  5
201
100
AcDbSymbolTableRecord
100
AcDbLayerTableRecord
  2
50355
 70
0
 62
7
  6
CONTINUOUS
370
-3
390
F
  0
LAYER
  5
202
100
AcDbSymbolTableRecord
100
AcDbLayerTableRecord
  2
50359
 70
0
 62
7
  6
CONTINUOUS
370
-3
390
F
  0
LAYER
  5
203
100
AcDbSymbolTableRecord
100
AcDbLayerTableRecord
  2
50362
 70
0
 62
7
  6
CONTINUOUS
370
-3
390
F
  0
LAYER
  5
204
100
AcDbSymbolTableRecord
100
AcDbLayerTableRecord
  2
50391
 70
0
 62
7
  6
CONTINUOUS
370
-3
390
F
  0
LAYER
  5
205
100
AcDbSymbolTableRecord
100
AcDbLayerTableRecord
  2
50663
 70
0
 62
7
  6
CONTINUOUS
370
-3
390
F
  0
LAYER
  5
206
100
AcDbSymbolTableRecord
100
AcDbLayerTableRecord
  2
50664
 70
0
 62
7
  6
CONTINUOUS
370
-3
390
F
  0
LAYER
  5
207
100
AcDbSymbolTableRecord
100
AcDbLayerTableRecord
  2
50668
 70
0
 62
7
  6
CONTINUOUS
370
-3
390
F
  0
LAYER
  5
208
100
AcDbSymbolTableRecord
100
AcDbLayerTableRecord
  2
50675
 70
0
 62
7
  6
CONTINUOUS
370
-3
390
F
  0
LAYER
  5
209
100
AcDbSymbolTableRecord
100
AcDbLayerTableRecord
  2
50677
 70
0
 62
7
  6
CONTINUOUS
370
-3
390
F
  0
LAYER
  5
20A
100
AcDbSymbolTableRecord
100
AcDbLayerTableRecord
  2
50678
 70
0
 62
7
  6
CONTINUOUS
370
-3
390
F
  0
LAYER
  5
20B
100
AcDbSymbolTableRecord
100
AcDbLayerTableRecord
  2
6-403
 70
0
 62
7
  6
CONTINUOUS
370
-3
390
F
  0
LAYER
  5
20C
100
AcDbSymbolTableRecord
100
AcDbLayerTableRecord
  2
91203
 70
0
 62
7
  6
CONTINUOUS
370
-3
390
F
  0
LAYER
  5
20D
100
AcDbSymbolTableRecord
100
AcDbLayerTableRecord
  2
92073
 70
0
 62
7
  6
CONTINUOUS
370
-3
390
F
  0
LAYER
  5
20E
100
AcDbSymbolTableRecord
100
AcDbLayerTableRecord
  2
DEFAULT_COORDINATE_SYSTEM
 70
0
 62
7
  6
CONTINUOUS
370
-3
390
F
  0
LAYER
  5
20F
100
AcDbSymbolTableRecord
100
AcDbLayerTableRecord
  2
DEFAULT_DATUM_AXES
 70
0
 62
7
  6
CONTINUOUS
370
-3
390
F
  0
LAYER
  5
210
100
AcDbSymbolTableRecord
100
AcDbLayerTableRecord
  2
DEFAULT_DATUM_PLANES
 70
0
 62
7
  6
CONTINUOUS
370
-3
390
F
  0
LAYER
  5
211
100
AcDbSymbolTableRecord
100
AcDbLayerTableRecord
  2
INTF_441
 70
0
 62
7
  6
CONTINUOUS
370
-3
390
F
  0
LAYER
  5
212
100
AcDbSymbolTableRecord
100
AcDbLayerTableRecord
  2
INTF_50350
 70
0
 62
7
  6
CONTINUOUS
370
-3
390
F
  0
LAYER
  5
213
100
AcDbSymbolTableRecord
100
AcDbLayerTableRecord
  2
INTF_50355
 70
0
 62
7
  6
CONTINUOUS
370
-3
390
F
  0
LAYER
  5
214
100
AcDbSymbolTableRecord
100
AcDbLayerTableRecord
  2
INTF_50359
 70
0
 62
7
  6
CONTINUOUS
370
-3
390
F
  0
LAYER
  5
215
100
AcDbSymbolTableRecord
100
AcDbLayerTableRecord
  2
INTF_50362
 70
0
 62
7
  6
CONTINUOUS
370
-3
390
F
  0
LAYER
  5
216
100
AcDbSymbolTableRecord
100
AcDbLayerTableRecord
  2
INTF_50391
 70
0
 62
7
  6
CONTINUOUS
370
-3
390
F
  0
LAYER
  5
217
100
AcDbSymbolTableRecord
100
AcDbLayerTableRecord
  2
INTF_50663
 70
0
 62
7
  6
CONTINUOUS
370
-3
390
F
  0
LAYER
  5
218
100
AcDbSymbolTableRecord
100
AcDbLayerTableRecord
  2
INTF_50664
 70
0
 62
7
  6
CONTINUOUS
370
-3
390
F
  0
LAYER
  5
219
100
AcDbSymbolTableRecord
100
AcDbLayerTableRecord
  2
INTF_50668
 70
0
 62
7
  6
CONTINUOUS
370
-3
390
F
  0
LAYER
  5
21A
100
AcDbSymbolTableRecord
100
AcDbLayerTableRecord
  2
INTF_50675
 70
0
 62
7
  6
CONTINUOUS
370
-3
390
F
  0
LAYER
  5
21B
100
AcDbSymbolTableRecord
100
AcDbLayerTableRecord
  2
INTF_50677
 70
0
 62
7
  6
CONTINUOUS
370
-3
390
F
  0
LAYER
  5
21C
100
AcDbSymbolTableRecord
100
AcDbLayerTableRecord
  2
INTF_50678
 70
0
 62
7
  6
CONTINUOUS
370
-3
390
F
  0
LAYER
  5
21D
100
AcDbSymbolTableRecord
100
AcDbLayerTableRecord
  2
INTF_91203
 70
0
 62
7
  6
CONTINUOUS
370
-3
390
F
  0
LAYER
  5
21E
100
AcDbSymbolTableRecord
100
AcDbLayerTableRecord
  2
INTF_92073
 70
0
 62
7
  6
CONTINUOUS
370
-3
390
F
  0
LAYER
  5
21F
100
AcDbSymbolTableRecord
100
AcDbLayerTableRecord
  2
INTF_BLANK
 70
0
 62
7
  6
CONTINUOUS
370
-3
390
F
  0
LAYER
  5
220
100
AcDbSymbolTableRecord
100
AcDbLayerTableRecord
  2
NONE
 70
0
 62
7
  6
CONTINUOUS
370
-3
390
F
  0
LAYER
  5
221
100
AcDbSymbolTableRecord
100
AcDbLayerTableRecord
  2
PLATED_SURFACE
 70
0
 62
7
  6
CONTINUOUS
370
-3
390
F
  0
LAYER
  5
222
100
AcDbSymbolTableRecord
100
AcDbLayerTableRecord
  2
WETTED_SURFACE
 70
0
 62
7
  6
CONTINUOUS
370
-3
390
F
  0
LAYER
  5
223
100
AcDbSymbolTableRecord
100
AcDbLayerTableRecord
  2
_BLACK_HOLE
 70
0
 62
7
  6
CONTINUOUS
370
-3
390
F
  0
ENDTAB
  0
TABLE
  2
STYLE
  5
3
100
AcDbSymbolTable
 70
1
  0
STYLE
  5
11
100
AcDbSymbolTableRecord
100
AcDbTextStyleTableRecord
  2
STANDARD
 70
0
 40
0.0
 41
0.8
 50
0.0
 71
0
 42
0.2
  3
txt
  4

  0
STYLE
  5
224
100
AcDbSymbolTableRecord
100
AcDbTextStyleTableRecord
  2
TEXTSTYLE_1
 70
0
 40
0.0
 41
0.8
 50
0.0
 71
0
 42
0.2
  3
gdt
  4

  0
ENDTAB
  0
TABLE
  2
VIEW
  5
6
100
AcDbSymbolTable
 70
0
  0
ENDTAB
  0
TABLE
  2
UCS
  5
7
100
AcDbSymbolTable
 70
0
  0
ENDTAB
  0
TABLE
  2
APPID
  5
9
100
AcDbSymbolTable
 70
1
  0
APPID
  5
225
100
AcDbSymbolTableRecord
100
AcDbRegAppTableRecord
  2
ACAD
 70
0
  0
ENDTAB
  0
TABLE
  2
BLOCK_RECORD
  5
1
100
AcDbSymbolTable
 70
0
  0
BLOCK_RECORD
  5
226
100
AcDbSymbolTableRecord
100
AcDbBlockTableRecord
  2
*Model_Space
  0
BLOCK_RECORD
  5
227
100
AcDbSymbolTableRecord
100
AcDbBlockTableRecord
  2
*Paper_Space
  0
BLOCK_RECORD
  5
228
100
AcDbSymbolTableRecord
100
AcDbBlockTableRecord
  2
_FILLED
  0
ENDTAB
  0
TABLE
  2
DIMSTYLE
  5
A
100
AcDbSymbolTable
 70
1
100
AcDbDimStyleTable
 71
0
  0
DIMSTYLE
105
229
100
AcDbSymbolTableRecord
100
AcDbDimStyleTableRecord
  2
STANDARD
 70
0
  3

  4

 40
1.0
 41
0.1
 42
0.0625
 43
0.38
 44
0.125
 45
0.0
 46
0.0
 47
0.001
 48
0.001
140
0.08
141
0.09
142
0.0
143
25.4
144
1.0
145
0.0
146
1.0
147
0.09
 71
1.0
 72
0.0
 73
1
 74
1
 75
0
 76
0
 77
0
 78
4
 79
1
170
1
171
2
172
0
173
0
174
0
175
0
176
0
177
0
178
0
270
2
179
3
271
3
272
3
273
2
274
2
275
0
280
0
281
0
282
0
283
1
284
4
285
0
286
0
287
3
288
0
340
11
278
46
341
228
342
228
343
228
344
228
  0
ENDTAB
  0
ENDSEC
  0
SECTION
  2
BLOCKS
  0
BLOCK
  5
20
100
AcDbEntity
  8
0
100
AcDbBlockBegin
  2
*Model_Space
 70
0
 10
0.0
 20
0.0
 30
0.0
  3
*Model_Space
  1

  0
ENDBLK
  5
21
100
AcDbEntity
  8
0
100
AcDbBlockEnd
  0
BLOCK
  5
1C
100
AcDbEntity
  8
0
100
AcDbBlockBegin
  2
*Paper_Space
 70
0
 10
0.0
 20
0.0
 30
0.0
  3
*Paper_Space
  1

  0
ENDBLK
  5
1D
100
AcDbEntity
  8
0
100
AcDbBlockEnd
  0
BLOCK
  5
22A
100
AcDbEntity
  8
0
100
AcDbBlockBegin
  2
_FILLED
 70
64
 10
0.0
 20
0.0
  3
_FILLED
  1

  0
SOLID
  5
22B
100
AcDbEntity
  8
0
  6
BYBLOCK
 62
0
100
AcDbTrace
 10
0.0
 20
0.0
 11
-1.0
 21
0.2
 12
-1.0
 22
-0.2
 13
-1.0
 23
-0.2
  0
ENDBLK
  5
22C
100
AcDbEntity
  8
0
  6
BYBLOCK
 62
0
100
AcDbBlockEnd
  0
ENDSEC
  0
SECTION
  2
ENTITIES
  0
MTEXT
  5
22D
100
AcDbEntity
  8
0
100
AcDbMText
 62
7
  6
CONTINUOUS
  7
STANDARD
 71
1
 72
1
 10
7.0580745342
 20
0.3542857143
 30
0.0
 11
1.0
 21
0.0
 31
0.0
 73
2
 44
0.9
  1
SCALE: .813
 40
0.08
 41
0.704
  0
LINE
  5
22E
100
AcDbEntity
  8
0
100
AcDbLine
 62
7
  6
CONTINUOUS
 10
0.0
 20
0.0
 11
8.5
 21
0.0
  0
LINE
  5
22F
100
AcDbEntity
  8
0
100
AcDbLine
 62
7
  6
CONTINUOUS
 10
0.0
 20
0.0
 11
0.0
 21
11.0
  0
LINE
  5
230
100
AcDbEntity
  8
0
100
AcDbLine
 62
7
  6
CONTINUOUS
 10
8.5
 20
0.0
 11
8.5
 21
11.0
  0
LINE
  5
231
100
AcDbEntity
  8
0
100
AcDbLine
 62
7
  6
CONTINUOUS
 10
0.0
 20
11.0
 11
8.5
 21
11.0
  0
LINE
  5
232
100
AcDbEntity
  8
0
100
AcDbLine
 62
7
  6
CONTINUOUS
 10
4.5959462422
 20
3.1306682002
 11
4.5952107591
 21
3.1306136141
  0
LINE
  5
233
100
AcDbEntity
  8
0
100
AcDbLine
 62
7
  6
CONTINUOUS
 10
4.5959462422
 20
3.1306682002
 11
4.5893845905
 21
3.1302327915
  0
LINE
  5
234
100
AcDbEntity
  8
0
100
AcDbLine
 62
9
  6
CONTINUOUS
 10
4.3390053038
 20
3.1163506582
 11
4.5845971807
 21
3.1163506582
  0
LINE
  5
235
100
AcDbEntity
  8
0
100
AcDbLine
 62
7
  6
CONTINUOUS
 10
4.3283907864
 20
3.1306177821
 11
4.3276562422
 21
3.1306682001
  0
LINE
  5
236
100
AcDbEntity
  8
0
100
AcDbLine
 62
7
  6
CONTINUOUS
 10
4.3283879294
 20
3.1306138568
 11
4.3276562422
 21
3.1306682001
  0
LINE
  5
237
100
AcDbEntity
  8
0
100
AcDbLine
 62
7
  6
CONTINUOUS
 10
4.0216012095
 20
3.3639272922
 11
4.902001275
 21
3.3639272922
  0
LINE
  5
238
100
AcDbEntity
  8
0
100
AcDbLine
 62
7
  6
CONTINUOUS
 10
4.6142387422
 20
3.3810002922
 11
4.6130347635
 21
3.3810002922
  0
LINE
  5
239
100
AcDbEntity
  8
0
100
AcDbLine
 62
7
  6
CONTINUOUS
 10
4.6104540406
 20
3.3810002922
 11
4.5973744917
 21
3.3810002922
  0
LINE
  5
23A
100
AcDbEntity
  8
0
100
AcDbLine
 62
7
  6
CONTINUOUS
 10
4.5899435964
 20
3.3810002922
 11
4.5653620853
 21
3.3810002922
  0
LINE
  5
23B
100
AcDbEntity
  8
0
100
AcDbLine
 62
7
  6
CONTINUOUS
 10
4.553977293
 20
3.3810002922
 11
4.5208587127
 21
3.3810002922
  0
LINE
  5
23C
100
AcDbEntity
  8
0
100
AcDbLine
 62
7
  6
CONTINUOUS
 10
4.5068931976
 20
3.3810002922
 11
4.4692321376
 21
3.3810002922
  0
LINE
  5
23D
100
AcDbEntity
  8
0
100
AcDbLine
 62
7
  6
CONTINUOUS
 10
4.4543703468
 20
3.3810002922
 11
4.4167092869
 21
3.3810002922
  0
LINE
  5
23E
100
AcDbEntity
  8
0
100
AcDbLine
 62
7
  6
CONTINUOUS
 10
4.4027437718
 20
3.3810002922
 11
4.3696251915
 21
3.3810002922
  0
LINE
  5
23F
100
AcDbEntity
  8
0
100
AcDbLine
 62
7
  6
CONTINUOUS
 10
4.3582403992
 20
3.3810002922
 11
4.3336588881
 21
3.3810002922
  0
LINE
  5
240
100
AcDbEntity
  8
0
100
AcDbLine
 62
7
  6
CONTINUOUS
 10
4.310567721
 20
3.3810002922
 11
4.3093787192
 21
3.3810002922
  0
LINE
  5
241
100
AcDbEntity
  8
0
100
AcDbLine
 62
7
  6
CONTINUOUS
 10
4.3262279927
 20
3.3810002922
 11
4.3131484439
 21
3.3810002922
  0
LINE
  5
242
100
AcDbEntity
  8
0
100
AcDbLine
 62
7
  6
CONTINUOUS
 10
4.2061527528
 20
3.4208372922
 11
4.7174497317
 21
3.4208372922
  0
LINE
  5
243
100
AcDbEntity
  8
0
100
AcDbLine
 62
7
  6
CONTINUOUS
 10
4.7174897422
 20
3.4411622922
 11
4.2061127422
 21
3.4411622922
  0
LINE
  5
244
100
AcDbEntity
  8
0
100
AcDbLine
 62
7
  6
CONTINUOUS
 10
4.1061137422
 20
3.4877925917
 11
4.2061127422
 21
3.4411622922
  0
LINE
  5
245
100
AcDbEntity
  8
0
100
AcDbLine
 62
7
  6
CONTINUOUS
 10
3.4455512422
 20
6.0582231657
 11
3.4455512422
 21
6.1484522922
  0
LINE
  5
246
100
AcDbEntity
  8
0
100
AcDbLine
 62
7
  6
CONTINUOUS
 10
4.4802859409
 20
3.695921232
 11
4.4526061901
 21
3.6953349089
  0
LINE
  5
247
100
AcDbEntity
  8
0
100
AcDbLine
 62
7
  6
CONTINUOUS
 10
4.4525944715
 20
3.7004159106
 11
4.480274636
 21
3.7010022421
  0
LINE
  5
248
100
AcDbEntity
  8
0
100
AcDbLine
 62
7
  6
CONTINUOUS
 10
4.4508117412
 20
3.7359468841
 11
4.4786471466
 21
3.7365364888
  0
LINE
  5
249
100
AcDbEntity
  8
0
100
AcDbLine
 62
7
  6
CONTINUOUS
 10
4.478649097
 20
3.7416177802
 11
4.4508136646
 21
3.7410281748
  0
LINE
  5
24A
100
AcDbEntity
  8
0
100
AcDbLine
 62
7
  6
CONTINUOUS
 10
4.4330303425
 20
3.7213460516
 11
4.4617323268
 21
3.7219089878
  0
LINE
  5
24B
100
AcDbEntity
  8
0
100
AcDbLine
 62
7
  6
CONTINUOUS
 10
4.1122112422
 20
3.6728672922
 11
4.8113912422
 21
3.6728672922
  0
LINE
  5
24C
100
AcDbEntity
  8
0
100
AcDbLine
 62
7
  6
CONTINUOUS
 10
4.1122112422
 20
3.6931922922
 11
4.8113912422
 21
3.6931922922
  0
LINE
  5
24D
100
AcDbEntity
  8
0
100
AcDbLine
 62
7
  6
CONTINUOUS
 10
4.1317185622
 20
3.7045032314
 11
4.1512961789
 21
3.6931922922
  0
LINE
  5
24E
100
AcDbEntity
  8
0
100
AcDbLine
 62
7
  6
CONTINUOUS
 10
4.1317063879
 20
3.7451633736
 11
4.156458254
 21
3.730863161
  0
LINE
  5
24F
100
AcDbEntity
  8
0
100
AcDbLine
 62
7
  6
CONTINUOUS
 10
4.1315199922
 20
3.7956302922
 11
4.7920824922
 21
3.7956302922
  0
LINE
  5
250
100
AcDbEntity
  8
0
100
AcDbLine
 62
7
  6
CONTINUOUS
 10
4.1366012422
 20
3.8769302922
 11
4.2424864705
 21
3.8769302922
  0
LINE
  5
251
100
AcDbEntity
  8
0
100
AcDbLine
 62
7
  6
CONTINUOUS
 10
4.6811166085
 20
3.8769302922
 11
4.7870012422
 21
3.8769302922
  0
LWPOLYLINE
  5
252
100
AcDbEntity
  8
0
100
AcDbPolyline
 62
7
  6
CONTINUOUS
 90
10
 70
0
 10
4.0271554819
 20
3.2129075712
 10
4.0281924454
 20
3.2087043524
 10
4.0297821051
 20
3.2046685721
 10
4.0318687341
 20
3.2009203827
 10
4.0344534254
 20
3.197452688
 10
4.0374702362
 20
3.194363299
 10
4.0408357571
 20
3.1917240285
 10
4.0445613731
 20
3.189527659
 10
4.0485850057
 20
3.1878314453
 10
4.0493988918
 20
3.1875630036
  0
LINE
  5
253
100
AcDbEntity
  8
0
100
AcDbLine
 62
7
  6
CONTINUOUS
 10
4.8113912422
 20
3.6728672922
 11
4.8174887422
 21
3.6700239813
  0
LINE
  5
254
100
AcDbEntity
  8
0
100
AcDbLine
 62
7
  6
CONTINUOUS
 10
4.788076368
 20
3.6938291149
 11
4.7698053911
 21
3.7043852611
  0
LINE
  5
255
100
AcDbEntity
  8
0
100
AcDbLine
 62
7
  6
CONTINUOUS
 10
4.7918936986
 20
3.7322774514
 11
4.7671401753
 21
3.7465788108
  0
LINE
  5
256
100
AcDbEntity
  8
0
100
AcDbLine
 62
7
  6
CONTINUOUS
 10
4.026676917
 20
3.2174483122
 11
4.0271554819
 21
3.2129075712
  0
LINE
  5
257
100
AcDbEntity
  8
0
100
AcDbLine
 62
7
  6
CONTINUOUS
 10
4.0266797391
 20
3.2173670373
 11
4.0215617422
 21
3.3639272922
  0
LINE
  5
258
100
AcDbEntity
  8
0
100
AcDbLine
 62
7
  6
CONTINUOUS
 10
4.1061137422
 20
5.1106577922
 11
4.1061137422
 21
4.6533452922
  0
LINE
  5
259
100
AcDbEntity
  8
0
100
AcDbLine
 62
7
  6
CONTINUOUS
 10
4.1061137422
 20
3.4878027362
 11
4.1061137422
 21
3.6700138368
  0
LINE
  5
25A
100
AcDbEntity
  8
0
100
AcDbLine
 62
7
  6
CONTINUOUS
 10
4.1122112422
 20
3.6728672922
 11
4.1122112422
 21
3.6931922922
  0
LINE
  5
25B
100
AcDbEntity
  8
0
100
AcDbLine
 62
9
  6
CONTINUOUS
 10
4.1264387422
 20
3.6495960813
 11
4.1264387422
 21
3.5082204917
  0
LINE
  5
25C
100
AcDbEntity
  8
0
100
AcDbLine
 62
7
  6
CONTINUOUS
 10
4.1315199922
 20
3.7956302922
 11
4.1315199922
 21
3.7453677446
  0
LINE
  5
25D
100
AcDbEntity
  8
0
100
AcDbLine
 62
7
  6
CONTINUOUS
 10
4.1315199922
 20
3.7117478398
 11
4.1315199922
 21
3.7047177446
  0
LINE
  5
25E
100
AcDbEntity
  8
0
100
AcDbLine
 62
7
  6
CONTINUOUS
 10
4.1315199922
 20
4.5732463491
 11
4.1315199922
 21
4.5848284889
  0
LINE
  5
25F
100
AcDbEntity
  8
0
100
AcDbLine
 62
7
  6
CONTINUOUS
 10
4.1315199922
 20
4.61844897
 11
4.1315199922
 21
4.6300220589
  0
LINE
  5
260
100
AcDbEntity
  8
0
100
AcDbLine
 62
7
  6
CONTINUOUS
 10
4.1366012422
 20
3.8769302922
 11
4.1366012422
 21
4.0314230584
  0
LINE
  5
261
100
AcDbEntity
  8
0
100
AcDbLine
 62
7
  6
CONTINUOUS
 10
4.1366012422
 20
4.2508869318
 11
4.1366012422
 21
4.4053802922
  0
LINE
  5
262
100
AcDbEntity
  8
0
100
AcDbLine
 62
7
  6
CONTINUOUS
 10
4.1447312422
 20
4.4053802922
 11
4.1447312422
 21
4.5472529915
  0
LINE
  5
263
100
AcDbEntity
  8
0
100
AcDbLine
 62
7
  6
CONTINUOUS
 10
4.1557067422
 20
4.6490841284
 11
4.1557067422
 21
4.6445840949
  0
LINE
  5
264
100
AcDbEntity
  8
0
100
AcDbLine
 62
7
  6
CONTINUOUS
 10
4.1557067422
 20
4.6041781451
 11
4.1557067422
 21
4.5993885818
  0
LINE
  5
265
100
AcDbEntity
  8
0
100
AcDbLine
 62
7
  6
CONTINUOUS
 10
4.1557067422
 20
4.5589780618
 11
4.1557067422
 21
4.55418727
  0
LINE
  5
266
100
AcDbEntity
  8
0
100
AcDbLine
 62
7
  6
CONTINUOUS
 10
4.1557067422
 20
3.8769302922
 11
4.1557067422
 21
3.7956302922
  0
LINE
  5
267
100
AcDbEntity
  8
0
100
AcDbLine
 62
7
  6
CONTINUOUS
 10
4.1557067422
 20
3.730863161
 11
4.1557067422
 21
3.7262579382
  0
LINE
  5
268
100
AcDbEntity
  8
0
100
AcDbLine
 62
7
  6
CONTINUOUS
 10
4.2061127422
 20
3.4411622922
 11
4.2061127422
 21
3.4208372922
  0
LINE
  5
269
100
AcDbEntity
  8
0
100
AcDbLine
 62
7
  6
CONTINUOUS
 10
4.1315199922
 20
4.6300315602
 11
4.1317372997
 21
4.6302925522
  0
LINE
  5
26A
100
AcDbEntity
  8
0
100
AcDbLine
 62
7
  6
CONTINUOUS
 10
4.1315199922
 20
4.5848287646
 11
4.1317501491
 21
4.5850973584
  0
LINE
  5
26B
100
AcDbEntity
  8
0
100
AcDbLine
 62
7
  6
CONTINUOUS
 10
4.1315199922
 20
4.6184486696
 11
4.1317523844
 21
4.6181787746
  0
LINE
  5
26C
100
AcDbEntity
  8
0
100
AcDbLine
 62
7
  6
CONTINUOUS
 10
4.1315199922
 20
4.5732458697
 11
4.1317499616
 21
4.5729773853
  0
LINE
  5
26D
100
AcDbEntity
  8
0
100
AcDbLine
 62
9
  6
CONTINUOUS
 10
4.2763252936
 20
3.3639272922
 11
4.2802392528
 21
3.2188974338
  0
LINE
  5
26E
100
AcDbEntity
  8
0
100
AcDbLine
 62
7
  6
CONTINUOUS
 10
4.3093637422
 20
3.3810002922
 11
4.3093637422
 21
3.4208372922
  0
LINE
  5
26F
100
AcDbEntity
  8
0
100
AcDbLine
 62
7
  6
CONTINUOUS
 10
4.310567721
 20
3.3639272922
 11
4.310567721
 21
3.3810002922
  0
LINE
  5
270
100
AcDbEntity
  8
0
100
AcDbLine
 62
7
  6
CONTINUOUS
 10
4.3131484439
 20
3.3810002922
 11
4.3131484439
 21
3.3639272922
  0
LINE
  5
271
100
AcDbEntity
  8
0
100
AcDbLine
 62
7
  6
CONTINUOUS
 10
4.3262279927
 20
3.3639272922
 11
4.3262279927
 21
3.3810002922
  0
LINE
  5
272
100
AcDbEntity
  8
0
100
AcDbLine
 62
7
  6
CONTINUOUS
 10
4.3336588881
 20
3.3810002922
 11
4.3336588881
 21
3.3639272922
  0
LINE
  5
273
100
AcDbEntity
  8
0
100
AcDbLine
 62
7
  6
CONTINUOUS
 10
4.3548702934
 20
3.3810002922
 11
4.3548702934
 21
3.3639272922
  0
LINE
  5
274
100
AcDbEntity
  8
0
100
AcDbLine
 62
7
  6
CONTINUOUS
 10
4.1447312422
 20
4.5472534832
 11
4.1449738084
 21
4.5475349104
  0
LINE
  5
275
100
AcDbEntity
  8
0
100
AcDbLine
 62
7
  6
CONTINUOUS
 10
4.1565034037
 20
4.6445840949
 11
4.1317373146
 21
4.6302737137
  0
LINE
  5
276
100
AcDbEntity
  8
0
100
AcDbLine
 62
7
  6
CONTINUOUS
 10
4.1564883304
 20
4.5993885818
 11
4.131750151
 21
4.5850950312
  0
LINE
  5
277
100
AcDbEntity
  8
0
100
AcDbLine
 62
7
  6
CONTINUOUS
 10
4.1366012422
 20
4.4053802922
 11
4.242485876
 21
4.4053802922
  0
LINE
  5
278
100
AcDbEntity
  8
0
100
AcDbLine
 62
7
  6
CONTINUOUS
 10
4.6811160139
 20
4.4053802922
 11
4.7870012422
 21
4.4053802922
  0
LINE
  5
279
100
AcDbEntity
  8
0
100
AcDbLine
 62
7
  6
CONTINUOUS
 10
4.1317499639
 20
4.5729801269
 11
4.1539747404
 21
4.5601388622
  0
LINE
  5
27A
100
AcDbEntity
  8
0
100
AcDbLine
 62
7
  6
CONTINUOUS
 10
4.1317523847
 20
4.6181791726
 11
4.1564870947
 21
4.6038876798
  0
LINE
  5
27B
100
AcDbEntity
  8
0
100
AcDbLine
 62
7
  6
CONTINUOUS
 10
4.1491263455
 20
4.6533452922
 11
4.1539414076
 21
4.6505629774
  0
LINE
  5
27C
100
AcDbEntity
  8
0
100
AcDbLine
 62
7
  6
CONTINUOUS
 10
4.3582403992
 20
3.3639272922
 11
4.3582403992
 21
3.3810002922
  0
LINE
  5
27D
100
AcDbEntity
  8
0
100
AcDbLine
 62
7
  6
CONTINUOUS
 10
4.3696251915
 20
3.3810002922
 11
4.3696251915
 21
3.3639272922
  0
LINE
  5
27E
100
AcDbEntity
  8
0
100
AcDbLine
 62
7
  6
CONTINUOUS
 10
4.390192099
 20
3.3810002922
 11
4.390192099
 21
3.3639272922
  0
LINE
  5
27F
100
AcDbEntity
  8
0
100
AcDbLine
 62
7
  6
CONTINUOUS
 10
4.3972328855
 20
3.3810002922
 11
4.3972328855
 21
3.3639272922
  0
LINE
  5
280
100
AcDbEntity
  8
0
100
AcDbLine
 62
7
  6
CONTINUOUS
 10
4.4027437718
 20
3.3639272922
 11
4.4027437718
 21
3.3810002922
  0
LINE
  5
281
100
AcDbEntity
  8
0
100
AcDbLine
 62
7
  6
CONTINUOUS
 10
4.4167092869
 20
3.3810002922
 11
4.4167092869
 21
3.3639272922
  0
LINE
  5
282
100
AcDbEntity
  8
0
100
AcDbLine
 62
7
  6
CONTINUOUS
 10
4.434151024
 20
3.3810002922
 11
4.434151024
 21
3.3639272922
  0
LINE
  5
283
100
AcDbEntity
  8
0
100
AcDbLine
 62
9
  6
CONTINUOUS
 10
4.4414762422
 20
3.5082204917
 11
4.4414762422
 21
3.6495960813
  0
LINE
  5
284
100
AcDbEntity
  8
0
100
AcDbLine
 62
7
  6
CONTINUOUS
 10
4.442157511
 20
3.3810002922
 11
4.442157511
 21
3.3639272922
  0
LINE
  5
285
100
AcDbEntity
  8
0
100
AcDbLine
 62
7
  6
CONTINUOUS
 10
4.4489964922
 20
3.1016121731
 11
4.4489964922
 21
3.0910777093
  0
LINE
  5
286
100
AcDbEntity
  8
0
100
AcDbLine
 62
7
  6
CONTINUOUS
 10
4.4543703468
 20
3.3639272922
 11
4.4543703468
 21
3.3810002922
  0
LINE
  5
287
100
AcDbEntity
  8
0
100
AcDbLine
 62
7
  6
CONTINUOUS
 10
4.4618012422
 20
5.1106577922
 11
4.4618012422
 21
4.6533452922
  0
LINE
  5
288
100
AcDbEntity
  8
0
100
AcDbLine
 62
7
  6
CONTINUOUS
 10
4.4618012422
 20
3.1163507318
 11
4.4618012422
 21
3.1261185576
  0
LINE
  5
289
100
AcDbEntity
  8
0
100
AcDbLine
 62
7
  6
CONTINUOUS
 10
4.4692321376
 20
3.3810002922
 11
4.4692321376
 21
3.3639272922
  0
LINE
  5
28A
100
AcDbEntity
  8
0
100
AcDbLine
 62
7
  6
CONTINUOUS
 10
4.4746059922
 20
3.1016121731
 11
4.4746059922
 21
3.0910777093
  0
LINE
  5
28B
100
AcDbEntity
  8
0
100
AcDbLine
 62
7
  6
CONTINUOUS
 10
4.1564873029
 20
4.55418727
 11
4.1449738086
 21
4.5475346607
  0
LINE
  5
28C
100
AcDbEntity
  8
0
100
AcDbLine
 62
7
  6
CONTINUOUS
 10
4.1449738084
 20
4.5475349104
 11
4.1452256441
 21
4.5476552922
  0
LINE
  5
28D
100
AcDbEntity
  8
0
100
AcDbLine
 62
7
  6
CONTINUOUS
 10
4.4884088153
 20
4.5658232174
 11
4.4610210709
 21
4.5651776103
  0
LINE
  5
28E
100
AcDbEntity
  8
0
100
AcDbLine
 62
7
  6
CONTINUOUS
 10
4.4884088153
 20
4.5709044674
 11
4.4610210709
 21
4.5702588603
  0
LINE
  5
28F
100
AcDbEntity
  8
0
100
AcDbLine
 62
7
  6
CONTINUOUS
 10
4.1452256441
 20
4.5476552922
 11
4.7920725648
 21
4.5476552922
  0
LINE
  5
290
100
AcDbEntity
  8
0
100
AcDbLine
 62
7
  6
CONTINUOUS
 10
4.4814449734
 20
3.3810002922
 11
4.4814449734
 21
3.3639272922
  0
LINE
  5
291
100
AcDbEntity
  8
0
100
AcDbLine
 62
9
  6
CONTINUOUS
 10
4.4821262422
 20
3.6495960813
 11
4.4821262422
 21
3.5082204917
  0
LINE
  5
292
100
AcDbEntity
  8
0
100
AcDbLine
 62
7
  6
CONTINUOUS
 10
4.4894514605
 20
3.3810002922
 11
4.4894514605
 21
3.3639272922
  0
LINE
  5
293
100
AcDbEntity
  8
0
100
AcDbLine
 62
7
  6
CONTINUOUS
 10
4.5068931976
 20
3.3639272922
 11
4.5068931976
 21
3.3810002922
  0
LINE
  5
294
100
AcDbEntity
  8
0
100
AcDbLine
 62
7
  6
CONTINUOUS
 10
4.5208587127
 20
3.3810002922
 11
4.5208587127
 21
3.3639272922
  0
LINE
  5
295
100
AcDbEntity
  8
0
100
AcDbLine
 62
7
  6
CONTINUOUS
 10
4.526369599
 20
3.3810002922
 11
4.526369599
 21
3.3639272922
  0
LINE
  5
296
100
AcDbEntity
  8
0
100
AcDbLine
 62
7
  6
CONTINUOUS
 10
4.5334103855
 20
3.3810002922
 11
4.5334103855
 21
3.3639272922
  0
LINE
  5
297
100
AcDbEntity
  8
0
100
AcDbLine
 62
7
  6
CONTINUOUS
 10
4.553977293
 20
3.3639272922
 11
4.553977293
 21
3.3810002922
  0
LINE
  5
298
100
AcDbEntity
  8
0
100
AcDbLine
 62
7
  6
CONTINUOUS
 10
4.5653620853
 20
3.3810002922
 11
4.5653620853
 21
3.3639272922
  0
LINE
  5
299
100
AcDbEntity
  8
0
100
AcDbLine
 62
7
  6
CONTINUOUS
 10
4.568732191
 20
3.3810002922
 11
4.568732191
 21
3.3639272922
  0
LINE
  5
29A
100
AcDbEntity
  8
0
100
AcDbLine
 62
7
  6
CONTINUOUS
 10
4.5899435964
 20
3.3639272922
 11
4.5899435964
 21
3.3810002922
  0
LINE
  5
29B
100
AcDbEntity
  8
0
100
AcDbLine
 62
7
  6
CONTINUOUS
 10
4.5973744917
 20
3.3810002922
 11
4.5973744917
 21
3.3639272922
  0
LINE
  5
29C
100
AcDbEntity
  8
0
100
AcDbLine
 62
7
  6
CONTINUOUS
 10
4.8174887422
 20
4.6533452922
 11
4.1061137422
 21
4.6533452922
  0
LINE
  5
29D
100
AcDbEntity
  8
0
100
AcDbLine
 62
7
  6
CONTINUOUS
 10
4.7918452719
 20
4.5624913578
 11
4.7670972301
 21
4.5767913925
  0
LINE
  5
29E
100
AcDbEntity
  8
0
100
AcDbLine
 62
7
  6
CONTINUOUS
 10
4.6104540406
 20
3.3639272922
 11
4.6104540406
 21
3.3810002922
  0
LINE
  5
29F
100
AcDbEntity
  8
0
100
AcDbLine
 62
7
  6
CONTINUOUS
 10
4.6130347635
 20
3.3810002922
 11
4.6130347635
 21
3.3639272922
  0
LINE
  5
2A0
100
AcDbEntity
  8
0
100
AcDbLine
 62
7
  6
CONTINUOUS
 10
4.6142387422
 20
3.4208372922
 11
4.6142387422
 21
3.3810002922
  0
LINE
  5
2A1
100
AcDbEntity
  8
0
100
AcDbLine
 62
7
  6
CONTINUOUS
 10
4.7174897422
 20
3.4411622922
 11
4.7174897422
 21
3.4208372922
  0
LINE
  5
2A2
100
AcDbEntity
  8
0
100
AcDbLine
 62
9
  6
CONTINUOUS
 10
4.6472771909
 20
3.3639272922
 11
4.6433615672
 21
3.2188975127
  0
LINE
  5
2A3
100
AcDbEntity
  8
0
100
AcDbLine
 62
7
  6
CONTINUOUS
 10
4.7920824922
 20
4.6410500735
 11
4.7918476921
 21
4.6407787797
  0
LINE
  5
2A4
100
AcDbEntity
  8
0
100
AcDbLine
 62
7
  6
CONTINUOUS
 10
4.7670984634
 20
4.6264873985
 11
4.7918476845
 21
4.6407880563
  0
LINE
  5
2A5
100
AcDbEntity
  8
0
100
AcDbLine
 62
7
  6
CONTINUOUS
 10
4.7670972718
 20
4.5812830446
 11
4.7918449137
 21
4.5955828466
  0
LINE
  5
2A6
100
AcDbEntity
  8
0
100
AcDbLine
 62
7
  6
CONTINUOUS
 10
4.7918431796
 20
4.6076975899
 11
4.7670989795
 21
4.6219953251
  0
LINE
  5
2A7
100
AcDbEntity
  8
0
100
AcDbLine
 62
7
  6
CONTINUOUS
 10
4.7920824922
 20
4.6074301607
 11
4.791843185
 21
4.6077040462
  0
LINE
  5
2A8
100
AcDbEntity
  8
0
100
AcDbLine
 62
7
  6
CONTINUOUS
 10
4.7920824922
 20
4.5622273603
 11
4.791845279
 21
4.5625000452
  0
LINE
  5
2A9
100
AcDbEntity
  8
0
100
AcDbLine
 62
7
  6
CONTINUOUS
 10
4.7678957422
 20
4.6267821146
 11
4.7678957422
 21
4.6219953251
  0
LINE
  5
2AA
100
AcDbEntity
  8
0
100
AcDbLine
 62
7
  6
CONTINUOUS
 10
4.7678957422
 20
4.5815778168
 11
4.7678957422
 21
4.5767913925
  0
LINE
  5
2AB
100
AcDbEntity
  8
0
100
AcDbLine
 62
7
  6
CONTINUOUS
 10
4.7678957422
 20
3.8769302922
 11
4.7678957422
 21
3.7956302922
  0
LINE
  5
2AC
100
AcDbEntity
  8
0
100
AcDbLine
 62
7
  6
CONTINUOUS
 10
4.7678957422
 20
3.7511830764
 11
4.7678957422
 21
3.7465788108
  0
LINE
  5
2AD
100
AcDbEntity
  8
0
100
AcDbLine
 62
7
  6
CONTINUOUS
 10
4.7678957422
 20
3.7105314588
 11
4.7678957422
 21
3.7056880215
  0
LINE
  5
2AE
100
AcDbEntity
  8
0
100
AcDbLine
 62
7
  6
CONTINUOUS
 10
4.7788712422
 20
4.4053802922
 11
4.7788712422
 21
4.5476552922
  0
LINE
  5
2AF
100
AcDbEntity
  8
0
100
AcDbLine
 62
7
  6
CONTINUOUS
 10
4.7870012422
 20
4.4053802922
 11
4.7870012422
 21
4.250887526
  0
LINE
  5
2B0
100
AcDbEntity
  8
0
100
AcDbLine
 62
7
  6
CONTINUOUS
 10
4.7870012422
 20
4.0314236526
 11
4.7870012422
 21
3.8769302922
  0
LINE
  5
2B1
100
AcDbEntity
  8
0
100
AcDbLine
 62
7
  6
CONTINUOUS
 10
4.7920824922
 20
3.7250427446
 11
4.7920824922
 21
3.7320728398
  0
LINE
  5
2B2
100
AcDbEntity
  8
0
100
AcDbLine
 62
7
  6
CONTINUOUS
 10
4.7920824922
 20
3.7656927446
 11
4.7920824922
 21
3.7956302922
  0
LINE
  5
2B3
100
AcDbEntity
  8
0
100
AcDbLine
 62
7
  6
CONTINUOUS
 10
4.7920824922
 20
4.5476552922
 11
4.7920824922
 21
4.562218027
  0
LINE
  5
2B4
100
AcDbEntity
  8
0
100
AcDbLine
 62
7
  6
CONTINUOUS
 10
4.7920824922
 20
4.5958566109
 11
4.7920824922
 21
4.6074216056
  0
LINE
  5
2B5
100
AcDbEntity
  8
0
100
AcDbLine
 62
7
  6
CONTINUOUS
 10
4.7920824922
 20
4.6410585879
 11
4.7920824922
 21
4.6526172556
  0
LINE
  5
2B6
100
AcDbEntity
  8
0
100
AcDbLine
 62
9
  6
CONTINUOUS
 10
4.7971637422
 20
3.5082204917
 11
4.7971637422
 21
3.6495960813
  0
LINE
  5
2B7
100
AcDbEntity
  8
0
100
AcDbLine
 62
7
  6
CONTINUOUS
 10
4.8113912422
 20
3.6931922922
 11
4.8113912422
 21
3.6728672922
  0
LINE
  5
2B8
100
AcDbEntity
  8
0
100
AcDbLine
 62
7
  6
CONTINUOUS
 10
4.8174887422
 20
5.1106577922
 11
4.8174887422
 21
4.6533452922
  0
LINE
  5
2B9
100
AcDbEntity
  8
0
100
AcDbLine
 62
7
  6
CONTINUOUS
 10
4.8174887422
 20
3.6700138368
 11
4.8174887422
 21
3.4878027362
  0
LINE
  5
2BA
100
AcDbEntity
  8
0
100
AcDbLine
 62
7
  6
CONTINUOUS
 10
4.7920824922
 20
4.5958472739
 11
4.7918449207
 21
4.5955743832
  0
LINE
  5
2BB
100
AcDbEntity
  8
0
100
AcDbLine
 62
7
  6
CONTINUOUS
 10
4.1315199922
 20
3.7117478398
 11
4.1317163213
 21
3.7119709234
  0
LINE
  5
2BC
100
AcDbEntity
  8
0
100
AcDbLine
 62
7
  6
CONTINUOUS
 10
4.8969254022
 20
3.2174431203
 11
4.9020407422
 21
3.3639272922
  0
LINE
  5
2BD
100
AcDbEntity
  8
0
100
AcDbLine
 62
7
  6
CONTINUOUS
 10
4.8174887422
 20
5.1106577922
 11
4.1061137422
 21
5.1106577922
  0
LINE
  5
2BE
100
AcDbEntity
  8
0
100
AcDbLine
 62
7
  6
CONTINUOUS
 10
4.1564574529
 20
3.7262579382
 11
4.131716326
 21
3.7119639632
  0
LINE
  5
2BF
100
AcDbEntity
  8
0
100
AcDbLine
 62
7
  6
CONTINUOUS
 10
4.1122112422
 20
3.6728672922
 11
4.1061137422
 21
3.6700239813
  0
LINE
  5
2C0
100
AcDbEntity
  8
0
100
AcDbLine
 62
7
  6
CONTINUOUS
 10
4.7920824922
 20
3.7656927446
 11
4.7918870302
 21
3.7654701542
  0
LINE
  5
2C1
100
AcDbEntity
  8
0
100
AcDbLine
 62
7
  6
CONTINUOUS
 10
4.7920824922
 20
3.7250427446
 11
4.7918839868
 21
3.7248184278
  0
LINE
  5
2C2
100
AcDbEntity
  8
0
100
AcDbLine
 62
7
  6
CONTINUOUS
 10
4.7671406549
 20
3.7511830764
 11
4.7918870233
 21
3.7654802822
  0
LINE
  5
2C3
100
AcDbEntity
  8
0
100
AcDbLine
 62
7
  6
CONTINUOUS
 10
4.7671393684
 20
3.7105314588
 11
4.7918839805
 21
3.7248277129
  0
LINE
  5
2C4
100
AcDbEntity
  8
0
100
AcDbLine
 62
7
  6
CONTINUOUS
 10
5.4780512422
 20
6.0582231657
 11
5.4780512422
 21
6.1484522922
  0
LINE
  5
2C5
100
AcDbEntity
  8
0
100
AcDbLine
 62
7
  6
CONTINUOUS
 10
4.0862852138
 20
5.6850422922
 11
4.8373172707
 21
5.6850422922
  0
LINE
  5
2C6
100
AcDbEntity
  8
0
100
AcDbLine
 62
9
  6
CONTINUOUS
 10
4.0301085732
 20
5.7019801698
 11
4.8934939113
 21
5.7019801698
  0
LINE
  5
2C7
100
AcDbEntity
  8
0
100
AcDbLine
 62
7
  6
CONTINUOUS
 10
4.8174887422
 20
3.4877925917
 11
4.7174897422
 21
3.4411622922
  0
LINE
  5
2C8
100
AcDbEntity
  8
0
100
AcDbLine
 62
9
  6
CONTINUOUS
 10
5.4110378146
 20
5.9626738084
 11
3.5125646699
 21
5.9626738084
  0
LINE
  5
2C9
100
AcDbEntity
  8
0
100
AcDbLine
 62
9
  6
CONTINUOUS
 10
3.4455512422
 20
6.0582231657
 11
5.4780512422
 21
6.0582231657
  0
LWPOLYLINE
  5
2CA
100
AcDbEntity
  8
0
100
AcDbPolyline
 62
7
  6
CONTINUOUS
 90
13
 70
0
 10
4.8742035593
 20
3.1875629932
 10
4.8752425587
 20
3.18790991
 10
4.8781522639
 20
3.1890972462
 10
4.881015508
 20
3.1906082133
 10
4.8837963371
 20
3.192457002
 10
4.8864300377
 20
3.1946335887
 10
4.888867973
 20
3.1971280858
 10
4.8910849881
 20
3.1999553265
 10
4.8930115795
 20
3.2030742102
 10
4.8945974767
 20
3.2064461139
 10
4.8958180343
 20
3.2100904048
 10
4.8966089501
 20
3.213913673
 10
4.8969253866
 20
3.2174431209
  0
LINE
  5
2CB
100
AcDbEntity
  8
0
100
AcDbLine
 62
7
  6
CONTINUOUS
 10
3.4455512422
 20
6.1484522922
 11
5.4780512422
 21
6.1484522922
  0
ARC
  5
2CC
100
AcDbEntity
  8
0
100
AcDbCircle
 62
7
  6
CONTINUOUS
 10
4.4472052394
 20
-2.986295597
 40
6.7254932259
100
AcDbArc
 50
91.6785962694
 51
91.8421237065
  0
ARC
  5
2CD
100
AcDbEntity
  8
0
100
AcDbCircle
 62
7
  6
CONTINUOUS
 10
4.4423658994
 20
-2.8640540037
 40
6.5625303549
100
AcDbArc
 50
91.6578954757
 51
91.8259649077
  0
ARC
  5
2CE
100
AcDbEntity
  8
0
100
AcDbCircle
 62
7
  6
CONTINUOUS
 10
4.4349074452
 20
-2.5912382483
 40
6.3251661259
100
AcDbArc
 50
91.6734330488
 51
91.8473092894
  0
ARC
  5
2CF
100
AcDbEntity
  8
0
100
AcDbCircle
 62
7
  6
CONTINUOUS
 10
4.38773703
 20
-1.1551467602
 40
4.8527501788
100
AcDbArc
 50
91.8242055278
 51
91.9628177508
  0
ARC
  5
2D0
100
AcDbEntity
  8
0
100
AcDbCircle
 62
7
  6
CONTINUOUS
 10
2.681886933
 20
3.6694892329
 40
2.439
100
AcDbArc
 50
56.4423050822
 51
70.0877073885
  0
ARC
  5
2D1
100
AcDbEntity
  8
0
100
AcDbCircle
 62
7
  6
CONTINUOUS
 10
3.5471762422
 20
6.0582231657
 40
0.101625
100
AcDbArc
 50
180.0
 51
250.0877073885
  0
ARC
  5
2D2
100
AcDbEntity
  8
0
100
AcDbCircle
 62
7
  6
CONTINUOUS
 10
3.4455028351
 20
49.2835170462
 40
44.7298535013
100
AcDbArc
 50
271.336009883
 51
271.4496765689
  0
ARC
  5
2D3
100
AcDbEntity
  8
0
100
AcDbCircle
 62
7
  6
CONTINUOUS
 10
3.5657606179
 20
47.7258980614
 40
44.0343932374
100
AcDbArc
 50
271.1900143751
 51
271.3614663313
  0
ARC
  5
2D4
100
AcDbEntity
  8
0
100
AcDbCircle
 62
7
  6
CONTINUOUS
 10
3.5659034714
 20
47.7144096684
 40
44.0279845045
100
AcDbArc
 50
271.1900163914
 51
271.3614890844
  0
ARC
  5
2D5
100
AcDbEntity
  8
0
100
AcDbCircle
 62
7
  6
CONTINUOUS
 10
4.2532065615
 20
18.5119617446
 40
14.8123721423
100
AcDbArc
 50
271.3880262907
 51
271.5643207841
  0
ARC
  5
2D6
100
AcDbEntity
  8
0
100
AcDbCircle
 62
7
  6
CONTINUOUS
 10
4.2919406499
 20
17.0038164183
 40
13.3088110374
100
AcDbArc
 50
271.3781006769
 51
271.5743048831
  0
ARC
  5
2D7
100
AcDbEntity
  8
0
100
AcDbCircle
 62
7
  6
CONTINUOUS
 10
4.4124625444
 20
13.9706509558
 40
10.2475645826
100
AcDbArc
 50
271.4630709922
 51
271.5818926882
  0
ARC
  5
2D8
100
AcDbEntity
  8
0
100
AcDbCircle
 62
7
  6
CONTINUOUS
 10
4.425847895
 20
13.4627432375
 40
9.746508348
100
AcDbArc
 50
271.4594659892
 51
271.584405677
  0
ARC
  5
2D9
100
AcDbEntity
  8
0
100
AcDbCircle
 62
7
  6
CONTINUOUS
 10
4.4264711339
 20
13.4789327702
 40
9.7220400004
100
AcDbArc
 50
271.459465775
 51
271.5847199173
  0
ARC
  5
2DA
100
AcDbEntity
  8
0
100
AcDbCircle
 62
7
  6
CONTINUOUS
 10
4.4115045956
 20
12.6694269983
 40
8.9321383672
100
AcDbArc
 50
271.5748630704
 51
271.7068831296
  0
ARC
  5
2DB
100
AcDbEntity
  8
0
100
AcDbCircle
 62
7
  6
CONTINUOUS
 10
4.4138729202
 20
12.5520153682
 40
8.8502611786
100
AcDbArc
 50
271.5778838053
 51
271.7103926191
  0
ARC
  5
2DC
100
AcDbEntity
  8
0
100
AcDbCircle
 62
7
  6
CONTINUOUS
 10
4.4259285751
 20
12.1709932718
 40
8.4284171884
100
AcDbArc
 50
271.5709297215
 51
271.7108391941
  0
ARC
  5
2DD
100
AcDbEntity
  8
0
100
AcDbCircle
 62
7
  6
CONTINUOUS
 10
4.4282582304
 20
12.045772696
 40
8.3488936963
100
AcDbArc
 50
271.5739475226
 51
271.7144078863
  0
ARC
  5
2DE
100
AcDbEntity
  8
0
100
AcDbCircle
 62
9
  6
CONTINUOUS
 10
3.9887418736
 20
8.1788687303
 40
4.9685295595
100
AcDbArc
 50
273.1089167963
 51
273.3634026797
  0
ARC
  5
2DF
100
AcDbEntity
  8
0
100
AcDbCircle
 62
7
  6
CONTINUOUS
 10
4.3289075308
 20
0.9618365799
 40
3.6184229999
100
AcDbArc
 50
92.0416616021
 51
92.3097459106
  0
ARC
  5
2E0
100
AcDbEntity
  8
0
100
AcDbCircle
 62
7
  6
CONTINUOUS
 10
4.4610018137
 20
5.1214700041
 40
1.9953738402
100
AcDbArc
 50
272.8865262154
 51
273.1408842585
  0
ARC
  5
2E1
100
AcDbEntity
  8
0
100
AcDbCircle
 62
7
  6
CONTINUOUS
 10
4.4610895575
 20
5.1199072104
 40
1.9938085972
100
AcDbArc
 50
272.8855117814
 51
273.1404117698
  0
ARC
  5
2E2
100
AcDbEntity
  8
0
100
AcDbCircle
 62
7
  6
CONTINUOUS
 10
4.4617411744
 20
5.1040251873
 40
1.9779078325
100
AcDbArc
 50
267.2571603839
 51
267.4008797693
  0
ARC
  5
2E3
100
AcDbEntity
  8
0
100
AcDbCircle
 62
7
  6
CONTINUOUS
 10
4.4617102921
 20
5.0995220417
 40
1.9734034863
100
AcDbArc
 50
270.0026406445
 51
270.406779227
  0
ARC
  5
2E4
100
AcDbEntity
  8
0
100
AcDbCircle
 62
7
  6
CONTINUOUS
 10
4.4617052005
 20
5.0954806855
 40
1.9693621303
100
AcDbArc
 50
270.0027941978
 51
270.4101666479
  0
ARC
  5
2E5
100
AcDbEntity
  8
0
100
AcDbCircle
 62
7
  6
CONTINUOUS
 10
4.460989558
 20
5.0924208147
 40
1.9662800077
100
AcDbArc
 50
266.6360703094
 51
266.8592344659
  0
ARC
  5
2E6
100
AcDbEntity
  8
0
100
AcDbCircle
 62
7
  6
CONTINUOUS
 10
4.4611032104
 20
5.0896828215
 40
1.9635512721
100
AcDbArc
 50
267.4004704113
 51
267.6293393432
  0
ARC
  5
2E7
100
AcDbEntity
  8
0
100
AcDbCircle
 62
7
  6
CONTINUOUS
 10
4.4608292062
 20
5.0894954252
 40
1.963350236
100
AcDbArc
 50
266.6357316802
 51
266.8594095019
  0
ARC
  5
2E8
100
AcDbEntity
  8
0
100
AcDbCircle
 62
7
  6
CONTINUOUS
 10
4.46103722
 20
5.0890870666
 40
1.962953339
100
AcDbArc
 50
267.7206969947
 51
267.8713396518
  0
ARC
  5
2E9
100
AcDbEntity
  8
0
100
AcDbCircle
 62
7
  6
CONTINUOUS
 10
4.4609193781
 20
5.0866909012
 40
1.9605543353
100
AcDbArc
 50
267.7213885178
 51
267.8721860278
  0
ARC
  5
2EA
100
AcDbEntity
  8
0
100
AcDbCircle
 62
7
  6
CONTINUOUS
 10
4.4609521779
 20
5.0864144534
 40
1.9602794362
100
AcDbArc
 50
267.4005751938
 51
267.6298323557
  0
ARC
  5
2EB
100
AcDbEntity
  8
0
100
AcDbCircle
 62
9
  6
CONTINUOUS
 10
4.138516077
 20
5.1674627224
 40
1.9537124001
100
AcDbArc
 50
273.5126632934
 51
274.1599153848
  0
ARC
  5
2EC
100
AcDbEntity
  8
0
100
AcDbCircle
 62
7
  6
CONTINUOUS
 10
4.206882951
 20
2.7396505523
 40
0.9759308322
100
AcDbArc
 50
92.6081515165
 51
93.2564495656
  0
ARC
  5
2ED
100
AcDbEntity
  8
0
100
AcDbCircle
 62
7
  6
CONTINUOUS
 10
4.2854254019
 20
3.0698181391
 40
0.6002465477
100
AcDbArc
 50
93.1045899619
 51
97.0879916588
  0
ARC
  5
2EE
100
AcDbEntity
  8
0
100
AcDbCircle
 62
7
  6
CONTINUOUS
 10
4.2839574048
 20
3.0937633486
 40
0.5762570016
100
AcDbArc
 50
91.027019981
 51
93.0877868527
  0
ARC
  5
2EF
100
AcDbEntity
  8
0
100
AcDbCircle
 62
7
  6
CONTINUOUS
 10
4.4618012404
 20
3.4454969645
 40
0.3441231816
100
AcDbArc
 50
270.000000306
 51
270.4740118892
  0
ARC
  5
2F0
100
AcDbEntity
  8
0
100
AcDbCircle
 62
7
  6
CONTINUOUS
 10
4.4617988375
 20
3.4453001976
 40
0.3439263996
100
AcDbArc
 50
268.3408312147
 51
269.2890378378
  0
ARC
  5
2F1
100
AcDbEntity
  8
0
100
AcDbCircle
 62
7
  6
CONTINUOUS
 10
4.4617962903
 20
3.445173675
 40
0.3437998552
100
AcDbArc
 50
269.2890378378
 51
269.5260328505
  0
ARC
  5
2F2
100
AcDbEntity
  8
0
100
AcDbCircle
 62
7
  6
CONTINUOUS
 10
4.4617879823
 20
3.4449185265
 40
0.3435445742
100
AcDbArc
 50
267.8661638169
 51
268.3407978286
  0
ARC
  5
2F3
100
AcDbEntity
  8
0
100
AcDbCircle
 62
7
  6
CONTINUOUS
 10
4.4486797329
 20
3.2808325398
 40
0.1924553605
100
AcDbArc
 50
260.3903787197
 51
261.6997211031
  0
ARC
  5
2F4
100
AcDbEntity
  8
0
100
AcDbCircle
 62
7
  6
CONTINUOUS
 10
4.0862844748
 20
5.7866672922
 40
0.101625
100
AcDbArc
 50
236.4423050822
 51
270.0
  0
ARC
  5
2F5
100
AcDbEntity
  8
0
100
AcDbCircle
 62
7
  6
CONTINUOUS
 10
4.3433471422
 20
3.1249052922
 40
0.0095934
100
AcDbArc
 50
150.5654788308
 51
243.0893094774
  0
ARC
  5
2F6
100
AcDbEntity
  8
0
100
AcDbCircle
 62
7
  6
CONTINUOUS
 10
3.6008118471
 20
42.8859435166
 40
38.325318599
100
AcDbArc
 50
271.3270628747
 51
271.4843601291
  0
ARC
  5
2F7
100
AcDbEntity
  8
0
100
AcDbCircle
 62
7
  6
CONTINUOUS
 10
5.5794198049
 20
-50.5196538471
 40
54.2317775835
100
AcDbArc
 50
91.1905746988
 51
91.3043449205
  0
ARC
  5
2F8
100
AcDbEntity
  8
0
100
AcDbCircle
 62
7
  6
CONTINUOUS
 10
4.955700465
 20
-25.0387080748
 40
28.7647718686
100
AcDbArc
 50
91.0980598711
 51
91.4067727694
  0
ARC
  5
2F9
100
AcDbEntity
  8
0
100
AcDbCircle
 62
7
  6
CONTINUOUS
 10
4.6058324661
 20
-8.5655069214
 40
12.2663260558
100
AcDbArc
 50
91.335775305
 51
91.6506341073
  0
ARC
  5
2FA
100
AcDbEntity
  8
0
100
AcDbCircle
 62
7
  6
CONTINUOUS
 10
4.5128126374
 20
-6.5996910391
 40
10.3134163387
100
AcDbArc
 50
91.4630164831
 51
91.5810800011
  0
ARC
  5
2FB
100
AcDbEntity
  8
0
100
AcDbCircle
 62
7
  6
CONTINUOUS
 10
4.5108745333
 20
-6.4827565101
 40
10.2371073788
100
AcDbArc
 50
91.4630735496
 51
91.5820171533
  0
ARC
  5
2FC
100
AcDbEntity
  8
0
100
AcDbCircle
 62
7
  6
CONTINUOUS
 10
4.4974190911
 20
-6.0127721067
 40
9.7333235646
100
AcDbArc
 50
91.4594582897
 51
91.5845678774
  0
ARC
  5
2FD
100
AcDbEntity
  8
0
100
AcDbCircle
 62
7
  6
CONTINUOUS
 10
4.4618059952
 20
3.4451816839
 40
0.3438078659
100
AcDbArc
 50
269.2890052282
 51
272.1336199937
  0
ARC
  5
2FE
100
AcDbEntity
  8
0
100
AcDbCircle
 62
7
  6
CONTINUOUS
 10
4.4618012422
 20
3.3582831451
 40
0.2710096107
100
AcDbArc
 50
243.0893437991
 51
260.3886398641
  0
ARC
  5
2FF
100
AcDbEntity
  8
0
100
AcDbCircle
 62
7
  6
CONTINUOUS
 10
4.4618012422
 20
3.3582831451
 40
0.2710096107
100
AcDbArc
 50
279.6113601359
 51
296.9106562009
  0
ARC
  5
300
100
AcDbEntity
  8
0
100
AcDbCircle
 62
7
  6
CONTINUOUS
 10
4.474923302
 20
3.2808294393
 40
0.1924522116
100
AcDbArc
 50
278.3002351154
 51
279.6096138037
  0
CIRCLE
  5
301
100
AcDbEntity
  8
0
100
AcDbCircle
 62
7
  6
CONTINUOUS
 10
4.4618012422
 20
4.1411552922
 40
0.3434925
  0
CIRCLE
  5
302
100
AcDbEntity
  8
0
100
AcDbCircle
 62
7
  6
CONTINUOUS
 10
4.4618012422
 20
4.1411552922
 40
0.196746
  0
CIRCLE
  5
303
100
AcDbEntity
  8
0
100
AcDbCircle
 62
7
  6
CONTINUOUS
 10
4.4618012422
 20
4.1411552922
 40
0.12195
  0
ARC
  5
304
100
AcDbEntity
  8
0
100
AcDbCircle
 62
7
  6
CONTINUOUS
 10
4.5802553422
 20
3.1249052922
 40
0.0095934
100
AcDbArc
 50
296.9106905226
 51
29.4345211692
  0
ARC
  5
305
100
AcDbEntity
  8
0
100
AcDbCircle
 62
7
  6
CONTINUOUS
 10
4.4623272975
 20
5.1252595922
 40
1.9991487161
100
AcDbArc
 50
268.107750649
 51
268.4235858418
  0
ARC
  5
306
100
AcDbEntity
  8
0
100
AcDbCircle
 62
7
  6
CONTINUOUS
 10
4.4623091689
 20
5.1236841244
 40
1.997573753
100
AcDbArc
 50
268.1068302107
 51
268.4228795431
  0
ARC
  5
307
100
AcDbEntity
  8
0
100
AcDbCircle
 62
7
  6
CONTINUOUS
 10
4.4620066983
 20
5.1219918017
 40
1.9958733559
100
AcDbArc
 50
268.4302051427
 51
269.5918574276
  0
ARC
  5
308
100
AcDbEntity
  8
0
100
AcDbCircle
 62
7
  6
CONTINUOUS
 10
4.4625211292
 20
5.1199758129
 40
1.9938775304
100
AcDbArc
 50
266.8586725933
 51
267.1131712084
  0
ARC
  5
309
100
AcDbEntity
  8
0
100
AcDbCircle
 62
7
  6
CONTINUOUS
 10
4.4619457651
 20
5.1192397468
 40
1.9931210717
100
AcDbArc
 50
268.4298059574
 51
269.5952019978
  0
ARC
  5
30A
100
AcDbEntity
  8
0
100
AcDbCircle
 62
7
  6
CONTINUOUS
 10
4.4624726837
 20
5.1191340638
 40
1.9930344005
100
AcDbArc
 50
266.858914438
 51
267.1138263379
  0
ARC
  5
30B
100
AcDbEntity
  8
0
100
AcDbCircle
 62
7
  6
CONTINUOUS
 10
4.4621003984
 20
5.1178676562
 40
1.9917535585
100
AcDbArc
 50
267.8715286343
 51
268.0639130386
  0
ARC
  5
30C
100
AcDbEntity
  8
0
100
AcDbCircle
 62
7
  6
CONTINUOUS
 10
4.4620403225
 20
5.1170524433
 40
1.990936562
100
AcDbArc
 50
267.8723908386
 51
268.0648045599
  0
ARC
  5
30D
100
AcDbEntity
  8
0
100
AcDbCircle
 62
7
  6
CONTINUOUS
 10
4.4622107099
 20
5.1139268921
 40
1.9878206429
100
AcDbArc
 50
267.1138104957
 51
267.2572882024
  0
ARC
  5
30E
100
AcDbEntity
  8
0
100
AcDbCircle
 62
7
  6
CONTINUOUS
 10
4.4621524891
 20
5.1126591304
 40
1.986551567
100
AcDbArc
 50
267.1131619706
 51
267.2572272749
  0
ARC
  5
30F
100
AcDbEntity
  8
0
100
AcDbCircle
 62
7
  6
CONTINUOUS
 10
4.4621954381
 20
5.1099105219
 40
1.9838103323
100
AcDbArc
 50
266.132560448
 51
266.6309419011
  0
ARC
  5
310
100
AcDbEntity
  8
0
100
AcDbCircle
 62
7
  6
CONTINUOUS
 10
4.4618489338
 20
5.106330159
 40
1.9802153007
100
AcDbArc
 50
267.2572259887
 51
267.4007620808
  0
ARC
  5
311
100
AcDbEntity
  8
0
100
AcDbCircle
 62
7
  6
CONTINUOUS
 10
4.4619067096
 20
5.1053601878
 40
1.9792509085
100
AcDbArc
 50
266.132039053
 51
266.6315452466
  0
ARC
  5
312
100
AcDbEntity
  8
0
100
AcDbCircle
 62
7
  6
CONTINUOUS
 10
4.461988071
 20
5.1015397915
 40
1.9754192347
100
AcDbArc
 50
270.3983071394
 51
272.886302118
  0
ARC
  5
313
100
AcDbEntity
  8
0
100
AcDbCircle
 62
7
  6
CONTINUOUS
 10
4.461906453
 20
5.1008086114
 40
1.9746901207
100
AcDbArc
 50
269.5925643882
 51
269.9969473018
  0
ARC
  5
314
100
AcDbEntity
  8
0
100
AcDbCircle
 62
7
  6
CONTINUOUS
 10
4.4621190752
 20
5.0974799204
 40
1.9713593731
100
AcDbArc
 50
273.369096224
 51
273.7014313272
  0
ARC
  5
315
100
AcDbEntity
  8
0
100
AcDbCircle
 62
7
  6
CONTINUOUS
 10
4.4619111547
 20
5.096995678
 40
1.9708771875
100
AcDbArc
 50
269.5894586031
 51
269.9968047126
  0
ARC
  5
316
100
AcDbEntity
  8
0
100
AcDbCircle
 62
7
  6
CONTINUOUS
 10
4.4622666057
 20
5.095288254
 40
1.9691628353
100
AcDbArc
 50
273.3687766562
 51
273.7013202431
  0
ARC
  5
317
100
AcDbEntity
  8
0
100
AcDbCircle
 62
7
  6
CONTINUOUS
 10
4.4633676712
 20
5.0791177821
 40
1.9529556105
100
AcDbArc
 50
273.1396588273
 51
273.3644068364
  0
ARC
  5
318
100
AcDbEntity
  8
0
100
AcDbCircle
 62
7
  6
CONTINUOUS
 10
4.4635273951
 20
5.0762112411
 40
1.9500446952
100
AcDbArc
 50
273.1392254321
 51
273.3645135648
  0
ARC
  5
319
100
AcDbEntity
  8
0
100
AcDbCircle
 62
7
  6
CONTINUOUS
 10
4.4618012422
 20
4.4956232922
 40
1.371531
100
AcDbArc
 50
252.5010966264
 51
264.3871122433
  0
ARC
  5
31A
100
AcDbEntity
  8
0
100
AcDbCircle
 62
7
  6
CONTINUOUS
 10
4.4618012422
 20
4.4956232922
 40
1.371531
100
AcDbArc
 50
275.6128877567
 51
287.4989033826
  0
ARC
  5
31B
100
AcDbEntity
  8
0
100
AcDbCircle
 62
9
  6
CONTINUOUS
 10
4.7849549484
 20
5.1655127629
 40
1.951758077
100
AcDbArc
 50
265.8397322155
 51
266.4876751696
  0
ARC
  5
31C
100
AcDbEntity
  8
0
100
AcDbCircle
 62
7
  6
CONTINUOUS
 10
4.7165498303
 20
4.7002066076
 40
0.9790016529
100
AcDbArc
 50
272.60996877
 51
273.2562226196
  0
ARC
  5
31D
100
AcDbEntity
  8
0
100
AcDbCircle
 62
7
  6
CONTINUOUS
 10
4.8373180096
 20
5.7866672922
 40
0.101625
100
AcDbArc
 50
270.0
 51
303.5576949178
  0
ARC
  5
31E
100
AcDbEntity
  8
0
100
AcDbCircle
 62
7
  6
CONTINUOUS
 10
4.5046200873
 20
9.5581833917
 40
5.8144226951
100
AcDbArc
 50
271.7044329906
 51
271.8896293173
  0
ARC
  5
31F
100
AcDbEntity
  8
0
100
AcDbCircle
 62
7
  6
CONTINUOUS
 10
4.5065701395
 20
9.4510299855
 40
5.7529696067
100
AcDbArc
 50
271.7079503886
 51
271.8940822013
  0
ARC
  5
320
100
AcDbEntity
  8
0
100
AcDbCircle
 62
7
  6
CONTINUOUS
 10
4.5097059304
 20
9.3558572759
 40
5.6526663249
100
AcDbArc
 50
271.7419096208
 51
271.9409977757
  0
ARC
  5
321
100
AcDbEntity
  8
0
100
AcDbCircle
 62
7
  6
CONTINUOUS
 10
4.5100318132
 20
9.3811732138
 40
5.642408355
100
AcDbArc
 50
271.7435164377
 51
271.9430681281
  0
ARC
  5
322
100
AcDbEntity
  8
0
100
AcDbCircle
 62
7
  6
CONTINUOUS
 10
4.6322358886
 20
6.5714643003
 40
1.9958769963
100
AcDbArc
 50
272.4103860621
 51
272.8159079751
  0
ARC
  5
323
100
AcDbEntity
  8
0
100
AcDbCircle
 62
7
  6
CONTINUOUS
 10
4.6322358886
 20
6.56638305
 40
1.9958769961
100
AcDbArc
 50
272.4103860621
 51
272.8159079752
  0
ARC
  5
324
100
AcDbEntity
  8
0
100
AcDbCircle
 62
7
  6
CONTINUOUS
 10
6.2417155515
 20
3.6694892329
 40
2.439
100
AcDbArc
 50
109.9122926115
 51
123.5576949178
  0
ARC
  5
325
100
AcDbEntity
  8
0
100
AcDbCircle
 62
7
  6
CONTINUOUS
 10
5.3764262422
 20
6.0582231657
 40
0.101625
100
AcDbArc
 50
289.9122926115
 51
360.0
  0
LINE
  5
326
100
AcDbEntity
  8
0
100
AcDbLine
 62
7
  6
CONTINUOUS
 10
4.3963172545
 20
3.1272007246
 11
4.394809678
 21
3.1272511194
  0
LINE
  5
327
100
AcDbEntity
  8
0
100
AcDbLine
 62
7
  6
CONTINUOUS
 10
4.3829688967
 20
3.1276867638
 11
4.3798828181
 21
3.1278120699
  0
LINE
  5
328
100
AcDbEntity
  8
0
100
AcDbLine
 62
7
  6
CONTINUOUS
 10
4.4489964922
 20
3.0910777093
 11
4.4486981522
 21
3.0903935501
  0
SPLINE
  5
329
100
AcDbEntity
  8
0
100
AcDbSpline
 62
7
  6
CONTINUOUS
 70
0
 71
3
 72
13
 73
9
 74
0
 42
0.0000001
 43
0.0000001
 44
0.0000000001
 40
0.0
 40
0.0
 40
0.0
 40
0.0
 40
0.0614569996
 40
0.1393579836
 40
0.2357293219
 40
0.3514468508
 40
0.639932627
 40
1.0
 40
1.0
 40
1.0
 40
1.0
 10
4.4486981522
 20
3.0903935501
 30
0.0
 10
4.4485648203
 20
3.0902517287
 30
0.0
 10
4.4482026563
 20
3.0899877276
 30
0.0
 10
4.4475199901
 20
3.0896800702
 30
0.0
 10
4.4466383173
 20
3.0894151288
 30
0.0
 10
4.4450827024
 20
3.0891016356
 30
0.0
 10
4.4426685804
 20
3.0888653519
 30
0.0
 10
4.4406141525
 20
3.0888147767
 30
0.0
 10
4.4394736957
 20
3.0888147886
 30
0.0
  0
SPLINE
  5
32A
100
AcDbEntity
  8
0
100
AcDbSpline
 62
7
  6
CONTINUOUS
 70
0
 71
3
 72
10
 73
6
 74
0
 42
0.0000001
 43
0.0000001
 44
0.0000000001
 40
0.0
 40
0.0
 40
0.0
 40
0.0
 40
0.2159396815
 40
0.4589249237
 40
1.0
 40
1.0
 40
1.0
 40
1.0
 10
4.4394736957
 20
3.0888147886
 30
0.0
 10
4.4381307795
 20
3.0888148026
 30
0.0
 10
4.4352766221
 20
3.0888967983
 30
0.0
 10
4.4290714107
 20
3.0893236014
 30
0.0
 10
4.4242263533
 20
3.0899074057
 30
0.0
 10
4.4208966812
 20
3.0903931326
 30
0.0
  0
SPLINE
  5
32B
100
AcDbEntity
  8
0
100
AcDbSpline
 62
7
  6
CONTINUOUS
 70
0
 71
3
 72
19
 73
15
 74
0
 42
0.0000001
 43
0.0000001
 44
0.0000000001
 40
0.0
 40
0.0
 40
0.0
 40
0.0
 40
0.1971698642
 40
0.383164707
 40
0.5516589706
 40
0.6974086125
 40
0.7603516119
 40
0.8161387417
 40
0.8644389757
 40
0.9050049307
 40
0.9378763284
 40
0.9635725552
 40
0.9833428671
 40
1.0
 40
1.0
 40
1.0
 40
1.0
 10
4.5027057536
 20
3.0903931268
 30
0.0
 10
4.5008251297
 20
3.090118786
 30
0.0
 10
4.4971623896
 20
3.0896391046
 30
0.0
 10
4.4918690721
 20
3.0891211818
 30
0.0
 10
4.4870545563
 20
3.0888352894
 30
0.0
 10
4.4834167704
 20
3.0887903848
 30
0.0
 10
4.4808689685
 20
3.0888946651
 30
0.0
 10
4.4792639827
 20
3.0890291184
 30
0.0
 10
4.4778820473
 20
3.0892216948
 30
0.0
 10
4.4767340067
 20
3.0894712317
 30
0.0
 10
4.4758251957
 20
3.089776484
 30
0.0
 10
4.4751559005
 20
3.0901353454
 30
0.0
 10
4.4747144637
 20
3.0905616344
 30
0.0
 10
4.4746059922
 20
3.0909171505
 30
0.0
 10
4.4746059922
 20
3.0910777093
 30
0.0
  0
SPLINE
  5
32C
100
AcDbEntity
  8
0
100
AcDbSpline
 62
9
  6
CONTINUOUS
 70
0
 71
3
 72
34
 73
30
 74
0
 42
0.0000001
 43
0.0000001
 44
0.0000000001
 40
0.0
 40
0.0
 40
0.0
 40
0.0
 40
0.2265663207
 40
0.329978492
 40
0.4265940824
 40
0.5162436924
 40
0.5987510962
 40
0.6739336664
 40
0.7416028533
 40
0.8015868023
 40
0.8537982453
 40
0.898170308
 40
0.9173953129
 40
0.9346347394
 40
0.949879827
 40
0.9631217282
 40
0.9743515094
 40
0.9835601513
 40
0.9874037049
 40
0.9907385529
 40
0.9935635443
 40
0.9958775227
 40
0.9976793266
 40
0.9983877989
 40
0.9989677896
 40
0.9994191522
 40
0.9997417397
 40
0.9999354048
 40
1.0
 40
1.0
 40
1.0
 40
1.0
 10
4.6220256131
 20
3.1881334344
 30
0.0
 10
4.6410376003
 20
3.1867693462
 30
0.0
 10
4.6687599721
 20
3.1852012874
 30
0.0
 10
4.7046292882
 20
3.1839877782
 30
0.0
 10
4.728995641
 20
3.1835032542
 30
0.0
 10
4.7516073533
 20
3.1833501193
 30
0.0
 10
4.7724160232
 20
3.1834623171
 30
0.0
 10
4.7913731134
 20
3.1837737162
 30
0.0
 10
4.8084319355
 20
3.184218907
 30
0.0
 10
4.823555275
 20
3.1847313996
 30
0.0
 10
4.8367159553
 20
3.1852781196
 30
0.0
 10
4.8464472063
 20
3.1857562287
 30
0.0
 10
4.8532376535
 20
3.1861300647
 30
0.0
 10
4.8575804419
 20
3.186385512
 30
0.0
 10
4.8614198736
 20
3.1866257294
 30
0.0
 10
4.8647539064
 20
3.1868467504
 30
0.0
 10
4.8675804975
 20
3.1870446081
 30
0.0
 10
4.8696178057
 20
3.1871947066
 30
0.0
 10
4.8709924111
 20
3.1872999862
 30
0.0
 10
4.871831412
 20
3.1873657958
 30
0.0
 10
4.8725420269
 20
3.1874228145
 30
0.0
 10
4.8731239822
 20
3.1874706288
 30
0.0
 10
4.8735284457
 20
3.1875044566
 30
0.0
 10
4.873787451
 20
3.1875267195
 30
0.0
 10
4.8739333528
 20
3.1875389771
 30
0.0
 10
4.87404664
 20
3.1875496994
 30
0.0
 10
4.874128158
 20
3.1875549576
 30
0.0
 10
4.8741760829
 20
3.187562589
 30
0.0
 10
4.8741984993
 20
3.1875611095
 30
0.0
 10
4.8742035928
 20
3.1875630037
 30
0.0
  0
SPLINE
  5
32D
100
AcDbEntity
  8
0
100
AcDbSpline
 62
9
  6
CONTINUOUS
 70
0
 71
3
 72
41
 73
37
 74
0
 42
0.0000001
 43
0.0000001
 44
0.0000000001
 40
0.0
 40
0.0
 40
0.0
 40
0.0
 40
0.1170460524
 40
0.227567223
 40
0.3313433217
 40
0.4281585554
 40
0.5178209978
 40
0.6002071279
 40
0.6752020074
 40
0.7426830531
 40
0.8025209421
 40
0.8295353015
 40
0.85459929
 40
0.8777036697
 40
0.898839145
 40
0.9179963635
 40
0.9351659177
 40
0.9503383471
 40
0.9635041415
 40
0.9746537468
 40
0.9794695264
 40
0.9837783931
 40
0.9875803338
 40
0.9908753487
 40
0.9936634379
 40
0.9959446013
 40
0.996895086
 40
0.9977188392
 40
0.9984158611
 40
0.9989861516
 40
0.9994297107
 40
0.9997465385
 40
0.9998574281
 40
0.9999366349
 40
0.9999841589
 40
1.0
 40
1.0
 40
1.0
 40
1.0
 10
4.2582061593
 20
3.2176516435
 30
0.0
 10
4.2491803248
 20
3.2171624791
 30
0.0
 10
4.2316288275
 20
3.2162650105
 30
0.0
 10
4.2060640097
 20
3.2151560536
 30
0.0
 10
4.1820511336
 20
3.2143435317
 30
0.0
 10
4.1596405799
 20
3.2138482489
 30
0.0
 10
4.1388769692
 20
3.2136926373
 30
0.0
 10
4.1197984482
 20
3.213808376
 30
0.0
 10
4.1024356086
 20
3.2141254316
 30
0.0
 10
4.0868178159
 20
3.214574822
 30
0.0
 10
4.0749071905
 20
3.2150145773
 30
0.0
 10
4.0662715384
 20
3.2153691325
 30
0.0
 10
4.0604709753
 20
3.2156231311
 30
0.0
 10
4.0551246151
 20
3.2158712099
 30
0.0
 10
4.0502345114
 20
3.2161104334
 30
0.0
 10
4.0458027167
 20
3.2163378069
 30
0.0
 10
4.0418312838
 20
3.216550351
 30
0.0
 10
4.0383222665
 20
3.2167451002
 30
0.0
 10
4.0352777171
 20
3.2169190681
 30
0.0
 10
4.0330318269
 20
3.2170500253
 30
0.0
 10
4.0314687879
 20
3.2171415005
 30
0.0
 10
4.0304722137
 20
3.2171997949
 30
0.0
 10
4.0295928834
 20
3.2172512372
 30
0.0
 10
4.0288307961
 20
3.2172958199
 30
0.0
 10
4.0281859563
 20
3.2173335414
 30
0.0
 10
4.0277218593
 20
3.2173606952
 30
0.0
 10
4.0274092183
 20
3.2173789777
 30
0.0
 10
4.0272186741
 20
3.2173901402
 30
0.0
 10
4.0270575302
 20
3.2173995206
 30
0.0
 10
4.0269254464
 20
3.2174073756
 30
0.0
 10
4.0268233306
 20
3.2174130201
 30
0.0
 10
4.0267551801
 20
3.2174176887
 30
0.0
 10
4.0267174151
 20
3.2174189812
 30
0.0
 10
4.0266969326
 20
3.2174216856
 30
0.0
 10
4.0266897611
 20
3.2174194451
 30
0.0
 10
4.0266809199
 20
3.2174227168
 30
0.0
 10
4.0266813233
 20
3.2174215618
 30
0.0
  0
SPLINE
  5
32E
100
AcDbEntity
  8
0
100
AcDbSpline
 62
7
  6
CONTINUOUS
 70
0
 71
3
 72
18
 73
14
 74
0
 42
0.0000001
 43
0.0000001
 44
0.0000000001
 40
0.0
 40
0.0
 40
0.0
 40
0.0
 40
0.0246056589
 40
0.0491020251
 40
0.0761737611
 40
0.1078757615
 40
0.1455286034
 40
0.1899291529
 40
0.2999863335
 40
0.4382935389
 40
0.6034811667
 40
0.7922196739
 40
1.0
 40
1.0
 40
1.0
 40
1.0
 10
4.1061137422
 20
3.5082204917
 30
0.0
 10
4.1061137422
 20
3.5083972303
 30
0.0
 10
4.1061684657
 20
3.5087540578
 30
0.0
 10
4.1064455055
 20
3.5092386903
 30
0.0
 10
4.106899156
 20
3.5096408816
 30
0.0
 10
4.107516496
 20
3.5099649071
 30
0.0
 10
4.1082970742
 20
3.5102160139
 30
0.0
 10
4.1096558997
 20
3.5104705229
 30
0.0
 10
4.1117650103
 20
3.5105629846
 30
0.0
 10
4.1147327137
 20
3.5103920295
 30
0.0
 10
4.1182412917
 20
3.5099346856
 30
0.0
 10
4.1222107804
 20
3.5092059887
 30
0.0
 10
4.1249892113
 20
3.5085758443
 30
0.0
 10
4.1264387422
 20
3.5082204917
 30
0.0
  0
SPLINE
  5
32F
100
AcDbEntity
  8
0
100
AcDbSpline
 62
7
  6
CONTINUOUS
 70
0
 71
3
 72
15
 73
11
 74
0
 42
0.0000001
 43
0.0000001
 44
0.0000000001
 40
0.0
 40
0.0
 40
0.0
 40
0.0
 40
0.125388049
 40
0.250474379
 40
0.375307261
 40
0.4999999969
 40
0.624692729
 40
0.7495256098
 40
0.8746119432
 40
1.0
 40
1.0
 40
1.0
 40
1.0
 10
4.1264387422
 20
3.5082204917
 30
0.0
 10
4.1393642702
 20
3.5050517986
 30
0.0
 10
4.1653322999
 20
3.4993017284
 30
0.0
 10
4.2046522481
 20
3.4927915547
 30
0.0
 10
4.2442313657
 20
3.4887157713
 30
0.0
 10
4.2839574908
 20
3.4873367118
 30
0.0
 10
4.3236836156
 20
3.4887157729
 30
0.0
 10
4.3632627334
 20
3.4927915533
 30
0.0
 10
4.4025826822
 20
3.4993017299
 30
0.0
 10
4.4285507135
 20
3.5050517984
 30
0.0
 10
4.4414762422
 20
3.5082204917
 30
0.0
  0
SPLINE
  5
330
100
AcDbEntity
  8
0
100
AcDbSpline
 62
7
  6
CONTINUOUS
 70
0
 71
3
 72
9
 73
5
 74
0
 42
0.0000001
 43
0.0000001
 44
0.0000000001
 40
0.0
 40
0.0
 40
0.0
 40
0.0
 40
0.4828997738
 40
1.0
 40
1.0
 40
1.0
 40
1.0
 10
4.4414762422
 20
3.5082204917
 30
0.0
 10
4.4446796267
 20
3.5090058014
 30
0.0
 10
4.4514344115
 20
3.5101506567
 30
0.0
 10
4.4582694113
 20
3.5105187813
 30
0.0
 10
4.4618012422
 20
3.5105187813
 30
0.0
  0
SPLINE
  5
331
100
AcDbEntity
  8
0
100
AcDbSpline
 62
7
  6
CONTINUOUS
 70
0
 71
3
 72
9
 73
5
 74
0
 42
0.0000001
 43
0.0000001
 44
0.0000000001
 40
0.0
 40
0.0
 40
0.0
 40
0.0
 40
0.4828997342
 40
1.0
 40
1.0
 40
1.0
 40
1.0
 10
4.4821262422
 20
3.5082204917
 30
0.0
 10
4.4789228581
 20
3.5090058014
 30
0.0
 10
4.4721680724
 20
3.5101506497
 30
0.0
 10
4.4653330733
 20
3.5105187813
 30
0.0
 10
4.4618012422
 20
3.5105187813
 30
0.0
  0
SPLINE
  5
332
100
AcDbEntity
  8
0
100
AcDbSpline
 62
7
  6
CONTINUOUS
 70
0
 71
3
 72
15
 73
11
 74
0
 42
0.0000001
 43
0.0000001
 44
0.0000000001
 40
0.0
 40
0.0
 40
0.0
 40
0.0
 40
0.125388049
 40
0.250474379
 40
0.375307261
 40
0.4999999969
 40
0.624692729
 40
0.7495256098
 40
0.8746119432
 40
1.0
 40
1.0
 40
1.0
 40
1.0
 10
4.4821262422
 20
3.5082204917
 30
0.0
 10
4.4950517702
 20
3.5050517986
 30
0.0
 10
4.5210197999
 20
3.4993017284
 30
0.0
 10
4.5603397481
 20
3.4927915547
 30
0.0
 10
4.5999188657
 20
3.4887157713
 30
0.0
 10
4.6396449908
 20
3.4873367118
 30
0.0
 10
4.6793711156
 20
3.4887157729
 30
0.0
 10
4.7189502334
 20
3.4927915533
 30
0.0
 10
4.7582701822
 20
3.4993017299
 30
0.0
 10
4.7842382135
 20
3.5050517984
 30
0.0
 10
4.7971637422
 20
3.5082204917
 30
0.0
  0
SPLINE
  5
333
100
AcDbEntity
  8
0
100
AcDbSpline
 62
7
  6
CONTINUOUS
 70
0
 71
3
 72
18
 73
14
 74
0
 42
0.0000001
 43
0.0000001
 44
0.0000000001
 40
0.0
 40
0.0
 40
0.0
 40
0.0
 40
0.2077809335
 40
0.3965210891
 40
0.5617108267
 40
0.700017551
 40
0.8100734497
 40
0.854473826
 40
0.8921262499
 40
0.9238275646
 40
0.9508985925
 40
0.9753944781
 40
1.0
 40
1.0
 40
1.0
 40
1.0
 10
4.7971637422
 20
3.5082204917
 30
0.0
 10
4.7986132776
 20
3.5085758454
 30
0.0
 10
4.8013917238
 20
3.5092059972
 30
0.0
 10
4.8053612423
 20
3.5099347076
 30
0.0
 10
4.8088698433
 20
3.5103920622
 30
0.0
 10
4.8118375529
 20
3.5105629912
 30
0.0
 10
4.8139466469
 20
3.510470492
 30
0.0
 10
4.8153054589
 20
3.5102159862
 30
0.0
 10
4.8160860298
 20
3.5099648863
 30
0.0
 10
4.816703359
 20
3.5096408675
 30
0.0
 10
4.8171569968
 20
3.5092386814
 30
0.0
 10
4.8174340236
 20
3.5087540524
 30
0.0
 10
4.8174887422
 20
3.5083972293
 30
0.0
 10
4.8174887422
 20
3.5082204917
 30
0.0
  0
SPLINE
  5
334
100
AcDbEntity
  8
0
100
AcDbSpline
 62
7
  6
CONTINUOUS
 70
0
 71
3
 72
9
 73
5
 74
0
 42
0.0000001
 43
0.0000001
 44
0.0000000001
 40
0.0
 40
0.0
 40
0.0
 40
0.0
 40
0.5171010831
 40
1.0
 40
1.0
 40
1.0
 40
1.0
 10
4.4618012422
 20
3.6472977917
 30
0.0
 10
4.4582694055
 20
3.6472977917
 30
0.0
 10
4.4514344056
 20
3.6476659168
 30
0.0
 10
4.444679621
 20
3.6488107729
 30
0.0
 10
4.4414762422
 20
3.6495960813
 30
0.0
  0
SPLINE
  5
335
100
AcDbEntity
  8
0
100
AcDbSpline
 62
7
  6
CONTINUOUS
 70
0
 71
3
 72
11
 73
7
 74
0
 42
0.0000001
 43
0.0000001
 44
0.0000000001
 40
0.0
 40
0.0
 40
0.0
 40
0.0
 40
0.2507977921
 40
0.5009562742
 40
0.7505963557
 40
1.0
 40
1.0
 40
1.0
 40
1.0
 10
4.4414762422
 20
3.6495960813
 30
0.0
 10
4.4277113502
 20
3.6529705445
 30
0.0
 10
4.4000483104
 20
3.6590538413
 30
0.0
 10
4.3581374146
 20
3.6657531374
 30
0.0
 10
4.3159462994
 20
3.6696497124
 30
0.0
 10
4.2877200559
 20
3.670180381
 30
0.0
 10
4.2736286202
 20
3.6699277766
 30
0.0
  0
SPLINE
  5
336
100
AcDbEntity
  8
0
100
AcDbSpline
 62
7
  6
CONTINUOUS
 70
0
 71
3
 72
9
 73
5
 74
0
 42
0.0000001
 43
0.0000001
 44
0.0000000001
 40
0.0
 40
0.0
 40
0.0
 40
0.0
 40
0.4993516521
 40
1.0
 40
1.0
 40
1.0
 40
1.0
 10
4.2113588819
 20
3.6654774953
 30
0.0
 10
4.1970809789
 20
3.6637147852
 30
0.0
 10
4.1686023538
 20
3.659208955
 30
0.0
 10
4.1404475872
 20
3.6530303496
 30
0.0
 10
4.1264387422
 20
3.6495960813
 30
0.0
  0
SPLINE
  5
337
100
AcDbEntity
  8
0
100
AcDbSpline
 62
7
  6
CONTINUOUS
 70
0
 71
3
 72
18
 73
14
 74
0
 42
0.0000001
 43
0.0000001
 44
0.0000000001
 40
0.0
 40
0.0
 40
0.0
 40
0.0
 40
0.2077807154
 40
0.3965205027
 40
0.5617098799
 40
0.7000166511
 40
0.8100726383
 40
0.8544729876
 40
0.8921254741
 40
0.9238269694
 40
0.950898255
 40
0.9753943816
 40
1.0
 40
1.0
 40
1.0
 40
1.0
 10
4.1264387422
 20
3.6495960813
 30
0.0
 10
4.1249892078
 20
3.6492407279
 30
0.0
 10
4.1222107634
 20
3.6486105822
 30
0.0
 10
4.1182412477
 20
3.6478818859
 30
0.0
 10
4.1147326503
 20
3.6474245343
 30
0.0
 10
4.1117649432
 20
3.6472535851
 30
0.0
 10
4.1096558463
 20
3.6473460626
 30
0.0
 10
4.1082970318
 20
3.6476005645
 30
0.0
 10
4.1075164597
 20
3.6478516673
 30
0.0
 10
4.106899129
 20
3.6481756919
 30
0.0
 10
4.1064454901
 20
3.6485778842
 30
0.0
 10
4.106168462
 20
3.6490625174
 30
0.0
 10
4.1061137422
 20
3.6494193429
 30
0.0
 10
4.1061137422
 20
3.6495960813
 30
0.0
  0
SPLINE
  5
338
100
AcDbEntity
  8
0
100
AcDbSpline
 62
7
  6
CONTINUOUS
 70
0
 71
3
 72
18
 73
14
 74
0
 42
0.0000001
 43
0.0000001
 44
0.0000000001
 40
0.0
 40
0.0
 40
0.0
 40
0.0
 40
0.0246055626
 40
0.0491016882
 40
0.076173167
 40
0.1078749871
 40
0.1455277661
 40
0.1899283417
 40
0.2999854321
 40
0.438292589
 40
0.6034805778
 40
0.7922194548
 40
1.0
 40
1.0
 40
1.0
 40
1.0
 10
4.8174887422
 20
3.6495960813
 30
0.0
 10
4.8174887422
 20
3.6494193435
 30
0.0
 10
4.8174340199
 20
3.6490625183
 30
0.0
 10
4.8171569813
 20
3.6485778901
 30
0.0
 10
4.816703332
 20
3.6481757051
 30
0.0
 10
4.8160859934
 20
3.6478516853
 30
0.0
 10
4.8153054165
 20
3.6476005814
 30
0.0
 10
4.8139465935
 20
3.6473460685
 30
0.0
 10
4.8118374858
 20
3.6472535851
 30
0.0
 10
4.80886978
 20
3.64742452
 30
0.0
 10
4.8053611984
 20
3.647881867
 30
0.0
 10
4.8013917068
 20
3.648610578
 30
0.0
 10
4.7986132742
 20
3.6492407285
 30
0.0
 10
4.7971637422
 20
3.6495960813
 30
0.0
  0
SPLINE
  5
339
100
AcDbEntity
  8
0
100
AcDbSpline
 62
7
  6
CONTINUOUS
 70
0
 71
3
 72
9
 73
5
 74
0
 42
0.0000001
 43
0.0000001
 44
0.0000000001
 40
0.0
 40
0.0
 40
0.0
 40
0.0
 40
0.5006482724
 40
1.0
 40
1.0
 40
1.0
 40
1.0
 10
4.7971637422
 20
3.6495960813
 30
0.0
 10
4.7831563925
 20
3.653029983
 30
0.0
 10
4.7550046461
 20
3.659208002
 30
0.0
 10
4.7265291072
 20
3.6637136337
 30
0.0
 10
4.7122527495
 20
3.6654763636
 30
0.0
  0
SPLINE
  5
33A
100
AcDbEntity
  8
0
100
AcDbSpline
 62
7
  6
CONTINUOUS
 70
0
 71
3
 72
13
 73
9
 74
0
 42
0.0000001
 43
0.0000001
 44
0.0000000001
 40
0.0
 40
0.0
 40
0.0
 40
0.0
 40
0.124917121
 40
0.2497205338
 40
0.3744904554
 40
0.4992920278
 40
0.7492287839
 40
1.0
 40
1.0
 40
1.0
 40
1.0
 10
4.7122527495
 20
3.6654763636
 30
0.0
 10
4.7026661288
 20
3.6666600426
 30
0.0
 10
4.683444496
 20
3.6685926429
 30
0.0
 10
4.6545126563
 20
3.6700719215
 30
0.0
 10
4.6255507111
 20
3.6700913235
 30
0.0
 10
4.586958771
 20
3.6681701747
 30
0.0
 10
4.5388849513
 20
3.662202658
 30
0.0
 10
4.5009598556
 20
3.6542131415
 30
0.0
 10
4.4821262422
 20
3.6495960813
 30
0.0
  0
SPLINE
  5
33B
100
AcDbEntity
  8
0
100
AcDbSpline
 62
7
  6
CONTINUOUS
 70
0
 71
3
 72
9
 73
5
 74
0
 42
0.0000001
 43
0.0000001
 44
0.0000000001
 40
0.0
 40
0.0
 40
0.0
 40
0.0
 40
0.4828997477
 40
1.0
 40
1.0
 40
1.0
 40
1.0
 10
4.4821262422
 20
3.6495960813
 30
0.0
 10
4.478922858
 20
3.6488107716
 30
0.0
 10
4.4721680727
 20
3.6476659206
 30
0.0
 10
4.4653330733
 20
3.6472977917
 30
0.0
 10
4.4618012422
 20
3.6472977917
 30
0.0
  0
SPLINE
  5
33C
100
AcDbEntity
  8
0
100
AcDbSpline
 62
9
  6
CONTINUOUS
 70
0
 71
3
 72
39
 73
35
 74
0
 42
0.0000001
 43
0.0000001
 44
0.0000000001
 40
0.0
 40
0.0
 40
0.0
 40
0.0
 40
0.0000158452
 40
0.0000633803
 40
0.0001426052
 40
0.00025352
 40
0.000570419
 40
0.0010140775
 40
0.0015844954
 40
0.0022816726
 40
0.0031056091
 40
0.0040563051
 40
0.0063379749
 40
0.009126682
 40
0.0124224262
 40
0.0162252076
 40
0.0205350259
 40
0.025351868
 40
0.0365038408
 40
0.0496720505
 40
0.0648466205
 40
0.0820177393
 40
0.1011756696
 40
0.122310753
 40
0.1454134135
 40
0.1974835162
 40
0.2573067722
 40
0.3247726681
 40
0.3997587959
 40
0.4821465621
 40
0.5718215204
 40
0.6686546089
 40
0.7724415624
 40
1.0
 40
1.0
 40
1.0
 40
1.0
 10
4.8969217992
 20
3.2174334097
 30
0.0
 10
4.8969211692
 20
3.2174323606
 30
0.0
 10
4.8969148432
 20
3.2174344379
 30
0.0
 10
4.8969052409
 20
3.2174314785
 30
0.0
 10
4.8968861318
 20
3.2174316645
 30
0.0
 10
4.8968475249
 20
3.2174285026
 30
0.0
 10
4.8967799893
 20
3.2174250132
 30
0.0
 10
4.8966775606
 20
3.217418503
 30
0.0
 10
4.8965455783
 20
3.2174106079
 30
0.0
 10
4.8963843729
 20
3.2174007832
 30
0.0
 10
4.8961938205
 20
3.2173892332
 30
0.0
 10
4.8958811364
 20
3.2173702511
 30
0.0
 10
4.8954169884
 20
3.2173420871
 30
0.0
 10
4.8947720711
 20
3.2173029474
 30
0.0
 10
4.8940098947
 20
3.2172566943
 30
0.0
 10
4.8931304612
 20
3.2172033228
 30
0.0
 10
4.8921337703
 20
3.2171428444
 30
0.0
 10
4.8905705562
 20
3.2170479347
 30
0.0
 10
4.8883244418
 20
3.2169121486
 30
0.0
 10
4.8852796113
 20
3.2167324209
 30
0.0
 10
4.8817703298
 20
3.2165323082
 30
0.0
 10
4.877798684
 20
3.2163154383
 30
0.0
 10
4.873366763
 20
3.2160854109
 30
0.0
 10
4.8684766537
 20
3.2158458512
 30
0.0
 10
4.8610467408
 20
3.2155046893
 30
0.0
 10
4.8506298067
 20
3.2150785333
 30
0.0
 10
4.8367861079
 20
3.2146047873
 30
0.0
 10
4.8211697862
 20
3.2141964822
 30
0.0
 10
4.8038079011
 20
3.2139033545
 30
0.0
 10
4.7847287186
 20
3.2137743797
 30
0.0
 10
4.7639620006
 20
3.213858888
 30
0.0
 10
4.741545002
 20
3.2142059936
 30
0.0
 10
4.7084894751
 20
3.2151222759
 30
0.0
 10
4.6829250327
 20
3.2163441865
 30
0.0
 10
4.6653839957
 20
3.2174207787
 30
0.0
  0
LINE
  5
33D
100
AcDbEntity
  8
0
100
AcDbLine
 62
7
  6
CONTINUOUS
 10
4.3963154506
 20
3.1272010283
 11
4.3948081653
 21
3.1272513901
  0
SPLINE
  5
33E
100
AcDbEntity
  8
0
100
AcDbSpline
 62
7
  6
CONTINUOUS
 70
0
 71
3
 72
12
 73
8
 74
0
 42
0.0000001
 43
0.0000001
 44
0.0000000001
 40
0.0
 40
0.0
 40
0.0
 40
0.0
 40
0.0561298773
 40
0.1313684252
 40
0.3409399312
 40
0.6303932341
 40
1.0
 40
1.0
 40
1.0
 40
1.0
 10
4.1317203062
 20
3.7044899375
 30
0.0
 10
4.1318004985
 20
3.704444458
 30
0.0
 10
4.1320001115
 20
3.7043597897
 30
0.0
 10
4.1325350476
 20
3.7041936414
 30
0.0
 10
4.1334602412
 20
3.7040015048
 30
0.0
 10
4.1348698854
 20
3.703782699
 30
0.0
 10
4.135944775
 20
3.7036522125
 30
0.0
 10
4.136548056
 20
3.7035845453
 30
0.0
  0
LINE
  5
33F
100
AcDbEntity
  8
0
100
AcDbLine
 62
7
  6
CONTINUOUS
 10
4.7829527147
 20
3.7335975572
 11
4.7679848053
 21
3.7345596838
  0
SPLINE
  5
340
100
AcDbEntity
  8
0
100
AcDbSpline
 62
7
  6
CONTINUOUS
 70
0
 71
3
 72
12
 73
8
 74
0
 42
0.0000001
 43
0.0000001
 44
0.0000000001
 40
0.0
 40
0.0
 40
0.0
 40
0.0
 40
0.0559577445
 40
0.1310740704
 40
0.3405508624
 40
0.6301039217
 40
1.0
 40
1.0
 40
1.0
 40
1.0
 10
4.1317180552
 20
3.7119733853
 30
0.0
 10
4.1317979984
 20
3.7120188348
 30
0.0
 10
4.1319972543
 20
3.7121034346
 30
0.0
 10
4.132531839
 20
3.7122695957
 30
0.0
 10
4.1334573356
 20
3.712461942
 30
0.0
 10
4.1348681932
 20
3.7126812494
 30
0.0
 10
4.1359442913
 20
3.7128121149
 30
0.0
 10
4.1365483676
 20
3.7128799965
 30
0.0
  0
LINE
  5
341
100
AcDbEntity
  8
0
100
AcDbLine
 62
7
  6
CONTINUOUS
 10
4.1365483676
 20
3.7128799965
 11
4.1427791824
 21
3.713441978
  0
LINE
  5
342
100
AcDbEntity
  8
0
100
AcDbLine
 62
7
  6
CONTINUOUS
 10
4.1427791824
 20
3.713441978
 11
4.1514450319
 21
3.714005532
  0
SPLINE
  5
343
100
AcDbEntity
  8
0
100
AcDbSpline
 62
7
  6
CONTINUOUS
 70
0
 71
3
 72
9
 73
5
 74
0
 42
0.0000001
 43
0.0000001
 44
0.0000000001
 40
0.0
 40
0.0
 40
0.0
 40
0.0
 40
0.4376167684
 40
1.0
 40
1.0
 40
1.0
 40
1.0
 10
4.1624731092
 20
3.7145704235
 30
0.0
 10
4.1720663735
 20
3.7150155837
 30
0.0
 10
4.1939969726
 20
3.7158341788
 30
0.0
 10
4.2159324395
 20
3.7164877531
 30
0.0
 10
4.2282693212
 20
3.7168294275
 30
0.0
  0
LINE
  5
344
100
AcDbEntity
  8
0
100
AcDbLine
 62
7
  6
CONTINUOUS
 10
4.404464257
 20
3.7207814773
 11
4.4330306237
 21
3.7213460444
  0
SPLINE
  5
345
100
AcDbEntity
  8
0
100
AcDbSpline
 62
7
  6
CONTINUOUS
 70
0
 71
3
 72
10
 73
6
 74
0
 42
0.0000001
 43
0.0000001
 44
0.0000000001
 40
0.0
 40
0.0
 40
0.0
 40
0.0
 40
0.5320754768
 40
0.777860693
 40
1.0
 40
1.0
 40
1.0
 40
1.0
 10
4.461732326
 20
3.7219089899
 30
0.0
 10
4.4994006234
 20
3.722646867
 30
0.0
 10
4.5544693795
 20
3.7237226728
 30
0.0
 10
4.6252617134
 20
3.7252417483
 30
0.0
 10
4.658385594
 20
3.7260251273
 30
0.0
 10
4.6741098296
 20
3.7264271896
 30
0.0
  0
SPLINE
  5
346
100
AcDbEntity
  8
0
100
AcDbSpline
 62
7
  6
CONTINUOUS
 70
0
 71
3
 72
11
 73
7
 74
0
 42
0.0000001
 43
0.0000001
 44
0.0000000001
 40
0.0
 40
0.0
 40
0.0
 40
0.0
 40
0.3128050719
 40
0.5858589828
 40
0.8158110762
 40
1.0
 40
1.0
 40
1.0
 40
1.0
 10
4.6953540284
 20
3.7269918302
 30
0.0
 10
4.7033658999
 20
3.7272138414
 30
0.0
 10
4.7183709254
 20
3.72765072
 30
0.0
 10
4.7392628982
 20
3.7283443097
 30
0.0
 10
4.7568573556
 20
3.7290333656
 30
0.0
 10
4.7674568782
 20
3.7295441103
 30
0.0
 10
4.7721685935
 20
3.7298140052
 30
0.0
  0
SPLINE
  5
347
100
AcDbEntity
  8
0
100
AcDbSpline
 62
7
  6
CONTINUOUS
 70
0
 71
3
 72
12
 73
8
 74
0
 42
0.0000001
 43
0.0000001
 44
0.0000000001
 40
0.0
 40
0.0
 40
0.0
 40
0.0
 40
0.3593756297
 40
0.6463784358
 40
0.8600195251
 40
0.9392180315
 40
1.0
 40
1.0
 40
1.0
 40
1.0
 10
4.7721685935
 20
3.7298140052
 30
0.0
 10
4.774409641
 20
3.7299423761
 30
0.0
 10
4.7784395854
 20
3.7301907778
 30
0.0
 10
4.783795528
 20
3.7306034874
 30
0.0
 10
4.7874003558
 20
3.7309651314
 30
0.0
 10
4.7895877999
 20
3.7312725273
 30
0.0
 10
4.7904488047
 20
3.7314280422
 30
0.0
 10
4.7908192832
 20
3.7315110071
 30
0.0
  0
SPLINE
  5
348
100
AcDbEntity
  8
0
100
AcDbSpline
 62
7
  6
CONTINUOUS
 70
0
 71
3
 72
12
 73
8
 74
0
 42
0.0000001
 43
0.0000001
 44
0.0000000001
 40
0.0
 40
0.0
 40
0.0
 40
0.0
 40
0.3995449121
 40
0.6934959641
 40
0.8022926856
 40
0.8872972269
 40
1.0
 40
1.0
 40
1.0
 40
1.0
 10
4.7908192832
 20
3.7315110071
 30
0.0
 10
4.7910045959
 20
3.7315525059
 30
0.0
 10
4.7913247783
 20
3.7316320876
 30
0.0
 10
4.7916872836
 20
3.731751417
 30
0.0
 10
4.7918966331
 20
3.7318552266
 30
0.0
 10
4.7920160746
 20
3.7319335779
 30
0.0
 10
4.7920824922
 20
3.7320192726
 30
0.0
 10
4.7920824922
 20
3.7320728398
 30
0.0
  0
SPLINE
  5
349
100
AcDbEntity
  8
0
100
AcDbSpline
 62
7
  6
CONTINUOUS
 70
0
 71
3
 72
14
 73
10
 74
0
 42
0.0000001
 43
0.0000001
 44
0.0000000001
 40
0.0
 40
0.0
 40
0.0
 40
0.0
 40
0.0465416508
 40
0.1150259841
 40
0.2059617029
 40
0.3195089192
 40
0.4557086925
 40
0.6145508887
 40
1.0
 40
1.0
 40
1.0
 40
1.0
 10
4.1564697887
 20
3.7262579682
 30
0.0
 10
4.1566062674
 20
3.7263350388
 30
0.0
 10
4.1569731109
 20
3.7264691029
 30
0.0
 10
4.1576443735
 20
3.7266412835
 30
0.0
 10
4.1585478586
 20
3.7268153376
 30
0.0
 10
4.1596815283
 20
3.7269914304
 30
0.0
 10
4.1610462693
 20
3.7271683656
 30
0.0
 10
4.1633239261
 20
3.7274217982
 30
0.0
 10
4.1651497904
 20
3.7275857601
 30
0.0
 10
4.1664434303
 20
3.7276928042
 30
0.0
  0
SPLINE
  5
34A
100
AcDbEntity
  8
0
100
AcDbSpline
 62
7
  6
CONTINUOUS
 70
0
 71
3
 72
11
 73
7
 74
0
 42
0.0000001
 43
0.0000001
 44
0.0000000001
 40
0.0
 40
0.0
 40
0.0
 40
0.0
 40
0.1675461354
 40
0.3919819524
 40
0.6706820595
 40
1.0
 40
1.0
 40
1.0
 40
1.0
 10
4.1664434303
 20
3.7276928042
 30
0.0
 10
4.1700410481
 20
3.7279904944
 30
0.0
 10
4.1784703532
 20
3.7285306095
 30
0.0
 10
4.1929030792
 20
3.7292445934
 30
0.0
 10
4.2108248069
 20
3.7299635833
 30
0.0
 10
4.2239173983
 20
3.7304115128
 30
0.0
 10
4.2310091135
 20
3.7306405856
 30
0.0
  0
SPLINE
  5
34B
100
AcDbEntity
  8
0
100
AcDbSpline
 62
7
  6
CONTINUOUS
 70
0
 71
3
 72
10
 73
6
 74
0
 42
0.0000001
 43
0.0000001
 44
0.0000000001
 40
0.0
 40
0.0
 40
0.0
 40
0.0
 40
0.2180599119
 40
0.4615747943
 40
1.0
 40
1.0
 40
1.0
 40
1.0
 10
4.2501951101
 20
3.731230247
 30
0.0
 10
4.2627587752
 20
3.7315989602
 30
0.0
 10
4.2893545134
 20
3.7323179318
 30
0.0
 10
4.3469779923
 20
3.7337184185
 30
0.0
 10
4.3920388564
 20
3.7346950787
 30
0.0
 10
4.4230668683
 20
3.7353573198
 30
0.0
  0
LINE
  5
34C
100
AcDbEntity
  8
0
100
AcDbLine
 62
7
  6
CONTINUOUS
 10
4.4230668683
 20
3.7353573198
 11
4.4508117412
 21
3.7359468841
  0
SPLINE
  5
34D
100
AcDbEntity
  8
0
100
AcDbSpline
 62
7
  6
CONTINUOUS
 70
0
 71
3
 72
10
 73
6
 74
0
 42
0.0000001
 43
0.0000001
 44
0.0000000001
 40
0.0
 40
0.0
 40
0.0
 40
0.0
 40
0.5315341072
 40
0.7768357878
 40
1.0
 40
1.0
 40
1.0
 40
1.0
 10
4.4786471466
 20
3.7365364888
 30
0.0
 10
4.5102465014
 20
3.7372066242
 30
0.0
 10
4.5564287889
 20
3.7381918903
 30
0.0
 10
4.6158752439
 20
3.7395832219
 30
0.0
 10
4.6437223876
 20
3.740297454
 30
0.0
 10
4.6569873128
 20
3.7406625795
 30
0.0
  0
LINE
  5
34E
100
AcDbEntity
  8
0
100
AcDbLine
 62
7
  6
CONTINUOUS
 10
4.6775601654
 20
3.7412519191
 11
4.6817043798
 21
3.7413770673
  0
SPLINE
  5
34F
100
AcDbEntity
  8
0
100
AcDbSpline
 62
7
  6
CONTINUOUS
 70
0
 71
3
 72
24
 73
20
 74
0
 42
0.0000001
 43
0.0000001
 44
0.0000000001
 40
0.0
 40
0.0
 40
0.0
 40
0.0
 40
0.2264435665
 40
0.4261467789
 40
0.5976932906
 40
0.6724833356
 40
0.739789439
 40
0.7995137036
 40
0.8515597852
 40
0.8958340287
 40
0.9322478719
 40
0.9607266414
 40
0.9719885416
 40
0.9812791189
 40
0.9886203391
 40
0.9940578572
 40
0.9960970641
 40
0.9977204043
 40
1.0
 40
1.0
 40
1.0
 40
1.0
 10
4.7013457728
 20
3.7420091789
 30
0.0
 10
4.7063492383
 20
3.7421799159
 30
0.0
 10
4.7157648017
 20
3.7425169443
 30
0.0
 10
4.7289682637
 20
3.7430516539
 30
0.0
 10
4.7388189317
 20
3.7435135542
 30
0.0
 10
4.7457429835
 20
3.7438898802
 30
0.0
 10
4.7501968997
 20
3.7441587247
 30
0.0
 10
4.7541470037
 20
3.7444270008
 30
0.0
 10
4.7575866161
 20
3.7446945769
 30
0.0
 10
4.7605092561
 20
3.7449607885
 30
0.0
 10
4.7629083334
 20
3.745225528
 30
0.0
 10
4.764576558
 20
3.7454572789
 30
0.0
 10
4.7656433377
 20
3.7456506483
 30
0.0
 10
4.766245901
 20
3.7457830559
 30
0.0
 10
4.7667159499
 20
3.7459150098
 30
0.0
 10
4.7670233753
 20
3.7460304425
 30
0.0
 10
4.767199716
 20
3.746129962
 30
0.0
 10
4.7673033611
 20
3.746208085
 30
0.0
 10
4.7673564918
 20
3.746289616
 30
0.0
 10
4.7673567557
 20
3.7463400143
 30
0.0
  0
SPLINE
  5
350
100
AcDbEntity
  8
0
100
AcDbSpline
 62
7
  6
CONTINUOUS
 70
0
 71
3
 72
12
 73
8
 74
0
 42
0.0000001
 43
0.0000001
 44
0.0000000001
 40
0.0
 40
0.0
 40
0.0
 40
0.0
 40
0.074456036
 40
0.1640281757
 40
0.387400255
 40
0.667271414
 40
1.0
 40
1.0
 40
1.0
 40
1.0
 10
4.7586263601
 20
3.7041417758
 30
0.0
 10
4.7570940519
 20
3.7040053628
 30
0.0
 10
4.7537151091
 20
3.7037413266
 30
0.0
 10
4.7457277656
 20
3.7032197619
 30
0.0
 10
4.7334948842
 20
3.7025934644
 30
0.0
 10
4.7162373497
 20
3.7018758452
 30
0.0
 10
4.7035878829
 20
3.701431201
 30
0.0
 10
4.6967170028
 20
3.7012035998
 30
0.0
  0
SPLINE
  5
351
100
AcDbEntity
  8
0
100
AcDbSpline
 62
7
  6
CONTINUOUS
 70
0
 71
3
 72
11
 73
7
 74
0
 42
0.0000001
 43
0.0000001
 44
0.0000000001
 40
0.0
 40
0.0
 40
0.0
 40
0.0
 40
0.3006091322
 40
0.5716934261
 40
0.8068928362
 40
1.0
 40
1.0
 40
1.0
 40
1.0
 10
4.339244642
 20
4.6526325983
 30
0.0
 10
4.3249629482
 20
4.6522656839
 30
0.0
 10
4.297802852
 20
4.6515445854
 30
0.0
 10
4.2594717964
 20
4.6504193259
 30
0.0
 10
4.2262520691
 20
4.6493018992
 30
0.0
 10
4.2059129902
 20
4.6484815263
 30
0.0
 10
4.1967458674
 20
4.6480475276
 30
0.0
  0
SPLINE
  5
352
100
AcDbEntity
  8
0
100
AcDbSpline
 62
7
  6
CONTINUOUS
 70
0
 71
3
 72
10
 73
6
 74
0
 42
0.0000001
 43
0.0000001
 44
0.0000000001
 40
0.0
 40
0.0
 40
0.0
 40
0.0
 40
0.5841669006
 40
0.8135141535
 40
1.0
 40
1.0
 40
1.0
 40
1.0
 10
4.1967458674
 20
4.6480475276
 30
0.0
 10
4.1906818946
 20
4.6477604412
 30
0.0
 10
4.1822384126
 20
4.6473246873
 30
0.0
 10
4.171869778
 20
4.6466233369
 30
0.0
 10
4.1675626577
 20
4.6462679443
 30
0.0
 10
4.1656335381
 20
4.6460826961
 30
0.0
  0
LINE
  5
353
100
AcDbEntity
  8
0
100
AcDbLine
 62
7
  6
CONTINUOUS
 10
4.3198852058
 20
3.6974857424
 11
4.3449338712
 21
3.6980715234
  0
LINE
  5
354
100
AcDbEntity
  8
0
100
AcDbLine
 62
7
  6
CONTINUOUS
 10
4.678031526
 20
3.7056973115
 11
4.6815321485
 21
3.7058030875
  0
SPLINE
  5
355
100
AcDbEntity
  8
0
100
AcDbSpline
 62
7
  6
CONTINUOUS
 70
0
 71
3
 72
18
 73
14
 74
0
 42
0.0000001
 43
0.0000001
 44
0.0000000001
 40
0.0
 40
0.0
 40
0.0
 40
0.0
 40
0.2100431827
 40
0.3976319615
 40
0.561697421
 40
0.7012022426
 40
0.8153658234
 40
0.862745469
 40
0.9035536497
 40
0.9377172493
 40
0.9651713561
 40
0.9859037037
 40
1.0
 40
1.0
 40
1.0
 40
1.0
 10
4.7011635625
 20
3.7064342473
 30
0.0
 10
4.7057711309
 20
3.7065913077
 30
0.0
 10
4.7144932565
 20
3.7069020899
 30
0.0
 10
4.726812243
 20
3.7073927472
 30
0.0
 10
4.7375817148
 20
3.7078815077
 30
0.0
 10
4.7467377098
 20
3.7083684501
 30
0.0
 10
4.753332105
 20
3.7087925271
 30
0.0
 10
4.757759833
 20
3.709141636
 30
0.0
 10
4.7604343507
 20
3.7093859804
 30
0.0
 10
4.7626692636
 20
3.7096291974
 30
0.0
 10
4.7644615443
 20
3.7098692953
 30
0.0
 10
4.7658070772
 20
3.710107539
 30
0.0
 10
4.7665521156
 20
3.7102914124
 30
0.0
 10
4.7668423467
 20
3.7103986239
 30
0.0
  0
SPLINE
  5
356
100
AcDbEntity
  8
0
100
AcDbSpline
 62
7
  6
CONTINUOUS
 70
0
 71
3
 72
10
 73
6
 74
0
 42
0.0000001
 43
0.0000001
 44
0.0000000001
 40
0.0
 40
0.0
 40
0.0
 40
0.0
 40
0.1834431324
 40
0.4119934218
 40
1.0
 40
1.0
 40
1.0
 40
1.0
 10
4.7593556604
 20
4.5748474709
 30
0.0
 10
4.7575836343
 20
4.5746637406
 30
0.0
 10
4.7535974949
 20
4.574313059
 30
0.0
 10
4.7439102992
 20
4.5736227454
 30
0.0
 10
4.7359910473
 20
4.5731974184
 30
0.0
 10
4.7302875034
 20
4.5729160038
 30
0.0
  0
SPLINE
  5
357
100
AcDbEntity
  8
0
100
AcDbSpline
 62
7
  6
CONTINUOUS
 70
0
 71
3
 72
10
 73
6
 74
0
 42
0.0000001
 43
0.0000001
 44
0.0000000001
 40
0.0
 40
0.0
 40
0.0
 40
0.0
 40
0.2038442236
 40
0.4413742258
 40
1.0
 40
1.0
 40
1.0
 40
1.0
 10
4.7161760184
 20
4.5722719603
 30
0.0
 10
4.707850087
 20
4.5719181112
 30
0.0
 10
4.6898189133
 20
4.5712328675
 30
0.0
 10
4.6489593773
 20
4.5698920792
 30
0.0
 10
4.6164233797
 20
4.5690001862
 30
0.0
 10
4.5935937221
 20
4.5684043728
 30
0.0
  0
LINE
  5
358
100
AcDbEntity
  8
0
100
AcDbLine
 62
7
  6
CONTINUOUS
 10
4.5935937221
 20
4.5684043728
 11
4.5771202559
 21
4.5679801909
  0
LINE
  5
359
100
AcDbEntity
  8
0
100
AcDbLine
 62
7
  6
CONTINUOUS
 10
4.4610210709
 20
4.5651776103
 11
4.3536814384
 21
4.5625940379
  0
LINE
  5
35A
100
AcDbEntity
  8
0
100
AcDbLine
 62
7
  6
CONTINUOUS
 10
4.3536814384
 20
4.5625940379
 11
4.3278102216
 21
4.5619301657
  0
SPLINE
  5
35B
100
AcDbEntity
  8
0
100
AcDbSpline
 62
7
  6
CONTINUOUS
 70
0
 71
3
 72
10
 73
6
 74
0
 42
0.0000001
 43
0.0000001
 44
0.0000000001
 40
0.0
 40
0.0
 40
0.0
 40
0.0
 40
0.5593833555
 40
0.79675281
 40
1.0
 40
1.0
 40
1.0
 40
1.0
 10
4.3278102216
 20
4.5619301657
 30
0.0
 10
4.3051350594
 20
4.5613360395
 30
0.0
 10
4.2728388376
 20
4.56044619
 30
0.0
 10
4.2323109653
 20
4.5591070027
 30
0.0
 10
4.2144569559
 20
4.55842206
 30
0.0
 10
4.2062228943
 20
4.5580683539
 30
0.0
  0
LINE
  5
35C
100
AcDbEntity
  8
0
100
AcDbLine
 62
7
  6
CONTINUOUS
 10
4.2062228943
 20
4.5580683539
 11
4.1803800606
 21
4.5567744273
  0
SPLINE
  5
35D
100
AcDbEntity
  8
0
100
AcDbSpline
 62
7
  6
CONTINUOUS
 70
0
 71
3
 72
13
 73
9
 74
0
 42
0.0000001
 43
0.0000001
 44
0.0000000001
 40
0.0
 40
0.0
 40
0.0
 40
0.0
 40
0.3678321455
 40
0.6580296352
 40
0.7735463434
 40
0.8691124003
 40
0.9445951595
 40
1.0
 40
1.0
 40
1.0
 40
1.0
 10
4.1803800606
 20
4.5567744273
 30
0.0
 10
4.1775442154
 20
4.5566030435
 30
0.0
 10
4.1724725802
 20
4.5562712458
 30
0.0
 10
4.1665170291
 20
4.5557858134
 30
0.0
 10
4.1626663469
 20
4.5553815502
 30
0.0
 10
4.1604700784
 20
4.5551039603
 30
0.0
 10
4.1587427783
 20
4.554828812
 30
0.0
 10
4.1577523806
 20
4.5546188986
 30
0.0
 10
4.1573402674
 20
4.5545036324
 30
0.0
  0
SPLINE
  5
35E
100
AcDbEntity
  8
0
100
AcDbSpline
 62
7
  6
CONTINUOUS
 70
0
 71
3
 72
15
 73
11
 74
0
 42
0.0000001
 43
0.0000001
 44
0.0000000001
 40
0.0
 40
0.0
 40
0.0
 40
0.0
 40
0.0278201968
 40
0.05007131
 40
0.0790582566
 40
0.1151209038
 40
0.1584318633
 40
0.2671394515
 40
0.5739875808
 40
1.0
 40
1.0
 40
1.0
 40
1.0
 10
4.7673606158
 20
4.6217009949
 30
0.0
 10
4.7673610176
 20
4.6216133895
 30
0.0
 10
4.7672341816
 20
4.6214764213
 30
0.0
 10
4.7670238365
 20
4.621357246
 30
0.0
 10
4.7667687228
 20
4.6212469098
 30
0.0
 10
4.7664456654
 20
4.621139183
 30
0.0
 10
4.7658742098
 20
4.6209812349
 30
0.0
 10
4.7644596724
 20
4.6206830862
 30
0.0
 10
4.7618341299
 20
4.6203088551
 30
0.0
 10
4.7595394733
 20
4.620063611
 30
0.0
 10
4.7582041973
 20
4.6199343161
 30
0.0
  0
SPLINE
  5
35F
100
AcDbEntity
  8
0
100
AcDbSpline
 62
7
  6
CONTINUOUS
 70
0
 71
3
 72
33
 73
29
 74
0
 42
0.0000001
 43
0.0000001
 44
0.0000000001
 40
0.0
 40
0.0
 40
0.0
 40
0.0
 40
0.0127359408
 40
0.0291352604
 40
0.0490902296
 40
0.0724378209
 40
0.1285840223
 40
0.19587987
 40
0.2722827628
 40
0.3554417388
 40
0.4428181947
 40
0.5317395533
 40
0.6194929293
 40
0.7033965067
 40
0.7808731043
 40
0.8164582115
 40
0.8495684826
 40
0.8799500009
 40
0.9073828097
 40
0.9316499445
 40
0.9525616079
 40
0.9699725844
 40
0.9773216266
 40
0.9837435418
 40
0.9892268554
 40
0.9937661282
 40
0.9973574434
 40
1.0
 40
1.0
 40
1.0
 40
1.0
 10
4.7582041973
 20
4.6199343161
 30
0.0
 10
4.7556645118
 20
4.6196883983
 30
0.0
 10
4.7498448896
 20
4.6192283704
 30
0.0
 10
4.7400290713
 20
4.6186140919
 30
0.0
 10
4.7280839464
 20
4.6179961481
 30
0.0
 10
4.7081795541
 20
4.6171121436
 30
0.0
 10
4.6787901526
 20
4.6160454471
 30
0.0
 10
4.6387712903
 20
4.6148170948
 30
0.0
 10
4.5933384744
 20
4.6135835281
 30
0.0
 10
4.5438814528
 20
4.6123454047
 30
0.0
 10
4.491915739
 20
4.6111054749
 30
0.0
 10
4.4390293359
 20
4.6098647563
 30
0.0
 10
4.3868388744
 20
4.6086246639
 30
0.0
 10
4.336941921
 20
4.6073864132
 30
0.0
 10
4.2974952939
 20
4.6063295896
 30
0.0
 10
4.2682232709
 20
4.6054703215
 30
0.0
 10
4.2483836919
 20
4.604844786
 30
0.0
 10
4.2301782249
 20
4.6042198652
 30
0.0
 10
4.2137455185
 20
4.6035962606
 30
0.0
 10
4.1992114546
 20
4.6029745129
 30
0.0
 10
4.1866872384
 20
4.6023545812
 30
0.0
 10
4.1775527829
 20
4.601816243
 30
0.0
 10
4.1713212393
 20
4.6013746841
 30
0.0
 10
4.1674762527
 20
4.6010632915
 30
0.0
 10
4.1641962816
 20
4.6007529143
 30
0.0
 10
4.1614858742
 20
4.6004449094
 30
0.0
 10
4.1593492481
 20
4.6001394508
 30
0.0
 10
4.1581207175
 20
4.5999069278
 30
0.0
 10
4.1576069523
 20
4.599779139
 30
0.0
  0
SPLINE
  5
360
100
AcDbEntity
  8
0
100
AcDbSpline
 62
7
  6
CONTINUOUS
 70
0
 71
3
 72
12
 73
8
 74
0
 42
0.0000001
 43
0.0000001
 44
0.0000000001
 40
0.0
 40
0.0
 40
0.0
 40
0.0
 40
0.0590019983
 40
0.1362546176
 40
0.3473160392
 40
0.6350664235
 40
1.0
 40
1.0
 40
1.0
 40
1.0
 10
4.791835128
 20
4.5955748409
 30
0.0
 10
4.7917507025
 20
4.5955263356
 30
0.0
 10
4.7915443378
 20
4.5954346836
 30
0.0
 10
4.7910000708
 20
4.5952542195
 30
0.0
 10
4.7900713914
 20
4.5950431122
 30
0.0
 10
4.7886665302
 20
4.5948025056
 30
0.0
 10
4.7875988303
 20
4.5946583052
 30
0.0
 10
4.7870012422
 20
4.5945836912
 30
0.0
  0
SPLINE
  5
361
100
AcDbEntity
  8
0
100
AcDbSpline
 62
7
  6
CONTINUOUS
 70
0
 71
3
 72
10
 73
6
 74
0
 42
0.0000001
 43
0.0000001
 44
0.0000000001
 40
0.0
 40
0.0
 40
0.0
 40
0.0
 40
0.1834431324
 40
0.4119934218
 40
1.0
 40
1.0
 40
1.0
 40
1.0
 10
4.7593556604
 20
4.5799287209
 30
0.0
 10
4.7575836343
 20
4.5797449906
 30
0.0
 10
4.7535974949
 20
4.579394309
 30
0.0
 10
4.7439102992
 20
4.5787039954
 30
0.0
 10
4.7359910473
 20
4.5782786684
 30
0.0
 10
4.7302875034
 20
4.5779972538
 30
0.0
  0
SPLINE
  5
362
100
AcDbEntity
  8
0
100
AcDbSpline
 62
7
  6
CONTINUOUS
 70
0
 71
3
 72
10
 73
6
 74
0
 42
0.0000001
 43
0.0000001
 44
0.0000000001
 40
0.0
 40
0.0
 40
0.0
 40
0.0
 40
0.2038442236
 40
0.4413742258
 40
1.0
 40
1.0
 40
1.0
 40
1.0
 10
4.7161760184
 20
4.5773532103
 30
0.0
 10
4.707850087
 20
4.5769993612
 30
0.0
 10
4.6898189133
 20
4.5763141175
 30
0.0
 10
4.6489593773
 20
4.5749733292
 30
0.0
 10
4.6164233797
 20
4.5740814362
 30
0.0
 10
4.5935937221
 20
4.5734856228
 30
0.0
  0
LINE
  5
363
100
AcDbEntity
  8
0
100
AcDbLine
 62
7
  6
CONTINUOUS
 10
4.4610210709
 20
4.5702588603
 11
4.3658910244
 21
4.5679802946
  0
LINE
  5
364
100
AcDbEntity
  8
0
100
AcDbLine
 62
7
  6
CONTINUOUS
 10
4.3658910244
 20
4.5679802946
 11
4.3536814384
 21
4.5676752879
  0
LINE
  5
365
100
AcDbEntity
  8
0
100
AcDbLine
 62
7
  6
CONTINUOUS
 10
4.3536814384
 20
4.5676752879
 11
4.3276713044
 21
4.5670077754
  0
SPLINE
  5
366
100
AcDbEntity
  8
0
100
AcDbSpline
 62
7
  6
CONTINUOUS
 70
0
 71
3
 72
10
 73
6
 74
0
 42
0.0000001
 43
0.0000001
 44
0.0000000001
 40
0.0
 40
0.0
 40
0.0
 40
0.0
 40
0.5593569189
 40
0.7967289225
 40
1.0
 40
1.0
 40
1.0
 40
1.0
 10
4.3276713044
 20
4.5670077754
 30
0.0
 10
4.305023119
 20
4.5664142097
 30
0.0
 10
4.2727647643
 20
4.5655251564
 30
0.0
 10
4.2322831974
 20
4.5641872263
 30
0.0
 10
4.2144485165
 20
4.5635029475
 30
0.0
 10
4.2062228943
 20
4.5631496039
 30
0.0
  0
LINE
  5
367
100
AcDbEntity
  8
0
100
AcDbLine
 62
7
  6
CONTINUOUS
 10
4.2062228943
 20
4.5631496039
 11
4.1803800606
 21
4.5618556773
  0
SPLINE
  5
368
100
AcDbEntity
  8
0
100
AcDbSpline
 62
7
  6
CONTINUOUS
 70
0
 71
3
 72
20
 73
16
 74
0
 42
0.0000001
 43
0.0000001
 44
0.0000000001
 40
0.0
 40
0.0
 40
0.0
 40
0.0
 40
0.2292279481
 40
0.429150971
 40
0.5993933605
 40
0.7395963293
 40
0.7983316864
 40
0.8494421417
 40
0.8929028727
 40
0.9287200146
 40
0.9569652696
 40
0.9777960586
 40
0.9855503314
 40
0.9916621985
 40
1.0
 40
1.0
 40
1.0
 40
1.0
 10
4.1803800606
 20
4.5618556773
 30
0.0
 10
4.1785144266
 20
4.561742928
 30
0.0
 10
4.1750223426
 20
4.5615202953
 30
0.0
 10
4.1701479605
 20
4.5611648099
 30
0.0
 10
4.1660016046
 20
4.5608106197
 30
0.0
 10
4.1630069589
 20
4.5605024098
 30
0.0
 10
4.1609838263
 20
4.5602494529
 30
0.0
 10
4.1597464395
 20
4.5600716202
 30
0.0
 10
4.1586980548
 20
4.5598943293
 30
0.0
 10
4.1578388807
 20
4.5597185278
 30
0.0
 10
4.1571687979
 20
4.5595431629
 30
0.0
 10
4.1567306046
 20
4.5593901798
 30
0.0
 10
4.1564784449
 20
4.5592575347
 30
0.0
 10
4.1563323973
 20
4.5591553676
 30
0.0
 10
4.156254303
 20
4.5590460749
 30
0.0
 10
4.1562539128
 20
4.5589780928
 30
0.0
  0
SPLINE
  5
369
100
AcDbEntity
  8
0
100
AcDbSpline
 62
7
  6
CONTINUOUS
 70
0
 71
3
 72
12
 73
8
 74
0
 42
0.0000001
 43
0.0000001
 44
0.0000000001
 40
0.0
 40
0.0
 40
0.0
 40
0.0
 40
0.395551035
 40
0.6871384046
 40
0.7957643512
 40
0.8815814833
 40
1.0
 40
1.0
 40
1.0
 40
1.0
 10
4.7907399269
 20
4.596496163
 30
0.0
 10
4.7909366135
 20
4.5964485087
 30
0.0
 10
4.7912763365
 20
4.5963570529
 30
0.0
 10
4.7916602367
 20
4.5962190449
 30
0.0
 10
4.7918802128
 20
4.5960994688
 30
0.0
 10
4.7920080024
 20
4.5960068331
 30
0.0
 10
4.7920743554
 20
4.5959081905
 30
0.0
 10
4.7920738146
 20
4.595847606
 30
0.0
  0
SPLINE
  5
36A
100
AcDbEntity
  8
0
100
AcDbSpline
 62
7
  6
CONTINUOUS
 70
0
 71
3
 72
12
 73
8
 74
0
 42
0.0000001
 43
0.0000001
 44
0.0000000001
 40
0.0
 40
0.0
 40
0.0
 40
0.0
 40
0.0588500696
 40
0.1360150706
 40
0.3470560039
 40
0.6349164138
 40
1.0
 40
1.0
 40
1.0
 40
1.0
 10
4.7918446774
 20
4.6407803385
 30
0.0
 10
4.7917603062
 20
4.6407318577
 30
0.0
 10
4.7915538389
 20
4.6406403016
 30
0.0
 10
4.7910088135
 20
4.640459923
 30
0.0
 10
4.7900782552
 20
4.6402486466
 30
0.0
 10
4.7886703077
 20
4.6400071357
 30
0.0
 10
4.7876001858
 20
4.6398618288
 30
0.0
 10
4.7870012422
 20
4.6397864912
 30
0.0
  0
SPLINE
  5
36B
100
AcDbEntity
  8
0
100
AcDbSpline
 62
7
  6
CONTINUOUS
 70
0
 71
3
 72
13
 73
9
 74
0
 42
0.0000001
 43
0.0000001
 44
0.0000000001
 40
0.0
 40
0.0
 40
0.0
 40
0.0
 40
0.0504572392
 40
0.1215992084
 40
0.2140237315
 40
0.3279888649
 40
0.6208991173
 40
1.0
 40
1.0
 40
1.0
 40
1.0
 10
4.7671061602
 20
4.6264874248
 30
0.0
 10
4.7669743692
 20
4.6264112684
 30
0.0
 10
4.7666316089
 20
4.6262737489
 30
0.0
 10
4.7660110632
 20
4.6260961309
 30
0.0
 10
4.7651926442
 20
4.6259166432
 30
0.0
 10
4.763709599
 20
4.6256528677
 30
0.0
 10
4.7613585938
 20
4.6253383126
 30
0.0
 10
4.7593424936
 20
4.6251257874
 30
0.0
 10
4.7582041973
 20
4.6250155661
 30
0.0
  0
SPLINE
  5
36C
100
AcDbEntity
  8
0
100
AcDbSpline
 62
7
  6
CONTINUOUS
 70
0
 71
3
 72
43
 73
39
 74
0
 42
0.0000001
 43
0.0000001
 44
0.0000000001
 40
0.0
 40
0.0
 40
0.0
 40
0.0
 40
0.013196885
 40
0.0302956278
 40
0.0511745083
 40
0.0756506248
 40
0.1035258418
 40
0.1345875068
 40
0.2051995204
 40
0.2851982062
 40
0.3719525065
 40
0.4626297448
 40
0.5542717038
 40
0.6438852392
 40
0.6870134643
 40
0.7285459561
 40
0.7681374853
 40
0.8054744647
 40
0.8402486914
 40
0.8721695599
 40
0.9009904855
 40
0.9264719649
 40
0.9483975806
 40
0.9579755005
 40
0.9666043265
 40
0.9742648507
 40
0.9809382493
 40
0.9866113844
 40
0.9912781546
 40
0.9932327964
 40
0.9949344791
 40
0.9963832792
 40
0.9975799206
 40
0.9985264663
 40
0.9992282208
 40
0.9994917076
 40
0.9997018677
 40
1.0
 40
1.0
 40
1.0
 40
1.0
 10
4.7582041973
 20
4.6250155661
 30
0.0
 10
4.755565655
 20
4.624760076
 30
0.0
 10
4.7494979815
 20
4.6242839973
 30
0.0
 10
4.7392379566
 20
4.6236495605
 30
0.0
 10
4.7267087784
 20
4.6230112988
 30
0.0
 10
4.7120128552
 20
4.62236899
 30
0.0
 10
4.695269861
 20
4.6217246387
 30
0.0
 10
4.6692626312
 20
4.6208253564
 30
0.0
 10
4.6327861439
 20
4.6197270371
 30
0.0
 10
4.5851232097
 20
4.6184520267
 30
0.0
 10
4.5334285129
 20
4.6171731863
 30
0.0
 10
4.4793943959
 20
4.6158922883
 30
0.0
 10
4.4247857916
 20
4.6146109724
 30
0.0
 10
4.3797263532
 20
4.6135307537
 30
0.0
 10
4.3447305002
 20
4.6126554271
 30
0.0
 10
4.3197801238
 20
4.6120075889
 30
0.0
 10
4.2959934496
 20
4.6113599031
 30
0.0
 10
4.2735648344
 20
4.6107127652
 30
0.0
 10
4.2526776992
 20
4.6100662955
 30
0.0
 10
4.2335020658
 20
4.609420337
 30
0.0
 10
4.2161941796
 20
4.6087758377
 30
0.0
 10
4.2008955473
 20
4.6081330874
 30
0.0
 10
4.1894622064
 20
4.6075774372
 30
0.0
 10
4.1814134036
 20
4.6071251519
 30
0.0
 10
4.1762274208
 20
4.6068018805
 30
0.0
 10
4.1716260912
 20
4.606479288
 30
0.0
 10
4.1676200251
 20
4.6061576157
 30
0.0
 10
4.1642175015
 20
4.60583694
 30
0.0
 10
4.1617633872
 20
4.6055578136
 30
0.0
 10
4.1601071912
 20
4.6053287949
 30
0.0
 10
4.159094333
 20
4.6051677735
 30
0.0
 10
4.1582358833
 20
4.605007251
 30
0.0
 10
4.1575318179
 20
4.6048480268
 30
0.0
 10
4.1569824938
 20
4.6046893246
 30
0.0
 10
4.1566233344
 20
4.6045504453
 30
0.0
 10
4.1564181001
 20
4.6044307676
 30
0.0
 10
4.1562972429
 20
4.6043363581
 30
0.0
 10
4.1562374256
 20
4.6042380358
 30
0.0
 10
4.1562383808
 20
4.604178157
 30
0.0
  0
LINE
  5
36D
100
AcDbEntity
  8
0
100
AcDbLine
 62
7
  6
CONTINUOUS
 10
4.1468075496
 20
4.5464326255
 11
4.1448726461
 21
4.5470454118
  0
SPLINE
  5
36E
100
AcDbEntity
  8
0
100
AcDbSpline
 62
7
  6
CONTINUOUS
 70
0
 71
3
 72
17
 73
13
 74
0
 42
0.0000001
 43
0.0000001
 44
0.0000000001
 40
0.0
 40
0.0
 40
0.0
 40
0.0
 40
0.0450144889
 40
0.0964607568
 40
0.215487673
 40
0.3505153598
 40
0.4941944179
 40
0.6386469022
 40
0.7759751934
 40
0.8986635213
 40
0.9523733032
 40
1.0
 40
1.0
 40
1.0
 40
1.0
 10
4.7325608476
 20
4.5914604978
 30
0.0
 10
4.7245728514
 20
4.5911597925
 30
0.0
 10
4.7074535738
 20
4.5905669183
 30
0.0
 10
4.6692053014
 20
4.5893932586
 30
0.0
 10
4.6149726737
 20
4.5879835713
 30
0.0
 10
4.5443622283
 20
4.5863481835
 30
0.0
 10
4.4692357035
 20
4.5847068651
 30
0.0
 10
4.3937005394
 20
4.5830660198
 30
0.0
 10
4.3218937506
 20
4.5814283546
 30
0.0
 10
4.2661999939
 20
4.5800194964
 30
0.0
 10
4.2264347276
 20
4.5788561165
 30
0.0
 10
4.2084490895
 20
4.5782645512
 30
0.0
 10
4.199996954
 20
4.5779625553
 30
0.0
  0
LINE
  5
36F
100
AcDbEntity
  8
0
100
AcDbLine
 62
7
  6
CONTINUOUS
 10
4.1830787402
 20
4.5773198077
 11
4.1560202271
 21
4.5760343369
  0
SPLINE
  5
370
100
AcDbEntity
  8
0
100
AcDbSpline
 62
7
  6
CONTINUOUS
 70
0
 71
3
 72
12
 73
8
 74
0
 42
0.0000001
 43
0.0000001
 44
0.0000000001
 40
0.0
 40
0.0
 40
0.0
 40
0.0
 40
0.3456307102
 40
0.6281724146
 40
0.8465928213
 40
0.931469459
 40
1.0
 40
1.0
 40
1.0
 40
1.0
 10
4.1560202271
 20
4.5760343369
 30
0.0
 10
4.1534628725
 20
4.5758869525
 30
0.0
 10
4.1488159504
 20
4.5755999514
 30
0.0
 10
4.1425591303
 20
4.5751292784
 30
0.0
 10
4.1382360086
 20
4.5747175611
 30
0.0
 10
4.1355018067
 20
4.5743722593
 30
0.0
 10
4.134378032
 20
4.5741973622
 30
0.0
 10
4.1338783891
 20
4.5741061215
 30
0.0
  0
SPLINE
  5
371
100
AcDbEntity
  8
0
100
AcDbSpline
 62
7
  6
CONTINUOUS
 70
0
 71
3
 72
13
 73
9
 74
0
 42
0.0000001
 43
0.0000001
 44
0.0000000001
 40
0.0
 40
0.0
 40
0.0
 40
0.0
 40
0.4093222879
 40
0.5721494538
 40
0.7074944245
 40
0.8159656142
 40
0.8987591416
 40
1.0
 40
1.0
 40
1.0
 40
1.0
 10
4.1338783891
 20
4.5741061215
 30
0.0
 10
4.133533249
 20
4.5740430949
 30
0.0
 10
4.1330521557
 20
4.5739469681
 30
0.0
 10
4.1324648992
 20
4.5737930714
 30
0.0
 10
4.1321333601
 20
4.5736882834
 30
0.0
 10
4.1318711955
 20
4.5735807757
 30
0.0
 10
4.1316575632
 20
4.5734660993
 30
0.0
 10
4.1315244055
 20
4.5733326333
 30
0.0
 10
4.1315245922
 20
4.5732458556
 30
0.0
  0
SPLINE
  5
372
100
AcDbEntity
  8
0
100
AcDbSpline
 62
7
  6
CONTINUOUS
 70
0
 71
3
 72
15
 73
11
 74
0
 42
0.0000001
 43
0.0000001
 44
0.0000000001
 40
0.0
 40
0.0
 40
0.0
 40
0.0
 40
0.4200531574
 40
0.5863531019
 40
0.7236391911
 40
0.8321770683
 40
0.912572163
 40
0.9426941089
 40
0.9666272978
 40
1.0
 40
1.0
 40
1.0
 40
1.0
 10
4.7870012422
 20
4.5609637865
 30
0.0
 10
4.7877409633
 20
4.5610558691
 30
0.0
 10
4.7887724075
 20
4.5611964167
 30
0.0
 10
4.7900368133
 20
4.5614217886
 30
0.0
 10
4.7907519578
 20
4.5615762462
 30
0.0
 10
4.7913103669
 20
4.5617303083
 30
0.0
 10
4.7916758976
 20
4.5618650591
 30
0.0
 10
4.7918860056
 20
4.5619814015
 30
0.0
 10
4.7920092045
 20
4.5620723719
 30
0.0
 10
4.7920732643
 20
4.5621678068
 30
0.0
 10
4.7920737953
 20
4.5622270279
 30
0.0
  0
SPLINE
  5
373
100
AcDbEntity
  8
0
100
AcDbSpline
 62
7
  6
CONTINUOUS
 70
0
 71
3
 72
12
 73
8
 74
0
 42
0.0000001
 43
0.0000001
 44
0.0000000001
 40
0.0
 40
0.0
 40
0.0
 40
0.0
 40
0.2623436226
 40
0.5357923342
 40
0.790880902
 40
0.9027411002
 40
1.0
 40
1.0
 40
1.0
 40
1.0
 10
4.3167380075
 20
4.5476552922
 30
0.0
 10
4.3514366075
 20
4.5484986514
 30
0.0
 10
4.4223060722
 20
4.5500766036
 30
0.0
 10
4.5269175977
 20
4.5523320196
 30
0.0
 10
4.6116221853
 20
4.5542672778
 30
0.0
 10
4.6730168084
 20
4.5558923738
 30
0.0
 10
4.7006713859
 20
4.5567290127
 30
0.0
 10
4.7135317556
 20
4.5571616238
 30
0.0
  0
SPLINE
  5
374
100
AcDbEntity
  8
0
100
AcDbSpline
 62
7
  6
CONTINUOUS
 70
0
 71
3
 72
14
 73
10
 74
0
 42
0.0000001
 43
0.0000001
 44
0.0000000001
 40
0.0
 40
0.0
 40
0.0
 40
0.0
 40
0.3531672403
 40
0.5054993841
 40
0.6407470245
 40
0.7582677363
 40
0.8575934718
 40
0.9383054832
 40
1.0
 40
1.0
 40
1.0
 40
1.0
 10
4.7135317556
 20
4.5571616238
 30
0.0
 10
4.7221889676
 20
4.5574528445
 30
0.0
 10
4.7345794716
 20
4.5578973966
 30
0.0
 10
4.7502811412
 20
4.5585590511
 30
0.0
 10
4.760205934
 20
4.5590296145
 30
0.0
 10
4.7688290008
 20
4.5594994219
 30
0.0
 10
4.7761124717
 20
4.5599663902
 30
0.0
 10
4.7820234116
 20
4.5604293081
 30
0.0
 10
4.7854996546
 20
4.5607768645
 30
0.0
 10
4.7870012422
 20
4.5609637865
 30
0.0
  0
SPLINE
  5
375
100
AcDbEntity
  8
0
100
AcDbSpline
 62
7
  6
CONTINUOUS
 70
0
 71
3
 72
12
 73
8
 74
0
 42
0.0000001
 43
0.0000001
 44
0.0000000001
 40
0.0
 40
0.0
 40
0.0
 40
0.0
 40
0.0665430779
 40
0.1503901135
 40
0.3689600253
 40
0.6533074853
 40
1.0
 40
1.0
 40
1.0
 40
1.0
 10
4.7870012422
 20
4.5945836912
 30
0.0
 10
4.7858008199
 20
4.5944338082
 30
0.0
 10
4.7830811196
 20
4.5941494037
 30
0.0
 10
4.776396746
 20
4.5935890824
 30
0.0
 10
4.7657491148
 20
4.5929261603
 30
0.0
 10
4.7503221112
 20
4.5921642479
 30
0.0
 10
4.7388592046
 20
4.5916975972
 30
0.0
 10
4.7325608476
 20
4.5914604978
 30
0.0
  0
SPLINE
  5
376
100
AcDbEntity
  8
0
100
AcDbSpline
 62
7
  6
CONTINUOUS
 70
0
 71
3
 72
12
 73
8
 74
0
 42
0.0000001
 43
0.0000001
 44
0.0000000001
 40
0.0
 40
0.0
 40
0.0
 40
0.0
 40
0.346693814
 40
0.6310397753
 40
0.8496121649
 40
0.9334605581
 40
1.0
 40
1.0
 40
1.0
 40
1.0
 10
4.7325608476
 20
4.603043393
 30
0.0
 10
4.7388590768
 20
4.6032842979
 30
0.0
 10
4.7503220001
 20
4.6037493398
 30
0.0
 10
4.7657492793
 20
4.6045066676
 30
0.0
 10
4.7763967925
 20
4.6051722806
 30
0.0
 10
4.783080996
 20
4.6057346501
 30
0.0
 10
4.7858006949
 20
4.6060182574
 30
0.0
 10
4.7870012422
 20
4.6061665865
 30
0.0
  0
SPLINE
  5
377
100
AcDbEntity
  8
0
100
AcDbSpline
 62
7
  6
CONTINUOUS
 70
0
 71
3
 72
12
 73
8
 74
0
 42
0.0000001
 43
0.0000001
 44
0.0000000001
 40
0.0
 40
0.0
 40
0.0
 40
0.0
 40
0.4053267301
 40
0.7015052739
 40
0.8100075497
 40
0.8936609172
 40
1.0
 40
1.0
 40
1.0
 40
1.0
 10
4.1334866732
 20
4.6292460738
 30
0.0
 10
4.1331985427
 20
4.6293036721
 30
0.0
 10
4.1327015457
 20
4.6294142137
 30
0.0
 10
4.1321384478
 20
4.6295800134
 30
0.0
 10
4.131812248
 20
4.6297259051
 30
0.0
 10
4.131630664
 20
4.6298329931
 30
0.0
 10
4.1315237672
 20
4.6299544766
 30
0.0
 10
4.1315239978
 20
4.630031564
 30
0.0
  0
LINE
  5
378
100
AcDbEntity
  8
0
100
AcDbLine
 62
7
  6
CONTINUOUS
 10
4.7870012422
 20
4.6061665865
 11
4.7902133018
 21
4.6066626973
  0
SPLINE
  5
379
100
AcDbEntity
  8
0
100
AcDbSpline
 62
7
  6
CONTINUOUS
 70
0
 71
3
 72
12
 73
8
 74
0
 42
0.0000001
 43
0.0000001
 44
0.0000000001
 40
0.0
 40
0.0
 40
0.0
 40
0.0
 40
0.4029557923
 40
0.6985075734
 40
0.8072709549
 40
0.8915375838
 40
1.0
 40
1.0
 40
1.0
 40
1.0
 10
4.7902133018
 20
4.6066626973
 30
0.0
 10
4.7904867094
 20
4.6067188105
 30
0.0
 10
4.79095892
 20
4.6068266277
 30
0.0
 10
4.7914940772
 20
4.6069886166
 30
0.0
 10
4.7918045096
 20
4.6071308074
 30
0.0
 10
4.7919789303
 20
4.6072362908
 30
0.0
 10
4.7920806049
 20
4.6073543531
 30
0.0
 10
4.7920811306
 20
4.6074294775
 30
0.0
  0
SPLINE
  5
37A
100
AcDbEntity
  8
0
100
AcDbSpline
 62
7
  6
CONTINUOUS
 70
0
 71
3
 72
19
 73
15
 74
0
 42
0.0000001
 43
0.0000001
 44
0.0000000001
 40
0.0
 40
0.0
 40
0.0
 40
0.0
 40
0.0477856054
 40
0.1031094972
 40
0.2320819487
 40
0.3778633017
 40
0.5302150879
 40
0.6784363209
 40
0.7477094252
 40
0.8121168085
 40
0.8705069778
 40
0.9218704313
 40
0.9652806446
 40
1.0
 40
1.0
 40
1.0
 40
1.0
 10
4.7325608476
 20
4.6366632978
 30
0.0
 10
4.7234155597
 20
4.636317333
 30
0.0
 10
4.7036796215
 20
4.6356415692
 30
0.0
 10
4.6592513734
 20
4.6343141661
 30
0.0
 10
4.5960550351
 20
4.6327271703
 30
0.0
 10
4.5142771831
 20
4.6308839039
 30
0.0
 10
4.4288119822
 20
4.6290375436
 30
0.0
 10
4.3579969443
 20
4.6274684913
 30
0.0
 10
4.3040229563
 20
4.6261775583
 30
0.0
 10
4.2672499599
 20
4.62523308
 30
0.0
 10
4.2339081817
 20
4.6242904657
 30
0.0
 10
4.2045893211
 20
4.6233528225
 30
0.0
 10
4.1798064724
 20
4.6224199846
 30
0.0
 10
4.1648587084
 20
4.6217284328
 30
0.0
 10
4.1582194532
 20
4.6213612621
 30
0.0
  0
SPLINE
  5
37B
100
AcDbEntity
  8
0
100
AcDbSpline
 62
7
  6
CONTINUOUS
 70
0
 71
3
 72
11
 73
7
 74
0
 42
0.0000001
 43
0.0000001
 44
0.0000000001
 40
0.0
 40
0.0
 40
0.0
 40
0.0
 40
0.3382379072
 40
0.6183275149
 40
0.8392327508
 40
1.0
 40
1.0
 40
1.0
 40
1.0
 10
4.1582194532
 20
4.6213612621
 30
0.0
 10
4.1555628783
 20
4.6212143456
 30
0.0
 10
4.1507074727
 20
4.6209270561
 30
0.0
 10
4.1441220484
 20
4.6204602383
 30
0.0
 10
4.1389371888
 20
4.6199974507
 30
0.0
 10
4.1359541265
 20
4.6196449896
 30
0.0
 10
4.1347048534
 20
4.6194485621
 30
0.0
  0
LINE
  5
37C
100
AcDbEntity
  8
0
100
AcDbLine
 62
7
  6
CONTINUOUS
 10
4.1347048534
 20
4.6194485621
 11
4.1319422275
 21
4.6188109898
  0
LINE
  5
37D
100
AcDbEntity
  8
0
100
AcDbLine
 62
7
  6
CONTINUOUS
 10
4.1319422275
 20
4.6188109898
 11
4.1315243475
 21
4.6184486707
  0
SPLINE
  5
37E
100
AcDbEntity
  8
0
100
AcDbSpline
 62
7
  6
CONTINUOUS
 70
0
 71
3
 72
12
 73
8
 74
0
 42
0.0000001
 43
0.0000001
 44
0.0000000001
 40
0.0
 40
0.0
 40
0.0
 40
0.0
 40
0.0665454803
 40
0.1503914379
 40
0.3689602965
 40
0.653307493
 40
1.0
 40
1.0
 40
1.0
 40
1.0
 10
4.7870012422
 20
4.6397864912
 30
0.0
 10
4.7858009129
 20
4.6396355088
 30
0.0
 10
4.7830812023
 20
4.639350658
 30
0.0
 10
4.7763966913
 20
4.638791984
 30
0.0
 10
4.7657491107
 20
4.6381290635
 30
0.0
 10
4.7503221067
 20
4.6373672125
 30
0.0
 10
4.7388591646
 20
4.6369015621
 30
0.0
 10
4.7325608476
 20
4.6366632978
 30
0.0
  0
LINE
  5
37F
100
AcDbEntity
  8
0
100
AcDbLine
 62
7
  6
CONTINUOUS
 10
4.7325608476
 20
4.648246193
 11
4.7699027336
 21
4.6499804341
  0
SPLINE
  5
380
100
AcDbEntity
  8
0
100
AcDbSpline
 62
7
  6
CONTINUOUS
 70
0
 71
3
 72
10
 73
6
 74
0
 42
0.0000001
 43
0.0000001
 44
0.0000000001
 40
0.0
 40
0.0
 40
0.0
 40
0.0
 40
0.585917605
 40
0.8147194556
 40
1.0
 40
1.0
 40
1.0
 40
1.0
 10
4.7699027336
 20
4.6499804341
 30
0.0
 10
4.7732474357
 20
4.6501832697
 30
0.0
 10
4.7778971224
 20
4.6504909851
 30
0.0
 10
4.7835947081
 20
4.6509867158
 30
0.0
 10
4.7859498004
 20
4.6512380369
 30
0.0
 10
4.7870012422
 20
4.6513693865
 30
0.0
  0
LINE
  5
381
100
AcDbEntity
  8
0
100
AcDbLine
 62
7
  6
CONTINUOUS
 10
4.7870012422
 20
4.6513693865
 11
4.7908264624
 21
4.6520078368
  0
SPLINE
  5
382
100
AcDbEntity
  8
0
100
AcDbSpline
 62
7
  6
CONTINUOUS
 70
0
 71
3
 72
12
 73
8
 74
0
 42
0.0000001
 43
0.0000001
 44
0.0000000001
 40
0.0
 40
0.0
 40
0.0
 40
0.0
 40
0.4016907113
 40
0.6964924221
 40
0.805142697
 40
0.8895685746
 40
1.0
 40
1.0
 40
1.0
 40
1.0
 10
4.7903873929
 20
4.6417785353
 30
0.0
 10
4.7906361718
 20
4.6417250197
 30
0.0
 10
4.7910657302
 20
4.6416223436
 30
0.0
 10
4.7915522453
 20
4.6414683075
 30
0.0
 10
4.7918332603
 20
4.6413335509
 30
0.0
 10
4.7919922089
 20
4.6412327847
 30
0.0
 10
4.7920816217
 20
4.6411207114
 30
0.0
 10
4.7920811317
 20
4.6410507551
 30
0.0
  0
SPLINE
  5
383
100
AcDbEntity
  8
0
100
AcDbSpline
 62
9
  6
CONTINUOUS
 70
0
 71
3
 72
26
 73
22
 74
0
 42
0.0000001
 43
0.0000001
 44
0.0000000001
 40
0.0
 40
0.0
 40
0.0
 40
0.0
 40
0.0002583633
 40
0.0010324188
 40
0.002320989
 40
0.0041229018
 40
0.0092620893
 40
0.0164407071
 40
0.0256495631
 40
0.0368795492
 40
0.0501216419
 40
0.0653669031
 40
0.1018315471
 40
0.1462037641
 40
0.1984152045
 40
0.2583989594
 40
0.3260677625
 40
0.4012499073
 40
0.5734035245
 40
0.773428279
 40
1.0
 40
1.0
 40
1.0
 40
1.0
 10
4.0493988918
 20
3.1875630036
 30
0.0
 10
4.0494206119
 20
3.1875621788
 30
0.0
 10
4.0495069514
 20
3.1875517493
 30
0.0
 10
4.0497016403
 20
3.1875373866
 30
0.0
 10
4.0500254767
 20
3.1875081428
 30
0.0
 10
4.0507154629
 20
3.1874511784
 30
0.0
 10
4.0518994268
 20
3.1873547217
 30
0.0
 10
4.053705069
 20
3.1872154239
 30
0.0
 10
4.0560222044
 20
3.1870445835
 30
0.0
 10
4.0588488274
 20
3.1868467749
 30
0.0
 10
4.0621828805
 20
3.1866257358
 30
0.0
 10
4.0676365509
 20
3.1862845566
 30
0.0
 10
4.0757069559
 20
3.1858274696
 30
0.0
 10
4.0868867366
 20
3.1852781168
 30
0.0
 10
4.1000473151
 20
3.184731418
 30
0.0
 10
4.1151704778
 20
3.1842189026
 30
0.0
 10
4.1322290975
 20
3.1837737321
 30
0.0
 10
4.1587267851
 20
3.1833382544
 30
0.0
 10
4.1963666481
 20
3.1833731276
 30
0.0
 10
4.2467261066
 20
3.1847422203
 30
0.0
 10
4.282564599
 20
3.1867693388
 30
0.0
 10
4.3015768878
 20
3.1881334386
 30
0.0
  0
SPLINE
  5
384
100
AcDbEntity
  8
0
100
AcDbSpline
 62
9
  6
CONTINUOUS
 70
0
 71
3
 72
14
 73
10
 74
0
 42
0.0000001
 43
0.0000001
 44
0.0000000001
 40
0.0
 40
0.0
 40
0.0
 40
0.0
 40
0.1048098446
 40
0.2183183254
 40
0.4655871746
 40
0.5982072905
 40
0.7339640389
 40
0.8692609462
 40
1.0
 40
1.0
 40
1.0
 40
1.0
 10
4.3015768802
 20
3.1881334405
 30
0.0
 10
4.3002253449
 20
3.1884662085
 30
0.0
 10
4.2974847192
 20
3.1894853955
 30
0.0
 10
4.2921661521
 20
3.1926829524
 30
0.0
 10
4.2875003124
 20
3.1975007542
 30
0.0
 10
4.2840989775
 20
3.2034670929
 30
0.0
 10
4.2821181399
 20
3.2084671145
 30
0.0
 10
4.2807905197
 20
3.2136478621
 30
0.0
 10
4.2803409574
 20
3.2171641538
 30
0.0
 10
4.2802419933
 20
3.2188975756
 30
0.0
  0
SPLINE
  5
385
100
AcDbEntity
  8
0
100
AcDbSpline
 62
9
  6
CONTINUOUS
 70
0
 71
3
 72
40
 73
36
 74
0
 42
0.0000001
 43
0.0000001
 44
0.0000000001
 40
0.0
 40
0.0
 40
0.0
 40
0.0
 40
0.1170418171
 40
0.2275625269
 40
0.331348959
 40
0.4281815789
 40
0.5178560904
 40
0.6002434145
 40
0.6752291201
 40
0.7426946287
 40
0.8025175472
 40
0.8545873585
 40
0.8776898895
 40
0.8988248549
 40
0.9179826795
 40
0.9351537054
 40
0.9503281961
 40
0.9634963405
 40
0.9746482629
 40
0.9794650849
 40
0.9837748845
 40
0.9875776482
 40
0.9908733761
 40
0.9936620685
 40
0.9959437254
 40
0.9968944155
 40
0.9977183468
 40
0.9984155193
 40
0.998985933
 40
0.9994295879
 40
0.999746484
 40
0.9998573976
 40
0.9999366214
 40
0.9999841555
 40
1.0
 40
1.0
 40
1.0
 40
1.0
 10
4.2582183594
 20
3.2174207983
 30
0.0
 10
4.2491963053
 20
3.2168670615
 30
0.0
 10
4.2316471148
 20
3.2159125878
 30
0.0
 10
4.2060777987
 20
3.2148718361
 30
0.0
 10
4.1820573411
 20
3.2142059951
 30
0.0
 10
4.1596404067
 20
3.2138588899
 30
0.0
 10
4.1388736808
 20
3.21377438
 30
0.0
 10
4.1197945124
 20
3.2139033533
 30
0.0
 10
4.1024326408
 20
3.2141964802
 30
0.0
 10
4.0868163338
 20
3.2146047853
 30
0.0
 10
4.0729726479
 20
3.215078535
 30
0.0
 10
4.0625557228
 20
3.2155046908
 30
0.0
 10
4.0551258162
 20
3.2158458506
 30
0.0
 10
4.0502357109
 20
3.2160854085
 30
0.0
 10
4.0458037932
 20
3.2163154342
 30
0.0
 10
4.04183215
 20
3.2165323028
 30
0.0
 10
4.0383228701
 20
3.2167324148
 30
0.0
 10
4.0352780402
 20
3.2169121433
 30
0.0
 10
4.0330319257
 20
3.2170479311
 30
0.0
 10
4.0314687113
 20
3.2171428435
 30
0.0
 10
4.03047202
 20
3.2172033232
 30
0.0
 10
4.0295925866
 20
3.2172566952
 30
0.0
 10
4.0288304098
 20
3.2173029498
 30
0.0
 10
4.0281854948
 20
3.2173420863
 30
0.0
 10
4.0277213424
 20
3.2173702577
 30
0.0
 10
4.0274086664
 20
3.217389227
 30
0.0
 10
4.027218096
 20
3.2174008057
 30
0.0
 10
4.0270569446
 20
3.2174105452
 30
0.0
 10
4.0269248141
 20
3.2174186745
 30
0.0
 10
4.0268227664
 20
3.217424583
 30
0.0
 10
4.0267544421
 20
3.2174293183
 30
0.0
 10
4.0267168956
 20
3.217430805
 30
0.0
 10
4.0266960444
 20
3.2174333713
 30
0.0
 10
4.0266895188
 20
3.2174314698
 30
0.0
 10
4.0266800069
 20
3.2174344262
 30
0.0
 10
4.0266806854
 20
3.2174334079
 30
0.0
  0
SPLINE
  5
386
100
AcDbEntity
  8
0
100
AcDbSpline
 62
9
  6
CONTINUOUS
 70
0
 71
3
 72
25
 73
21
 74
0
 42
0.0000001
 43
0.0000001
 44
0.0000000001
 40
0.0
 40
0.0
 40
0.0
 40
0.0
 40
0.2265707849
 40
0.3299847682
 40
0.4266018766
 40
0.5162526993
 40
0.5987609991
 40
0.6739441364
 40
0.7416135488
 40
0.8015973813
 40
0.853808371
 40
0.8981796393
 40
0.934642866
 40
0.9498872523
 40
0.9631283639
 40
0.9743572667
 40
0.9835649406
 40
0.9907422814
 40
0.9958801004
 40
1.0
 40
1.0
 40
1.0
 40
1.0
 10
4.6220256131
 20
3.1881334344
 30
0.0
 10
4.6410379735
 20
3.1867693194
 30
0.0
 10
4.6687608711
 20
3.1852012392
 30
0.0
 10
4.7046308409
 20
3.1839877344
 30
0.0
 10
4.7289975741
 20
3.1835032267
 30
0.0
 10
4.7516095912
 20
3.1833501166
 30
0.0
 10
4.7724184803
 20
3.1834623426
 30
0.0
 10
4.791375724
 20
3.1837737728
 30
0.0
 10
4.8084345587
 20
3.1842189817
 30
0.0
 10
4.8235579996
 20
3.1847315128
 30
0.0
 10
4.8367181628
 20
3.1852781886
 30
0.0
 10
4.847898986
 20
3.185827651
 30
0.0
 10
4.8559662706
 20
3.1862844893
 30
0.0
 10
4.8614244824
 20
3.1866260797
 30
0.0
 10
4.8647471412
 20
3.186846148
 30
0.0
 10
4.8676063031
 20
3.1870467824
 30
0.0
 10
4.8698321915
 20
3.1872097495
 30
0.0
 10
4.8718714865
 20
3.1873692527
 30
0.0
 10
4.872683606
 20
3.1874326186
 30
0.0
 10
4.8745490537
 20
3.1875911299
 30
0.0
 10
4.8742035927
 20
3.1875630037
 30
0.0
  0
SPLINE
  5
387
100
AcDbEntity
  8
0
100
AcDbSpline
 62
9
  6
CONTINUOUS
 70
0
 71
3
 72
19
 73
15
 74
0
 42
0.0000001
 43
0.0000001
 44
0.0000000001
 40
0.0
 40
0.0
 40
0.0
 40
0.0
 40
0.0483421085
 40
0.1021780873
 40
0.1608186163
 40
0.2235659924
 40
0.3583754394
 40
0.4999994549
 40
0.6416237376
 40
0.7764330542
 40
0.8391799035
 40
0.8978200316
 40
0.9516563116
 40
1.0
 40
1.0
 40
1.0
 40
1.0
 10
4.3015768699
 20
3.1881334261
 30
0.0
 10
4.306729054
 20
3.1885030797
 30
0.0
 10
4.3176301953
 20
3.1891281409
 30
0.0
 10
4.3348013637
 20
3.1897978838
 30
0.0
 10
4.3535182934
 20
3.1902875246
 30
0.0
 10
4.3808895429
 20
3.1907580711
 30
0.0
 10
4.4171309614
 20
3.1910509681
 30
0.0
 10
4.461801088
 20
3.1911199859
 30
0.0
 10
4.5064712006
 20
3.1910509571
 30
0.0
 10
4.5427125774
 20
3.1907580681
 30
0.0
 10
4.5700837142
 20
3.1902875443
 30
0.0
 10
4.5888005772
 20
3.1897979158
 30
0.0
 10
4.6059719038
 20
3.1891281666
 30
0.0
 10
4.6168732454
 20
3.1885030877
 30
0.0
 10
4.622025598
 20
3.1881334233
 30
0.0
  0
SPLINE
  5
388
100
AcDbEntity
  8
0
100
AcDbSpline
 62
9
  6
CONTINUOUS
 70
0
 71
3
 72
14
 73
10
 74
0
 42
0.0000001
 43
0.0000001
 44
0.0000000001
 40
0.0
 40
0.0
 40
0.0
 40
0.0
 40
0.1045500733
 40
0.21783705
 40
0.4648547634
 40
0.5975124997
 40
0.7334140403
 40
0.8689450049
 40
1.0
 40
1.0
 40
1.0
 40
1.0
 10
4.6220256058
 20
3.1881334254
 30
0.0
 10
4.6233737968
 20
3.1884653705
 30
0.0
 10
4.6261086333
 20
3.189481247
 30
0.0
 10
4.6314212822
 20
3.1926696873
 30
0.0
 10
4.6360864583
 20
3.1974800414
 30
0.0
 10
4.6394912043
 20
3.2034434143
 30
0.0
 10
4.6414773629
 20
3.2084473324
 30
0.0
 10
4.6428099876
 20
3.2136364098
 30
0.0
 10
4.6432612803
 20
3.2171599575
 30
0.0
 10
4.6433604832
 20
3.2188975756
 30
0.0
  0
SPLINE
  5
389
100
AcDbEntity
  8
0
100
AcDbSpline
 62
9
  6
CONTINUOUS
 70
0
 71
3
 72
19
 73
15
 74
0
 42
0.0000001
 43
0.0000001
 44
0.0000000001
 40
0.0
 40
0.0
 40
0.0
 40
0.0
 40
0.0481975407
 40
0.1019790701
 40
0.1606161099
 40
0.2233728726
 40
0.3582273396
 40
0.5000013636
 40
0.6417751963
 40
0.7766291664
 40
0.8393855558
 40
0.8980220625
 40
0.9518029513
 40
1.0
 40
1.0
 40
1.0
 40
1.0
 10
4.6433615672
 20
3.2188975127
 30
0.0
 10
4.6375382064
 20
3.2192732342
 30
0.0
 10
4.6252067711
 20
3.2199131388
 30
0.0
 10
4.6057722813
 20
3.2206076124
 30
0.0
 10
4.5845689628
 20
3.2211214247
 30
0.0
 10
4.553547705
 20
3.2216174819
 30
0.0
 10
4.5124575732
 20
3.2219249052
 30
0.0
 10
4.4617999368
 20
3.2220260527
 30
0.0
 10
4.4111423605
 20
3.2219248935
 30
0.0
 10
4.3700523573
 20
3.2216174552
 30
0.0
 10
4.3390312696
 20
3.2211213837
 30
0.0
 10
4.3178281389
 20
3.2206075519
 30
0.0
 10
4.2983938519
 20
3.2199130483
 30
0.0
 10
4.2860625547
 20
3.2192731335
 30
0.0
 10
4.2802392533
 20
3.2188974158
 30
0.0
  0
SPLINE
  5
38A
100
AcDbEntity
  8
0
100
AcDbSpline
 62
9
  6
CONTINUOUS
 70
0
 71
3
 72
38
 73
34
 74
0
 42
0.0000001
 43
0.0000001
 44
0.0000000001
 40
0.0
 40
0.0
 40
0.0
 40
0.0
 40
0.0000633805
 40
0.0001426055
 40
0.0002535203
 40
0.0005704197
 40
0.0010140784
 40
0.0015844965
 40
0.002281674
 40
0.0031056108
 40
0.004056307
 40
0.0063379774
 40
0.009126685
 40
0.0124224298
 40
0.0162252115
 40
0.0205350302
 40
0.0253518724
 40
0.0365038472
 40
0.0496720611
 40
0.064846637
 40
0.0820177629
 40
0.1011757009
 40
0.1223107921
 40
0.1454134601
 40
0.1974835748
 40
0.2573068409
 40
0.3247727505
 40
0.3997588883
 40
0.4821466527
 40
0.57182159
 40
0.6686546494
 40
0.7724415822
 40
1.0
 40
1.0
 40
1.0
 40
1.0
 10
4.8969217991
 20
3.2174334077
 30
0.0
 10
4.8969186022
 20
3.2174297011
 30
0.0
 10
4.8969049448
 20
3.2174344135
 30
0.0
 10
4.8968867802
 20
3.2174304441
 30
0.0
 10
4.8968469078
 20
3.2174296597
 30
0.0
 10
4.8967803138
 20
3.2174244012
 30
0.0
 10
4.8966774306
 20
3.2174187446
 30
0.0
 10
4.8965456254
 20
3.2174105166
 30
0.0
 10
4.8963843558
 20
3.2174008124
 30
0.0
 10
4.8961938252
 20
3.2173892213
 30
0.0
 10
4.8958811314
 20
3.217370257
 30
0.0
 10
4.895416989
 20
3.2173420822
 30
0.0
 10
4.8947720689
 20
3.2173029472
 30
0.0
 10
4.894009893
 20
3.2172566928
 30
0.0
 10
4.8931304587
 20
3.2172033221
 30
0.0
 10
4.8921337675
 20
3.217142844
 30
0.0
 10
4.8905705526
 20
3.2170479351
 30
0.0
 10
4.8883244369
 20
3.2169121493
 30
0.0
 10
4.8852796044
 20
3.2167324212
 30
0.0
 10
4.8817703203
 20
3.2165323078
 30
0.0
 10
4.8777986716
 20
3.2163154369
 30
0.0
 10
4.8733667473
 20
3.2160854085
 30
0.0
 10
4.8684766346
 20
3.2158458479
 30
0.0
 10
4.861046717
 20
3.2155046853
 30
0.0
 10
4.8506297768
 20
3.2150785304
 30
0.0
 10
4.8367860702
 20
3.214604788
 30
0.0
 10
4.8211697403
 20
3.2141964833
 30
0.0
 10
4.8038078475
 20
3.2139033554
 30
0.0
 10
4.7847286592
 20
3.2137743801
 30
0.0
 10
4.7639619379
 20
3.2138588891
 30
0.0
 10
4.7415449368
 20
3.2142059958
 30
0.0
 10
4.7084894036
 20
3.2151222792
 30
0.0
 10
4.6829249554
 20
3.2163441907
 30
0.0
 10
4.6653839137
 20
3.2174207838
 30
0.0
  0
SPLINE
  5
38B
100
AcDbEntity
  8
0
100
AcDbSpline
 62
7
  6
CONTINUOUS
 70
0
 71
3
 72
13
 73
9
 74
0
 42
0.0000001
 43
0.0000001
 44
0.0000000001
 40
0.0
 40
0.0
 40
0.0
 40
0.0
 40
0.411657924
 40
0.5752218837
 40
0.7109737413
 40
0.8194645048
 40
0.9017913928
 40
1.0
 40
1.0
 40
1.0
 40
1.0
 10
4.1341711041
 20
4.5839166206
 30
0.0
 10
4.1337833378
 20
4.5839834196
 30
0.0
 10
4.1332429026
 20
4.5840852479
 30
0.0
 10
4.1325823919
 20
4.5842484908
 30
0.0
 10
4.1322099213
 20
4.5843594558
 30
0.0
 10
4.131914829
 20
4.5844735042
 30
0.0
 10
4.1316776462
 20
4.584593511
 30
0.0
 10
4.1315242677
 20
4.5847348943
 30
0.0
 10
4.1315243471
 20
4.5848287657
 30
0.0
  0
SPLINE
  5
38C
100
AcDbEntity
  8
0
100
AcDbSpline
 62
7
  6
CONTINUOUS
 70
0
 71
3
 72
17
 73
13
 74
0
 42
0.0000001
 43
0.0000001
 44
0.0000000001
 40
0.0
 40
0.0
 40
0.0
 40
0.0
 40
0.0151814441
 40
0.0364792596
 40
0.0640768557
 40
0.0980552481
 40
0.1852752087
 40
0.2980956041
 40
0.4362695218
 40
0.5995131667
 40
0.7875262646
 40
1.0
 40
1.0
 40
1.0
 40
1.0
 10
4.1317540504
 20
4.5850973533
 30
0.0
 10
4.1318705076
 20
4.5851654752
 30
0.0
 10
4.1321726059
 20
4.5852890067
 30
0.0
 10
4.1327190874
 20
4.5854486951
 30
0.0
 10
4.1334382852
 20
4.5856100369
 30
0.0
 10
4.1347393466
 20
4.5858469495
 30
0.0
 10
4.1368006183
 20
4.5861296706
 30
0.0
 10
4.139789028
 20
4.5864525408
 30
0.0
 10
4.1434562376
 20
4.5867773157
 30
0.0
 10
4.1477936085
 20
4.5871039325
 30
0.0
 10
4.1527928477
 20
4.5874314577
 30
0.0
 10
4.1563460294
 20
4.5876377737
 30
0.0
 10
4.1582314106
 20
4.5877420186
 30
0.0
  0
SPLINE
  5
38D
100
AcDbEntity
  8
0
100
AcDbSpline
 62
7
  6
CONTINUOUS
 70
0
 71
3
 72
19
 73
15
 74
0
 42
0.0000001
 43
0.0000001
 44
0.0000000001
 40
0.0
 40
0.0
 40
0.0
 40
0.0
 40
0.03472464
 40
0.0781391281
 40
0.1295058341
 40
0.1878982544
 40
0.2523069321
 40
0.3215804527
 40
0.4698002877
 40
0.6221485507
 40
0.767925422
 40
0.8968936023
 40
0.9522155789
 40
1.0
 40
1.0
 40
1.0
 40
1.0
 10
4.1582314106
 20
4.5877420186
 30
0.0
 10
4.1648715425
 20
4.5881091591
 30
0.0
 10
4.1798208288
 20
4.5888006733
 30
0.0
 10
4.2046056175
 20
4.5897334775
 30
0.0
 10
4.233925742
 20
4.5906710832
 30
0.0
 10
4.267268129
 20
4.5916136608
 30
0.0
 10
4.3040411192
 20
4.5925581071
 30
0.0
 10
4.3580140444
 20
4.5938489798
 30
0.0
 10
4.4288267488
 20
4.5954178649
 30
0.0
 10
4.5142883577
 20
4.597264593
 30
0.0
 10
4.5960621998
 20
4.5991062581
 30
0.0
 10
4.6592550638
 20
4.6006972923
 30
0.0
 10
4.7036811732
 20
4.6020176444
 30
0.0
 10
4.7234161226
 20
4.6026936108
 30
0.0
 10
4.7325608476
 20
4.603043393
 30
0.0
  0
SPLINE
  5
38E
100
AcDbEntity
  8
0
100
AcDbSpline
 62
7
  6
CONTINUOUS
 70
0
 71
3
 72
17
 73
13
 74
0
 42
0.0000001
 43
0.0000001
 44
0.0000000001
 40
0.0
 40
0.0
 40
0.0
 40
0.0
 40
0.0146289972
 40
0.0354453394
 40
0.0626379618
 40
0.0962864342
 40
0.1830780607
 40
0.2958055453
 40
0.4341897588
 40
0.5979096782
 40
0.7866282115
 40
1.0
 40
1.0
 40
1.0
 40
1.0
 10
4.1317414673
 20
4.63029255
 30
0.0
 10
4.1318607452
 20
4.6303642616
 30
0.0
 10
4.1321751766
 20
4.6304930891
 30
0.0
 10
4.1327472769
 20
4.6306590056
 30
0.0
 10
4.1335064974
 20
4.6308267449
 30
0.0
 10
4.1348892206
 20
4.6310737069
 30
0.0
 10
4.1370888052
 20
4.6313679995
 30
0.0
 10
4.1402859695
 20
4.6317039298
 30
0.0
 10
4.1442182678
 20
4.6320419274
 30
0.0
 10
4.1488754601
 20
4.6323819103
 30
0.0
 10
4.154247647
 20
4.6327228661
 30
0.0
 10
4.1580669934
 20
4.6329376186
 30
0.0
 10
4.1600940377
 20
4.6330461412
 30
0.0
  0
SPLINE
  5
38F
100
AcDbEntity
  8
0
100
AcDbSpline
 62
7
  6
CONTINUOUS
 70
0
 71
3
 72
14
 73
10
 74
0
 42
0.0000001
 43
0.0000001
 44
0.0000000001
 40
0.0
 40
0.0
 40
0.0
 40
0.0
 40
0.0737474723
 40
0.1674730833
 40
0.2789947752
 40
0.4056601851
 40
0.5444739288
 40
0.69215833
 40
1.0
 40
1.0
 40
1.0
 40
1.0
 10
4.1600940377
 20
4.6330461412
 30
0.0
 10
4.1681569706
 20
4.6334778097
 30
0.0
 10
4.186476378
 20
4.6342806864
 30
0.0
 10
4.2170041184
 20
4.6353569139
 30
0.0
 10
4.2533286678
 20
4.6364401517
 30
0.0
 10
4.2945914746
 20
4.6375295289
 30
0.0
 10
4.3398148593
 20
4.6386218033
 30
0.0
 10
4.4048712704
 20
4.6401008123
 30
0.0
 10
4.4547344104
 20
4.6411768223
 30
0.0
 10
4.4884314041
 20
4.641913163
 30
0.0
  0
SPLINE
  5
390
100
AcDbEntity
  8
0
100
AcDbSpline
 62
7
  6
CONTINUOUS
 70
0
 71
3
 72
12
 73
8
 74
0
 42
0.0000001
 43
0.0000001
 44
0.0000000001
 40
0.0
 40
0.0
 40
0.0
 40
0.0
 40
0.2917285177
 40
0.564101969
 40
0.8040993551
 40
0.908270019
 40
1.0
 40
1.0
 40
1.0
 40
1.0
 10
4.4884314041
 20
4.641913163
 30
0.0
 10
4.5121737639
 20
4.6424319768
 30
0.0
 10
4.558083152
 20
4.6434410663
 30
0.0
 10
4.6235223
 20
4.6449855297
 30
0.0
 10
4.6736941803
 20
4.6463132588
 30
0.0
 10
4.7091618952
 20
4.6473922539
 30
0.0
 10
4.7250993871
 20
4.647952523
 30
0.0
 10
4.7325608476
 20
4.648246193
 30
0.0
  0
SPLINE
  5
391
100
AcDbEntity
  8
0
100
AcDbSpline
 62
7
  6
CONTINUOUS
 70
0
 71
3
 72
18
 73
14
 74
0
 42
0.0000001
 43
0.0000001
 44
0.0000000001
 40
0.0
 40
0.0
 40
0.0
 40
0.0
 40
0.013710605
 40
0.0337957641
 40
0.0604077322
 40
0.0935956587
 40
0.1333731587
 40
0.1797384903
 40
0.2921889723
 40
0.4308263676
 40
0.5953391604
 40
0.7852333291
 40
1.0
 40
1.0
 40
1.0
 40
1.0
 10
4.791885303
 20
3.7654685356
 30
0.0
 10
4.7917624683
 20
3.7653987404
 30
0.0
 10
4.7914331731
 20
3.7652769302
 30
0.0
 10
4.7908311737
 20
3.7651206758
 30
0.0
 10
4.7900225132
 20
3.7649629042
 30
0.0
 10
4.7890089166
 20
3.764803498
 30
0.0
 10
4.7877895962
 20
3.7646434376
 30
0.0
 10
4.7857560256
 20
3.7644143774
 30
0.0
 10
4.7827032873
 20
3.7641364074
 30
0.0
 10
4.7784325955
 20
3.7638175767
 30
0.0
 10
4.7733621129
 20
3.7634971644
 30
0.0
 10
4.767505943
 20
3.763175314
 30
0.0
 10
4.7633410842
 20
3.762972502
 30
0.0
 10
4.7611304294
 20
3.7628699623
 30
0.0
  0
SPLINE
  5
392
100
AcDbEntity
  8
0
100
AcDbSpline
 62
7
  6
CONTINUOUS
 70
0
 71
3
 72
10
 73
6
 74
0
 42
0.0000001
 43
0.0000001
 44
0.0000000001
 40
0.0
 40
0.0
 40
0.0
 40
0.0
 40
0.2022450851
 40
0.4376166061
 40
1.0
 40
1.0
 40
1.0
 40
1.0
 10
4.7611304294
 20
3.7628699623
 30
0.0
 10
4.7566969103
 20
3.7626643165
 30
0.0
 10
4.7471016731
 20
3.7622627915
 30
0.0
 10
4.7251707804
 20
3.7614719184
 30
0.0
 10
4.7076714955
 20
3.7609529053
 30
0.0
 10
4.6953346747
 20
3.7606111988
 30
0.0
  0
SPLINE
  5
393
100
AcDbEntity
  8
0
100
AcDbSpline
 62
7
  6
CONTINUOUS
 70
0
 71
3
 72
10
 73
6
 74
0
 42
0.0000001
 43
0.0000001
 44
0.0000000001
 40
0.0
 40
0.0
 40
0.0
 40
0.0
 40
0.2221498815
 40
0.4679313088
 40
1.0
 40
1.0
 40
1.0
 40
1.0
 10
4.6740888537
 20
3.7600466594
 30
0.0
 10
4.6583756268
 20
3.7596449192
 30
0.0
 10
4.6252760384
 20
3.7588619475
 30
0.0
 10
4.5545366391
 20
3.757343976
 30
0.0
 10
4.4995098097
 20
3.756268908
 30
0.0
 10
4.4618701584
 20
3.7555315946
 30
0.0
  0
SPLINE
  5
394
100
AcDbEntity
  8
0
100
AcDbSpline
 62
7
  6
CONTINUOUS
 70
0
 71
3
 72
10
 73
6
 74
0
 42
0.0000001
 43
0.0000001
 44
0.0000000001
 40
0.0
 40
0.0
 40
0.0
 40
0.0
 40
0.5320750406
 40
0.7778603213
 40
1.0
 40
1.0
 40
1.0
 40
1.0
 10
4.4618701584
 20
3.7555315946
 30
0.0
 10
4.4242020935
 20
3.7547937246
 30
0.0
 10
4.3691336586
 20
3.7537179217
 30
0.0
 10
4.298341704
 20
3.752198844
 30
0.0
 10
4.2652179689
 20
3.7514155124
 30
0.0
 10
4.2494937912
 20
3.7510134498
 30
0.0
  0
SPLINE
  5
395
100
AcDbEntity
  8
0
100
AcDbSpline
 62
7
  6
CONTINUOUS
 70
0
 71
3
 72
24
 73
20
 74
0
 42
0.0000001
 43
0.0000001
 44
0.0000000001
 40
0.0
 40
0.0
 40
0.0
 40
0.0
 40
0.2243742593
 40
0.4234647631
 40
0.5129156979
 40
0.5953149649
 40
0.6704748783
 40
0.7382420066
 40
0.7984641377
 40
0.8509901257
 40
0.8956713079
 40
0.9323997524
 40
0.9611320721
 40
0.9818467198
 40
0.9892067292
 40
0.9945927772
 40
0.9965664644
 40
0.9980861922
 40
1.0
 40
1.0
 40
1.0
 40
1.0
 10
4.2282494981
 20
3.7504487832
 30
0.0
 10
4.2209951337
 20
3.7502477453
 30
0.0
 10
4.2073043437
 20
3.7498507861
 30
0.0
 10
4.1907233535
 20
3.7493108986
 30
0.0
 10
4.1787336172
 20
3.748873777
 30
0.0
 10
4.1707505556
 20
3.7485581667
 30
0.0
 10
4.1634694125
 20
3.7482429564
 30
0.0
 10
4.1569062825
 20
3.7479280945
 30
0.0
 10
4.1510761506
 20
3.74761349
 30
0.0
 10
4.1459938734
 20
3.747299438
 30
0.0
 10
4.141673186
 20
3.7469855691
 30
0.0
 10
4.1381240874
 20
3.7466740596
 30
0.0
 10
4.1353540329
 20
3.7463640107
 30
0.0
 10
4.133535261
 20
3.7460954293
 30
0.0
 10
4.1324773851
 20
3.7458621793
 30
0.0
 10
4.1320206812
 20
3.745728671
 30
0.0
 10
4.1317553064
 20
3.7456117013
 30
0.0
 10
4.1316081762
 20
3.7455263823
 30
0.0
 10
4.1315199922
 20
3.7454296447
 30
0.0
 10
4.1315199922
 20
3.7453677446
 30
0.0
  0
SPLINE
  5
396
100
AcDbEntity
  8
0
100
AcDbSpline
 62
7
  6
CONTINUOUS
 70
0
 71
3
 72
12
 73
8
 74
0
 42
0.0000001
 43
0.0000001
 44
0.0000000001
 40
0.0
 40
0.0
 40
0.0
 40
0.0
 40
0.0744406302
 40
0.1639893204
 40
0.3873497383
 40
0.6672644959
 40
1.0
 40
1.0
 40
1.0
 40
1.0
 10
4.7585764769
 20
3.7498684985
 30
0.0
 10
4.7570365312
 20
3.7497317325
 30
0.0
 10
4.7536408681
 20
3.7494669723
 30
0.0
 10
4.7456131747
 20
3.7489439209
 30
0.0
 10
4.7333167497
 20
3.7483159786
 30
0.0
 10
4.7159690433
 20
3.7475966551
 30
0.0
 10
4.703253047
 20
3.747150819
 30
0.0
 10
4.696346459
 20
3.7469225753
 30
0.0
  0
SPLINE
  5
397
100
AcDbEntity
  8
0
100
AcDbSpline
 62
7
  6
CONTINUOUS
 70
0
 71
3
 72
10
 73
6
 74
0
 42
0.0000001
 43
0.0000001
 44
0.0000000001
 40
0.0
 40
0.0
 40
0.0
 40
0.0
 40
0.2231636765
 40
0.4684651927
 40
1.0
 40
1.0
 40
1.0
 40
1.0
 10
4.6569890885
 20
3.7457438783
 30
0.0
 10
4.6437242082
 20
3.7453787518
 30
0.0
 10
4.6158771334
 20
3.7446645179
 30
0.0
 10
4.5564307367
 20
3.743273183
 30
0.0
 10
4.5102484625
 20
3.742287916
 30
0.0
 10
4.478649097
 20
3.7416177802
 30
0.0
  0
LINE
  5
398
100
AcDbEntity
  8
0
100
AcDbLine
 62
7
  6
CONTINUOUS
 10
4.4508136646
 20
3.7410281748
 11
4.423068753
 21
3.74043861
  0
SPLINE
  5
399
100
AcDbEntity
  8
0
100
AcDbSpline
 62
7
  6
CONTINUOUS
 70
0
 71
3
 72
10
 73
6
 74
0
 42
0.0000001
 43
0.0000001
 44
0.0000000001
 40
0.0
 40
0.0
 40
0.0
 40
0.0
 40
0.5384246106
 40
0.7819396455
 40
1.0
 40
1.0
 40
1.0
 40
1.0
 10
4.423068753
 20
3.74043861
 30
0.0
 10
4.3920406752
 20
3.7397763681
 30
0.0
 10
4.3469796912
 20
3.7387997068
 30
0.0
 10
4.2893560262
 20
3.7373992204
 30
0.0
 10
4.2627601677
 20
3.736680249
 30
0.0
 10
4.2501964365
 20
3.7363115359
 30
0.0
  0
SPLINE
  5
39A
100
AcDbEntity
  8
0
100
AcDbSpline
 62
7
  6
CONTINUOUS
 70
0
 71
3
 72
24
 73
20
 74
0
 42
0.0000001
 43
0.0000001
 44
0.0000000001
 40
0.0
 40
0.0
 40
0.0
 40
0.0
 40
0.2257721434
 40
0.4252766688
 40
0.5967867258
 40
0.6716562105
 40
0.7390915877
 40
0.7989611312
 40
0.8511345222
 40
0.8954913881
 40
0.9319728062
 40
0.9605553217
 40
0.9718840293
 40
0.9812427582
 40
0.9886452034
 40
0.9941257792
 40
0.9961738193
 40
0.9977925653
 40
1.0
 40
1.0
 40
1.0
 40
1.0
 10
4.2310103244
 20
3.7357218747
 30
0.0
 10
4.2253636223
 20
3.7355394792
 30
0.0
 10
4.214727695
 20
3.7351796206
 30
0.0
 10
4.1998047298
 20
3.7346097226
 30
0.0
 10
4.1886578443
 20
3.7341168656
 30
0.0
 10
4.1808152702
 20
3.7337156072
 30
0.0
 10
4.1757642267
 20
3.7334288576
 30
0.0
 10
4.171282094
 20
3.7331427125
 30
0.0
 10
4.1673787558
 20
3.7328573383
 30
0.0
 10
4.1640623068
 20
3.7325732389
 30
0.0
 10
4.1613387244
 20
3.7322905054
 30
0.0
 10
4.1594426216
 20
3.7320431615
 30
0.0
 10
4.1582269046
 20
3.7318369984
 30
0.0
 10
4.1575381198
 20
3.7316957633
 30
0.0
 10
4.1569992508
 20
3.7315549671
 30
0.0
 10
4.1566458325
 20
3.7314320913
 30
0.0
 10
4.1564412727
 20
3.7313258181
 30
0.0
 10
4.1563221583
 20
3.7312436837
 30
0.0
 10
4.1562569426
 20
3.731156737
 30
0.0
 10
4.1562549991
 20
3.7311015331
 30
0.0
  0
SPLINE
  5
39B
100
AcDbEntity
  8
0
100
AcDbSpline
 62
7
  6
CONTINUOUS
 70
0
 71
3
 72
12
 73
8
 74
0
 42
0.0000001
 43
0.0000001
 44
0.0000000001
 40
0.0
 40
0.0
 40
0.0
 40
0.0
 40
0.0561270405
 40
0.1313631189
 40
0.3409321435
 40
0.6303871005
 40
1.0
 40
1.0
 40
1.0
 40
1.0
 10
4.7918822365
 20
3.7248149316
 30
0.0
 10
4.7918020524
 20
3.7247694444
 30
0.0
 10
4.7916024499
 20
3.7246847639
 30
0.0
 10
4.7910675239
 20
3.724518598
 30
0.0
 10
4.7901423222
 20
3.7243264536
 30
0.0
 10
4.7887326482
 20
3.7241076484
 30
0.0
 10
4.7876577289
 20
3.7239771671
 30
0.0
 10
4.7870544285
 20
3.7239095027
 30
0.0
  0
LINE
  5
39C
100
AcDbEntity
  8
0
100
AcDbLine
 62
7
  6
CONTINUOUS
 10
4.7870544285
 20
3.7239095027
 11
4.7808239011
 21
3.7233486517
  0
LINE
  5
39D
100
AcDbEntity
  8
0
100
AcDbLine
 62
7
  6
CONTINUOUS
 10
4.7808239011
 20
3.7233486517
 11
4.7721583163
 21
3.7227855455
  0
SPLINE
  5
39E
100
AcDbEntity
  8
0
100
AcDbSpline
 62
7
  6
CONTINUOUS
 70
0
 71
3
 72
9
 73
5
 74
0
 42
0.0000001
 43
0.0000001
 44
0.0000000001
 40
0.0
 40
0.0
 40
0.0
 40
0.0
 40
0.4376158099
 40
1.0
 40
1.0
 40
1.0
 40
1.0
 10
4.761130429
 20
3.7222205103
 30
0.0
 10
4.7515372615
 20
3.7217751163
 30
0.0
 10
4.7296068211
 20
3.7209561775
 30
0.0
 10
4.7076714952
 20
3.7203028354
 30
0.0
 10
4.6953346747
 20
3.7199611988
 30
0.0
  0
SPLINE
  5
39F
100
AcDbEntity
  8
0
100
AcDbSpline
 62
7
  6
CONTINUOUS
 70
0
 71
3
 72
10
 73
6
 74
0
 42
0.0000001
 43
0.0000001
 44
0.0000000001
 40
0.0
 40
0.0
 40
0.0
 40
0.0
 40
0.2221498867
 40
0.4679313135
 40
1.0
 40
1.0
 40
1.0
 40
1.0
 10
4.6740888534
 20
3.7193967177
 30
0.0
 10
4.6583756257
 20
3.7189949849
 30
0.0
 10
4.6252760389
 20
3.718211919
 30
0.0
 10
4.554536638
 20
3.7166939717
 30
0.0
 10
4.4995098081
 20
3.71561892
 30
0.0
 10
4.4618701569
 20
3.7148815946
 30
0.0
  0
SPLINE
  5
3A0
100
AcDbEntity
  8
0
100
AcDbSpline
 62
7
  6
CONTINUOUS
 70
0
 71
3
 72
10
 73
6
 74
0
 42
0.0000001
 43
0.0000001
 44
0.0000000001
 40
0.0
 40
0.0
 40
0.0
 40
0.0
 40
0.5320750258
 40
0.7778603048
 40
1.0
 40
1.0
 40
1.0
 40
1.0
 10
4.4618701569
 20
3.7148815946
 30
0.0
 10
4.4242020929
 20
3.7141437126
 30
0.0
 10
4.3691336586
 20
3.7130679241
 30
0.0
 10
4.298341701
 20
3.7115489362
 30
0.0
 10
4.2652179718
 20
3.7107653047
 30
0.0
 10
4.2494937922
 20
3.7103632654
 30
0.0
  0
SPLINE
  5
3A1
100
AcDbEntity
  8
0
100
AcDbSpline
 62
7
  6
CONTINUOUS
 70
0
 71
3
 72
11
 73
7
 74
0
 42
0.0000001
 43
0.0000001
 44
0.0000000001
 40
0.0
 40
0.0
 40
0.0
 40
0.0
 40
0.3128039846
 40
0.5858574017
 40
0.8158101483
 40
1.0
 40
1.0
 40
1.0
 40
1.0
 10
4.2282494981
 20
3.7097987832
 30
0.0
 10
4.2202375754
 20
3.7095768952
 30
0.0
 10
4.2052324377
 20
3.7091404012
 30
0.0
 10
4.1843402803
 20
3.7084471259
 30
0.0
 10
4.1667456842
 20
3.7077564186
 30
0.0
 10
4.1561461058
 20
3.7072441045
 30
0.0
 10
4.1514343115
 20
3.7069743953
 30
0.0
  0
SPLINE
  5
3A2
100
AcDbEntity
  8
0
100
AcDbSpline
 62
7
  6
CONTINUOUS
 70
0
 71
3
 72
12
 73
8
 74
0
 42
0.0000001
 43
0.0000001
 44
0.0000000001
 40
0.0
 40
0.0
 40
0.0
 40
0.0
 40
0.3593904634
 40
0.6463935765
 40
0.8600227914
 40
0.9392160996
 40
1.0
 40
1.0
 40
1.0
 40
1.0
 10
4.1514343115
 20
3.7069743953
 30
0.0
 10
4.1491932418
 20
3.7068461136
 30
0.0
 10
4.1451633146
 20
3.7065981747
 30
0.0
 10
4.1398072943
 20
3.7061889417
 30
0.0
 10
4.1362022679
 20
3.7058315373
 30
0.0
 10
4.1340147061
 20
3.7055262069
 30
0.0
 10
4.1331536735
 20
3.7053709938
 30
0.0
 10
4.1327832408
 20
3.705287828
 30
0.0
  0
SPLINE
  5
3A3
100
AcDbEntity
  8
0
100
AcDbSpline
 62
7
  6
CONTINUOUS
 70
0
 71
3
 72
12
 73
8
 74
0
 42
0.0000001
 43
0.0000001
 44
0.0000000001
 40
0.0
 40
0.0
 40
0.0
 40
0.0
 40
0.3982572744
 40
0.6915293616
 40
0.8002934981
 40
0.885548732
 40
1.0
 40
1.0
 40
1.0
 40
1.0
 10
4.1327832408
 20
3.705287828
 30
0.0
 10
4.1325978866
 20
3.7052462141
 30
0.0
 10
4.1322775753
 20
3.7051662589
 30
0.0
 10
4.1319149051
 20
3.7050456797
 30
0.0
 10
4.1317057266
 20
3.7049403427
 30
0.0
 10
4.1315855738
 20
3.7048600085
 30
0.0
 10
4.1315199922
 20
3.7047723377
 30
0.0
 10
4.1315199922
 20
3.7047177446
 30
0.0
  0
ENDSEC
  0
SECTION
  2
OBJECTS
  0
DICTIONARY
  5
C
100
AcDbDictionary
280
0
281
1
  3
ACAD_GROUP
350
D
  3
ACAD_MLINESTYLE
350
17
  3
ACAD_LAYOUT
350
1A
  3
ACAD_PLOTSETTINGS
350
19
  3
ACAD_PLOTSTYLENAME
350
E
  0
DICTIONARY
  5
D
102
{ACAD_REACTORS
330
C
102
}
100
AcDbDictionary
280
0
281
1
  0
ACDBDICTIONARYWDFLT
  5
E
102
{ACAD_REACTORS
330
C
102
}
100
AcDbDictionary
281
1
  3
Normal
350
F
100
AcDbDictionaryWithDefault
340
F
  0
DICTIONARY
  5
17
102
{ACAD_REACTORS
330
C
102
}
100
AcDbDictionary
280
0
281
1
  3
Standard
350
18
  0
DICTIONARY
  5
19
102
{ACAD_REACTORS
330
C
102
}
100
AcDbDictionary
281
1
  0
DICTIONARY
  5
1A
102
{ACAD_REACTORS
330
C
102
}
100
AcDbDictionary
281
1
  3
Model
350
3A4
  3
Layout1
350
3A5
  0
ACDBPLACEHOLDER
  5
F
102
{ACAD_REACTORS
330
E
102
}
  0
MLINESTYLE
  5
18
102
{ACAD_REACTORS
330
17
102
}
100
AcDbMlineStyle
  2
STANDARD
 70
0
  3

 62
256
 51
90.0
 52
90.0
 71
2
 49
0.5
 62
256
  6
BYLAYER
 49
-0.5
 62
256
  6
BYLAYER
  0
LAYOUT
  5
3A4
102
{ACAD_REACTORS
330
1A
102
}
100
AcDbPlotSettings
  1

  2
none_device
  4

  6

 40
0.0
 41
0.0
 42
0.0
 43
0.0
 44
215.9
 45
279.4
 46
0.0
 47
0.0
 48
0.0
 49
0.0
140
0.0
141
0.0
142
1.0
143
1.0
 70
1024
 72
0
 73
0
 74
0
  7

 75
0
147
1.0
148
0.0
149
0.0
100
AcDbLayout
  1
Model
 70
0
 71
0
 10
0.0
 20
0.0
 11
8.5
 21
11.0
 12
0.0
 22
0.0
 32
0.0
 14
0.0
 24
0.0
 34
0.0
 15
0.0
 25
0.0
 35
0.0
146
0.0
 13
0.0
 23
0.0
 33
0.0
 16
1.0
 26
0.0
 36
0.0
 17
0.0
 27
1.0
 37
0.0
 76
0
330
226
345
0
346
0
  0
LAYOUT
  5
3A5
102
{ACAD_REACTORS
330
1A
102
}
100
AcDbPlotSettings
  1

  2
none_device
  4

  6

 40
0.0
 41
0.0
 42
0.0
 43
0.0
 44
215.9
 45
279.4
 46
0.0
 47
0.0
 48
0.0
 49
0.0
140
0.0
141
0.0
142
1.0
143
1.0
 70
0
 72
0
 73
0
 74
0
  7

 75
0
147
1.0
148
0.0
149
0.0
100
AcDbLayout
  1
Layout1
 70
0
 71
1
 10
0.0
 20
0.0
 11
8.5
 21
11.0
 12
0.0
 22
0.0
 32
0.0
 14
0.0
 24
0.0
 34
0.0
 15
0.0
 25
0.0
 35
0.0
146
0.0
 13
0.0
 23
0.0
 33
0.0
 16
1.0
 26
0.0
 36
0.0
 17
0.0
 27
1.0
 37
0.0
 76
0
330
227
345
0
346
0
  0
ENDSEC
  0
EOF
