999
DXF file: 5-036_Front.dxf
999
Pro/ENGINEER 2023134 by Parametric Technology Corporation
  0
SECTION
  2
HEADER
  9
$ACADVER
  1
AC1032
  9
$DWGCODEPAGE
  3
ANSI_1252
  9
$EXTMAX
 10
11.0
 20
8.5
 30
0.0
  9
$EXTMIN
 10
0.0
 20
0.0
 30
0.0
  9
$LIMMIN
 10
0.0
 20
0.0
  9
$LIMMAX
 10
11.0
 20
8.5
  9
$VIEWCTR
 10
5.5
 20
4.25
  9
$VIEWSIZE
 40
8.5
  9
$CLAYER
  8
0
  9
$LTSCALE
 40
0.605
  9
$CELTYPE
  6
BYLAYER
  9
$DIMSCALE
 40
1.0
  9
$DIMASZ
 40
0.1
  9
$DIMEXO
 40
0.0625
  9
$DIMDLI
 40
0.418
  9
$DIMEXE
 40
0.125
  9
$DIMCEN
 40
0.099
  9
$DIMLFAC
 40
1.0
  9
$DIMBLK
  1
_FILLED
  9
$DIMALT
 70
1
  9
$DIMALTD
 70
2
  9
$DIMALTTD
 70
2
  9
$DIMALTF
 40
25.4
  9
$DIMTXT
 40
0.08
  9
$DIMTOL
 70
1
  9
$DIMLIM
 70
0
  9
$DIMTFAC
 40
1.0
  9
$DIMTP
 40
0.001
  9
$DIMTM
 40
0.001
  9
$DIMGAP
 40
0.09
  9
$DIMDSEP
 70
46
  9
$AUNITS
 70
0
  9
$PDMODE
 70
3
  9
$PDSIZE
 40
0.3125
  9
$HANDSEED
  5
2E2
  9
$TILEMODE
 70
1
  9
$MEASUREMENT
 70
0
  9
$INSUNITS
 70
1
  0
ENDSEC
  0
SECTION
  2
CLASSES
  0
CLASS
  1
ACDBDICTIONARYWDFLT
  2
AcDbDictionaryWithDefault
  3
AutoCAD 2000
 90
0
 91
1
280
0
281
0
  0
CLASS
  1
ACDBPLACEHOLDER
  2
AcDbPlaceHolder
  3
AutoCAD 2000
 90
0
 91
1
280
0
281
0
  0
CLASS
  1
LAYOUT
  2
AcDbLayout
  3
AutoCAD 2000
 90
0
 91
0
280
0
281
0
  0
ENDSEC
  0
SECTION
  2
TABLES
  0
TABLE
  2
VPORT
  5
8
100
AcDbSymbolTable
 70
2
  0
VPORT
  5
1F4
100
AcDbSymbolTableRecord
100
AcDbViewportTableRecord
  2
*ACTIVE
 70
0
 10
0.0
 20
0.0
 11
1.0
 21
1.0
 12
5.5
 22
4.25
 13
0.0
 23
0.0
 14
1.0
 24
1.0
 15
0.0
 25
0.0
 16
0.0
 26
0.0
 36
1.0
 17
0.0
 27
0.0
 37
0.0
 40
8.5
 41
1.2941176471
 42
50.0
 43
0.0
 44
0.0
 50
0.0
 51
0.0
 71
0
 72
100
 73
1
 74
1
 75
0
 76
0
 77
0
 78
0
  0
ENDTAB
  0
TABLE
  2
LTYPE
  5
5
100
AcDbSymbolTable
 70
6
  0
LTYPE
  5
14
100
AcDbSymbolTableRecord
100
AcDbLinetypeTableRecord
  2
BYBLOCK
 70
0
  3

 72
65
 73
0
 40
0.0
  0
LTYPE
  5
15
100
AcDbSymbolTableRecord
100
AcDbLinetypeTableRecord
  2
BYLAYER
 70
0
  3

 72
65
 73
0
 40
0.0
  0
LTYPE
  5
16
100
AcDbSymbolTableRecord
100
AcDbLinetypeTableRecord
  2
CONTINUOUS
 70
64
  3
Solid line
 72
65
 73
0
 40
0.0
  0
LTYPE
  5
1F5
100
AcDbSymbolTableRecord
100
AcDbLinetypeTableRecord
  2
CENTER
 70
64
  3
____ _ ____ _ ____ _ ____ _ ____ _ ____ _ ____
 72
65
 73
4
 40
0.6
 49
0.375
 74
0
 49
-0.075
 74
0
 49
0.075
 74
0
 49
-0.075
 74
0
  0
LTYPE
  5
1F6
100
AcDbSymbolTableRecord
100
AcDbLinetypeTableRecord
  2
HIDDEN
 70
64
  3
- - - - - - - - - - - - - - - - - - - -
 72
65
 73
2
 40
0.2
 49
0.1
 74
0
 49
-0.1
 74
0
  0
LTYPE
  5
1F7
100
AcDbSymbolTableRecord
100
AcDbLinetypeTableRecord
  2
PHANTOM
 70
64
  3
_____ _ _ _____ _ _ _____ _ _ _____
 72
65
 73
6
 40
0.8
 49
0.45
 74
0
 49
-0.05
 74
0
 49
0.1
 74
0
 49
-0.05
 74
0
 49
0.1
 74
0
 49
-0.05
 74
0
  0
LTYPE
  5
1F8
100
AcDbSymbolTableRecord
100
AcDbLinetypeTableRecord
  2
DOT
 70
64
  3
. . . . . . . . . . . . . . . . . . . .
 72
65
 73
2
 40
0.2
 49
0.1
 74
0
 49
-0.1
 74
0
  0
LTYPE
  5
1F9
100
AcDbSymbolTableRecord
100
AcDbLinetypeTableRecord
  2
DASHED
 70
64
  3
- - - - - - - - - - - - - - - - - - - -
 72
65
 73
2
 40
0.2
 49
0.1
 74
0
 49
-0.1
 74
0
  0
ENDTAB
  0
TABLE
  2
LAYER
  5
2
100
AcDbSymbolTable
 70
36
  0
LAYER
  5
10
100
AcDbSymbolTableRecord
100
AcDbLayerTableRecord
  2
0
 70
0
 62
7
  6
CONTINUOUS
370
-3
390
F
  0
LAYER
  5
1FA
100
AcDbSymbolTableRecord
100
AcDbLayerTableRecord
  2
DEFAULT_1
 70
0
 62
7
  6
CENTER
370
-3
390
F
  0
LAYER
  5
1FB
100
AcDbSymbolTableRecord
100
AcDbLayerTableRecord
  2
DEFAULT_2
 70
0
 62
8
  6
HIDDEN
370
-3
390
F
  0
LAYER
  5
1FC
100
AcDbSymbolTableRecord
100
AcDbLayerTableRecord
  2
DEFAULT_3
 70
0
 62
7
  6
PHANTOM
370
-3
390
F
  0
LAYER
  5
1FD
100
AcDbSymbolTableRecord
100
AcDbLayerTableRecord
  2
DEFAULT_COORDINATE_SYSTEM
 70
0
 62
7
  6
CONTINUOUS
370
-3
390
F
  0
LAYER
  5
1FE
100
AcDbSymbolTableRecord
100
AcDbLayerTableRecord
  2
DEFAULT_DATUM_AXES
 70
0
 62
7
  6
CONTINUOUS
370
-3
390
F
  0
LAYER
  5
1FF
100
AcDbSymbolTableRecord
100
AcDbLayerTableRecord
  2
DEFAULT_DATUM_CURVES
 70
0
 62
7
  6
CONTINUOUS
370
-3
390
F
  0
LAYER
  5
200
100
AcDbSymbolTableRecord
100
AcDbLayerTableRecord
  2
DEFAULT_DATUM_PLANES
 70
0
 62
7
  6
CONTINUOUS
370
-3
390
F
  0
ENDTAB
  0
TABLE
  2
STYLE
  5
3
100
AcDbSymbolTable
 70
1
  0
STYLE
  5
11
100
AcDbSymbolTableRecord
100
AcDbTextStyleTableRecord
  2
STANDARD
 70
0
 40
0.0
 41
0.8
 50
0.0
 71
0
 42
0.2
  3
txt
  4

  0
STYLE
  5
201
100
AcDbSymbolTableRecord
100
AcDbTextStyleTableRecord
  2
TEXTSTYLE_1
 70
0
 40
0.0
 41
0.8
 50
0.0
 71
0
 42
0.2
  3
gdt
  4

  0
ENDTAB
  0
TABLE
  2
VIEW
  5
6
100
AcDbSymbolTable
 70
0
  0
ENDTAB
  0
TABLE
  2
UCS
  5
7
100
AcDbSymbolTable
 70
0
  0
ENDTAB
  0
TABLE
  2
APPID
  5
9
100
AcDbSymbolTable
 70
1
  0
APPID
  5
202
100
AcDbSymbolTableRecord
100
AcDbRegAppTableRecord
  2
ACAD
 70
0
  0
ENDTAB
  0
TABLE
  2
BLOCK_RECORD
  5
1
100
AcDbSymbolTable
 70
0
  0
BLOCK_RECORD
  5
203
100
AcDbSymbolTableRecord
100
AcDbBlockTableRecord
  2
*Model_Space
  0
BLOCK_RECORD
  5
204
100
AcDbSymbolTableRecord
100
AcDbBlockTableRecord
  2
*Paper_Space
  0
BLOCK_RECORD
  5
205
100
AcDbSymbolTableRecord
100
AcDbBlockTableRecord
  2
_FILLED
  0
ENDTAB
  0
TABLE
  2
DIMSTYLE
  5
A
100
AcDbSymbolTable
 70
1
100
AcDbDimStyleTable
 71
0
  0
DIMSTYLE
105
206
100
AcDbSymbolTableRecord
100
AcDbDimStyleTableRecord
  2
STANDARD
 70
0
  3

  4

 40
1.0
 41
0.1
 42
0.0625
 43
0.38
 44
0.125
 45
0.0
 46
0.0
 47
0.001
 48
0.001
140
0.08
141
0.09
142
0.0
143
25.4
144
1.0
145
0.0
146
1.0
147
0.09
 71
1
 72
0
 73
1
 74
1
 75
0
 76
0
 77
0
 78
4
 79
1
170
1
171
2
172
0
173
0
174
0
175
0
176
0
177
0
178
0
270
2
179
3
271
3
272
3
273
2
274
2
275
0
280
0
281
0
282
0
283
1
284
4
285
0
286
0
287
3
288
0
340
11
278
46
341
205
342
205
343
205
344
205
  0
ENDTAB
  0
ENDSEC
  0
SECTION
  2
BLOCKS
  0
BLOCK
  5
20
100
AcDbEntity
  8
0
100
AcDbBlockBegin
  2
*Model_Space
 70
0
 10
0.0
 20
0.0
 30
0.0
  3
*Model_Space
  1

  0
ENDBLK
  5
21
100
AcDbEntity
  8
0
100
AcDbBlockEnd
  0
BLOCK
  5
1C
100
AcDbEntity
  8
0
100
AcDbBlockBegin
  2
*Paper_Space
 70
0
 10
0.0
 20
0.0
 30
0.0
  3
*Paper_Space
  1

  0
ENDBLK
  5
1D
100
AcDbEntity
  8
0
100
AcDbBlockEnd
  0
BLOCK
  5
207
100
AcDbEntity
  8
0
100
AcDbBlockBegin
  2
_FILLED
 70
64
 10
0.0
 20
0.0
  3
_FILLED
  1

  0
SOLID
  5
208
100
AcDbEntity
  8
0
  6
BYBLOCK
 62
0
100
AcDbTrace
 10
0.0
 20
0.0
 11
-1.0
 21
0.2
 12
-1.0
 22
-0.2
 13
-1.0
 23
-0.2
  0
ENDBLK
  5
209
100
AcDbEntity
  8
0
  6
BYBLOCK
 62
0
100
AcDbBlockEnd
  0
ENDSEC
  0
SECTION
  2
ENTITIES
  0
MTEXT
  5
20A
100
AcDbEntity
  8
0
100
AcDbMText
 62
2
  6
CONTINUOUS
  7
STANDARD
 71
2
 72
1
 10
5.3866758242
 20
2.1092079271
 30
0.0
 11
1.0
 21
0.0
 31
0.0
 73
2
 44
0.9
  1
SCALE 0.300
 40
0.08
 41
0.704
  0
LINE
  5
20B
100
AcDbEntity
  8
0
100
AcDbLine
 62
7
  6
CONTINUOUS
 10
0.0
 20
0.0
 11
0.0
 21
8.5
  0
LINE
  5
20C
100
AcDbEntity
  8
0
100
AcDbLine
 62
7
  6
CONTINUOUS
 10
0.0
 20
0.0
 11
11.0
 21
0.0
  0
LINE
  5
20D
100
AcDbEntity
  8
0
100
AcDbLine
 62
7
  6
CONTINUOUS
 10
0.0
 20
8.5
 11
11.0
 21
8.5
  0
LINE
  5
20E
100
AcDbEntity
  8
0
100
AcDbLine
 62
7
  6
CONTINUOUS
 10
11.0
 20
0.0
 11
11.0
 21
8.5
  0
LINE
  5
20F
100
AcDbEntity
  8
0
100
AcDbLine
 62
7
  6
CONTINUOUS
 10
3.4393591523
 20
6.5559935005
 11
3.4485069257
 21
6.5969851855
  0
LINE
  5
210
100
AcDbEntity
  8
0
100
AcDbLine
 62
7
  6
CONTINUOUS
 10
3.4703727689
 20
6.6949672536
 11
3.4746852907
 21
6.7142919051
  0
LINE
  5
211
100
AcDbEntity
  8
0
100
AcDbLine
 62
7
  6
CONTINUOUS
 10
3.4840201596
 20
6.6734789143
 11
3.49617363
 21
6.7279392958
  0
LINE
  5
212
100
AcDbEntity
  8
0
100
AcDbLine
 62
7
  6
CONTINUOUS
 10
7.0450807194
 20
2.2042079271
 11
6.8200807194
 21
2.2042079271
  0
LINE
  5
213
100
AcDbEntity
  8
0
100
AcDbLine
 62
7
  6
CONTINUOUS
 10
5.5096476485
 20
2.2042079271
 11
5.2846476485
 21
2.2042079271
  0
LINE
  5
214
100
AcDbEntity
  8
0
100
AcDbLine
 62
7
  6
CONTINUOUS
 10
3.6350156498
 20
6.4685721747
 11
3.6938227646
 21
6.7320901498
  0
LINE
  5
215
100
AcDbEntity
  8
0
100
AcDbLine
 62
7
  6
CONTINUOUS
 10
7.0689980422
 20
2.3092079271
 11
5.2607303257
 21
2.3092079271
  0
LINE
  5
216
100
AcDbEntity
  8
0
100
AcDbLine
 62
7
  6
CONTINUOUS
 10
3.8588049051
 20
6.4186309878
 11
3.8921942781
 21
6.5682506382
  0
LINE
  5
217
100
AcDbEntity
  8
0
100
AcDbLine
 62
7
  6
CONTINUOUS
 10
3.8611358634
 20
6.4181108072
 11
3.8945252364
 21
6.5677304576
  0
LINE
  5
218
100
AcDbEntity
  8
0
100
AcDbLine
 62
7
  6
CONTINUOUS
 10
3.9246030542
 20
6.5610182412
 11
3.950020796
 21
6.674916566
  0
LINE
  5
219
100
AcDbEntity
  8
0
100
AcDbLine
 62
7
  6
CONTINUOUS
 10
3.9612027729
 20
6.5528505863
 11
3.9784500478
 21
6.630136591
  0
LINE
  5
21A
100
AcDbEntity
  8
0
100
AcDbLine
 62
7
  6
CONTINUOUS
 10
7.3046279635
 20
2.5448378483
 11
5.0251004045
 21
2.5448378483
  0
LINE
  5
21B
100
AcDbEntity
  8
0
100
AcDbLine
 62
7
  6
CONTINUOUS
 10
5.0251004045
 20
2.5536961161
 11
7.3046279635
 21
2.5536961161
  0
LINE
  5
21C
100
AcDbEntity
  8
0
100
AcDbLine
 62
7
  6
CONTINUOUS
 10
7.3229350501
 20
2.5660976909
 11
5.0067933178
 21
2.5660976909
  0
LINE
  5
21D
100
AcDbEntity
  8
0
100
AcDbLine
 62
7
  6
CONTINUOUS
 10
4.9955728454
 20
2.5773181633
 11
7.3341555226
 21
2.5773181633
  0
LINE
  5
21E
100
AcDbEntity
  8
0
100
AcDbLine
 62
7
  6
CONTINUOUS
 10
4.0540082361
 20
6.532139963
 11
4.0206188631
 21
6.3825203126
  0
LINE
  5
21F
100
AcDbEntity
  8
0
100
AcDbLine
 62
7
  6
CONTINUOUS
 10
4.0254444954
 20
6.3806749679
 11
4.0589972215
 21
6.5310266126
  0
LINE
  5
220
100
AcDbEntity
  8
0
100
AcDbLine
 62
7
  6
CONTINUOUS
 10
4.0591424047
 20
6.5316771865
 11
4.0591605746
 21
6.531758607
  0
LINE
  5
221
100
AcDbEntity
  8
0
100
AcDbLine
 62
7
  6
CONTINUOUS
 10
4.1519331235
 20
6.3524475527
 11
4.1856492027
 21
6.5035311919
  0
LINE
  5
222
100
AcDbEntity
  8
0
100
AcDbLine
 62
7
  6
CONTINUOUS
 10
4.9955728454
 20
2.7054677696
 11
7.3341555226
 21
2.7054677696
  0
LINE
  5
223
100
AcDbEntity
  8
0
100
AcDbLine
 62
7
  6
CONTINUOUS
 10
6.7423648789
 20
2.9747591082
 11
5.5873648789
 21
2.9747591082
  0
LINE
  5
224
100
AcDbEntity
  8
0
100
AcDbLine
 62
7
  6
CONTINUOUS
 10
4.9955728454
 20
5.5029087145
 11
4.9955728454
 21
5.3747591082
  0
LINE
  5
225
100
AcDbEntity
  8
0
100
AcDbLine
 62
7
  6
CONTINUOUS
 10
4.9955728454
 20
2.7054677696
 11
4.9955728454
 21
2.5773181633
  0
LINE
  5
226
100
AcDbEntity
  8
0
100
AcDbLine
 62
7
  6
CONTINUOUS
 10
5.007383869
 20
5.3747591082
 11
5.007383869
 21
2.7054677696
  0
LINE
  5
227
100
AcDbEntity
  8
0
100
AcDbLine
 62
7
  6
CONTINUOUS
 10
5.0251004045
 20
5.5353890294
 11
5.0251004045
 21
5.5265307617
  0
LINE
  5
228
100
AcDbEntity
  8
0
100
AcDbLine
 62
7
  6
CONTINUOUS
 10
5.0251004045
 20
2.5536961161
 11
5.0251004045
 21
2.5448378483
  0
LINE
  5
229
100
AcDbEntity
  8
0
100
AcDbLine
 62
7
  6
CONTINUOUS
 10
5.007383869
 20
4.985680368
 11
5.0012388105
 21
5.0400844189
  0
LINE
  5
22A
100
AcDbEntity
  8
0
100
AcDbLine
 62
7
  6
CONTINUOUS
 10
5.2450396991
 20
2.5773181633
 11
5.2450396991
 21
2.7054677696
  0
LINE
  5
22B
100
AcDbEntity
  8
0
100
AcDbLine
 62
7
  6
CONTINUOUS
 10
5.2450396991
 20
5.3747591082
 11
5.2450396991
 21
5.5029087145
  0
LINE
  5
22C
100
AcDbEntity
  8
0
100
AcDbLine
 62
7
  6
CONTINUOUS
 10
5.2497693602
 20
2.5448378483
 11
5.2497693602
 21
2.5536961161
  0
LINE
  5
22D
100
AcDbEntity
  8
0
100
AcDbLine
 62
7
  6
CONTINUOUS
 10
5.2497693602
 20
5.5265307617
 11
5.2497693602
 21
5.5353890294
  0
LINE
  5
22E
100
AcDbEntity
  8
0
100
AcDbLine
 62
7
  6
CONTINUOUS
 10
5.2558208718
 20
2.7054677696
 11
5.2558208718
 21
5.3747591082
  0
LINE
  5
22F
100
AcDbEntity
  8
0
100
AcDbLine
 62
7
  6
CONTINUOUS
 10
5.2846476485
 20
2.3092079271
 11
5.2846476485
 21
2.2042079271
  0
LINE
  5
230
100
AcDbEntity
  8
0
100
AcDbLine
 62
7
  6
CONTINUOUS
 10
5.3398648789
 20
4.8560189507
 11
5.3398648789
 21
5.0360189507
  0
LINE
  5
231
100
AcDbEntity
  8
0
100
AcDbLine
 62
7
  6
CONTINUOUS
 10
5.3407874904
 20
4.8560189507
 11
5.3407874904
 21
5.0360189507
  0
LINE
  5
232
100
AcDbEntity
  8
0
100
AcDbLine
 62
7
  6
CONTINUOUS
 10
3.97845286
 20
6.6301491924
 11
3.950020796
 21
6.674916566
  0
LINE
  5
233
100
AcDbEntity
  8
0
100
AcDbLine
 62
7
  6
CONTINUOUS
 10
5.4309364577
 20
5.0360189507
 11
5.4309364577
 21
4.8560189507
  0
LINE
  5
234
100
AcDbEntity
  8
0
100
AcDbLine
 62
7
  6
CONTINUOUS
 10
5.435369198
 20
5.0360189507
 11
5.435369198
 21
4.8560189507
  0
LINE
  5
235
100
AcDbEntity
  8
0
100
AcDbLine
 62
7
  6
CONTINUOUS
 10
5.5096476485
 20
2.3092079271
 11
5.5096476485
 21
2.2042079271
  0
LINE
  5
236
100
AcDbEntity
  8
0
100
AcDbLine
 62
7
  6
CONTINUOUS
 10
5.5273648789
 20
3.0347591082
 11
5.5273648789
 21
4.8560189507
  0
LINE
  5
237
100
AcDbEntity
  8
0
100
AcDbLine
 62
7
  6
CONTINUOUS
 10
5.5273648789
 20
5.0360189507
 11
5.5273648789
 21
5.2397591082
  0
LINE
  5
238
100
AcDbEntity
  8
0
100
AcDbLine
 62
7
  6
CONTINUOUS
 10
6.1872438308
 20
4.8011628094
 11
6.175835258
 21
4.8011628094
  0
LINE
  5
239
100
AcDbEntity
  8
0
100
AcDbLine
 62
7
  6
CONTINUOUS
 10
6.1538944997
 20
4.8011628094
 11
6.142485927
 21
4.8011628094
  0
LINE
  5
23A
100
AcDbEntity
  8
0
100
AcDbLine
 62
7
  6
CONTINUOUS
 10
5.3398648789
 20
4.8560189507
 11
6.9898648789
 21
4.8560189507
  0
LINE
  5
23B
100
AcDbEntity
  8
0
100
AcDbLine
 62
7
  6
CONTINUOUS
 10
5.3398648789
 20
5.0360189507
 11
6.9898648789
 21
5.0360189507
  0
LINE
  5
23C
100
AcDbEntity
  8
0
100
AcDbLine
 62
7
  6
CONTINUOUS
 10
6.142485927
 20
5.0885153616
 11
6.1538944997
 21
5.0885153616
  0
LINE
  5
23D
100
AcDbEntity
  8
0
100
AcDbLine
 62
7
  6
CONTINUOUS
 10
6.175835258
 20
5.0885153616
 11
6.1872438308
 21
5.0885153616
  0
LINE
  5
23E
100
AcDbEntity
  8
0
100
AcDbLine
 62
7
  6
CONTINUOUS
 10
6.0223648789
 20
5.7710189507
 11
6.0223648789
 21
5.7953189507
  0
LINE
  5
23F
100
AcDbEntity
  8
0
100
AcDbLine
 62
7
  6
CONTINUOUS
 10
6.0727057829
 20
4.8560189507
 11
6.0727057829
 21
5.0360189507
  0
LINE
  5
240
100
AcDbEntity
  8
0
100
AcDbLine
 62
7
  6
CONTINUOUS
 10
6.0771385231
 20
4.8560189507
 11
6.0771385231
 21
5.0360189507
  0
LINE
  5
241
100
AcDbEntity
  8
0
100
AcDbLine
 62
7
  6
CONTINUOUS
 10
6.1086148789
 20
5.7953189507
 11
6.1086148789
 21
6.0638189507
  0
LINE
  5
242
100
AcDbEntity
  8
0
100
AcDbLine
 62
7
  6
CONTINUOUS
 10
6.1195135486
 20
4.7765292518
 11
6.1195135486
 21
4.8560189507
  0
LINE
  5
243
100
AcDbEntity
  8
0
100
AcDbLine
 62
7
  6
CONTINUOUS
 10
6.1195135486
 20
5.0360189507
 11
6.1195135486
 21
5.1131489193
  0
LINE
  5
244
100
AcDbEntity
  8
0
100
AcDbLine
 62
7
  6
CONTINUOUS
 10
6.142485927
 20
5.0885153616
 11
6.142485927
 21
5.0360189507
  0
LINE
  5
245
100
AcDbEntity
  8
0
100
AcDbLine
 62
7
  6
CONTINUOUS
 10
6.142485927
 20
4.8560189507
 11
6.142485927
 21
4.8011628094
  0
LINE
  5
246
100
AcDbEntity
  8
0
100
AcDbLine
 62
7
  6
CONTINUOUS
 10
6.1538944997
 20
4.8011628094
 11
6.1538944997
 21
5.0885153616
  0
LINE
  5
247
100
AcDbEntity
  8
0
100
AcDbLine
 62
7
  6
CONTINUOUS
 10
6.175835258
 20
4.8011628094
 11
6.175835258
 21
5.0885153616
  0
LINE
  5
248
100
AcDbEntity
  8
0
100
AcDbLine
 62
7
  6
CONTINUOUS
 10
6.1872438308
 20
4.8011628094
 11
6.1872438308
 21
4.8560189507
  0
LINE
  5
249
100
AcDbEntity
  8
0
100
AcDbLine
 62
7
  6
CONTINUOUS
 10
6.1872438308
 20
5.0360189507
 11
6.1872438308
 21
5.0885153616
  0
LINE
  5
24A
100
AcDbEntity
  8
0
100
AcDbLine
 62
7
  6
CONTINUOUS
 10
6.2102162092
 20
4.7765292518
 11
6.2102162092
 21
4.8560189507
  0
LINE
  5
24B
100
AcDbEntity
  8
0
100
AcDbLine
 62
7
  6
CONTINUOUS
 10
6.2102162092
 20
5.0360189507
 11
6.2102162092
 21
5.1131489193
  0
LINE
  5
24C
100
AcDbEntity
  8
0
100
AcDbLine
 62
7
  6
CONTINUOUS
 10
6.2211148789
 20
5.7953189507
 11
6.2211148789
 21
6.0638189507
  0
LINE
  5
24D
100
AcDbEntity
  8
0
100
AcDbLine
 62
7
  6
CONTINUOUS
 10
6.2525912346
 20
5.0360189507
 11
6.2525912346
 21
4.8560189507
  0
LINE
  5
24E
100
AcDbEntity
  8
0
100
AcDbLine
 62
7
  6
CONTINUOUS
 10
6.2570239749
 20
5.0360189507
 11
6.2570239749
 21
4.8560189507
  0
LINE
  5
24F
100
AcDbEntity
  8
0
100
AcDbLine
 62
7
  6
CONTINUOUS
 10
6.3073648789
 20
5.7710189507
 11
6.3073648789
 21
5.7953189507
  0
LINE
  5
250
100
AcDbEntity
  8
0
100
AcDbLine
 62
7
  6
CONTINUOUS
 10
5.5873648789
 20
5.2997591082
 11
6.7423648789
 21
5.2997591082
  0
LINE
  5
251
100
AcDbEntity
  8
0
100
AcDbLine
 62
7
  6
CONTINUOUS
 10
7.3341555226
 20
5.3747591082
 11
4.9955728454
 21
5.3747591082
  0
LINE
  5
252
100
AcDbEntity
  8
0
100
AcDbLine
 62
7
  6
CONTINUOUS
 10
4.9955728454
 20
5.5029087145
 11
7.3341555226
 21
5.5029087145
  0
LINE
  5
253
100
AcDbEntity
  8
0
100
AcDbLine
 62
7
  6
CONTINUOUS
 10
5.0067933178
 20
5.5141291869
 11
7.3229350501
 21
5.5141291869
  0
LINE
  5
254
100
AcDbEntity
  8
0
100
AcDbLine
 62
7
  6
CONTINUOUS
 10
7.3046279635
 20
5.5265307617
 11
5.0251004045
 21
5.5265307617
  0
LINE
  5
255
100
AcDbEntity
  8
0
100
AcDbLine
 62
7
  6
CONTINUOUS
 10
5.0251004045
 20
5.5353890294
 11
7.3046279635
 21
5.5353890294
  0
LINE
  5
256
100
AcDbEntity
  8
0
100
AcDbLine
 62
7
  6
CONTINUOUS
 10
6.8023648789
 20
5.2397591082
 11
6.8023648789
 21
5.0360189507
  0
LINE
  5
257
100
AcDbEntity
  8
0
100
AcDbLine
 62
7
  6
CONTINUOUS
 10
6.8023648789
 20
4.8560189507
 11
6.8023648789
 21
3.0347591082
  0
LINE
  5
258
100
AcDbEntity
  8
0
100
AcDbLine
 62
7
  6
CONTINUOUS
 10
5.2607303257
 20
5.7710189507
 11
7.0689980422
 21
5.7710189507
  0
LINE
  5
259
100
AcDbEntity
  8
0
100
AcDbLine
 62
7
  6
CONTINUOUS
 10
6.0223648789
 20
5.7953189507
 11
6.3073648789
 21
5.7953189507
  0
LINE
  5
25A
100
AcDbEntity
  8
0
100
AcDbLine
 62
7
  6
CONTINUOUS
 10
6.8200807194
 20
2.3092079271
 11
6.8200807194
 21
2.2042079271
  0
LINE
  5
25B
100
AcDbEntity
  8
0
100
AcDbLine
 62
7
  6
CONTINUOUS
 10
6.8943605598
 20
4.8560189507
 11
6.8943605598
 21
5.0360189507
  0
LINE
  5
25C
100
AcDbEntity
  8
0
100
AcDbLine
 62
7
  6
CONTINUOUS
 10
6.8987933001
 20
4.8560189507
 11
6.8987933001
 21
5.0360189507
  0
LINE
  5
25D
100
AcDbEntity
  8
0
100
AcDbLine
 62
7
  6
CONTINUOUS
 10
6.9889422674
 20
4.8560189507
 11
6.9889422674
 21
5.0360189507
  0
LINE
  5
25E
100
AcDbEntity
  8
0
100
AcDbLine
 62
7
  6
CONTINUOUS
 10
6.9898648789
 20
4.8560189507
 11
6.9898648789
 21
5.0360189507
  0
LINE
  5
25F
100
AcDbEntity
  8
0
100
AcDbLine
 62
7
  6
CONTINUOUS
 10
6.1086148789
 20
6.0638189507
 11
6.2211148789
 21
6.0638189507
  0
LINE
  5
260
100
AcDbEntity
  8
0
100
AcDbLine
 62
7
  6
CONTINUOUS
 10
4.1519331235
 20
6.3524475527
 11
4.0254444954
 21
6.3806749679
  0
LINE
  5
261
100
AcDbEntity
  8
0
100
AcDbLine
 62
7
  6
CONTINUOUS
 10
3.6350156498
 20
6.4685721747
 11
4.0256078485
 21
6.3814069622
  0
LINE
  5
262
100
AcDbEntity
  8
0
100
AcDbLine
 62
7
  6
CONTINUOUS
 10
3.6403971031
 20
6.4926867684
 11
3.453006543
 21
6.5345051611
  0
LINE
  5
263
100
AcDbEntity
  8
0
100
AcDbLine
 62
7
  6
CONTINUOUS
 10
7.0450807194
 20
2.3092079271
 11
7.0450807194
 21
2.2042079271
  0
LINE
  5
264
100
AcDbEntity
  8
0
100
AcDbLine
 62
7
  6
CONTINUOUS
 10
7.0739074962
 20
5.3747591082
 11
7.0739074962
 21
2.7054677696
  0
LINE
  5
265
100
AcDbEntity
  8
0
100
AcDbLine
 62
7
  6
CONTINUOUS
 10
7.0799590078
 20
5.5353890294
 11
7.0799590078
 21
5.5265307617
  0
LINE
  5
266
100
AcDbEntity
  8
0
100
AcDbLine
 62
7
  6
CONTINUOUS
 10
7.0799590078
 20
2.5536961161
 11
7.0799590078
 21
2.5448378483
  0
LINE
  5
267
100
AcDbEntity
  8
0
100
AcDbLine
 62
7
  6
CONTINUOUS
 10
7.0846886688
 20
5.5029087145
 11
7.0846886688
 21
5.3747591082
  0
LINE
  5
268
100
AcDbEntity
  8
0
100
AcDbLine
 62
7
  6
CONTINUOUS
 10
7.0846886688
 20
2.7054677696
 11
7.0846886688
 21
2.5773181633
  0
LINE
  5
269
100
AcDbEntity
  8
0
100
AcDbLine
 62
7
  6
CONTINUOUS
 10
3.6573858251
 20
6.5688141834
 11
3.469995265
 21
6.6106325762
  0
LINE
  5
26A
100
AcDbEntity
  8
0
100
AcDbLine
 62
7
  6
CONTINUOUS
 10
3.6684050227
 20
6.618191825
 11
4.0589972215
 21
6.5310266126
  0
LINE
  5
26B
100
AcDbEntity
  8
0
100
AcDbLine
 62
7
  6
CONTINUOUS
 10
4.1856492027
 20
6.5035311919
 11
4.0591605746
 21
6.531758607
  0
LINE
  5
26C
100
AcDbEntity
  8
0
100
AcDbLine
 62
7
  6
CONTINUOUS
 10
3.6714107197
 20
6.6316605215
 11
3.4840201596
 21
6.6734789143
  0
LINE
  5
26D
100
AcDbEntity
  8
0
100
AcDbLine
 62
7
  6
CONTINUOUS
 10
3.6765726776
 20
6.6547915438
 11
3.9693704278
 21
6.5894503051
  0
LINE
  5
26E
100
AcDbEntity
  8
0
100
AcDbLine
 62
7
  6
CONTINUOUS
 10
3.6774874549
 20
6.6588907123
 11
3.9702852051
 21
6.5935494736
  0
LINE
  5
26F
100
AcDbEntity
  8
0
100
AcDbLine
 62
7
  6
CONTINUOUS
 10
3.6835641901
 20
6.6861209031
 11
3.49617363
 21
6.7279392958
  0
LINE
  5
270
100
AcDbEntity
  8
0
100
AcDbLine
 62
7
  6
CONTINUOUS
 10
7.3046279635
 20
2.5448378483
 11
7.3046279635
 21
2.5536961161
  0
LINE
  5
271
100
AcDbEntity
  8
0
100
AcDbLine
 62
7
  6
CONTINUOUS
 10
7.3046279635
 20
5.5265307617
 11
7.3046279635
 21
5.5353890294
  0
LINE
  5
272
100
AcDbEntity
  8
0
100
AcDbLine
 62
7
  6
CONTINUOUS
 10
7.3223444989
 20
2.7054677696
 11
7.3223444989
 21
5.3747591082
  0
LINE
  5
273
100
AcDbEntity
  8
0
100
AcDbLine
 62
7
  6
CONTINUOUS
 10
7.3341555226
 20
2.5773181633
 11
7.3341555226
 21
2.7054677696
  0
LINE
  5
274
100
AcDbEntity
  8
0
100
AcDbLine
 62
7
  6
CONTINUOUS
 10
7.3341555226
 20
5.3747591082
 11
7.3341555226
 21
5.5029087145
  0
LINE
  5
275
100
AcDbEntity
  8
0
100
AcDbLine
 62
7
  6
CONTINUOUS
 10
3.950020796
 20
6.674916566
 11
3.6938227646
 21
6.7320901498
  0
ARC
  5
276
100
AcDbEntity
  8
0
100
AcDbCircle
 62
7
  6
CONTINUOUS
 10
5.2607303257
 20
2.5448378483
 40
0.2356299213
100
AcDbArc
 50
180.0
 51
270.0
  0
ARC
  5
277
100
AcDbEntity
  8
0
100
AcDbCircle
 62
7
  6
CONTINUOUS
 10
5.3131228809
 20
2.57732101
 40
0.0680831818
100
AcDbArc
 50
180.0023956723
 51
181.6037798818
  0
ARC
  5
278
100
AcDbEntity
  8
0
100
AcDbCircle
 62
7
  6
CONTINUOUS
 10
5.0126988296
 20
2.5536961161
 40
0.0124015748
100
AcDbArc
 50
0.0
 51
90.0
  0
ARC
  5
279
100
AcDbEntity
  8
0
100
AcDbCircle
 62
7
  6
CONTINUOUS
 10
5.0067933178
 20
2.5773181633
 40
0.0112204724
100
AcDbArc
 50
180.0
 51
270.0
  0
ARC
  5
27A
100
AcDbEntity
  8
0
100
AcDbCircle
 62
7
  6
CONTINUOUS
 10
5.2607303257
 20
5.5353890294
 40
0.2356299213
100
AcDbArc
 50
90.0
 51
180.0
  0
ARC
  5
27B
100
AcDbEntity
  8
0
100
AcDbCircle
 62
7
  6
CONTINUOUS
 10
5.3131228808
 20
5.5029058678
 40
0.0680831818
100
AcDbArc
 50
178.3962201182
 51
179.9976043278
  0
ARC
  5
27C
100
AcDbEntity
  8
0
100
AcDbCircle
 62
7
  6
CONTINUOUS
 10
3.4879406339
 20
6.6910467793
 40
0.018
100
AcDbArc
 50
167.4199084142
 51
257.4199084142
  0
ARC
  5
27D
100
AcDbEntity
  8
0
100
AcDbCircle
 62
7
  6
CONTINUOUS
 10
3.4922531557
 20
6.7103714308
 40
0.018
100
AcDbArc
 50
77.4199084142
 51
167.4199084142
  0
ARC
  5
27E
100
AcDbEntity
  8
0
100
AcDbCircle
 62
7
  6
CONTINUOUS
 10
3.4569270173
 20
6.5520730262
 40
0.018
100
AcDbArc
 50
167.4199084142
 51
257.4199084142
  0
ARC
  5
27F
100
AcDbEntity
  8
0
100
AcDbCircle
 62
7
  6
CONTINUOUS
 10
3.4660747907
 20
6.5930647112
 40
0.018
100
AcDbArc
 50
77.4199084142
 51
167.4199084142
  0
CIRCLE
  5
280
100
AcDbEntity
  8
0
100
AcDbCircle
 62
7
  6
CONTINUOUS
 10
3.4806448032
 20
6.5664099009
 40
0.0174785163
  0
ARC
  5
281
100
AcDbEntity
  8
0
100
AcDbCircle
 62
7
  6
CONTINUOUS
 10
5.0126988296
 20
5.5265307617
 40
0.0124015748
100
AcDbArc
 50
270.0
 51
360.0
  0
ARC
  5
282
100
AcDbEntity
  8
0
100
AcDbCircle
 62
7
  6
CONTINUOUS
 10
5.0067933178
 20
5.5029087145
 40
0.0112204724
100
AcDbArc
 50
90.0
 51
180.0
  0
ARC
  5
283
100
AcDbEntity
  8
0
100
AcDbCircle
 62
7
  6
CONTINUOUS
 10
5.5873648789
 20
3.0347591082
 40
0.06
100
AcDbArc
 50
180.0
 51
270.0
  0
CIRCLE
  5
284
100
AcDbEntity
  8
0
100
AcDbCircle
 62
7
  6
CONTINUOUS
 10
6.1648648789
 20
4.0235780058
 40
0.0437007874
  0
ARC
  5
285
100
AcDbEntity
  8
0
100
AcDbCircle
 62
7
  6
CONTINUOUS
 10
7.0689980422
 20
2.5448378483
 40
0.2356299213
100
AcDbArc
 50
270.0
 51
360.0
  0
ARC
  5
286
100
AcDbEntity
  8
0
100
AcDbCircle
 62
7
  6
CONTINUOUS
 10
7.0166054871
 20
2.57732101
 40
0.0680831818
100
AcDbArc
 50
358.3962201182
 51
359.9976043277
  0
ARC
  5
287
100
AcDbEntity
  8
0
100
AcDbCircle
 62
7
  6
CONTINUOUS
 10
6.7423648789
 20
3.0347591082
 40
0.06
100
AcDbArc
 50
270.0
 51
360.0
  0
ARC
  5
288
100
AcDbEntity
  8
0
100
AcDbCircle
 62
7
  6
CONTINUOUS
 10
7.3170295383
 20
2.5536961161
 40
0.0124015748
100
AcDbArc
 50
90.0
 51
180.0
  0
ARC
  5
289
100
AcDbEntity
  8
0
100
AcDbCircle
 62
7
  6
CONTINUOUS
 10
7.3229350501
 20
2.5773181633
 40
0.0112204724
100
AcDbArc
 50
270.0
 51
360.0
  0
ARC
  5
28A
100
AcDbEntity
  8
0
100
AcDbCircle
 62
7
  6
CONTINUOUS
 10
5.5873648789
 20
5.2397591082
 40
0.06
100
AcDbArc
 50
90.0
 51
180.0
  0
ARC
  5
28B
100
AcDbEntity
  8
0
100
AcDbCircle
 62
7
  6
CONTINUOUS
 10
6.1648648789
 20
4.9448390855
 40
0.2031496063
100
AcDbArc
 50
206.129242415
 51
333.870757585
  0
ARC
  5
28C
100
AcDbEntity
  8
0
100
AcDbCircle
 62
7
  6
CONTINUOUS
 10
6.1648648789
 20
4.9448390855
 40
0.2031496063
100
AcDbArc
 50
26.8848109796
 51
153.1151890204
  0
ARC
  5
28D
100
AcDbEntity
  8
0
100
AcDbCircle
 62
7
  6
CONTINUOUS
 10
6.1648648789
 20
4.9448390855
 40
0.2025435035
100
AcDbArc
 50
26.9683532862
 51
76.1501902935
  0
ARC
  5
28E
100
AcDbEntity
  8
0
100
AcDbCircle
 62
7
  6
CONTINUOUS
 10
6.1648648789
 20
4.9448390855
 40
0.2025435035
100
AcDbArc
 50
283.8498097065
 51
333.7873505145
  0
ARC
  5
28F
100
AcDbEntity
  8
0
100
AcDbCircle
 62
7
  6
CONTINUOUS
 10
6.1648648789
 20
4.9448390855
 40
0.2025435035
100
AcDbArc
 50
206.2126494855
 51
256.1501902935
  0
ARC
  5
290
100
AcDbEntity
  8
0
100
AcDbCircle
 62
7
  6
CONTINUOUS
 10
6.1648648789
 20
4.9448390855
 40
0.2025435035
100
AcDbArc
 50
103.8498097065
 51
153.0316467138
  0
ARC
  5
291
100
AcDbEntity
  8
0
100
AcDbCircle
 62
7
  6
CONTINUOUS
 10
6.1648648789
 20
4.9448390855
 40
0.196722616
100
AcDbArc
 50
104.5095841028
 51
152.1731301748
  0
ARC
  5
292
100
AcDbEntity
  8
0
100
AcDbCircle
 62
7
  6
CONTINUOUS
 10
6.1648648789
 20
4.9448390855
 40
0.196722616
100
AcDbArc
 50
207.0505371947
 51
255.4904158972
  0
ARC
  5
293
100
AcDbEntity
  8
0
100
AcDbCircle
 62
7
  6
CONTINUOUS
 10
6.1648648789
 20
4.9448390855
 40
0.196722616
100
AcDbArc
 50
284.5095841028
 51
332.9494628053
  0
ARC
  5
294
100
AcDbEntity
  8
0
100
AcDbCircle
 62
7
  6
CONTINUOUS
 10
6.1648648789
 20
4.9448390855
 40
0.196722616
100
AcDbArc
 50
27.8268698252
 51
75.4904158972
  0
ARC
  5
295
100
AcDbEntity
  8
0
100
AcDbCircle
 62
7
  6
CONTINUOUS
 10
6.1762607149
 20
4.944914532
 40
0.1914150245
100
AcDbArc
 50
277.0948603434
 51
281.0622323677
  0
ARC
  5
296
100
AcDbEntity
  8
0
100
AcDbCircle
 62
7
  6
CONTINUOUS
 10
6.1534690428
 20
4.9449145314
 40
0.1914150239
100
AcDbArc
 50
258.9377676273
 51
262.9051396636
  0
ARC
  5
297
100
AcDbEntity
  8
0
100
AcDbCircle
 62
7
  6
CONTINUOUS
 10
6.176260715
 20
4.9447636397
 40
0.1914150239
100
AcDbArc
 50
78.937767629
 51
82.905139665
  0
ARC
  5
298
100
AcDbEntity
  8
0
100
AcDbCircle
 62
7
  6
CONTINUOUS
 10
6.1534690427
 20
4.9447636399
 40
0.1914150237
100
AcDbArc
 50
97.0948603348
 51
101.062232375
  0
ARC
  5
299
100
AcDbEntity
  8
0
100
AcDbCircle
 62
7
  6
CONTINUOUS
 10
6.1648648789
 20
4.9448390855
 40
0.1743127743
100
AcDbArc
 50
285.0802774963
 51
329.3174847364
  0
ARC
  5
29A
100
AcDbEntity
  8
0
100
AcDbCircle
 62
7
  6
CONTINUOUS
 10
6.1648648789
 20
4.9448390855
 40
0.1743127743
100
AcDbArc
 50
31.6571213864
 51
74.9197225037
  0
ARC
  5
29B
100
AcDbEntity
  8
0
100
AcDbCircle
 62
7
  6
CONTINUOUS
 10
6.1648648789
 20
4.9448390855
 40
0.1743127743
100
AcDbArc
 50
105.0802774963
 51
148.3428803186
  0
ARC
  5
29C
100
AcDbEntity
  8
0
100
AcDbCircle
 62
7
  6
CONTINUOUS
 10
6.1648648789
 20
4.9448390855
 40
0.1743127743
100
AcDbArc
 50
210.6825172495
 51
254.9197225037
  0
ARC
  5
29D
100
AcDbEntity
  8
0
100
AcDbCircle
 62
7
  6
CONTINUOUS
 10
6.1648648789
 20
4.9448390855
 40
0.1440944882
100
AcDbArc
 50
85.6336620792
 51
94.3663379208
  0
ARC
  5
29E
100
AcDbEntity
  8
0
100
AcDbCircle
 62
7
  6
CONTINUOUS
 10
6.1648648789
 20
4.9448390855
 40
0.1440944882
100
AcDbArc
 50
265.6336620792
 51
274.3663379208
  0
ARC
  5
29F
100
AcDbEntity
  8
0
100
AcDbCircle
 62
7
  6
CONTINUOUS
 10
6.7423648789
 20
5.2397591082
 40
0.06
100
AcDbArc
 50
0.0
 51
90.0
  0
ARC
  5
2A0
100
AcDbEntity
  8
0
100
AcDbCircle
 62
7
  6
CONTINUOUS
 10
7.0689980422
 20
5.5353890294
 40
0.2356299213
100
AcDbArc
 50
0.0
 51
90.0
  0
ARC
  5
2A1
100
AcDbEntity
  8
0
100
AcDbCircle
 62
7
  6
CONTINUOUS
 10
7.0166054871
 20
5.5029058678
 40
0.0680831818
100
AcDbArc
 50
0.0023956723
 51
1.6037798818
  0
ARC
  5
2A2
100
AcDbEntity
  8
0
100
AcDbCircle
 62
7
  6
CONTINUOUS
 10
7.3170295383
 20
5.5265307617
 40
0.0124015748
100
AcDbArc
 50
180.0
 51
270.0
  0
ARC
  5
2A3
100
AcDbEntity
  8
0
100
AcDbCircle
 62
7
  6
CONTINUOUS
 10
7.3229350501
 20
5.5029087145
 40
0.0112204724
100
AcDbArc
 50
0.0
 51
90.0
  0
SPLINE
  5
2A4
100
AcDbEntity
  8
0
100
AcDbSpline
 62
7
  6
CONTINUOUS
 70
0
 71
3
 72
54
 73
50
 74
0
 42
0.0000001
 43
0.0000001
 44
0.0000000001
 40
0.0
 40
0.0
 40
0.0
 40
0.0
 40
0.0312409709
 40
0.0468825339
 40
0.0625135417
 40
0.0937601667
 40
0.1250046799
 40
0.1562566026
 40
0.1875029271
 40
0.2187536368
 40
0.2500024868
 40
0.2812500757
 40
0.3125013038
 40
0.3437463895
 40
0.3749928866
 40
0.4062481422
 40
0.4218830898
 40
0.4375059447
 40
0.4531278755
 40
0.4687629248
 40
0.484401003
 40
0.5000215223
 40
0.5312490353
 40
0.5624636232
 40
0.5936749103
 40
0.6092947357
 40
0.624922109
 40
0.6405437737
 40
0.6561559907
 40
0.6717681526
 40
0.6873920347
 40
0.7030235994
 40
0.7186587859
 40
0.7342960301
 40
0.7499303929
 40
0.7655575303
 40
0.7811841656
 40
0.796818162
 40
0.8124507278
 40
0.8280822608
 40
0.8437171985
 40
0.8593499032
 40
0.8749819754
 40
0.8906167838
 40
0.9062498099
 40
0.9374878513
 40
0.9531254572
 40
0.9687606199
 40
1.0
 40
1.0
 40
1.0
 40
1.0
 10
5.0074435955
 20
4.9306368905
 30
0.0
 10
4.9870135326
 20
4.9286501853
 30
0.0
 10
4.9560692746
 20
4.9280494355
 30
0.0
 10
4.9151264194
 20
4.9315605347
 30
0.0
 10
4.8744974418
 20
4.9378051611
 30
0.0
 10
4.8245997052
 20
4.9503981071
 30
0.0
 10
4.7668452628
 20
4.97212871
 30
0.0
 10
4.7116587479
 20
4.9997100868
 30
0.0
 10
4.6593852535
 20
5.0324627998
 30
0.0
 10
4.6103595924
 20
5.0698883809
 30
0.0
 10
4.5648711478
 20
5.1115427368
 30
0.0
 10
4.5234027316
 20
5.1572091268
 30
0.0
 10
4.4864630332
 20
5.2066201233
 30
0.0
 10
4.4547906009
 20
5.2595836022
 30
0.0
 10
4.4292275048
 20
5.3157757319
 30
0.0
 10
4.4139575944
 20
5.3649675198
 30
0.0
 10
4.4059609644
 20
5.4052863028
 30
0.0
 10
4.4022372073
 20
5.4358945512
 30
0.0
 10
4.4009252578
 20
5.466697044
 30
0.0
 10
4.4017451202
 20
5.4975191996
 30
0.0
 10
4.4044425723
 20
5.5282286871
 30
0.0
 10
4.4102101189
 20
5.5688932493
 30
0.0
 10
4.4207652069
 20
5.6191358386
 30
0.0
 10
4.4364968364
 20
5.6786296128
 30
0.0
 10
4.4502835484
 20
5.7280211219
 30
0.0
 10
4.4605738138
 20
5.7677496683
 30
0.0
 10
4.4676631336
 20
5.7977202495
 30
0.0
 10
4.473890256
 20
5.8278789422
 30
0.0
 10
4.4790156768
 20
5.8582371783
 30
0.0
 10
4.4827839319
 20
5.8887987742
 30
0.0
 10
4.4850010101
 20
5.919526008
 30
0.0
 10
4.4856561557
 20
5.9503413372
 30
0.0
 10
4.4847063586
 20
5.9811584798
 30
0.0
 10
4.4821253214
 20
6.0118845914
 30
0.0
 10
4.4778454861
 20
6.0424171998
 30
0.0
 10
4.4717512935
 20
6.0726356319
 30
0.0
 10
4.4637373171
 20
6.1024052073
 30
0.0
 10
4.4537114216
 20
6.131565475
 30
0.0
 10
4.4416137813
 20
6.1599356895
 30
0.0
 10
4.4273823642
 20
6.1873028164
 30
0.0
 10
4.4109966786
 20
6.2134395666
 30
0.0
 10
4.3925175752
 20
6.2381442566
 30
0.0
 10
4.3719887801
 20
6.2611758699
 30
0.0
 10
4.349563028
 20
6.2823658372
 30
0.0
 10
4.3174237014
 20
6.3079973473
 30
0.0
 10
4.28220039
 20
6.3295089405
 30
0.0
 10
4.2449814557
 20
6.346933657
 30
0.0
 10
4.206643673
 20
6.3617454858
 30
0.0
 10
4.176899012
 20
6.3700832686
 30
0.0
 10
4.1568663871
 20
6.3745537829
 30
0.0
  0
SPLINE
  5
2A5
100
AcDbEntity
  8
0
100
AcDbSpline
 62
7
  6
CONTINUOUS
 70
0
 71
3
 72
58
 73
54
 74
0
 42
0.0000001
 43
0.0000001
 44
0.0000000001
 40
0.0
 40
0.0
 40
0.0
 40
0.0
 40
0.0312282751
 40
0.0624725815
 40
0.078103871
 40
0.0937307721
 40
0.1249778141
 40
0.1562245878
 40
0.1874754748
 40
0.2031067853
 40
0.2187363476
 40
0.2343656154
 40
0.2499971408
 40
0.265626643
 40
0.2812551536
 40
0.2968908813
 40
0.312524316
 40
0.3281564331
 40
0.3438002495
 40
0.3516216881
 40
0.3594378323
 40
0.3672480363
 40
0.3750568013
 40
0.3906863117
 40
0.4063226962
 40
0.4219381361
 40
0.4375485964
 40
0.4531572404
 40
0.4687638301
 40
0.4999848938
 40
0.5155990686
 40
0.5312098017
 40
0.5468190949
 40
0.5624351439
 40
0.5780567631
 40
0.5936810737
 40
0.6249305758
 40
0.656180651
 40
0.6874329986
 40
0.7186845044
 40
0.749935476
 40
0.7811853013
 40
0.8124363397
 40
0.8280691355
 40
0.8437011821
 40
0.8593344711
 40
0.8749683935
 40
0.890599748
 40
0.9062288489
 40
0.9218611775
 40
0.9374970798
 40
0.9687578775
 40
1.0
 40
1.0
 40
1.0
 40
1.0
 10
5.0012388105
 20
5.0400844189
 30
0.0
 10
4.9811633007
 20
5.0378168454
 30
0.0
 10
4.9404402685
 20
5.0375768946
 30
0.0
 10
4.8904424338
 20
5.0462565439
 30
0.0
 10
4.8516011547
 20
5.0576012594
 30
0.0
 10
4.8136232804
 20
5.0715701862
 30
0.0
 10
4.7679675553
 20
5.0935602099
 30
0.0
 10
4.716556728
 20
5.1259483148
 30
0.0
 10
4.6768673788
 20
5.1574173019
 30
0.0
 10
4.647255031
 20
5.1849838124
 30
0.0
 10
4.6261931478
 20
5.2068383211
 30
0.0
 10
4.6063731452
 20
5.2298245689
 30
0.0
 10
4.5878836585
 20
5.2538958591
 30
0.0
 10
4.5708655977
 20
5.2790312215
 30
0.0
 10
4.5554806973
 20
5.3052038036
 30
0.0
 10
4.5418886402
 20
5.332357286
 30
0.0
 10
4.5303444653
 20
5.3604521377
 30
0.0
 10
4.5211594641
 20
5.3894160958
 30
0.0
 10
4.515724413
 20
5.4141606849
 30
0.0
 10
4.5127985096
 20
5.4341921252
 30
0.0
 10
4.5113389248
 20
5.4492978648
 30
0.0
 10
4.5106483768
 20
5.4644501455
 30
0.0
 10
4.5107316986
 20
5.484673132
 30
0.0
 10
4.5125021478
 20
5.509919258
 30
0.0
 10
4.5166572353
 20
5.5399786508
 30
0.0
 10
4.5222904608
 20
5.5697780785
 30
0.0
 10
4.5290412004
 20
5.599321048
 30
0.0
 10
4.5365164151
 20
5.6286799925
 30
0.0
 10
4.5470321788
 20
5.6676807832
 30
0.0
 10
4.5578636547
 20
5.7065995439
 30
0.0
 10
4.5679836476
 20
5.7457128753
 30
0.0
 10
4.5749877918
 20
5.7751944543
 30
0.0
 10
4.581164615
 20
5.8048643972
 30
0.0
 10
4.5862699108
 20
5.8347460387
 30
0.0
 10
4.5902559671
 20
5.8648080448
 30
0.0
 10
4.5940154391
 20
5.9050726169
 30
0.0
 10
4.5956732095
 20
5.9556507228
 30
0.0
 10
4.5924366027
 20
6.0162959073
 30
0.0
 10
4.5836396817
 20
6.0764015671
 30
0.0
 10
4.5689436185
 20
6.1353605621
 30
0.0
 10
4.5479590816
 20
6.1924042396
 30
0.0
 10
4.5205211559
 20
6.2466556262
 30
0.0
 10
4.4922195015
 20
6.2887160951
 30
0.0
 10
4.4665283813
 20
6.3199828525
 30
0.0
 10
4.4457708796
 20
6.3421426365
 30
0.0
 10
4.4236192716
 20
6.3629072608
 30
0.0
 10
4.4001928455
 20
6.3822208694
 30
0.0
 10
4.3755978735
 20
6.4000174238
 30
0.0
 10
4.3499475685
 20
6.416251647
 30
0.0
 10
4.3233738752
 20
6.4309297646
 30
0.0
 10
4.2868811412
 20
6.44843128
 30
0.0
 10
4.2395415271
 20
6.466450068
 30
0.0
 10
4.2004428228
 20
6.4770226772
 30
0.0
 10
4.1807159392
 20
6.4814249617
 30
0.0
  0
SPLINE
  5
2A6
100
AcDbEntity
  8
0
100
AcDbSpline
 62
7
  6
CONTINUOUS
 70
0
 71
3
 72
11
 73
7
 74
0
 42
0.0000001
 43
0.0000001
 44
0.0000000001
 40
0.0
 40
0.0
 40
0.0
 40
0.0
 40
0.2454728146
 40
0.5054297197
 40
0.7620684949
 40
1.0
 40
1.0
 40
1.0
 40
1.0
 10
6.1298269027
 20
4.7549651681
 30
0.0
 10
6.1298154921
 20
4.7535964266
 30
0.0
 10
6.1302727715
 20
4.750751266
 30
0.0
 10
6.1324128626
 20
4.7469685858
 30
0.0
 10
6.1357621556
 20
4.7442580852
 30
0.0
 10
6.1384602886
 20
4.7434084023
 30
0.0
 10
6.1397768704
 20
4.7432445559
 30
0.0
  0
SPLINE
  5
2A7
100
AcDbEntity
  8
0
100
AcDbSpline
 62
7
  6
CONTINUOUS
 70
0
 71
3
 72
9
 73
5
 74
0
 42
0.0000001
 43
0.0000001
 44
0.0000000001
 40
0.0
 40
0.0
 40
0.0
 40
0.0
 40
0.2465232036
 40
1.0
 40
1.0
 40
1.0
 40
1.0
 10
6.2106588071
 20
5.1427599755
 30
0.0
 10
6.210897848
 20
5.1427046672
 30
0.0
 10
6.211855315
 20
5.1424293458
 30
0.0
 10
6.2127499794
 20
5.1419447568
 30
0.0
 10
6.21334926
 20
5.1414939497
 30
0.0
  0
SPLINE
  5
2A8
100
AcDbEntity
  8
0
100
AcDbSpline
 62
7
  6
CONTINUOUS
 70
0
 71
3
 72
19
 73
15
 74
0
 42
0.0000001
 43
0.0000001
 44
0.0000000001
 40
0.0
 40
0.0
 40
0.0
 40
0.0
 40
0.0209276363
 40
0.0445535178
 40
0.0731034429
 40
0.1080956948
 40
0.150343802
 40
0.2000172132
 40
0.2569480392
 40
0.3204638519
 40
0.4656588883
 40
0.6318519662
 40
0.8128020061
 40
1.0
 40
1.0
 40
1.0
 40
1.0
 10
6.1397768342
 20
5.1464336106
 30
0.0
 10
6.1402059712
 20
5.1464870155
 30
0.0
 10
6.1411546242
 20
5.14638566
 30
0.0
 10
6.1424987676
 20
5.1456375529
 30
0.0
 10
6.1437813656
 20
5.1443515901
 30
0.0
 10
6.145019386
 20
5.1425404129
 30
0.0
 10
6.1462231486
 20
5.1402052512
 30
0.0
 10
6.1473810926
 20
5.1373522249
 30
0.0
 10
6.1484727974
 20
5.1340083819
 30
0.0
 10
6.1498929859
 20
5.1287039509
 30
0.0
 10
6.1513793094
 20
5.1210921367
 30
0.0
 10
6.152699198
 20
5.1109998558
 30
0.0
 10
6.153568866
 20
5.0999883685
 30
0.0
 10
6.1538356676
 20
5.0923831607
 30
0.0
 10
6.1538944584
 20
5.088515361
 30
0.0
  0
SPLINE
  5
2A9
100
AcDbEntity
  8
0
100
AcDbSpline
 62
7
  6
CONTINUOUS
 70
0
 71
3
 72
9
 73
5
 74
0
 42
0.0000001
 43
0.0000001
 44
0.0000000001
 40
0.0
 40
0.0
 40
0.0
 40
0.0
 40
0.2564610302
 40
1.0
 40
1.0
 40
1.0
 40
1.0
 10
6.21334926
 20
4.7481842213
 30
0.0
 10
6.2131452903
 20
4.7480307857
 30
0.0
 10
6.2123210759
 20
4.7474720391
 30
0.0
 10
6.2113797523
 20
4.7470850048
 30
0.0
 10
6.2106588071
 20
4.7469181956
 30
0.0
  0
SPLINE
  5
2AA
100
AcDbEntity
  8
0
100
AcDbSpline
 62
7
  6
CONTINUOUS
 70
0
 71
3
 72
19
 73
15
 74
0
 42
0.0000001
 43
0.0000001
 44
0.0000000001
 40
0.0
 40
0.0
 40
0.0
 40
0.0
 40
0.1858985474
 40
0.3635358744
 40
0.5276139042
 40
0.6714695531
 40
0.7343335506
 40
0.7903897068
 40
0.8400061244
 40
0.8829396538
 40
0.9190964013
 40
0.9494551329
 40
0.9757194362
 40
1.0
 40
1.0
 40
1.0
 40
1.0
 10
6.1872438308
 20
4.8011628094
 30
0.0
 10
6.1872438308
 20
4.7980464638
 30
0.0
 10
6.1874031386
 20
4.79195098
 30
0.0
 10
6.1881162608
 20
4.7831301557
 30
0.0
 10
6.1892683804
 20
4.7750668121
 30
0.0
 10
6.190601954
 20
4.7689861461
 30
0.0
 10
6.1918828067
 20
4.7647691026
 30
0.0
 10
6.1928712632
 20
4.7621198725
 30
0.0
 10
6.1939258685
 20
4.7598594089
 30
0.0
 10
6.1950300959
 20
4.7580003732
 30
0.0
 10
6.1961776533
 20
4.7565586876
 30
0.0
 10
6.1973761127
 20
4.7555454252
 30
0.0
 10
6.1986304458
 20
4.7549748026
 30
0.0
 10
6.1994989395
 20
4.7549149007
 30
0.0
 10
6.1999028555
 20
4.7549651682
 30
0.0
  0
SPLINE
  5
2AB
100
AcDbEntity
  8
0
100
AcDbSpline
 62
7
  6
CONTINUOUS
 70
0
 71
3
 72
19
 73
15
 74
0
 42
0.0000001
 43
0.0000001
 44
0.0000000001
 40
0.0
 40
0.0
 40
0.0
 40
0.0
 40
0.0210440809
 40
0.044717163
 40
0.07328968
 40
0.1083463539
 40
0.1507087082
 40
0.2001716194
 40
0.2564132448
 40
0.3197393984
 40
0.465170849
 40
0.631428728
 40
0.8115623998
 40
1.0
 40
1.0
 40
1.0
 40
1.0
 10
6.1899527058
 20
4.7432445333
 30
0.0
 10
6.1895211809
 20
4.7431908301
 30
0.0
 10
6.1885687199
 20
4.7432932881
 30
0.0
 10
6.1872232775
 20
4.7440469847
 30
0.0
 10
6.1859396053
 20
4.7453354918
 30
0.0
 10
6.1847015922
 20
4.7471519647
 30
0.0
 10
6.1835017066
 20
4.749488237
 30
0.0
 10
6.1823488819
 20
4.7523257031
 30
0.0
 10
6.1812625929
 20
4.7556476479
 30
0.0
 10
6.179845002
 20
4.7609390311
 30
0.0
 10
6.1783550792
 20
4.7685524975
 30
0.0
 10
6.1770354036
 20
4.7786341299
 30
0.0
 10
6.1761623258
 20
4.7896554143
 30
0.0
 10
6.1758942736
 20
4.7972693917
 30
0.0
 10
6.1758350928
 20
4.8011628069
 30
0.0
  0
SPLINE
  5
2AC
100
AcDbEntity
  8
0
100
AcDbSpline
 62
7
  6
CONTINUOUS
 70
0
 71
3
 72
19
 73
15
 74
0
 42
0.0000001
 43
0.0000001
 44
0.0000000001
 40
0.0
 40
0.0
 40
0.0
 40
0.0
 40
0.1884373983
 40
0.3685708776
 40
0.5348285818
 40
0.6802598846
 40
0.7435859761
 40
0.7998275483
 40
0.8493137812
 40
0.8916545525
 40
0.9267049598
 40
0.9552820986
 40
0.9789555647
 40
1.0
 40
1.0
 40
1.0
 40
1.0
 10
6.1538946301
 20
4.8011628075
 30
0.0
 10
6.1538354495
 20
4.7972693928
 30
0.0
 10
6.1535674027
 20
4.7896554142
 30
0.0
 10
6.152694303
 20
4.7786341408
 30
0.0
 10
6.1513746981
 20
4.7685524794
 30
0.0
 10
6.149884588
 20
4.7609390936
 30
0.0
 10
6.1484673199
 20
4.755647573
 30
0.0
 10
6.147380086
 20
4.752325508
 30
0.0
 10
6.1462296568
 20
4.7494869763
 30
0.0
 10
6.1450278
 20
4.7471517222
 30
0.0
 10
6.1437895977
 20
4.7453361188
 30
0.0
 10
6.142506608
 20
4.744046986
 30
0.0
 10
6.1411610354
 20
4.7432931015
 30
0.0
 10
6.1402085479
 20
4.7431908339
 30
0.0
 10
6.1397770153
 20
4.7432445379
 30
0.0
  0
SPLINE
  5
2AD
100
AcDbEntity
  8
0
100
AcDbSpline
 62
7
  6
CONTINUOUS
 70
0
 71
3
 72
14
 73
10
 74
0
 42
0.0000001
 43
0.0000001
 44
0.0000000001
 40
0.0
 40
0.0
 40
0.0
 40
0.0
 40
0.0421732348
 40
0.1037479656
 40
0.1908134375
 40
0.3045521902
 40
0.4445230751
 40
0.6087636411
 40
1.0
 40
1.0
 40
1.0
 40
1.0
 10
5.2468369703
 20
2.5660976909
 30
0.0
 10
5.2467528072
 20
2.5660976909
 30
0.0
 10
5.2465531395
 20
2.5662041866
 30
0.0
 10
5.2463369023
 20
2.5665210232
 30
0.0
 10
5.2461192037
 20
2.5669991581
 30
0.0
 10
5.2459153993
 20
2.5676491098
 30
0.0
 10
5.245724842
 20
2.5684615932
 30
0.0
 10
5.2454802268
 20
2.5698282022
 30
0.0
 10
5.2453520422
 20
2.5709304413
 30
0.0
 10
5.2452804878
 20
2.5717079271
 30
0.0
  0
LINE
  5
2AE
100
AcDbEntity
  8
0
100
AcDbLine
 62
7
  6
CONTINUOUS
 10
5.2452804878
 20
2.5717079271
 11
5.2450663692
 21
2.5754155262
  0
SPLINE
  5
2AF
100
AcDbEntity
  8
0
100
AcDbSpline
 62
7
  6
CONTINUOUS
 70
0
 71
3
 72
19
 73
15
 74
0
 42
0.0000001
 43
0.0000001
 44
0.0000000001
 40
0.0
 40
0.0
 40
0.0
 40
0.0
 40
0.0242810684
 40
0.0505454948
 40
0.0809076585
 40
0.1170590837
 40
0.1599732816
 40
0.2096112175
 40
0.2656673081
 40
0.3285312321
 40
0.4723867127
 40
0.6364645507
 40
0.81410167
 40
1.0
 40
1.0
 40
1.0
 40
1.0
 10
6.1298269023
 20
4.7549651682
 30
0.0
 10
6.1302308271
 20
4.7549148996
 30
0.0
 10
6.1310993327
 20
4.7549746518
 30
0.0
 10
6.132353773
 20
4.7555453868
 30
0.0
 10
6.1335516811
 20
4.7565592478
 30
0.0
 10
6.1346993551
 20
4.7580002217
 30
0.0
 10
6.135805367
 20
4.7598582361
 30
0.0
 10
6.1368578318
 20
4.7621197966
 30
0.0
 10
6.1378471183
 20
4.7647690205
 30
0.0
 10
6.1391276872
 20
4.7689862033
 30
0.0
 10
6.1404614245
 20
4.775066789
 30
0.0
 10
6.1416134824
 20
4.7831301628
 30
0.0
 10
6.1423266237
 20
4.7919509778
 30
0.0
 10
6.142485927
 20
4.7980464638
 30
0.0
 10
6.142485927
 20
4.8011628094
 30
0.0
  0
SPLINE
  5
2B0
100
AcDbEntity
  8
0
100
AcDbSpline
 62
7
  6
CONTINUOUS
 70
0
 71
3
 72
13
 73
9
 74
0
 42
0.0000001
 43
0.0000001
 44
0.0000000001
 40
0.0
 40
0.0
 40
0.0
 40
0.0
 40
0.2178864102
 40
0.4331730122
 40
0.5454124463
 40
0.6679560905
 40
0.8124972517
 40
1.0
 40
1.0
 40
1.0
 40
1.0
 10
6.1155776117
 20
4.7543907908
 30
0.0
 10
6.1153253758
 20
4.7539549439
 30
0.0
 10
6.1148901918
 20
4.7530461417
 30
0.0
 10
6.1146296367
 20
4.7517927033
 30
0.0
 10
6.1146873163
 20
4.7507472942
 30
0.0
 10
6.114933009
 20
4.7498974858
 30
0.0
 10
6.1154643158
 20
4.7489771986
 30
0.0
 10
6.116034191
 20
4.7484447296
 30
0.0
 10
6.1163804978
 20
4.7481842213
 30
0.0
  0
SPLINE
  5
2B1
100
AcDbEntity
  8
0
100
AcDbSpline
 62
7
  6
CONTINUOUS
 70
0
 71
3
 72
9
 73
5
 74
0
 42
0.0000001
 43
0.0000001
 44
0.0000000001
 40
0.0
 40
0.0
 40
0.0
 40
0.0
 40
0.2465232037
 40
1.0
 40
1.0
 40
1.0
 40
1.0
 10
6.1190709507
 20
4.7469181956
 30
0.0
 10
6.1188319098
 20
4.7469735038
 30
0.0
 10
6.1178744428
 20
4.7472488252
 30
0.0
 10
6.1169797784
 20
4.7477334142
 30
0.0
 10
6.1163804978
 20
4.7481842213
 30
0.0
  0
SPLINE
  5
2B2
100
AcDbEntity
  8
0
100
AcDbSpline
 62
7
  6
CONTINUOUS
 70
0
 71
3
 72
9
 73
5
 74
0
 42
0.0000001
 43
0.0000001
 44
0.0000000001
 40
0.0
 40
0.0
 40
0.0
 40
0.0
 40
0.4709282077
 40
1.0
 40
1.0
 40
1.0
 40
1.0
 10
7.0422163124
 20
5.7710189507
 30
0.0
 10
7.0429757285
 20
5.7710189507
 30
0.0
 10
7.0445974594
 20
5.7706958383
 30
0.0
 10
7.046006647
 20
5.7698636204
 30
0.0
 10
7.0466906978
 20
5.7693537308
 30
0.0
  0
SPLINE
  5
2B3
100
AcDbEntity
  8
0
100
AcDbSpline
 62
7
  6
CONTINUOUS
 70
0
 71
3
 72
9
 73
5
 74
0
 42
0.0000001
 43
0.0000001
 44
0.0000000001
 40
0.0
 40
0.0
 40
0.0
 40
0.0
 40
0.4602779896
 40
1.0
 40
1.0
 40
1.0
 40
1.0
 10
7.0466906978
 20
5.7693537308
 30
0.0
 10
7.0474037766
 20
5.7688222037
 30
0.0
 10
7.048821938
 20
5.7674908472
 30
0.0
 10
7.0500155404
 20
5.7659647074
 30
0.0
 10
7.0506148522
 20
5.7651112166
 30
0.0
  0
SPLINE
  5
2B4
100
AcDbEntity
  8
0
100
AcDbSpline
 62
7
  6
CONTINUOUS
 70
0
 71
3
 72
9
 73
5
 74
0
 42
0.0000001
 43
0.0000001
 44
0.0000000001
 40
0.0
 40
0.0
 40
0.0
 40
0.0
 40
0.4596302021
 40
1.0
 40
1.0
 40
1.0
 40
1.0
 10
7.0506148522
 20
5.7651112166
 30
0.0
 10
7.051468526
 20
5.7638954844
 30
0.0
 10
7.053131535
 20
5.7611140312
 30
0.0
 10
7.0545214581
 20
5.7581926308
 30
0.0
 10
7.0552200529
 20
5.7565919706
 30
0.0
  0
SPLINE
  5
2B5
100
AcDbEntity
  8
0
100
AcDbSpline
 62
7
  6
CONTINUOUS
 70
0
 71
3
 72
18
 73
14
 74
0
 42
0.0000001
 43
0.0000001
 44
0.0000000001
 40
0.0
 40
0.0
 40
0.0
 40
0.0
 40
0.0327453782
 40
0.0706117977
 40
0.113488593
 40
0.1611983335
 40
0.213535572
 40
0.2702337457
 40
0.3954986867
 40
0.5342971493
 40
0.6835510253
 40
0.8400340749
 40
1.0
 40
1.0
 40
1.0
 40
1.0
 10
7.0552200529
 20
5.7565919706
 30
0.0
 10
7.0561960251
 20
5.7543557675
 30
0.0
 10
7.0580816283
 20
5.7494377281
 30
0.0
 10
7.0606189487
 20
5.7413676889
 30
0.0
 10
7.0630565082
 20
5.7321090042
 30
0.0
 10
7.0653791995
 20
5.7217139185
 30
0.0
 10
7.0675704789
 20
5.7102403904
 30
0.0
 10
7.0703952593
 20
5.6930107837
 30
0.0
 10
7.0734444815
 20
5.6692983944
 30
0.0
 10
7.0763032214
 20
5.6386297778
 30
0.0
 10
7.0783971362
 20
5.6055686027
 30
0.0
 10
7.0796730967
 20
5.5708883965
 30
0.0
 10
7.0799590078
 20
5.5473083092
 30
0.0
 10
7.0799590078
 20
5.5353890294
 30
0.0
  0
SPLINE
  5
2B6
100
AcDbEntity
  8
0
100
AcDbSpline
 62
7
  6
CONTINUOUS
 70
0
 71
3
 72
9
 73
5
 74
0
 42
0.0000001
 43
0.0000001
 44
0.0000000001
 40
0.0
 40
0.0
 40
0.0
 40
0.0
 40
0.4709282077
 40
1.0
 40
1.0
 40
1.0
 40
1.0
 10
5.2875120555
 20
2.3092079271
 30
0.0
 10
5.2867526394
 20
2.3092079271
 30
0.0
 10
5.2851309086
 20
2.3095310395
 30
0.0
 10
5.283721721
 20
2.3103632573
 30
0.0
 10
5.2830376702
 20
2.310873147
 30
0.0
  0
SPLINE
  5
2B7
100
AcDbEntity
  8
0
100
AcDbSpline
 62
7
  6
CONTINUOUS
 70
0
 71
3
 72
9
 73
5
 74
0
 42
0.0000001
 43
0.0000001
 44
0.0000000001
 40
0.0
 40
0.0
 40
0.0
 40
0.0
 40
0.4602779896
 40
1.0
 40
1.0
 40
1.0
 40
1.0
 10
5.2830376702
 20
2.310873147
 30
0.0
 10
5.2823245913
 20
2.3114046741
 30
0.0
 10
5.28090643
 20
2.3127360306
 30
0.0
 10
5.2797128276
 20
2.3142621703
 30
0.0
 10
5.2791135157
 20
2.3151156612
 30
0.0
  0
SPLINE
  5
2B8
100
AcDbEntity
  8
0
100
AcDbSpline
 62
7
  6
CONTINUOUS
 70
0
 71
3
 72
9
 73
5
 74
0
 42
0.0000001
 43
0.0000001
 44
0.0000000001
 40
0.0
 40
0.0
 40
0.0
 40
0.0
 40
0.4596302021
 40
1.0
 40
1.0
 40
1.0
 40
1.0
 10
5.2791135157
 20
2.3151156612
 30
0.0
 10
5.2782598419
 20
2.3163313934
 30
0.0
 10
5.276596833
 20
2.3191128465
 30
0.0
 10
5.2752069099
 20
2.322034247
 30
0.0
 10
5.274508315
 20
2.3236349072
 30
0.0
  0
SPLINE
  5
2B9
100
AcDbEntity
  8
0
100
AcDbSpline
 62
7
  6
CONTINUOUS
 70
0
 71
3
 72
18
 73
14
 74
0
 42
0.0000001
 43
0.0000001
 44
0.0000000001
 40
0.0
 40
0.0
 40
0.0
 40
0.0
 40
0.0327453782
 40
0.0706117977
 40
0.113488593
 40
0.1611983335
 40
0.213535572
 40
0.2702337457
 40
0.3954986867
 40
0.5342971493
 40
0.6835510253
 40
0.8400340749
 40
1.0
 40
1.0
 40
1.0
 40
1.0
 10
5.274508315
 20
2.3236349072
 30
0.0
 10
5.2735323428
 20
2.3258711103
 30
0.0
 10
5.2716467396
 20
2.3307891496
 30
0.0
 10
5.2691094192
 20
2.3388591889
 30
0.0
 10
5.2666718597
 20
2.3481178735
 30
0.0
 10
5.2643491684
 20
2.3585129593
 30
0.0
 10
5.262157889
 20
2.3699864874
 30
0.0
 10
5.2593331086
 20
2.3872160941
 30
0.0
 10
5.2562838865
 20
2.4109284834
 30
0.0
 10
5.2534251465
 20
2.4415971
 30
0.0
 10
5.2513312318
 20
2.4746582751
 30
0.0
 10
5.2500552712
 20
2.5093384813
 30
0.0
 10
5.2497693602
 20
2.5329185686
 30
0.0
 10
5.2497693602
 20
2.5448378483
 30
0.0
  0
LINE
  5
2BA
100
AcDbEntity
  8
0
100
AcDbLine
 62
7
  6
CONTINUOUS
 10
6.2129884899
 20
4.7570560746
 11
6.2141521461
 21
4.7543907908
  0
SPLINE
  5
2BB
100
AcDbEntity
  8
0
100
AcDbSpline
 62
7
  6
CONTINUOUS
 70
0
 71
3
 72
12
 73
8
 74
0
 42
0.0000001
 43
0.0000001
 44
0.0000000001
 40
0.0
 40
0.0
 40
0.0
 40
0.0
 40
0.2909003568
 40
0.5655430879
 40
0.8065990022
 40
0.9100480189
 40
1.0
 40
1.0
 40
1.0
 40
1.0
 10
6.2102162092
 20
4.7765292518
 30
0.0
 10
6.2102162092
 20
4.7746121463
 30
0.0
 10
6.2103287058
 20
4.770883669
 30
0.0
 10
6.2108409077
 20
4.7655891367
 30
0.0
 10
6.2115627423
 20
4.7615648623
 30
0.0
 10
6.212326066
 20
4.7588035608
 30
0.0
 10
6.2127573292
 20
4.7576019533
 30
0.0
 10
6.2129884899
 20
4.7570560746
 30
0.0
  0
SPLINE
  5
2BC
100
AcDbEntity
  8
0
100
AcDbSpline
 62
7
  6
CONTINUOUS
 70
0
 71
3
 72
12
 73
8
 74
0
 42
0.0000001
 43
0.0000001
 44
0.0000000001
 40
0.0
 40
0.0
 40
0.0
 40
0.0
 40
0.0899519865
 40
0.1934010099
 40
0.4344568975
 40
0.7090996207
 40
1.0
 40
1.0
 40
1.0
 40
1.0
 10
6.2129884899
 20
5.1326220964
 30
0.0
 10
6.2127573292
 20
5.1320762177
 30
0.0
 10
6.212326066
 20
5.1308746101
 30
0.0
 10
6.2115627423
 20
5.1281133087
 30
0.0
 10
6.2108409076
 20
5.1240890345
 30
0.0
 10
6.210328706
 20
5.1187945023
 30
0.0
 10
6.2102162092
 20
5.1150660249
 30
0.0
 10
6.2102162092
 20
5.1131489193
 30
0.0
  0
SPLINE
  5
2BD
100
AcDbEntity
  8
0
100
AcDbSpline
 62
7
  6
CONTINUOUS
 70
0
 71
3
 72
17
 73
13
 74
0
 42
0.0000001
 43
0.0000001
 44
0.0000000001
 40
0.0
 40
0.0
 40
0.0
 40
0.0
 40
0.1883667946
 40
0.3704505435
 40
0.5383830978
 40
0.6861753792
 40
0.8086770074
 40
0.859233054
 40
0.9021316345
 40
0.9371601512
 40
0.9645353202
 40
1.0
 40
1.0
 40
1.0
 40
1.0
 10
7.0799590078
 20
5.5265307617
 30
0.0
 10
7.0799590078
 20
5.525725852
 30
0.0
 10
7.0799839825
 20
5.5241427725
 30
0.0
 10
7.0800927073
 20
5.5218443762
 30
0.0
 10
7.0802702448
 20
5.5197240345
 30
0.0
 10
7.0805075801
 20
5.5178658756
 30
0.0
 10
7.0807589707
 20
5.5165168702
 30
0.0
 10
7.0809938502
 20
5.5156234742
 30
0.0
 10
7.0811651784
 20
5.5151026683
 30
0.0
 10
7.0813484385
 20
5.5146866772
 30
0.0
 10
7.0815560402
 20
5.5143355468
 30
0.0
 10
7.0817939214
 20
5.5141291869
 30
0.0
 10
7.0819454654
 20
5.5141291869
 30
0.0
  0
LINE
  5
2BE
100
AcDbEntity
  8
0
100
AcDbLine
 62
7
  6
CONTINUOUS
 10
6.2141521461
 20
5.1352873802
 11
6.2129884899
 21
5.1326220964
  0
SPLINE
  5
2BF
100
AcDbEntity
  8
0
100
AcDbSpline
 62
7
  6
CONTINUOUS
 70
0
 71
3
 72
14
 73
10
 74
0
 42
0.0000001
 43
0.0000001
 44
0.0000000001
 40
0.0
 40
0.0
 40
0.0
 40
0.0
 40
0.0421732348
 40
0.1037479656
 40
0.1908134375
 40
0.3045521902
 40
0.4445230751
 40
0.6087636411
 40
1.0
 40
1.0
 40
1.0
 40
1.0
 10
7.0828913976
 20
2.5660976909
 30
0.0
 10
7.0829755607
 20
2.5660976909
 30
0.0
 10
7.0831752284
 20
2.5662041866
 30
0.0
 10
7.0833914656
 20
2.5665210232
 30
0.0
 10
7.0836091643
 20
2.5669991581
 30
0.0
 10
7.0838129687
 20
2.5676491098
 30
0.0
 10
7.084003526
 20
2.5684615932
 30
0.0
 10
7.0842481412
 20
2.5698282022
 30
0.0
 10
7.0843763257
 20
2.5709304413
 30
0.0
 10
7.0844478801
 20
2.5717079271
 30
0.0
  0
LINE
  5
2C0
100
AcDbEntity
  8
0
100
AcDbLine
 62
7
  6
CONTINUOUS
 10
7.0844478801
 20
2.5717079271
 11
7.0846619987
 21
2.5754155262
  0
SPLINE
  5
2C1
100
AcDbEntity
  8
0
100
AcDbSpline
 62
7
  6
CONTINUOUS
 70
0
 71
3
 72
14
 73
10
 74
0
 42
0.0000001
 43
0.0000001
 44
0.0000000001
 40
0.0
 40
0.0
 40
0.0
 40
0.0
 40
0.0421732348
 40
0.1037479656
 40
0.1908134375
 40
0.3045521902
 40
0.4445230751
 40
0.6087636411
 40
1.0
 40
1.0
 40
1.0
 40
1.0
 10
7.0828913976
 20
5.5141291869
 30
0.0
 10
7.0829755607
 20
5.5141291869
 30
0.0
 10
7.0831752284
 20
5.5140226912
 30
0.0
 10
7.0833914656
 20
5.5137058546
 30
0.0
 10
7.0836091643
 20
5.5132277197
 30
0.0
 10
7.0838129687
 20
5.5125777679
 30
0.0
 10
7.084003526
 20
5.5117652845
 30
0.0
 10
7.0842481412
 20
5.5103986756
 30
0.0
 10
7.0843763257
 20
5.5092964365
 30
0.0
 10
7.0844478801
 20
5.5085189507
 30
0.0
  0
LINE
  5
2C2
100
AcDbEntity
  8
0
100
AcDbLine
 62
7
  6
CONTINUOUS
 10
7.0844478801
 20
5.5085189507
 11
7.0846619987
 21
5.5048113515
  0
SPLINE
  5
2C3
100
AcDbEntity
  8
0
100
AcDbSpline
 62
7
  6
CONTINUOUS
 70
0
 71
3
 72
11
 73
7
 74
0
 42
0.0000001
 43
0.0000001
 44
0.0000000001
 40
0.0
 40
0.0
 40
0.0
 40
0.0
 40
0.1866035371
 40
0.3383918191
 40
0.5844107801
 40
1.0
 40
1.0
 40
1.0
 40
1.0
 10
6.21334926
 20
4.7481842213
 30
0.0
 10
6.2136075835
 20
4.7483785444
 30
0.0
 10
6.2140509917
 20
4.7487693456
 30
0.0
 10
6.2146571047
 20
4.7495871128
 30
0.0
 10
6.2151814918
 20
4.7509267037
 30
0.0
 10
6.2150550137
 20
4.7521279647
 30
0.0
 10
6.2148484667
 20
4.7528176237
 30
0.0
  0
LINE
  5
2C4
100
AcDbEntity
  8
0
100
AcDbLine
 62
7
  6
CONTINUOUS
 10
6.2148484667
 20
4.7528176237
 11
6.2141521461
 21
4.7543907908
  0
SPLINE
  5
2C5
100
AcDbEntity
  8
0
100
AcDbSpline
 62
7
  6
CONTINUOUS
 70
0
 71
3
 72
11
 73
7
 74
0
 42
0.0000001
 43
0.0000001
 44
0.0000000001
 40
0.0
 40
0.0
 40
0.0
 40
0.0
 40
0.2472014155
 40
0.5054577573
 40
0.7603303061
 40
1.0
 40
1.0
 40
1.0
 40
1.0
 10
6.1999028564
 20
4.7549651333
 30
0.0
 10
6.1999143293
 20
4.7535884233
 30
0.0
 10
6.1994018399
 20
4.7507613698
 30
0.0
 10
6.1973345533
 20
4.7469535198
 30
0.0
 10
6.1939493198
 20
4.7443123581
 30
0.0
 10
6.1912774956
 20
4.7434094023
 30
0.0
 10
6.1899529027
 20
4.7432445578
 30
0.0
  0
SPLINE
  5
2C6
100
AcDbEntity
  8
0
100
AcDbSpline
 62
7
  6
CONTINUOUS
 70
0
 71
3
 72
11
 73
7
 74
0
 42
0.0000001
 43
0.0000001
 44
0.0000000001
 40
0.0
 40
0.0
 40
0.0
 40
0.0
 40
0.1866038408
 40
0.3383920165
 40
0.5844106628
 40
1.0
 40
1.0
 40
1.0
 40
1.0
 10
6.1163804978
 20
5.1414939497
 30
0.0
 10
6.1161221708
 20
5.141299624
 30
0.0
 10
6.1156787566
 20
5.1409088183
 30
0.0
 10
6.1150726389
 20
5.1400910392
 30
0.0
 10
6.1145482605
 20
5.1387514263
 30
0.0
 10
6.1146747521
 20
5.137550153
 30
0.0
 10
6.1148813089
 20
5.1368604877
 30
0.0
  0
LINE
  5
2C7
100
AcDbEntity
  8
0
100
AcDbLine
 62
7
  6
CONTINUOUS
 10
6.1148813089
 20
5.1368604877
 11
6.1155776117
 21
5.1352873802
  0
SPLINE
  5
2C8
100
AcDbEntity
  8
0
100
AcDbSpline
 62
7
  6
CONTINUOUS
 70
0
 71
3
 72
9
 73
5
 74
0
 42
0.0000001
 43
0.0000001
 44
0.0000000001
 40
0.0
 40
0.0
 40
0.0
 40
0.0
 40
0.4709282077
 40
1.0
 40
1.0
 40
1.0
 40
1.0
 10
7.0422163124
 20
2.3092079271
 30
0.0
 10
7.0429757285
 20
2.3092079271
 30
0.0
 10
7.0445974594
 20
2.3095310395
 30
0.0
 10
7.046006647
 20
2.3103632573
 30
0.0
 10
7.0466906978
 20
2.310873147
 30
0.0
  0
SPLINE
  5
2C9
100
AcDbEntity
  8
0
100
AcDbSpline
 62
7
  6
CONTINUOUS
 70
0
 71
3
 72
9
 73
5
 74
0
 42
0.0000001
 43
0.0000001
 44
0.0000000001
 40
0.0
 40
0.0
 40
0.0
 40
0.0
 40
0.4602779896
 40
1.0
 40
1.0
 40
1.0
 40
1.0
 10
7.0466906978
 20
2.310873147
 30
0.0
 10
7.0474037766
 20
2.3114046741
 30
0.0
 10
7.048821938
 20
2.3127360306
 30
0.0
 10
7.0500155404
 20
2.3142621703
 30
0.0
 10
7.0506148522
 20
2.3151156612
 30
0.0
  0
SPLINE
  5
2CA
100
AcDbEntity
  8
0
100
AcDbSpline
 62
7
  6
CONTINUOUS
 70
0
 71
3
 72
9
 73
5
 74
0
 42
0.0000001
 43
0.0000001
 44
0.0000000001
 40
0.0
 40
0.0
 40
0.0
 40
0.0
 40
0.4596302021
 40
1.0
 40
1.0
 40
1.0
 40
1.0
 10
7.0506148522
 20
2.3151156612
 30
0.0
 10
7.051468526
 20
2.3163313934
 30
0.0
 10
7.053131535
 20
2.3191128465
 30
0.0
 10
7.0545214581
 20
2.322034247
 30
0.0
 10
7.0552200529
 20
2.3236349072
 30
0.0
  0
SPLINE
  5
2CB
100
AcDbEntity
  8
0
100
AcDbSpline
 62
7
  6
CONTINUOUS
 70
0
 71
3
 72
18
 73
14
 74
0
 42
0.0000001
 43
0.0000001
 44
0.0000000001
 40
0.0
 40
0.0
 40
0.0
 40
0.0
 40
0.0327453782
 40
0.0706117977
 40
0.113488593
 40
0.1611983335
 40
0.213535572
 40
0.2702337457
 40
0.3954986867
 40
0.5342971493
 40
0.6835510253
 40
0.8400340749
 40
1.0
 40
1.0
 40
1.0
 40
1.0
 10
7.0552200529
 20
2.3236349072
 30
0.0
 10
7.0561960251
 20
2.3258711103
 30
0.0
 10
7.0580816283
 20
2.3307891496
 30
0.0
 10
7.0606189487
 20
2.3388591889
 30
0.0
 10
7.0630565082
 20
2.3481178735
 30
0.0
 10
7.0653791995
 20
2.3585129593
 30
0.0
 10
7.0675704789
 20
2.3699864874
 30
0.0
 10
7.0703952593
 20
2.3872160941
 30
0.0
 10
7.0734444815
 20
2.4109284834
 30
0.0
 10
7.0763032214
 20
2.4415971
 30
0.0
 10
7.0783971362
 20
2.4746582751
 30
0.0
 10
7.0796730967
 20
2.5093384813
 30
0.0
 10
7.0799590078
 20
2.5329185686
 30
0.0
 10
7.0799590078
 20
2.5448378483
 30
0.0
  0
SPLINE
  5
2CC
100
AcDbEntity
  8
0
100
AcDbSpline
 62
7
  6
CONTINUOUS
 70
0
 71
3
 72
11
 73
7
 74
0
 42
0.0000001
 43
0.0000001
 44
0.0000000001
 40
0.0
 40
0.0
 40
0.0
 40
0.0
 40
0.2472014155
 40
0.5054577573
 40
0.7603303061
 40
1.0
 40
1.0
 40
1.0
 40
1.0
 10
6.1298269014
 20
5.1347130377
 30
0.0
 10
6.1298154285
 20
5.1360897478
 30
0.0
 10
6.1303279179
 20
5.1389168012
 30
0.0
 10
6.1323952045
 20
5.1427246512
 30
0.0
 10
6.135780438
 20
5.1453658129
 30
0.0
 10
6.1384522621
 20
5.1462687687
 30
0.0
 10
6.1397768551
 20
5.1464336132
 30
0.0
  0
SPLINE
  5
2CD
100
AcDbEntity
  8
0
100
AcDbSpline
 62
7
  6
CONTINUOUS
 70
0
 71
3
 72
19
 73
15
 74
0
 42
0.0000001
 43
0.0000001
 44
0.0000000001
 40
0.0
 40
0.0
 40
0.0
 40
0.0
 40
0.0241473338
 40
0.0503672369
 40
0.0807072222
 40
0.1168037958
 40
0.1596279083
 40
0.2094556905
 40
0.2661969019
 40
0.3292479474
 40
0.4728676791
 40
0.6368812236
 40
0.8153236109
 40
1.0
 40
1.0
 40
1.0
 40
1.0
 10
6.1298269058
 20
5.1347126142
 30
0.0
 10
6.1302286018
 20
5.1347626067
 30
0.0
 10
6.1310937688
 20
5.1347033952
 30
0.0
 10
6.1323465439
 20
5.1341373757
 30
0.0
 10
6.1335441897
 20
5.1331261277
 30
0.0
 10
6.1346917168
 20
5.1316887042
 30
0.0
 10
6.1357994861
 20
5.1298308509
 30
0.0
 10
6.1368588123
 20
5.1275579173
 30
0.0
 10
6.1378521682
 20
5.1248911675
 30
0.0
 10
6.1391353383
 20
5.1206637162
 30
0.0
 10
6.1404655702
 20
5.1145843189
 30
0.0
 10
6.1416177552
 20
5.1065125654
 30
0.0
 10
6.1423277018
 20
5.0976995905
 30
0.0
 10
6.1424858352
 20
5.0916111926
 30
0.0
 10
6.1424858349
 20
5.0885153616
 30
0.0
  0
SPLINE
  5
2CE
100
AcDbEntity
  8
0
100
AcDbSpline
 62
7
  6
CONTINUOUS
 70
0
 71
3
 72
13
 73
9
 74
0
 42
0.0000001
 43
0.0000001
 44
0.0000000001
 40
0.0
 40
0.0
 40
0.0
 40
0.0
 40
0.2178864103
 40
0.4331730124
 40
0.5454124466
 40
0.6679560906
 40
0.8124972518
 40
1.0
 40
1.0
 40
1.0
 40
1.0
 10
6.2141521461
 20
5.1352873802
 30
0.0
 10
6.214404382
 20
5.1357232271
 30
0.0
 10
6.214839566
 20
5.1366320293
 30
0.0
 10
6.2151001211
 20
5.1378854677
 30
0.0
 10
6.2150424415
 20
5.1389308768
 30
0.0
 10
6.2147967488
 20
5.1397806852
 30
0.0
 10
6.2142654419
 20
5.1407009724
 30
0.0
 10
6.2136955668
 20
5.1412334414
 30
0.0
 10
6.21334926
 20
5.1414939497
 30
0.0
  0
SPLINE
  5
2CF
100
AcDbEntity
  8
0
100
AcDbSpline
 62
7
  6
CONTINUOUS
 70
0
 71
3
 72
17
 73
13
 74
0
 42
0.0000001
 43
0.0000001
 44
0.0000000001
 40
0.0
 40
0.0
 40
0.0
 40
0.0
 40
0.1883667946
 40
0.3704505435
 40
0.5383830978
 40
0.6861753792
 40
0.8086770074
 40
0.859233054
 40
0.9021316345
 40
0.9371601512
 40
0.9645353202
 40
1.0
 40
1.0
 40
1.0
 40
1.0
 10
5.2497693602
 20
2.5536961161
 30
0.0
 10
5.2497693602
 20
2.5545010257
 30
0.0
 10
5.2497443855
 20
2.5560841053
 30
0.0
 10
5.2496356607
 20
2.5583825016
 30
0.0
 10
5.2494581232
 20
2.5605028433
 30
0.0
 10
5.2492207879
 20
2.5623610021
 30
0.0
 10
5.2489693973
 20
2.5637100075
 30
0.0
 10
5.2487345178
 20
2.5646034035
 30
0.0
 10
5.2485631896
 20
2.5651242095
 30
0.0
 10
5.2483799295
 20
2.5655402005
 30
0.0
 10
5.2481723278
 20
2.565891331
 30
0.0
 10
5.2479344466
 20
2.5660976909
 30
0.0
 10
5.2477829025
 20
2.5660976909
 30
0.0
  0
SPLINE
  5
2D0
100
AcDbEntity
  8
0
100
AcDbSpline
 62
7
  6
CONTINUOUS
 70
0
 71
3
 72
11
 73
7
 74
0
 42
0.0000001
 43
0.0000001
 44
0.0000000001
 40
0.0
 40
0.0
 40
0.0
 40
0.0
 40
0.2454721645
 40
0.5054288319
 40
0.7620682242
 40
1.0
 40
1.0
 40
1.0
 40
1.0
 10
6.1999028547
 20
5.1347130034
 30
0.0
 10
6.1999142171
 20
5.1360817414
 30
0.0
 10
6.199456989
 20
5.1389268907
 30
0.0
 10
6.197316898
 20
5.1427095806
 30
0.0
 10
6.1939676108
 20
5.1454200906
 30
0.0
 10
6.1912694704
 20
5.1462697689
 30
0.0
 10
6.1899528874
 20
5.1464336151
 30
0.0
  0
SPLINE
  5
2D1
100
AcDbEntity
  8
0
100
AcDbSpline
 62
7
  6
CONTINUOUS
 70
0
 71
3
 72
9
 73
5
 74
0
 42
0.0000001
 43
0.0000001
 44
0.0000000001
 40
0.0
 40
0.0
 40
0.0
 40
0.0
 40
0.2564610303
 40
1.0
 40
1.0
 40
1.0
 40
1.0
 10
6.1163804978
 20
5.1414939497
 30
0.0
 10
6.1165844675
 20
5.1416473853
 30
0.0
 10
6.1174086818
 20
5.1422061319
 30
0.0
 10
6.1183500055
 20
5.1425931662
 30
0.0
 10
6.1190709507
 20
5.1427599755
 30
0.0
  0
SPLINE
  5
2D2
100
AcDbEntity
  8
0
100
AcDbSpline
 62
7
  6
CONTINUOUS
 70
0
 71
3
 72
18
 73
14
 74
0
 42
0.0000001
 43
0.0000001
 44
0.0000000001
 40
0.0
 40
0.0
 40
0.0
 40
0.0
 40
0.1852882489
 40
0.3636613402
 40
0.5276245164
 40
0.6712729586
 40
0.7904855719
 40
0.8401256726
 40
0.8829940716
 40
0.9192954991
 40
0.949746313
 40
0.9758656437
 40
1.0
 40
1.0
 40
1.0
 40
1.0
 10
6.1872438308
 20
5.0885153616
 30
0.0
 10
6.187245007
 20
5.0916213383
 30
0.0
 10
6.1874050409
 20
5.0977186569
 30
0.0
 10
6.1881145169
 20
5.1065390589
 30
0.0
 10
6.1892654006
 20
5.1146108817
 30
0.0
 10
6.1908093907
 20
5.1216037944
 30
0.0
 10
6.1924351857
 20
5.1266004229
 30
0.0
 10
6.1939299984
 20
5.1298242129
 30
0.0
 10
6.1950339428
 20
5.1316854926
 30
0.0
 10
6.1961843824
 20
5.1331286848
 30
0.0
 10
6.1973853052
 20
5.134141192
 30
0.0
 10
6.1986378439
 20
5.134708707
 30
0.0
 10
6.1995014343
 20
5.1347633232
 30
0.0
 10
6.1999028555
 20
5.1347130029
 30
0.0
  0
SPLINE
  5
2D3
100
AcDbEntity
  8
0
100
AcDbSpline
 62
7
  6
CONTINUOUS
 70
0
 71
3
 72
19
 73
15
 74
0
 42
0.0000001
 43
0.0000001
 44
0.0000000001
 40
0.0
 40
0.0
 40
0.0
 40
0.0
 40
0.1871979946
 40
0.3681480351
 40
0.5343411136
 40
0.6795361502
 40
0.7430519629
 40
0.7999827888
 40
0.8496561999
 40
0.8919043068
 40
0.9268965584
 40
0.9554464831
 40
0.9790723642
 40
1.0
 40
1.0
 40
1.0
 40
1.0
 10
6.1758352973
 20
5.088515361
 30
0.0
 10
6.1758940881
 20
5.0923831608
 30
0.0
 10
6.1761608897
 20
5.0999883686
 30
0.0
 10
6.1770305577
 20
5.110999856
 30
0.0
 10
6.1783504463
 20
5.1210921369
 30
0.0
 10
6.1798367698
 20
5.1287039512
 30
0.0
 10
6.1812569583
 20
5.1340083821
 30
0.0
 10
6.1823486631
 20
5.1373522252
 30
0.0
 10
6.1835066071
 20
5.1402052515
 30
0.0
 10
6.1847103696
 20
5.1425404132
 30
0.0
 10
6.18594839
 20
5.1443515904
 30
0.0
 10
6.187230988
 20
5.1456375532
 30
0.0
 10
6.1885751314
 20
5.1463856603
 30
0.0
 10
6.1895237844
 20
5.1464870158
 30
0.0
 10
6.1899529213
 20
5.1464336109
 30
0.0
  0
LINE
  5
2D4
100
AcDbEntity
  8
0
100
AcDbLine
 62
7
  6
CONTINUOUS
 10
6.1167412678
 20
5.1326220964
 11
6.1155776117
 21
5.1352873802
  0
SPLINE
  5
2D5
100
AcDbEntity
  8
0
100
AcDbSpline
 62
7
  6
CONTINUOUS
 70
0
 71
3
 72
17
 73
13
 74
0
 42
0.0000001
 43
0.0000001
 44
0.0000000001
 40
0.0
 40
0.0
 40
0.0
 40
0.0
 40
0.1883667946
 40
0.3704505435
 40
0.5383830978
 40
0.6861753792
 40
0.8086770074
 40
0.859233054
 40
0.9021316345
 40
0.9371601512
 40
0.9645353202
 40
1.0
 40
1.0
 40
1.0
 40
1.0
 10
5.2497693602
 20
5.5265307617
 30
0.0
 10
5.2497693602
 20
5.525725852
 30
0.0
 10
5.2497443855
 20
5.5241427725
 30
0.0
 10
5.2496356607
 20
5.5218443762
 30
0.0
 10
5.2494581232
 20
5.5197240345
 30
0.0
 10
5.2492207879
 20
5.5178658756
 30
0.0
 10
5.2489693973
 20
5.5165168702
 30
0.0
 10
5.2487345178
 20
5.5156234742
 30
0.0
 10
5.2485631896
 20
5.5151026683
 30
0.0
 10
5.2483799295
 20
5.5146866772
 30
0.0
 10
5.2481723278
 20
5.5143355468
 30
0.0
 10
5.2479344466
 20
5.5141291869
 30
0.0
 10
5.2477829025
 20
5.5141291869
 30
0.0
  0
SPLINE
  5
2D6
100
AcDbEntity
  8
0
100
AcDbSpline
 62
7
  6
CONTINUOUS
 70
0
 71
3
 72
17
 73
13
 74
0
 42
0.0000001
 43
0.0000001
 44
0.0000000001
 40
0.0
 40
0.0
 40
0.0
 40
0.0
 40
0.1883667946
 40
0.3704505435
 40
0.5383830978
 40
0.6861753792
 40
0.8086770074
 40
0.859233054
 40
0.9021316345
 40
0.9371601512
 40
0.9645353202
 40
1.0
 40
1.0
 40
1.0
 40
1.0
 10
7.0799590078
 20
2.5536961161
 30
0.0
 10
7.0799590078
 20
2.5545010257
 30
0.0
 10
7.0799839825
 20
2.5560841053
 30
0.0
 10
7.0800927073
 20
2.5583825016
 30
0.0
 10
7.0802702448
 20
2.5605028433
 30
0.0
 10
7.0805075801
 20
2.5623610021
 30
0.0
 10
7.0807589707
 20
2.5637100075
 30
0.0
 10
7.0809938502
 20
2.5646034035
 30
0.0
 10
7.0811651784
 20
2.5651242095
 30
0.0
 10
7.0813484385
 20
2.5655402005
 30
0.0
 10
7.0815560402
 20
2.565891331
 30
0.0
 10
7.0817939214
 20
2.5660976909
 30
0.0
 10
7.0819454654
 20
2.5660976909
 30
0.0
  0
SPLINE
  5
2D7
100
AcDbEntity
  8
0
100
AcDbSpline
 62
7
  6
CONTINUOUS
 70
0
 71
3
 72
12
 73
8
 74
0
 42
0.0000001
 43
0.0000001
 44
0.0000000001
 40
0.0
 40
0.0
 40
0.0
 40
0.0
 40
0.2909003568
 40
0.5655430879
 40
0.8065990022
 40
0.9100480189
 40
1.0
 40
1.0
 40
1.0
 40
1.0
 10
6.1195135486
 20
5.1131489193
 30
0.0
 10
6.1195135486
 20
5.1150660247
 30
0.0
 10
6.119401052
 20
5.1187945021
 30
0.0
 10
6.1188888501
 20
5.1240890343
 30
0.0
 10
6.1181670155
 20
5.1281133087
 30
0.0
 10
6.1174036917
 20
5.1308746102
 30
0.0
 10
6.1169724285
 20
5.1320762178
 30
0.0
 10
6.1167412678
 20
5.1326220964
 30
0.0
  0
SPLINE
  5
2D8
100
AcDbEntity
  8
0
100
AcDbSpline
 62
7
  6
CONTINUOUS
 70
0
 71
3
 72
9
 73
5
 74
0
 42
0.0000001
 43
0.0000001
 44
0.0000000001
 40
0.0
 40
0.0
 40
0.0
 40
0.0
 40
0.4709282077
 40
1.0
 40
1.0
 40
1.0
 40
1.0
 10
5.2875120555
 20
5.7710189507
 30
0.0
 10
5.2867526394
 20
5.7710189507
 30
0.0
 10
5.2851309086
 20
5.7706958383
 30
0.0
 10
5.283721721
 20
5.7698636204
 30
0.0
 10
5.2830376702
 20
5.7693537308
 30
0.0
  0
SPLINE
  5
2D9
100
AcDbEntity
  8
0
100
AcDbSpline
 62
7
  6
CONTINUOUS
 70
0
 71
3
 72
9
 73
5
 74
0
 42
0.0000001
 43
0.0000001
 44
0.0000000001
 40
0.0
 40
0.0
 40
0.0
 40
0.0
 40
0.4602779896
 40
1.0
 40
1.0
 40
1.0
 40
1.0
 10
5.2830376702
 20
5.7693537308
 30
0.0
 10
5.2823245913
 20
5.7688222037
 30
0.0
 10
5.28090643
 20
5.7674908472
 30
0.0
 10
5.2797128276
 20
5.7659647074
 30
0.0
 10
5.2791135157
 20
5.7651112166
 30
0.0
  0
SPLINE
  5
2DA
100
AcDbEntity
  8
0
100
AcDbSpline
 62
7
  6
CONTINUOUS
 70
0
 71
3
 72
9
 73
5
 74
0
 42
0.0000001
 43
0.0000001
 44
0.0000000001
 40
0.0
 40
0.0
 40
0.0
 40
0.0
 40
0.4596302021
 40
1.0
 40
1.0
 40
1.0
 40
1.0
 10
5.2791135157
 20
5.7651112166
 30
0.0
 10
5.2782598419
 20
5.7638954844
 30
0.0
 10
5.276596833
 20
5.7611140312
 30
0.0
 10
5.2752069099
 20
5.7581926308
 30
0.0
 10
5.274508315
 20
5.7565919706
 30
0.0
  0
SPLINE
  5
2DB
100
AcDbEntity
  8
0
100
AcDbSpline
 62
7
  6
CONTINUOUS
 70
0
 71
3
 72
18
 73
14
 74
0
 42
0.0000001
 43
0.0000001
 44
0.0000000001
 40
0.0
 40
0.0
 40
0.0
 40
0.0
 40
0.0327453782
 40
0.0706117977
 40
0.113488593
 40
0.1611983335
 40
0.213535572
 40
0.2702337457
 40
0.3954986867
 40
0.5342971493
 40
0.6835510253
 40
0.8400340749
 40
1.0
 40
1.0
 40
1.0
 40
1.0
 10
5.274508315
 20
5.7565919706
 30
0.0
 10
5.2735323428
 20
5.7543557675
 30
0.0
 10
5.2716467396
 20
5.7494377281
 30
0.0
 10
5.2691094192
 20
5.7413676889
 30
0.0
 10
5.2666718597
 20
5.7321090042
 30
0.0
 10
5.2643491684
 20
5.7217139185
 30
0.0
 10
5.262157889
 20
5.7102403904
 30
0.0
 10
5.2593331086
 20
5.6930107837
 30
0.0
 10
5.2562838865
 20
5.6692983944
 30
0.0
 10
5.2534251465
 20
5.6386297778
 30
0.0
 10
5.2513312318
 20
5.6055686027
 30
0.0
 10
5.2500552712
 20
5.5708883965
 30
0.0
 10
5.2497693602
 20
5.5473083092
 30
0.0
 10
5.2497693602
 20
5.5353890294
 30
0.0
  0
SPLINE
  5
2DC
100
AcDbEntity
  8
0
100
AcDbSpline
 62
7
  6
CONTINUOUS
 70
0
 71
3
 72
12
 73
8
 74
0
 42
0.0000001
 43
0.0000001
 44
0.0000000001
 40
0.0
 40
0.0
 40
0.0
 40
0.0
 40
0.0899519865
 40
0.1934010099
 40
0.4344568975
 40
0.7090996207
 40
1.0
 40
1.0
 40
1.0
 40
1.0
 10
6.1167412678
 20
4.7570560746
 30
0.0
 10
6.1169724286
 20
4.7576019533
 30
0.0
 10
6.1174036917
 20
4.758803561
 30
0.0
 10
6.1181670155
 20
4.7615648623
 30
0.0
 10
6.1188888502
 20
4.7655891365
 30
0.0
 10
6.1194010518
 20
4.7708836687
 30
0.0
 10
6.1195135486
 20
4.7746121462
 30
0.0
 10
6.1195135486
 20
4.7765292518
 30
0.0
  0
LINE
  5
2DD
100
AcDbEntity
  8
0
100
AcDbLine
 62
7
  6
CONTINUOUS
 10
6.1155776117
 20
4.7543907908
 11
6.1167412678
 21
4.7570560746
  0
SPLINE
  5
2DE
100
AcDbEntity
  8
0
100
AcDbSpline
 62
7
  6
CONTINUOUS
 70
0
 71
3
 72
14
 73
10
 74
0
 42
0.0000001
 43
0.0000001
 44
0.0000000001
 40
0.0
 40
0.0
 40
0.0
 40
0.0
 40
0.0421732348
 40
0.1037479656
 40
0.1908134375
 40
0.3045521902
 40
0.4445230751
 40
0.6087636411
 40
1.0
 40
1.0
 40
1.0
 40
1.0
 10
5.2468369703
 20
5.5141291869
 30
0.0
 10
5.2467528072
 20
5.5141291869
 30
0.0
 10
5.2465531395
 20
5.5140226912
 30
0.0
 10
5.2463369023
 20
5.5137058546
 30
0.0
 10
5.2461192037
 20
5.5132277197
 30
0.0
 10
5.2459153993
 20
5.5125777679
 30
0.0
 10
5.245724842
 20
5.5117652845
 30
0.0
 10
5.2454802268
 20
5.5103986756
 30
0.0
 10
5.2453520422
 20
5.5092964365
 30
0.0
 10
5.2452804878
 20
5.5085189507
 30
0.0
  0
LINE
  5
2DF
100
AcDbEntity
  8
0
100
AcDbLine
 62
7
  6
CONTINUOUS
 10
5.2452804878
 20
5.5085189507
 11
5.2450663692
 21
5.5048113515
  0
ENDSEC
  0
SECTION
  2
OBJECTS
  0
DICTIONARY
  5
C
100
AcDbDictionary
280
0
281
1
  3
ACAD_GROUP
350
D
  3
ACAD_MLINESTYLE
350
17
  3
ACAD_LAYOUT
350
1A
  3
ACAD_PLOTSETTINGS
350
19
  3
ACAD_PLOTSTYLENAME
350
E
  0
DICTIONARY
  5
D
102
{ACAD_REACTORS
330
C
102
}
100
AcDbDictionary
280
0
281
1
  0
ACDBDICTIONARYWDFLT
  5
E
102
{ACAD_REACTORS
330
C
102
}
100
AcDbDictionary
281
1
  3
Normal
350
F
100
AcDbDictionaryWithDefault
340
F
  0
DICTIONARY
  5
17
102
{ACAD_REACTORS
330
C
102
}
100
AcDbDictionary
280
0
281
1
  3
Standard
350
18
  0
DICTIONARY
  5
19
102
{ACAD_REACTORS
330
C
102
}
100
AcDbDictionary
281
1
  0
DICTIONARY
  5
1A
102
{ACAD_REACTORS
330
C
102
}
100
AcDbDictionary
281
1
  3
Model
350
2E0
  3
Layout1
350
2E1
  0
ACDBPLACEHOLDER
  5
F
102
{ACAD_REACTORS
330
E
102
}
  0
MLINESTYLE
  5
18
102
{ACAD_REACTORS
330
17
102
}
100
AcDbMlineStyle
  2
STANDARD
 70
0
  3

 62
256
 51
90.0
 52
90.0
 71
2
 49
0.5
 62
256
  6
BYLAYER
 49
-0.5
 62
256
  6
BYLAYER
  0
LAYOUT
  5
2E0
102
{ACAD_REACTORS
330
1A
102
}
100
AcDbPlotSettings
  1

  2
none_device
  4
ANSI_A_(11.00_x_8.50_Inches)
  6

 40
0.0
 41
0.0
 42
0.0
 43
0.0
 44
279.4
 45
215.9
 46
0.0
 47
0.0
 48
0.0
 49
0.0
140
0.0
141
0.0
142
1.0
143
1.0
 70
1024
 72
0
 73
0
 74
0
  7

 75
0
147
1.0
148
0.0
149
0.0
100
AcDbLayout
  1
Model
 70
0
 71
0
 10
0.0
 20
0.0
 11
11.0
 21
8.5
 12
0.0
 22
0.0
 32
0.0
 14
0.0
 24
0.0
 34
0.0
 15
0.0
 25
0.0
 35
0.0
146
0.0
 13
0.0
 23
0.0
 33
0.0
 16
1.0
 26
0.0
 36
0.0
 17
0.0
 27
1.0
 37
0.0
 76
0
330
203
345
0
346
0
  0
LAYOUT
  5
2E1
102
{ACAD_REACTORS
330
1A
102
}
100
AcDbPlotSettings
  1

  2
none_device
  4
ANSI_A_(11.00_x_8.50_Inches)
  6

 40
0.0
 41
0.0
 42
0.0
 43
0.0
 44
279.4
 45
215.9
 46
0.0
 47
0.0
 48
0.0
 49
0.0
140
0.0
141
0.0
142
1.0
143
1.0
 70
0
 72
0
 73
0
 74
0
  7

 75
0
147
1.0
148
0.0
149
0.0
100
AcDbLayout
  1
Layout1
 70
0
 71
1
 10
0.0
 20
0.0
 11
11.0
 21
8.5
 12
0.0
 22
0.0
 32
0.0
 14
0.0
 24
0.0
 34
0.0
 15
0.0
 25
0.0
 35
0.0
146
0.0
 13
0.0
 23
0.0
 33
0.0
 16
1.0
 26
0.0
 36
0.0
 17
0.0
 27
1.0
 37
0.0
 76
0
330
204
345
0
346
0
  0
ENDSEC
  0
EOF
