999
DXF file: E:\BT Custom\CADOUTPUT\_TOP.dxf
999
Pro/ENGINEER 2018400 by Parametric Technology Corporation
  0
SECTION
  2
HEADER
  9
$ACADVER
  1
AC1018
  9
$DWGCODEPAGE
  3
ANSI_1252
  9
$EXTMAX
 10
22.0
 20
17.0
 30
0.0
  9
$EXTMIN
 10
0.0
 20
0.0
 30
0.0
  9
$LIMMIN
 10
0.0
 20
0.0
  9
$LIMMAX
 10
22.0
 20
17.0
  9
$VIEWCTR
 10
11.0
 20
8.5
  9
$VIEWSIZE
 40
17.0
  9
$CLAYER
  8
0
  9
$LTSCALE
 40
1.21
  9
$CELTYPE
  6
BYLAYER
  9
$DIMSCALE
 40
1.0
  9
$DIMASZ
 40
0.1
  9
$DIMEXO
 40
0.0625
  9
$DIMDLI
 40
0.836
  9
$DIMEXE
 40
0.125
  9
$DIMCEN
 40
0.198
  9
$DIMLFAC
 40
1.0
  9
$DIMBLK
  1
_FILLED
  9
$DIMALT
 70
1
  9
$DIMALTD
 70
2
  9
$DIMALTTD
 70
2
  9
$DIMALTF
 40
25.4
  9
$DIMTXT
 40
0.08
  9
$DIMTOL
 70
1
  9
$DIMLIM
 70
0
  9
$DIMTFAC
 40
1.0
  9
$DIMTP
 40
0.001
  9
$DIMTM
 40
0.001
  9
$DIMGAP
 40
0.09
  9
$DIMDSEP
 70
46
  9
$AUNITS
 70
0
  9
$PDMODE
 70
3
  9
$PDSIZE
 40
0.06
  9
$HANDSEED
  5
2DA
  9
$TILEMODE
 70
1
  9
$MEASUREMENT
 70
0
  9
$INSUNITS
 70
1
  0
ENDSEC
  0
SECTION
  2
CLASSES
  0
CLASS
  1
ACDBDICTIONARYWDFLT
  2
AcDbDictionaryWithDefault
  3
AutoCAD 2000
 90
0
 91
1
280
0
281
0
  0
CLASS
  1
ACDBPLACEHOLDER
  2
AcDbPlaceHolder
  3
AutoCAD 2000
 90
0
 91
1
280
0
281
0
  0
CLASS
  1
LAYOUT
  2
AcDbLayout
  3
AutoCAD 2000
 90
0
 91
0
280
0
281
0
  0
ENDSEC
  0
SECTION
  2
TABLES
  0
TABLE
  2
VPORT
  5
8
100
AcDbSymbolTable
 70
2
  0
VPORT
  5
1F4
100
AcDbSymbolTableRecord
100
AcDbViewportTableRecord
  2
*ACTIVE
 70
0
 10
0.0
 20
0.0
 11
1.0
 21
1.0
 12
11.0
 22
8.5
 13
0.0
 23
0.0
 14
1.0
 24
1.0
 15
0.0
 25
0.0
 16
0.0
 26
0.0
 36
1.0
 17
0.0
 27
0.0
 37
0.0
 40
17.0
 41
1.2941176471
 42
50.0
 43
0.0
 44
0.0
 50
0.0
 51
0.0
 71
0
 72
100
 73
1
 74
1
 75
0
 76
0
 77
0
 78
0
  0
ENDTAB
  0
TABLE
  2
LTYPE
  5
5
100
AcDbSymbolTable
 70
6
  0
LTYPE
  5
14
100
AcDbSymbolTableRecord
100
AcDbLinetypeTableRecord
  2
BYBLOCK
 70
0
  3

 72
65
 73
0
 40
0.0
  0
LTYPE
  5
15
100
AcDbSymbolTableRecord
100
AcDbLinetypeTableRecord
  2
BYLAYER
 70
0
  3

 72
65
 73
0
 40
0.0
  0
LTYPE
  5
16
100
AcDbSymbolTableRecord
100
AcDbLinetypeTableRecord
  2
CONTINUOUS
 70
64
  3
Solid line
 72
65
 73
0
 40
0.0
  0
LTYPE
  5
1F5
100
AcDbSymbolTableRecord
100
AcDbLinetypeTableRecord
  2
CENTER
 70
64
  3
____ _ ____ _ ____ _ ____ _ ____ _ ____ _ ____
 72
65
 73
4
 40
0.6
 49
0.375
 74
0
 49
-0.075
 74
0
 49
0.075
 74
0
 49
-0.075
 74
0
  0
LTYPE
  5
1F6
100
AcDbSymbolTableRecord
100
AcDbLinetypeTableRecord
  2
HIDDEN
 70
64
  3
- - - - - - - - - - - - - - - - - - - -
 72
65
 73
2
 40
0.2
 49
0.1
 74
0
 49
-0.1
 74
0
  0
LTYPE
  5
1F7
100
AcDbSymbolTableRecord
100
AcDbLinetypeTableRecord
  2
PHANTOM
 70
64
  3
_____ _ _ _____ _ _ _____ _ _ _____
 72
65
 73
6
 40
0.8
 49
0.45
 74
0
 49
-0.05
 74
0
 49
0.1
 74
0
 49
-0.05
 74
0
 49
0.1
 74
0
 49
-0.05
 74
0
  0
LTYPE
  5
1F8
100
AcDbSymbolTableRecord
100
AcDbLinetypeTableRecord
  2
DOT
 70
64
  3
. . . . . . . . . . . . . . . . . . . .
 72
65
 73
2
 40
0.2
 49
0.1
 74
0
 49
-0.1
 74
0
  0
LTYPE
  5
1F9
100
AcDbSymbolTableRecord
100
AcDbLinetypeTableRecord
  2
DASHED
 70
64
  3
- - - - - - - - - - - - - - - - - - - -
 72
65
 73
2
 40
0.2
 49
0.1
 74
0
 49
-0.1
 74
0
  0
ENDTAB
  0
TABLE
  2
LAYER
  5
2
100
AcDbSymbolTable
 70
36
  0
LAYER
  5
10
100
AcDbSymbolTableRecord
100
AcDbLayerTableRecord
  2
0
 70
0
 62
7
  6
CONTINUOUS
370
-3
390
F
  0
LAYER
  5
1FA
100
AcDbSymbolTableRecord
100
AcDbLayerTableRecord
  2
DEFAULT_1
 70
0
 62
7
  6
CENTER
370
-3
390
F
  0
LAYER
  5
1FB
100
AcDbSymbolTableRecord
100
AcDbLayerTableRecord
  2
DEFAULT_2
 70
0
 62
8
  6
HIDDEN
370
-3
390
F
  0
LAYER
  5
1FC
100
AcDbSymbolTableRecord
100
AcDbLayerTableRecord
  2
DEFAULT_3
 70
0
 62
7
  6
PHANTOM
370
-3
390
F
  0
LAYER
  5
1FD
100
AcDbSymbolTableRecord
100
AcDbLayerTableRecord
  2
ALL_FEATURES
 70
0
 62
7
  6
CONTINUOUS
370
-3
390
F
  0
LAYER
  5
1FE
100
AcDbSymbolTableRecord
100
AcDbLayerTableRecord
  2
AXES_FEATURES
 70
0
 62
7
  6
CONTINUOUS
370
-3
390
F
  0
LAYER
  5
1FF
100
AcDbSymbolTableRecord
100
AcDbLayerTableRecord
  2
DEFAULT_COORDINATE_SYSTEM
 70
0
 62
7
  6
CONTINUOUS
370
-3
390
F
  0
LAYER
  5
200
100
AcDbSymbolTableRecord
100
AcDbLayerTableRecord
  2
DEFAULT_DATUM_AXES
 70
0
 62
7
  6
CONTINUOUS
370
-3
390
F
  0
LAYER
  5
201
100
AcDbSymbolTableRecord
100
AcDbLayerTableRecord
  2
DEFAULT_DATUM_PLANES
 70
0
 62
7
  6
CONTINUOUS
370
-3
390
F
  0
LAYER
  5
202
100
AcDbSymbolTableRecord
100
AcDbLayerTableRecord
  2
DIMENSIONS
 70
0
 62
7
  6
CONTINUOUS
370
-3
390
F
  0
ENDTAB
  0
TABLE
  2
STYLE
  5
3
100
AcDbSymbolTable
 70
1
  0
STYLE
  5
11
100
AcDbSymbolTableRecord
100
AcDbTextStyleTableRecord
  2
STANDARD
 70
0
 40
0.0
 41
0.8
 50
0.0
 71
0
 42
0.2
  3
txt
  4

  0
STYLE
  5
203
100
AcDbSymbolTableRecord
100
AcDbTextStyleTableRecord
  2
TEXTSTYLE_1
 70
0
 40
0.0
 41
0.8
 50
0.0
 71
0
 42
0.2
  3
gdt
  4

  0
ENDTAB
  0
TABLE
  2
VIEW
  5
6
100
AcDbSymbolTable
 70
0
  0
ENDTAB
  0
TABLE
  2
UCS
  5
7
100
AcDbSymbolTable
 70
0
  0
ENDTAB
  0
TABLE
  2
APPID
  5
9
100
AcDbSymbolTable
 70
1
  0
APPID
  5
204
100
AcDbSymbolTableRecord
100
AcDbRegAppTableRecord
  2
ACAD
 70
0
  0
ENDTAB
  0
TABLE
  2
BLOCK_RECORD
  5
1
100
AcDbSymbolTable
 70
0
  0
BLOCK_RECORD
  5
205
100
AcDbSymbolTableRecord
100
AcDbBlockTableRecord
  2
*Model_Space
  0
BLOCK_RECORD
  5
206
100
AcDbSymbolTableRecord
100
AcDbBlockTableRecord
  2
*Paper_Space
  0
BLOCK_RECORD
  5
207
100
AcDbSymbolTableRecord
100
AcDbBlockTableRecord
  2
_FILLED
  0
ENDTAB
  0
TABLE
  2
DIMSTYLE
  5
A
100
AcDbSymbolTable
 70
1
100
AcDbDimStyleTable
 71
0
  0
DIMSTYLE
105
208
100
AcDbSymbolTableRecord
100
AcDbDimStyleTableRecord
  2
STANDARD
 70
0
  3

  4

 40
1.0
 41
0.1
 42
0.0625
 43
0.38
 44
0.125
 45
0.0
 46
0.0
 47
0.001
 48
0.001
140
0.08
141
0.09
142
0.0
143
25.4
144
1.0
145
0.0
146
1.0
147
0.09
 71
1.0
 72
0.0
 73
1
 74
1
 75
0
 76
0
 77
0
 78
4
 79
1
170
1
171
2
172
0
173
0
174
0
175
0
176
0
177
0
178
0
270
2
179
3
271
3
272
3
273
2
274
2
275
0
280
0
281
0
282
0
283
1
284
4
285
0
286
0
287
3
288
0
340
11
278
46
341
207
342
207
343
207
344
207
  0
ENDTAB
  0
ENDSEC
  0
SECTION
  2
BLOCKS
  0
BLOCK
  5
20
100
AcDbEntity
  8
0
100
AcDbBlockBegin
  2
*Model_Space
 70
0
 10
0.0
 20
0.0
 30
0.0
  3
*Model_Space
  1

  0
ENDBLK
  5
21
100
AcDbEntity
  8
0
100
AcDbBlockEnd
  0
BLOCK
  5
1C
100
AcDbEntity
  8
0
100
AcDbBlockBegin
  2
*Paper_Space
 70
0
 10
0.0
 20
0.0
 30
0.0
  3
*Paper_Space
  1

  0
ENDBLK
  5
1D
100
AcDbEntity
  8
0
100
AcDbBlockEnd
  0
BLOCK
  5
209
100
AcDbEntity
  8
0
100
AcDbBlockBegin
  2
_FILLED
 70
64
 10
0.0
 20
0.0
  3
_FILLED
  1

  0
SOLID
  5
20A
100
AcDbEntity
  8
0
  6
BYBLOCK
 62
0
100
AcDbTrace
 10
0.0
 20
0.0
 11
-1.0
 21
0.2
 12
-1.0
 22
-0.2
 13
-1.0
 23
-0.2
  0
ENDBLK
  5
20B
100
AcDbEntity
  8
0
  6
BYBLOCK
 62
0
100
AcDbBlockEnd
  0
ENDSEC
  0
SECTION
  2
ENTITIES
  0
LINE
  5
20C
100
AcDbEntity
  8
0
100
AcDbLine
 62
7
  6
CONTINUOUS
 10
11.4548183383
 20
5.7343318604
 11
11.4722883582
 21
5.7390129381
  0
LINE
  5
20D
100
AcDbEntity
  8
0
100
AcDbLine
 62
9
  6
CONTINUOUS
 10
11.4402361853
 20
5.7282461912
 11
10.6544004913
 21
5.7282461912
  0
LINE
  5
20E
100
AcDbEntity
  8
0
100
AcDbLine
 62
7
  6
CONTINUOUS
 10
10.6398183383
 20
5.7343318604
 11
11.4548183383
 21
5.7343318604
  0
LINE
  5
20F
100
AcDbEntity
  8
0
100
AcDbLine
 62
9
  6
CONTINUOUS
 10
10.6223483184
 20
5.7390129381
 11
11.4722883582
 21
5.7390129381
  0
LINE
  5
210
100
AcDbEntity
  8
0
100
AcDbLine
 62
7
  6
CONTINUOUS
 10
10.6398183383
 20
5.7343318604
 11
10.6223483184
 21
5.7390129381
  0
LINE
  5
211
100
AcDbEntity
  8
0
100
AcDbLine
 62
7
  6
CONTINUOUS
 10
10.5298183383
 20
5.8543318604
 11
11.5648183383
 21
5.8543318604
  0
LINE
  5
212
100
AcDbEntity
  8
0
100
AcDbLine
 62
9
  6
CONTINUOUS
 10
10.4898183383
 20
5.9033216553
 11
11.6048183383
 21
5.9033216553
  0
LINE
  5
213
100
AcDbEntity
  8
0
100
AcDbLine
 62
9
  6
CONTINUOUS
 10
11.6048183383
 20
5.9893318604
 11
10.4898183383
 21
5.9893318604
  0
LINE
  5
214
100
AcDbEntity
  8
0
100
AcDbLine
 62
7
  6
CONTINUOUS
 10
11.5898181605
 20
6.0043318604
 11
10.5048185161
 21
6.0043318604
  0
LINE
  5
215
100
AcDbEntity
  8
0
100
AcDbLine
 62
9
  6
CONTINUOUS
 10
11.5973183383
 20
6.0143318604
 11
10.4973183383
 21
6.0143318604
  0
LINE
  5
216
100
AcDbEntity
  8
0
100
AcDbLine
 62
7
  6
CONTINUOUS
 10
10.2817960731
 20
6.013169066
 11
10.6366887634
 21
6.1016665295
  0
LINE
  5
217
100
AcDbEntity
  8
0
100
AcDbLine
 62
9
  6
CONTINUOUS
 10
10.3283112726
 20
6.1101978185
 11
10.671929291
 21
6.1958837846
  0
LINE
  5
218
100
AcDbEntity
  8
0
100
AcDbLine
 62
7
  6
CONTINUOUS
 10
11.45863576
 20
6.1014950052
 11
11.8128406039
 21
6.0131690659
  0
LINE
  5
219
100
AcDbEntity
  8
0
100
AcDbLine
 62
9
  6
CONTINUOUS
 10
11.4231664232
 20
6.1957693171
 11
11.766325404
 21
6.1101978185
  0
LINE
  5
21A
100
AcDbEntity
  8
0
100
AcDbLine
 62
9
  6
CONTINUOUS
 10
11.7733243088
 20
6.4693318604
 11
11.2869863872
 21
6.4693318604
  0
LINE
  5
21B
100
AcDbEntity
  8
0
100
AcDbLine
 62
9
  6
CONTINUOUS
 10
10.3213123678
 20
6.4693318604
 11
10.8076746985
 21
6.4693318604
  0
LINE
  5
21C
100
AcDbEntity
  8
0
100
AcDbLine
 62
9
  6
CONTINUOUS
 10
10.6904549688
 20
6.5593318604
 11
11.4041817078
 21
6.5593318604
  0
LINE
  5
21D
100
AcDbEntity
  8
0
100
AcDbLine
 62
7
  6
CONTINUOUS
 10
10.2506016896
 20
6.5693318604
 11
11.8440349869
 21
6.5693318604
  0
LINE
  5
21E
100
AcDbEntity
  8
0
100
AcDbLine
 62
9
  6
CONTINUOUS
 10
10.7458183383
 20
6.6293318604
 11
11.3488183383
 21
6.6293318604
  0
LINE
  5
21F
100
AcDbEntity
  8
0
100
AcDbLine
 62
7
  6
CONTINUOUS
 10
10.2892574348
 20
8.1893318604
 11
10.2892574348
 21
7.9393873184
  0
LINE
  5
220
100
AcDbEntity
  8
0
100
AcDbLine
 62
7
  6
CONTINUOUS
 10
10.3063183383
 20
8.2513318604
 11
10.3063183383
 21
8.1893318604
  0
LINE
  5
221
100
AcDbEntity
  8
0
100
AcDbLine
 62
7
  6
CONTINUOUS
 10
10.4898183383
 20
5.9033216553
 11
10.4898183383
 21
5.9893318604
  0
LINE
  5
222
100
AcDbEntity
  8
0
100
AcDbLine
 62
7
  6
CONTINUOUS
 10
10.4973183383
 20
6.0143318604
 11
10.4973183383
 21
6.0669125617
  0
LINE
  5
223
100
AcDbEntity
  8
0
100
AcDbLine
 62
7
  6
CONTINUOUS
 10
10.7458183642
 20
6.9193318604
 11
11.3488183123
 21
6.9193318604
  0
LINE
  5
224
100
AcDbEntity
  8
0
100
AcDbLine
 62
7
  6
CONTINUOUS
 10
11.4461672268
 20
6.9393318604
 11
10.6484694498
 21
6.9393318604
  0
LINE
  5
225
100
AcDbEntity
  8
0
100
AcDbLine
 62
7
  6
CONTINUOUS
 10
10.4326843441
 20
7.3796330489
 11
10.5068183383
 21
7.2737154216
  0
LINE
  5
226
100
AcDbEntity
  8
0
100
AcDbLine
 62
7
  6
CONTINUOUS
 10
10.6682878866
 20
8.1893318604
 11
10.6682878866
 21
7.9393878045
  0
LINE
  5
227
100
AcDbEntity
  8
0
100
AcDbLine
 62
7
  6
CONTINUOUS
 10
10.7458183383
 20
6.6293318604
 11
10.7458183383
 21
6.9193318604
  0
LINE
  5
228
100
AcDbEntity
  8
0
100
AcDbLine
 62
9
  6
CONTINUOUS
 10
11.4770580658
 20
6.9677326177
 11
10.6175786107
 21
6.9677326177
  0
LINE
  5
229
100
AcDbEntity
  8
0
100
AcDbLine
 62
7
  6
CONTINUOUS
 10
10.8473183383
 20
6.9393318604
 11
10.8473183383
 21
6.9193318604
  0
LINE
  5
22A
100
AcDbEntity
  8
0
100
AcDbLine
 62
7
  6
CONTINUOUS
 10
10.9566581634
 20
5.594453601
 11
10.9566581634
 21
5.5934383783
  0
LINE
  5
22B
100
AcDbEntity
  8
0
100
AcDbLine
 62
7
  6
CONTINUOUS
 10
11.0148183383
 20
5.5868696883
 11
11.0148183383
 21
5.6485023556
  0
LINE
  5
22C
100
AcDbEntity
  8
0
100
AcDbLine
 62
7
  6
CONTINUOUS
 10
11.0304433383
 20
5.6414280655
 11
11.0304433383
 21
5.5849425648
  0
LINE
  5
22D
100
AcDbEntity
  8
0
100
AcDbLine
 62
7
  6
CONTINUOUS
 10
11.0641933383
 20
5.5849425648
 11
11.0641933383
 21
5.6414280655
  0
LINE
  5
22E
100
AcDbEntity
  8
0
100
AcDbLine
 62
7
  6
CONTINUOUS
 10
11.0798183383
 20
5.6485023556
 11
11.0798183383
 21
5.5868696883
  0
LINE
  5
22F
100
AcDbEntity
  8
0
100
AcDbLine
 62
9
  6
CONTINUOUS
 10
10.5068183383
 20
7.2737154216
 11
11.5878183383
 21
7.2737154216
  0
LINE
  5
230
100
AcDbEntity
  8
0
100
AcDbLine
 62
9
  6
CONTINUOUS
 10
10.4326843441
 20
7.3796330489
 11
11.6619523325
 21
7.3796330489
  0
LINE
  5
231
100
AcDbEntity
  8
0
100
AcDbLine
 62
7
  6
CONTINUOUS
 10
10.289265592
 20
7.9393844548
 11
10.4061548986
 21
7.8228318604
  0
LINE
  5
232
100
AcDbEntity
  8
0
100
AcDbLine
 62
7
  6
CONTINUOUS
 10
11.1379785132
 20
5.594453601
 11
11.1379785132
 21
5.5934383783
  0
LINE
  5
233
100
AcDbEntity
  8
0
100
AcDbLine
 62
7
  6
CONTINUOUS
 10
11.2473183383
 20
6.9393318604
 11
11.2473183383
 21
6.9193318604
  0
LINE
  5
234
100
AcDbEntity
  8
0
100
AcDbLine
 62
7
  6
CONTINUOUS
 10
11.3488183383
 20
6.6293318604
 11
11.3488183383
 21
6.9193318604
  0
LINE
  5
235
100
AcDbEntity
  8
0
100
AcDbLine
 62
7
  6
CONTINUOUS
 10
11.8053740287
 20
7.9393873904
 11
11.6884817779
 21
7.8228318604
  0
LINE
  5
236
100
AcDbEntity
  8
0
100
AcDbLine
 62
9
  6
CONTINUOUS
 10
10.4288183383
 20
7.6078318604
 11
11.6658183383
 21
7.6078318604
  0
LINE
  5
237
100
AcDbEntity
  8
0
100
AcDbLine
 62
7
  6
CONTINUOUS
 10
11.42634879
 20
8.1893318604
 11
11.42634879
 21
7.9393873184
  0
LINE
  5
238
100
AcDbEntity
  8
0
100
AcDbLine
 62
7
  6
CONTINUOUS
 10
11.5973183383
 20
6.0143318604
 11
11.5973183383
 21
6.0669125617
  0
LINE
  5
239
100
AcDbEntity
  8
0
100
AcDbLine
 62
7
  6
CONTINUOUS
 10
11.6048183383
 20
5.9033216553
 11
11.6048183383
 21
5.9893318604
  0
LINE
  5
23A
100
AcDbEntity
  8
0
100
AcDbLine
 62
7
  6
CONTINUOUS
 10
11.6619523325
 20
7.3796330489
 11
11.5878183383
 21
7.2737154216
  0
LINE
  5
23B
100
AcDbEntity
  8
0
100
AcDbLine
 62
9
  6
CONTINUOUS
 10
10.4061548986
 20
7.8228318604
 11
11.6884817779
 21
7.8228318604
  0
LINE
  5
23C
100
AcDbEntity
  8
0
100
AcDbLine
 62
7
  6
CONTINUOUS
 10
11.7883183383
 20
8.2513318604
 11
11.7883183383
 21
8.1893318604
  0
LINE
  5
23D
100
AcDbEntity
  8
0
100
AcDbLine
 62
7
  6
CONTINUOUS
 10
11.8053792417
 20
8.1893318604
 11
11.8053792417
 21
7.9393892435
  0
LINE
  5
23E
100
AcDbEntity
  8
0
100
AcDbLine
 62
7
  6
CONTINUOUS
 10
11.8053792417
 20
8.1893318604
 11
10.2892574348
 21
8.1893318604
  0
LINE
  5
23F
100
AcDbEntity
  8
0
100
AcDbLine
 62
7
  6
CONTINUOUS
 10
11.8603210121
 20
8.2513318604
 11
10.2343156645
 21
8.2513318604
  0
LINE
  5
240
100
AcDbEntity
  8
0
100
AcDbLine
 62
7
  6
CONTINUOUS
 10
12.0473183383
 20
8.4393318604
 11
10.0473183383
 21
8.4393318604
  0
LINE
  5
241
100
AcDbEntity
  8
0
100
AcDbLine
 62
7
  6
CONTINUOUS
 10
13.800896524
 20
8.6263318604
 11
8.2937401526
 21
8.6263318604
  0
LINE
  5
242
100
AcDbEntity
  8
0
100
AcDbLine
 62
9
  6
CONTINUOUS
 10
14.0191074311
 20
8.7543318604
 11
8.0755292454
 21
8.7543318604
  0
LINE
  5
243
100
AcDbEntity
  8
0
100
AcDbLine
 62
7
  6
CONTINUOUS
 10
7.8541822079
 20
8.8823220252
 11
14.2404544687
 21
8.8823220252
  0
LINE
  5
244
100
AcDbEntity
  8
0
100
AcDbLine
 62
9
  6
CONTINUOUS
 10
14.4563911441
 20
9.0063296653
 11
7.6382455324
 21
9.0063296653
  0
LINE
  5
245
100
AcDbEntity
  8
0
100
AcDbLine
 62
7
  6
CONTINUOUS
 10
14.6723183383
 20
9.1303318604
 11
7.4223183383
 21
9.1303318604
  0
LINE
  5
246
100
AcDbEntity
  8
0
100
AcDbLine
 62
7
  6
CONTINUOUS
 10
14.9223183383
 20
9.3803318604
 11
7.1723183383
 21
9.3803318604
  0
ARC
  5
247
100
AcDbEntity
  8
0
100
AcDbCircle
 62
7
  6
CONTINUOUS
 10
9.9947794362
 20
6.9153285319
 40
0.625
100
AcDbArc
 50
4.8096995456
 51
34.9889904702
  0
ARC
  5
248
100
AcDbEntity
  8
0
100
AcDbCircle
 62
7
  6
CONTINUOUS
 10
11.0352921541
 20
6.1055053267
 40
0.5205598284
100
AcDbArc
 50
281.3604119905
 51
284.1238325304
  0
ARC
  5
249
100
AcDbEntity
  8
0
100
AcDbCircle
 62
7
  6
CONTINUOUS
 10
11.0420295419
 20
6.1019778725
 40
0.5175119537
100
AcDbArc
 50
274.3641147879
 51
280.6847082318
  0
ARC
  5
24A
100
AcDbEntity
  8
0
100
AcDbCircle
 62
7
  6
CONTINUOUS
 10
11.0358874115
 20
6.102356313
 40
0.5173551842
100
AcDbArc
 50
274.8711049684
 51
281.2553780748
  0
ARC
  5
24B
100
AcDbEntity
  8
0
100
AcDbCircle
 62
7
  6
CONTINUOUS
 10
11.0420296164
 20
6.1021282351
 40
0.5166620874
100
AcDbArc
 50
274.3713371844
 51
280.6827251263
  0
ARC
  5
24C
100
AcDbEntity
  8
0
100
AcDbCircle
 62
7
  6
CONTINUOUS
 10
11.0421818197
 20
6.1003335468
 40
0.5158608061
100
AcDbArc
 50
272.4455242863
 51
274.192003029
  0
ARC
  5
24D
100
AcDbEntity
  8
0
100
AcDbCircle
 62
7
  6
CONTINUOUS
 10
11.0421663093
 20
6.1007052014
 40
0.5152327753
100
AcDbArc
 50
274.1909297411
 51
274.3682422377
  0
ARC
  5
24E
100
AcDbEntity
  8
0
100
AcDbCircle
 62
7
  6
CONTINUOUS
 10
11.04218183
 20
6.1004856345
 40
0.5150126612
100
AcDbArc
 50
272.4495529841
 51
274.1909928023
  0
ARC
  5
24F
100
AcDbEntity
  8
0
100
AcDbCircle
 62
7
  6
CONTINUOUS
 10
10.5997934594
 20
7.4965962636
 40
0.2039751211
100
AcDbArc
 50
146.9521644936
 51
214.9889904702
  0
ARC
  5
250
100
AcDbEntity
  8
0
100
AcDbCircle
 62
7
  6
CONTINUOUS
 10
10.2505814448
 20
6.1382116843
 40
0.1288798255
100
AcDbArc
 50
270.0090001903
 51
284.0163926033
  0
ARC
  5
251
100
AcDbEntity
  8
0
100
AcDbCircle
 62
7
  6
CONTINUOUS
 10
10.654700699
 20
5.8597536664
 40
0.125
100
AcDbArc
 50
182.4859527198
 51
255.0
  0
ARC
  5
252
100
AcDbEntity
  8
0
100
AcDbCircle
 62
9
  6
CONTINUOUS
 10
10.2506020957
 20
6.0878343703
 40
0.0785025136
100
AcDbArc
 50
267.9950021007
 51
269.9997036365
  0
ARC
  5
253
100
AcDbEntity
  8
0
100
AcDbCircle
 62
7
  6
CONTINUOUS
 10
10.6858183383
 20
6.6293318604
 40
0.06
100
AcDbArc
 50
270.0
 51
360.0
  0
ARC
  5
254
100
AcDbEntity
  8
0
100
AcDbCircle
 62
7
  6
CONTINUOUS
 10
10.5398183383
 20
5.9033216553
 40
0.05
100
AcDbArc
 50
180.0
 51
258.4630409672
  0
ARC
  5
255
100
AcDbEntity
  8
0
100
AcDbCircle
 62
7
  6
CONTINUOUS
 10
10.9634178134
 20
5.6415715112
 40
0.0498895737
100
AcDbArc
 50
259.6392929222
 51
261.3425275004
  0
ARC
  5
256
100
AcDbEntity
  8
0
100
AcDbCircle
 62
7
  6
CONTINUOUS
 10
10.963329722
 20
5.6400566205
 40
0.0493786634
100
AcDbArc
 50
261.3556559514
 51
262.9564439614
  0
ARC
  5
257
100
AcDbEntity
  8
0
100
AcDbCircle
 62
7
  6
CONTINUOUS
 10
10.9632241631
 20
5.6390818804
 40
0.0483983377
100
AcDbArc
 50
262.9389655606
 51
270.9542266561
  0
ARC
  5
258
100
AcDbEntity
  8
0
100
AcDbCircle
 62
7
  6
CONTINUOUS
 10
10.6484694498
 20
6.9703318604
 40
0.031
100
AcDbArc
 50
184.8096995457
 51
270.0
  0
ARC
  5
259
100
AcDbEntity
  8
0
100
AcDbCircle
 62
7
  6
CONTINUOUS
 10
10.6673183383
 20
5.7435147611
 40
0.02
100
AcDbArc
 50
207.4000671591
 51
229.7673860839
  0
ARC
  5
25A
100
AcDbEntity
  8
0
100
AcDbCircle
 62
7
  6
CONTINUOUS
 10
10.5048183383
 20
5.9893318604
 40
0.015
100
AcDbArc
 50
90.0
 51
180.0
  0
ARC
  5
25B
100
AcDbEntity
  8
0
100
AcDbCircle
 62
7
  6
CONTINUOUS
 10
10.5073183383
 20
6.0143318604
 40
0.01
100
AcDbArc
 50
180.0
 51
270.0
  0
ARC
  5
25C
100
AcDbEntity
  8
0
100
AcDbCircle
 62
7
  6
CONTINUOUS
 10
7.8541822079
 20
9.1323330026
 40
0.2500109774
100
AcDbArc
 50
210.2644101313
 51
270.0
  0
ARC
  5
25D
100
AcDbEntity
  8
0
100
AcDbCircle
 62
7
  6
CONTINUOUS
 10
7.4223183383
 20
9.3803318604
 40
0.25
100
AcDbArc
 50
180.0
 51
270.0
  0
ARC
  5
25E
100
AcDbEntity
  8
0
100
AcDbCircle
 62
7
  6
CONTINUOUS
 10
7.4223183383
 20
8.8803318604
 40
0.25
100
AcDbArc
 50
30.2644101313
 51
90.0
  0
ARC
  5
25F
100
AcDbEntity
  8
0
100
AcDbCircle
 62
7
  6
CONTINUOUS
 10
8.2937401526
 20
8.8763318604
 40
0.25
100
AcDbArc
 50
209.2092119338
 51
270.0
  0
ARC
  5
260
100
AcDbEntity
  8
0
100
AcDbCircle
 62
7
  6
CONTINUOUS
 10
7.8573183383
 20
8.6323318604
 40
0.25
100
AcDbArc
 50
29.2092119338
 51
89.9405177291
  0
ARC
  5
261
100
AcDbEntity
  8
0
100
AcDbCircle
 62
7
  6
CONTINUOUS
 10
10.0544544494
 20
8.6263318604
 40
0.1871361111
100
AcDbArc
 50
180.0
 51
267.8145949287
  0
ARC
  5
262
100
AcDbEntity
  8
0
100
AcDbCircle
 62
7
  6
CONTINUOUS
 10
10.2343156645
 20
8.4383318604
 40
0.187
100
AcDbArc
 50
179.6936039968
 51
270.0
  0
ARC
  5
263
100
AcDbEntity
  8
0
100
AcDbCircle
 62
7
  6
CONTINUOUS
 10
10.2850438047
 20
7.701370885
 40
0.1715245336
100
AcDbArc
 50
326.9521644936
 51
45.0826423158
  0
ARC
  5
264
100
AcDbEntity
  8
0
100
AcDbCircle
 62
7
  6
CONTINUOUS
 10
11.0473183383
 20
6.1926651937
 40
0.6083333333
100
AcDbArc
 50
278.6421933169
 51
310.2326139161
  0
ARC
  5
265
100
AcDbEntity
  8
0
100
AcDbCircle
 62
7
  6
CONTINUOUS
 10
11.0473183383
 20
6.1926651937
 40
0.6083333333
100
AcDbArc
 50
229.7673860839
 51
261.3578066831
  0
ARC
  5
266
100
AcDbEntity
  8
0
100
AcDbCircle
 62
7
  6
CONTINUOUS
 10
11.0473183383
 20
6.1926651937
 40
0.6083333333
100
AcDbArc
 50
262.9067175816
 51
277.0932824184
  0
ARC
  5
267
100
AcDbEntity
  8
0
100
AcDbCircle
 62
7
  6
CONTINUOUS
 10
11.0473183383
 20
6.1926651937
 40
0.6073333333
100
AcDbArc
 50
278.1040825423
 51
278.6565322316
  0
ARC
  5
268
100
AcDbEntity
  8
0
100
AcDbCircle
 62
7
  6
CONTINUOUS
 10
11.0473183383
 20
6.1926651937
 40
0.6073333333
100
AcDbArc
 50
261.3434677684
 51
261.8959229138
  0
ARC
  5
269
100
AcDbEntity
  8
0
100
AcDbCircle
 62
7
  6
CONTINUOUS
 10
11.0473183383
 20
6.1926651937
 40
0.5525964204
100
AcDbArc
 50
268.2500490744
 51
271.7499509256
  0
ARC
  5
26A
100
AcDbEntity
  8
0
100
AcDbCircle
 62
7
  6
CONTINUOUS
 10
11.0473183383
 20
6.1926651937
 40
0.5514953646
100
AcDbArc
 50
268.2465542222
 51
271.7534457778
  0
ARC
  5
26B
100
AcDbEntity
  8
0
100
AcDbCircle
 62
7
  6
CONTINUOUS
 10
11.0473183383
 20
6.1926651937
 40
0.5451325017
100
AcDbArc
 50
266.5820828834
 51
273.4179171166
  0
ARC
  5
26C
100
AcDbEntity
  8
0
100
AcDbCircle
 62
7
  6
CONTINUOUS
 10
11.0594375483
 20
6.1059167043
 40
0.5209814704
100
AcDbArc
 50
255.8772859353
 51
258.6384695437
  0
ARC
  5
26D
100
AcDbEntity
  8
0
100
AcDbCircle
 62
7
  6
CONTINUOUS
 10
11.0526071347
 20
6.1019778725
 40
0.5175119537
100
AcDbArc
 50
259.3152917682
 51
265.6358852121
  0
ARC
  5
26E
100
AcDbEntity
  8
0
100
AcDbCircle
 62
7
  6
CONTINUOUS
 10
11.058749265
 20
6.102356313
 40
0.5173551842
100
AcDbArc
 50
258.7446219252
 51
265.1288950316
  0
ARC
  5
26F
100
AcDbEntity
  8
0
100
AcDbCircle
 62
7
  6
CONTINUOUS
 10
11.0526070602
 20
6.1021282351
 40
0.5166620874
100
AcDbArc
 50
259.3172748737
 51
265.6286628156
  0
ARC
  5
270
100
AcDbEntity
  8
0
100
AcDbCircle
 62
7
  6
CONTINUOUS
 10
11.0524508443
 20
6.10026435
 40
0.5157915011
100
AcDbArc
 50
265.8078796279
 51
267.5545930568
  0
ARC
  5
271
100
AcDbEntity
  8
0
100
AcDbCircle
 62
7
  6
CONTINUOUS
 10
11.0524703672
 20
6.1007052008
 40
0.5152327747
100
AcDbArc
 50
265.6317577622
 51
265.8090702591
  0
ARC
  5
272
100
AcDbEntity
  8
0
100
AcDbCircle
 62
7
  6
CONTINUOUS
 10
11.0524508486
 20
6.1004167206
 40
0.5149436394
100
AcDbArc
 50
265.8088904796
 51
267.550563734
  0
ARC
  5
273
100
AcDbEntity
  8
0
100
AcDbCircle
 62
7
  6
CONTINUOUS
 10
11.4399359776
 20
5.8597536664
 40
0.125
100
AcDbArc
 50
285.0
 51
357.5140472802
  0
ARC
  5
274
100
AcDbEntity
  8
0
100
AcDbCircle
 62
7
  6
CONTINUOUS
 10
11.1311972421
 20
5.6417007846
 40
0.0500206288
100
AcDbArc
 50
278.6596665941
 51
280.4301437761
  0
ARC
  5
275
100
AcDbEntity
  8
0
100
AcDbCircle
 62
7
  6
CONTINUOUS
 10
11.5548183383
 20
5.9033216553
 40
0.05
100
AcDbArc
 50
281.5369590328
 51
360.0
  0
ARC
  5
276
100
AcDbEntity
  8
0
100
AcDbCircle
 62
7
  6
CONTINUOUS
 10
11.1312953768
 20
5.6401408147
 40
0.0494636414
100
AcDbArc
 50
277.0259110896
 51
278.642944558
  0
ARC
  5
277
100
AcDbEntity
  8
0
100
AcDbCircle
 62
7
  6
CONTINUOUS
 10
11.1314125752
 20
5.6390801293
 40
0.0483965871
100
AcDbArc
 50
269.0396371013
 51
277.0418020527
  0
ARC
  5
278
100
AcDbEntity
  8
0
100
AcDbCircle
 62
9
  6
CONTINUOUS
 10
11.4646204308
 20
6.0792218358
 40
0.0217255841
100
AcDbArc
 50
105.1676430519
 51
107.9641919881
  0
ARC
  5
279
100
AcDbEntity
  8
0
100
AcDbCircle
 62
9
  6
CONTINUOUS
 10
11.4644796863
 20
6.0797833799
 40
0.0211467797
100
AcDbArc
 50
97.6314189937
 51
105.1976721492
  0
ARC
  5
27A
100
AcDbEntity
  8
0
100
AcDbCircle
 62
7
  6
CONTINUOUS
 10
11.4273183383
 20
5.7435147611
 40
0.02
100
AcDbArc
 50
310.2326139161
 51
332.5999328409
  0
ARC
  5
27B
100
AcDbEntity
  8
0
100
AcDbCircle
 62
7
  6
CONTINUOUS
 10
11.4948432172
 20
7.4965962636
 40
0.2039751211
100
AcDbArc
 50
325.0110095298
 51
33.0478355064
  0
ARC
  5
27C
100
AcDbEntity
  8
0
100
AcDbCircle
 62
7
  6
CONTINUOUS
 10
11.3044300762
 20
6.6376174446
 40
0.1239774096
100
AcDbArc
 50
312.9187712498
 51
314.2168798478
  0
ARC
  5
27D
100
AcDbEntity
  8
0
100
AcDbCircle
 62
7
  6
CONTINUOUS
 10
11.4088183383
 20
6.6293318604
 40
0.06
100
AcDbArc
 50
180.0
 51
270.0
  0
ARC
  5
27E
100
AcDbEntity
  8
0
100
AcDbCircle
 62
7
  6
CONTINUOUS
 10
11.4461672268
 20
6.9703318604
 40
0.031
100
AcDbArc
 50
270.0
 51
355.1903004543
  0
ARC
  5
27F
100
AcDbEntity
  8
0
100
AcDbCircle
 62
7
  6
CONTINUOUS
 10
11.8440552317
 20
6.1382116843
 40
0.1288798255
100
AcDbArc
 50
255.9836076734
 51
269.9909998103
  0
ARC
  5
280
100
AcDbEntity
  8
0
100
AcDbCircle
 62
7
  6
CONTINUOUS
 10
11.5898183383
 20
5.9893318604
 40
0.015
100
AcDbArc
 50
0.0
 51
90.0
  0
ARC
  5
281
100
AcDbEntity
  8
0
100
AcDbCircle
 62
7
  6
CONTINUOUS
 10
11.5873183383
 20
6.0143318604
 40
0.01
100
AcDbArc
 50
270.0
 51
360.0
  0
ARC
  5
282
100
AcDbEntity
  8
0
100
AcDbCircle
 62
7
  6
CONTINUOUS
 10
12.0998572404
 20
6.9153285319
 40
0.625
100
AcDbArc
 50
145.0110095298
 51
175.1903004544
  0
ARC
  5
283
100
AcDbEntity
  8
0
100
AcDbCircle
 62
7
  6
CONTINUOUS
 10
14.2404544687
 20
9.1323330026
 40
0.2500109774
100
AcDbArc
 50
270.0
 51
329.7355898687
  0
ARC
  5
284
100
AcDbEntity
  8
0
100
AcDbCircle
 62
7
  6
CONTINUOUS
 10
14.6723183383
 20
9.3803318604
 40
0.25
100
AcDbArc
 50
270.0
 51
360.0
  0
ARC
  5
285
100
AcDbEntity
  8
0
100
AcDbCircle
 62
7
  6
CONTINUOUS
 10
14.6723183383
 20
8.8803318604
 40
0.25
100
AcDbArc
 50
90.0
 51
149.7355898687
  0
ARC
  5
286
100
AcDbEntity
  8
0
100
AcDbCircle
 62
7
  6
CONTINUOUS
 10
13.800896524
 20
8.8763318604
 40
0.25
100
AcDbArc
 50
270.0
 51
330.7907880662
  0
ARC
  5
287
100
AcDbEntity
  8
0
100
AcDbCircle
 62
7
  6
CONTINUOUS
 10
14.2373183383
 20
8.6323318604
 40
0.25
100
AcDbArc
 50
90.0594822709
 51
150.7907880662
  0
ARC
  5
288
100
AcDbEntity
  8
0
100
AcDbCircle
 62
7
  6
CONTINUOUS
 10
12.0401822272
 20
8.6263318604
 40
0.1871361111
100
AcDbArc
 50
272.1854050713
 51
360.0
  0
ARC
  5
289
100
AcDbEntity
  8
0
100
AcDbCircle
 62
7
  6
CONTINUOUS
 10
11.8603210121
 20
8.4383318604
 40
0.187
100
AcDbArc
 50
270.0
 51
0.3063960032
  0
ARC
  5
28A
100
AcDbEntity
  8
0
100
AcDbCircle
 62
7
  6
CONTINUOUS
 10
11.8095928719
 20
7.701370885
 40
0.1715245336
100
AcDbArc
 50
134.9173576842
 51
213.0478355064
  0
LINE
  5
28B
100
AcDbEntity
  8
0
100
AcDbLine
 62
7
  6
CONTINUOUS
 10
11.1224384596
 20
5.5889877867
 11
11.1225877942
 21
5.5890066007
  0
SPLINE
  5
28C
100
AcDbEntity
  8
0
100
AcDbSpline
 62
7
  6
CONTINUOUS
 70
0
 71
3
 72
11
 73
7
 74
0
 42
0.0000001
 43
0.0000001
 44
0.0000000001
 40
0.0
 40
0.0
 40
0.0
 40
0.0
 40
0.2434501476
 40
0.4904378058
 40
0.7422263877
 40
1.0
 40
1.0
 40
1.0
 40
1.0
 10
11.1225877942
 20
5.5890066007
 30
0.0
 10
11.123868557
 20
5.5891699414
 30
0.0
 10
11.126436813
 20
5.5896004922
 30
0.0
 10
11.1302615389
 20
5.5905463201
 30
0.0
 10
11.1340782518
 20
5.5917949162
 30
0.0
 10
11.1365833701
 20
5.5928152973
 30
0.0
 10
11.1378317148
 20
5.5933726128
 30
0.0
  0
LINE
  5
28D
100
AcDbEntity
  8
0
100
AcDbLine
 62
7
  6
CONTINUOUS
 10
11.1378317148
 20
5.5933726128
 11
11.1379785132
 21
5.5934383783
  0
SPLINE
  5
28E
100
AcDbEntity
  8
0
100
AcDbSpline
 62
7
  6
CONTINUOUS
 70
0
 71
3
 72
25
 73
21
 74
0
 42
0.0000001
 43
0.0000001
 44
0.0000000001
 40
0.0
 40
0.0
 40
0.0
 40
0.0
 40
0.0634297628
 40
0.1266806982
 40
0.189731018
 40
0.2525837416
 40
0.3152520351
 40
0.3777624593
 40
0.4401461087
 40
0.5024362462
 40
0.5646647029
 40
0.6268563859
 40
0.6890326478
 40
0.7201276303
 40
0.7512230864
 40
0.8134017418
 40
0.8755887927
 40
0.9066943623
 40
0.9378010586
 40
1.0
 40
1.0
 40
1.0
 40
1.0
 10
11.9811881762
 20
6.1328027166
 30
0.0
 10
11.9803960107
 20
6.1286428166
 30
0.0
 10
11.9785142359
 20
6.1203884602
 30
0.0
 10
11.974799517
 20
6.1082671911
 30
0.0
 10
11.9702030987
 20
6.0964921495
 30
0.0
 10
11.9647357888
 20
6.0851380472
 30
0.0
 10
11.9584109545
 20
6.0742792037
 30
0.0
 10
11.951247219
 20
6.0639918018
 30
0.0
 10
11.9432695216
 20
6.0543536849
 30
0.0
 10
11.9345113066
 20
6.0454442265
 30
0.0
 10
11.9250160553
 20
6.0373431422
 30
0.0
 10
11.9148394645
 20
6.0301293063
 30
0.0
 10
11.9058448334
 20
6.0249184482
 30
0.0
 10
11.8983849801
 20
6.0212671224
 30
0.0
 10
11.8907619824
 20
6.0179694263
 30
0.0
 10
11.8809526115
 20
6.0145284129
 30
0.0
 10
11.8708584757
 20
6.0120396779
 30
0.0
 10
11.8626694184
 20
6.0106387607
 30
0.0
 10
11.8544221928
 20
6.0096344863
 30
0.0
 10
11.8481874696
 20
6.0093318604
 30
0.0
 10
11.8440349869
 20
6.0093318604
 30
0.0
  0
SPLINE
  5
28F
100
AcDbEntity
  8
0
100
AcDbSpline
 62
7
  6
CONTINUOUS
 70
0
 71
3
 72
13
 73
9
 74
0
 42
0.0000001
 43
0.0000001
 44
0.0000000001
 40
0.0
 40
0.0
 40
0.0
 40
0.0
 40
0.2491319726
 40
0.3744605418
 40
0.5000000347
 40
0.6255395209
 40
0.750868075
 40
1.0
 40
1.0
 40
1.0
 40
1.0
 10
11.9811881765
 20
6.4458610026
 30
0.0
 10
11.9860788142
 20
6.4201787843
 30
0.0
 10
11.9915714683
 20
6.3811904411
 30
0.0
 10
11.9952340468
 20
6.3288363672
 30
0.0
 10
11.9961529479
 20
6.2893318494
 30
0.0
 10
11.9952340459
 20
6.2498273331
 30
0.0
 10
11.9915714665
 20
6.1974732666
 30
0.0
 10
11.986078813
 20
6.15848493
 30
0.0
 10
11.9811881762
 20
6.1328027166
 30
0.0
  0
SPLINE
  5
290
100
AcDbEntity
  8
0
100
AcDbSpline
 62
7
  6
CONTINUOUS
 70
0
 71
3
 72
25
 73
21
 74
0
 42
0.0000001
 43
0.0000001
 44
0.0000000001
 40
0.0
 40
0.0
 40
0.0
 40
0.0
 40
0.062197413
 40
0.0933033159
 40
0.1244085505
 40
0.1865954178
 40
0.2487740125
 40
0.2798698536
 40
0.3109652614
 40
0.3731419186
 40
0.4353349953
 40
0.497564086
 40
0.5598551096
 40
0.6222401411
 40
0.6847506507
 40
0.7474192309
 40
0.8102722118
 40
0.8733214086
 40
0.9365725613
 40
1.0
 40
1.0
 40
1.0
 40
1.0
 10
11.8440349869
 20
6.5693318604
 30
0.0
 10
11.8481873673
 20
6.5693318604
 30
0.0
 10
11.8544219356
 20
6.5690292576
 30
0.0
 10
11.8626689849
 20
6.5680250081
 30
0.0
 10
11.8708579621
 20
6.56662415
 30
0.0
 10
11.8809520715
 20
6.5641354606
 30
0.0
 10
11.8907614477
 20
6.5606944484
 30
0.0
 10
11.8983845366
 20
6.557396835
 30
0.0
 10
11.9058444261
 20
6.5537454003
 30
0.0
 10
11.914839231
 20
6.5485345538
 30
0.0
 10
11.9250159329
 20
6.5413205918
 30
0.0
 10
11.9345113757
 20
6.5332194351
 30
0.0
 10
11.9432697028
 20
6.5243098138
 30
0.0
 10
11.9512475109
 20
6.5146715855
 30
0.0
 10
11.9584112657
 20
6.5043840536
 30
0.0
 10
11.9647360705
 20
6.4935251451
 30
0.0
 10
11.9702033019
 20
6.4821710502
 30
0.0
 10
11.9747997056
 20
6.4703960501
 30
0.0
 10
11.9785142824
 20
6.4582749635
 30
0.0
 10
11.9803960402
 20
6.4500207499
 30
0.0
 10
11.9811881765
 20
6.4458610026
 30
0.0
  0
SPLINE
  5
291
100
AcDbEntity
  8
0
100
AcDbSpline
 62
7
  6
CONTINUOUS
 70
0
 71
3
 72
25
 73
21
 74
0
 42
0.0000001
 43
0.0000001
 44
0.0000000001
 40
0.0
 40
0.0
 40
0.0
 40
0.0
 40
0.0634297628
 40
0.1266806982
 40
0.189731018
 40
0.2525837417
 40
0.3152520351
 40
0.3777624593
 40
0.4401461088
 40
0.5024362463
 40
0.5646647029
 40
0.6268563859
 40
0.6890326479
 40
0.7201276303
 40
0.7512230864
 40
0.8134017418
 40
0.8755887927
 40
0.9066943623
 40
0.9378010586
 40
1.0
 40
1.0
 40
1.0
 40
1.0
 10
10.1134485001
 20
6.1328027182
 30
0.0
 10
10.1142406655
 20
6.1286428182
 30
0.0
 10
10.1161224402
 20
6.1203884617
 30
0.0
 10
10.1198371591
 20
6.1082671924
 30
0.0
 10
10.1244335774
 20
6.0964921507
 30
0.0
 10
10.1299008872
 20
6.0851380483
 30
0.0
 10
10.1362257214
 20
6.0742792047
 30
0.0
 10
10.1433894569
 20
6.0639918026
 30
0.0
 10
10.1513671543
 20
6.0543536856
 30
0.0
 10
10.1601253694
 20
6.045444227
 30
0.0
 10
10.1696206207
 20
6.0373431426
 30
0.0
 10
10.1797972116
 20
6.0301293066
 30
0.0
 10
10.1887918427
 20
6.0249184485
 30
0.0
 10
10.196251696
 20
6.0212671226
 30
0.0
 10
10.2038746938
 20
6.0179694265
 30
0.0
 10
10.2136840648
 20
6.014528413
 30
0.0
 10
10.2237782006
 20
6.0120396779
 30
0.0
 10
10.231967258
 20
6.0106387607
 30
0.0
 10
10.2402144837
 20
6.0096344863
 30
0.0
 10
10.2464492069
 20
6.0093318604
 30
0.0
 10
10.2506016896
 20
6.0093318604
 30
0.0
  0
SPLINE
  5
292
100
AcDbEntity
  8
0
100
AcDbSpline
 62
7
  6
CONTINUOUS
 70
0
 71
3
 72
13
 73
9
 74
0
 42
0.0000001
 43
0.0000001
 44
0.0000000001
 40
0.0
 40
0.0
 40
0.0
 40
0.0
 40
0.2491319726
 40
0.3744605417
 40
0.5000000346
 40
0.6255395208
 40
0.750868075
 40
1.0
 40
1.0
 40
1.0
 40
1.0
 10
10.1134485005
 20
6.4458610045
 30
0.0
 10
10.1085578627
 20
6.4201787861
 30
0.0
 10
10.1030652085
 20
6.3811904429
 30
0.0
 10
10.0994026298
 20
6.328836369
 30
0.0
 10
10.0984837287
 20
6.2893318511
 30
0.0
 10
10.0994026306
 20
6.2498273348
 30
0.0
 10
10.1030652099
 20
6.1974732683
 30
0.0
 10
10.1085578633
 20
6.1584849317
 30
0.0
 10
10.1134485001
 20
6.1328027182
 30
0.0
  0
SPLINE
  5
293
100
AcDbEntity
  8
0
100
AcDbSpline
 62
7
  6
CONTINUOUS
 70
0
 71
3
 72
25
 73
21
 74
0
 42
0.0000001
 43
0.0000001
 44
0.0000000001
 40
0.0
 40
0.0
 40
0.0
 40
0.0
 40
0.062197413
 40
0.0933033159
 40
0.1244085505
 40
0.1865954178
 40
0.2487740125
 40
0.2798698536
 40
0.3109652615
 40
0.3731419187
 40
0.4353349954
 40
0.4975640861
 40
0.5598551097
 40
0.6222401411
 40
0.6847506507
 40
0.747419231
 40
0.8102722118
 40
0.8733214086
 40
0.9365725614
 40
1.0
 40
1.0
 40
1.0
 40
1.0
 10
10.2506016896
 20
6.5693318604
 30
0.0
 10
10.2464493093
 20
6.5693318604
 30
0.0
 10
10.240214741
 20
6.5690292577
 30
0.0
 10
10.2319676919
 20
6.5680250081
 30
0.0
 10
10.2237787147
 20
6.56662415
 30
0.0
 10
10.2136846055
 20
6.5641354607
 30
0.0
 10
10.2038752293
 20
6.5606944485
 30
0.0
 10
10.1962521405
 20
6.5573968352
 30
0.0
 10
10.188792251
 20
6.5537454006
 30
0.0
 10
10.1797974462
 20
6.5485345542
 30
0.0
 10
10.1696207443
 20
6.5413205923
 30
0.0
 10
10.1601253016
 20
6.5332194357
 30
0.0
 10
10.1513669745
 20
6.5243098146
 30
0.0
 10
10.1433891664
 20
6.5146715864
 30
0.0
 10
10.1362254115
 20
6.5043840547
 30
0.0
 10
10.1299006067
 20
6.4935251464
 30
0.0
 10
10.1244333753
 20
6.4821710516
 30
0.0
 10
10.1198369715
 20
6.4703960516
 30
0.0
 10
10.1161223947
 20
6.4582749652
 30
0.0
 10
10.1142406368
 20
6.4500207517
 30
0.0
 10
10.1134485005
 20
6.4458610045
 30
0.0
  0
LINE
  5
294
100
AcDbEntity
  8
0
100
AcDbLine
 62
7
  6
CONTINUOUS
 10
11.1368660291
 20
5.5949514397
 11
11.1376262394
 21
5.5951032618
  0
LINE
  5
295
100
AcDbEntity
  8
0
100
AcDbLine
 62
7
  6
CONTINUOUS
 10
11.1376262394
 20
5.5951032618
 11
11.1378320206
 21
5.5951445614
  0
LINE
  5
296
100
AcDbEntity
  8
0
100
AcDbLine
 62
7
  6
CONTINUOUS
 10
10.956804656
 20
5.5951445614
 11
10.9570104372
 21
5.5951032618
  0
LINE
  5
297
100
AcDbEntity
  8
0
100
AcDbLine
 62
7
  6
CONTINUOUS
 10
10.9570104372
 20
5.5951032618
 11
10.9577706475
 21
5.5949514397
  0
LINE
  5
298
100
AcDbEntity
  8
0
100
AcDbLine
 62
7
  6
CONTINUOUS
 10
10.9566581634
 20
5.5934383783
 11
10.9568048231
 21
5.5933726746
  0
SPLINE
  5
299
100
AcDbEntity
  8
0
100
AcDbSpline
 62
7
  6
CONTINUOUS
 70
0
 71
3
 72
11
 73
7
 74
0
 42
0.0000001
 43
0.0000001
 44
0.0000000001
 40
0.0
 40
0.0
 40
0.0
 40
0.0
 40
0.2577736629
 40
0.5095622623
 40
0.7565499101
 40
1.0
 40
1.0
 40
1.0
 40
1.0
 10
10.9568048231
 20
5.5933726746
 30
0.0
 10
10.9580531612
 20
5.5928153585
 30
0.0
 10
10.9605582657
 20
5.5917949751
 30
0.0
 10
10.9643749577
 20
5.5905463724
 30
0.0
 10
10.9681996626
 20
5.5896005345
 30
0.0
 10
10.9707679047
 20
5.5891699746
 30
0.0
 10
10.9720486608
 20
5.5890066289
 30
0.0
  0
LINE
  5
29A
100
AcDbEntity
  8
0
100
AcDbLine
 62
7
  6
CONTINUOUS
 10
10.9720486608
 20
5.5890066289
 11
10.9721982169
 21
5.5889877867
  0
SPLINE
  5
29B
100
AcDbEntity
  8
0
100
AcDbSpline
 62
7
  6
CONTINUOUS
 70
0
 71
3
 72
11
 73
7
 74
0
 42
0.0000001
 43
0.0000001
 44
0.0000000001
 40
0.0
 40
0.0
 40
0.0
 40
0.0
 40
0.2392698311
 40
0.4844781304
 40
0.737494962
 40
1.0
 40
1.0
 40
1.0
 40
1.0
 10
10.9544454441
 20
5.5924953851
 30
0.0
 10
10.9528073416
 20
5.5927947854
 30
0.0
 10
10.949518661
 20
5.5935666367
 30
0.0
 10
10.9446484511
 20
5.5952089022
 30
0.0
 10
10.9397967289
 20
5.5973443475
 30
0.0
 10
10.9366408263
 20
5.5990605087
 30
0.0
 10
10.935069926
 20
5.5999932528
 30
0.0
  0
SPLINE
  5
29C
100
AcDbEntity
  8
0
100
AcDbSpline
 62
7
  6
CONTINUOUS
 70
0
 71
3
 72
11
 73
7
 74
0
 42
0.0000001
 43
0.0000001
 44
0.0000000001
 40
0.0
 40
0.0
 40
0.0
 40
0.0
 40
0.2624852965
 40
0.5155029087
 40
0.7607217804
 40
1.0
 40
1.0
 40
1.0
 40
1.0
 10
11.1595756952
 20
5.5999985644
 30
0.0
 10
11.1580089689
 20
5.5990679948
 30
0.0
 10
11.1548615122
 20
5.597355411
 30
0.0
 10
11.1500230673
 20
5.5952229046
 30
0.0
 10
11.1451662196
 20
5.5935808937
 30
0.0
 10
11.1418865022
 20
5.5928073745
 30
0.0
 10
11.140252806
 20
5.5925066786
 30
0.0
  0
LINE
  5
29D
100
AcDbEntity
  8
0
100
AcDbLine
 62
7
  6
CONTINUOUS
 10
11.1379785132
 20
5.594453601
 11
11.1378034462
 21
5.5944205573
  0
LINE
  5
29E
100
AcDbEntity
  8
0
100
AcDbLine
 62
7
  6
CONTINUOUS
 10
10.9568332304
 20
5.5944205573
 11
10.9566581634
 21
5.594453601
  0
LINE
  5
29F
100
AcDbEntity
  8
0
100
AcDbLine
 62
9
  6
CONTINUOUS
 10
10.6328191252
 20
6.1007204067
 11
10.6362752591
 21
6.0998965313
  0
SPLINE
  5
2A0
100
AcDbEntity
  8
0
100
AcDbSpline
 62
9
  6
CONTINUOUS
 70
0
 71
3
 72
16
 73
12
 74
0
 42
0.0000001
 43
0.0000001
 44
0.0000000001
 40
0.0
 40
0.0
 40
0.0
 40
0.0
 40
0.0511637115
 40
0.1036261745
 40
0.2131291728
 40
0.329692095
 40
0.4534518354
 40
0.5837829458
 40
0.7194651394
 40
0.8588409356
 40
1.0
 40
1.0
 40
1.0
 40
1.0
 10
10.6362752591
 20
6.0998965313
 30
0.0
 10
10.6370444841
 20
6.0996413118
 30
0.0
 10
10.6385739841
 20
6.0990341065
 30
0.0
 10
10.6415629799
 20
6.0974530399
 30
0.0
 10
10.6451185316
 20
6.0947885944
 30
0.0
 10
10.6488958637
 20
6.0906991435
 30
0.0
 10
10.652154556
 20
6.0857880176
 30
0.0
 10
10.6548088981
 20
6.0801925629
 30
0.0
 10
10.6567897995
 20
6.0740662151
 30
0.0
 10
10.6580444896
 20
6.0675785016
 30
0.0
 10
10.6583736693
 20
6.0631349944
 30
0.0
 10
10.6584094988
 20
6.0608992501
 30
0.0
  0
SPLINE
  5
2A1
100
AcDbEntity
  8
0
100
AcDbSpline
 62
7
  6
CONTINUOUS
 70
0
 71
3
 72
11
 73
7
 74
0
 42
0.0000001
 43
0.0000001
 44
0.0000000001
 40
0.0
 40
0.0
 40
0.0
 40
0.0
 40
0.265608513
 40
0.5191817223
 40
0.7630797765
 40
1.0
 40
1.0
 40
1.0
 40
1.0
 10
11.1623183383
 20
5.6006817105
 30
0.0
 10
11.1604330783
 20
5.5994514665
 30
0.0
 10
11.1566410904
 20
5.5972044826
 30
0.0
 10
11.1507707956
 20
5.5944637283
 30
0.0
 10
11.1448703671
 20
5.5924440747
 30
0.0
 10
11.1408780365
 20
5.591572686
 30
0.0
 10
11.1388938514
 20
5.5912642829
 30
0.0
  0
LINE
  5
2A2
100
AcDbEntity
  8
0
100
AcDbLine
 62
7
  6
CONTINUOUS
 10
11.1388938514
 20
5.5912642829
 11
11.1387285947
 21
5.5912388813
  0
LINE
  5
2A3
100
AcDbEntity
  8
0
100
AcDbLine
 62
7
  6
CONTINUOUS
 10
11.081409378
 20
5.5859663893
 11
11.0798907276
 21
5.5858528285
  0
SPLINE
  5
2A4
100
AcDbEntity
  8
0
100
AcDbSpline
 62
9
  6
CONTINUOUS
 70
0
 71
3
 72
23
 73
19
 74
0
 42
0.0000001
 43
0.0000001
 44
0.0000000001
 40
0.0
 40
0.0
 40
0.0
 40
0.0
 40
0.0137546527
 40
0.0277328391
 40
0.057143416
 40
0.0897324501
 40
0.1265497808
 40
0.1682917789
 40
0.2154035779
 40
0.2681483978
 40
0.3266734258
 40
0.3910374302
 40
0.4612402286
 40
0.5372311694
 40
0.6189204401
 40
0.7061952401
 40
0.7989223691
 40
1.0
 40
1.0
 40
1.0
 40
1.0
 10
10.1134485244
 20
6.1328027228
 30
0.0
 10
10.1134760889
 20
6.1326579428
 30
0.0
 10
10.1135509685
 20
6.1323693283
 30
0.0
 10
10.1137802867
 20
6.131800051
 30
0.0
 10
10.1142250038
 20
6.1311086694
 30
0.0
 10
10.1149733397
 20
6.1303516219
 30
0.0
 10
10.1159399823
 20
6.1296489752
 30
0.0
 10
10.117122496
 20
6.1289992079
 30
0.0
 10
10.1185192955
 20
6.1284019488
 30
0.0
 10
10.1201281124
 20
6.127857606
 30
0.0
 10
10.1219460565
 20
6.1273672568
 30
0.0
 10
10.1239694684
 20
6.1269318513
 30
0.0
 10
10.1261940585
 20
6.1265524872
 30
0.0
 10
10.1286149038
 20
6.126230059
 30
0.0
 10
10.1312265803
 20
6.1259653568
 30
0.0
 10
10.1340233144
 20
6.1257590605
 30
0.0
 10
10.1381018694
 20
6.1255572141
 30
0.0
 10
10.1412506337
 20
6.1255052219
 30
0.0
 10
10.1434051748
 20
6.1255052219
 30
0.0
  0
SPLINE
  5
2A5
100
AcDbEntity
  8
0
100
AcDbSpline
 62
9
  6
CONTINUOUS
 70
0
 71
3
 72
23
 73
19
 74
0
 42
0.0000001
 43
0.0000001
 44
0.0000000001
 40
0.0
 40
0.0
 40
0.0
 40
0.0
 40
0.0137546527
 40
0.027732839
 40
0.0571434156
 40
0.0897324491
 40
0.1265497792
 40
0.1682917767
 40
0.2154035753
 40
0.2681483948
 40
0.3266734225
 40
0.3910374268
 40
0.4612402252
 40
0.5372311662
 40
0.6189204372
 40
0.7061952377
 40
0.7989223674
 40
1.0
 40
1.0
 40
1.0
 40
1.0
 10
11.9811881519
 20
6.1328027212
 30
0.0
 10
11.9811605874
 20
6.1326579412
 30
0.0
 10
11.9810857078
 20
6.1323693267
 30
0.0
 10
11.9808563895
 20
6.1318000494
 30
0.0
 10
11.9804116725
 20
6.1311086679
 30
0.0
 10
11.9796633366
 20
6.1303516204
 30
0.0
 10
11.978696694
 20
6.1296489737
 30
0.0
 10
11.9775141803
 20
6.1289992066
 30
0.0
 10
11.9761173808
 20
6.1284019475
 30
0.0
 10
11.9745085639
 20
6.1278576048
 30
0.0
 10
11.9726906198
 20
6.1273672557
 30
0.0
 10
11.9706672079
 20
6.1269318504
 30
0.0
 10
11.9684426179
 20
6.1265524863
 30
0.0
 10
11.9660217726
 20
6.1262300583
 30
0.0
 10
11.9634100962
 20
6.1259653562
 30
0.0
 10
11.960613362
 20
6.1257590601
 30
0.0
 10
11.9565348071
 20
6.1255572139
 30
0.0
 10
11.9533860429
 20
6.1255052218
 30
0.0
 10
11.9512315018
 20
6.1255052219
 30
0.0
  0
SPLINE
  5
2A6
100
AcDbEntity
  8
0
100
AcDbSpline
 62
9
  6
CONTINUOUS
 70
0
 71
3
 72
23
 73
19
 74
0
 42
0.0000001
 43
0.0000001
 44
0.0000000001
 40
0.0
 40
0.0
 40
0.0
 40
0.0
 40
0.0137546526
 40
0.027732839
 40
0.0571434155
 40
0.089732449
 40
0.1265497791
 40
0.1682917765
 40
0.215403575
 40
0.2681483945
 40
0.3266734223
 40
0.3910374265
 40
0.461240225
 40
0.537231166
 40
0.6189204369
 40
0.7061952375
 40
0.7989223672
 40
1.0
 40
1.0
 40
1.0
 40
1.0
 10
10.1134485247
 20
6.4458609999
 30
0.0
 10
10.1134760892
 20
6.4460057799
 30
0.0
 10
10.1135509689
 20
6.4462943944
 30
0.0
 10
10.1137802871
 20
6.4468636717
 30
0.0
 10
10.1142250041
 20
6.4475550532
 30
0.0
 10
10.1149733401
 20
6.4483121007
 30
0.0
 10
10.1159399826
 20
6.4490147473
 30
0.0
 10
10.1171224963
 20
6.4496645145
 30
0.0
 10
10.1185192959
 20
6.4502617735
 30
0.0
 10
10.1201281127
 20
6.4508061162
 30
0.0
 10
10.1219460568
 20
6.4512964652
 30
0.0
 10
10.1239694687
 20
6.4517318706
 30
0.0
 10
10.1261940588
 20
6.4521112346
 30
0.0
 10
10.128614904
 20
6.4524336627
 30
0.0
 10
10.1312265804
 20
6.4526983647
 30
0.0
 10
10.1340233145
 20
6.4529046608
 30
0.0
 10
10.1381018695
 20
6.453106507
 30
0.0
 10
10.1412506337
 20
6.453158499
 30
0.0
 10
10.1434051748
 20
6.4531584988
 30
0.0
  0
LINE
  5
2A7
100
AcDbEntity
  8
0
100
AcDbLine
 62
7
  6
CONTINUOUS
 10
11.014745949
 20
5.5858528285
 11
11.0132272986
 21
5.5859663893
  0
SPLINE
  5
2A8
100
AcDbEntity
  8
0
100
AcDbSpline
 62
9
  6
CONTINUOUS
 70
0
 71
3
 72
22
 73
18
 74
0
 42
0.0000001
 43
0.0000001
 44
0.0000000001
 40
0.0
 40
0.0
 40
0.0
 40
0.0
 40
0.0530289182
 40
0.1064964346
 40
0.160717578
 40
0.2159755714
 40
0.2725122028
 40
0.3305217387
 40
0.390147742
 40
0.4514826778
 40
0.514569469
 40
0.5794044114
 40
0.645941008
 40
0.7140939537
 40
0.7837446055
 40
0.8547420343
 40
1.0
 40
1.0
 40
1.0
 40
1.0
 10
10.2478555539
 20
6.0093799176
 30
0.0
 10
10.2448846011
 20
6.0094839185
 30
0.0
 10
10.2389246159
 20
6.0100326936
 30
0.0
 10
10.2300849595
 20
6.0118644256
 30
0.0
 10
10.2213803031
 20
6.014693261
 30
0.0
 10
10.2128689971
 20
6.0184992465
 30
0.0
 10
10.20460553
 20
6.0232561386
 30
0.0
 10
10.1966427442
 20
6.028931774
 30
0.0
 10
10.1890310189
 20
6.035488461
 30
0.0
 10
10.1818183201
 20
6.0428832387
 30
0.0
 10
10.175049998
 20
6.0510681349
 30
0.0
 10
10.1687685997
 20
6.0599903673
 30
0.0
 10
10.1630136401
 20
6.0695927019
 30
0.0
 10
10.157821411
 20
6.0798134166
 30
0.0
 10
10.153224536
 20
6.0905879581
 30
0.0
 10
10.1478890826
 20
6.1057096524
 30
0.0
 10
10.1449284796
 20
6.1175058876
 30
0.0
 10
10.1434051748
 20
6.1255052219
 30
0.0
  0
SPLINE
  5
2A9
100
AcDbEntity
  8
0
100
AcDbSpline
 62
9
  6
CONTINUOUS
 70
0
 71
3
 72
23
 73
19
 74
0
 42
0.0000001
 43
0.0000001
 44
0.0000000001
 40
0.0
 40
0.0
 40
0.0
 40
0.0
 40
0.0137546527
 40
0.0277328391
 40
0.057143416
 40
0.0897324501
 40
0.1265497808
 40
0.1682917788
 40
0.2154035779
 40
0.2681483978
 40
0.3266734258
 40
0.3910374302
 40
0.4612402286
 40
0.5372311694
 40
0.61892044
 40
0.7061952401
 40
0.7989223691
 40
1.0
 40
1.0
 40
1.0
 40
1.0
 10
11.9811881522
 20
6.445860998
 30
0.0
 10
11.9811605877
 20
6.4460057781
 30
0.0
 10
11.9810857081
 20
6.4462943925
 30
0.0
 10
11.9808563898
 20
6.4468636698
 30
0.0
 10
11.9804116728
 20
6.4475550514
 30
0.0
 10
11.9796633368
 20
6.4483120989
 30
0.0
 10
11.9786966943
 20
6.4490147456
 30
0.0
 10
11.9775141806
 20
6.4496645129
 30
0.0
 10
11.976117381
 20
6.450261772
 30
0.0
 10
11.9745085642
 20
6.4508061148
 30
0.0
 10
11.97269062
 20
6.451296464
 30
0.0
 10
11.9706672081
 20
6.4517318695
 30
0.0
 10
11.968442618
 20
6.4521112336
 30
0.0
 10
11.9660217728
 20
6.4524336618
 30
0.0
 10
11.9634100963
 20
6.452698364
 30
0.0
 10
11.9606133621
 20
6.4529046603
 30
0.0
 10
11.9565348072
 20
6.4531065067
 30
0.0
 10
11.9533860429
 20
6.4531584989
 30
0.0
 10
11.9512315018
 20
6.4531584989
 30
0.0
  0
SPLINE
  5
2AA
100
AcDbEntity
  8
0
100
AcDbSpline
 62
9
  6
CONTINUOUS
 70
0
 71
3
 72
22
 73
18
 74
0
 42
0.0000001
 43
0.0000001
 44
0.0000000001
 40
0.0
 40
0.0
 40
0.0
 40
0.0
 40
0.1465831034
 40
0.218378417
 40
0.2888315809
 40
0.3577305584
 40
0.4249017821
 40
0.4902116211
 40
0.5535743344
 40
0.6149583004
 40
0.674392065
 40
0.7319694911
 40
0.7878530887
 40
0.8422744279
 40
0.8955303118
 40
0.9479745555
 40
1.0
 40
1.0
 40
1.0
 40
1.0
 10
11.766325404
 20
6.1101978185
 30
0.0
 10
11.765617484
 20
6.1045200132
 30
0.0
 10
11.7650776347
 20
6.0959827448
 30
0.0
 10
11.7654638029
 20
6.0847092315
 30
0.0
 10
11.7662962377
 20
6.0765025114
 30
0.0
 10
11.7676675095
 20
6.0685516831
 30
0.0
 10
11.7695674359
 20
6.0609163845
 30
0.0
 10
11.7719820882
 20
6.0536546762
 30
0.0
 10
11.7748937019
 20
6.0468216291
 30
0.0
 10
11.778280923
 20
6.0404692418
 30
0.0
 10
11.7821189506
 20
6.0346460858
 30
0.0
 10
11.7863796379
 20
6.0293970762
 30
0.0
 10
11.7910316065
 20
6.0247632208
 30
0.0
 10
11.7960401008
 20
6.0207814123
 30
0.0
 10
11.8013674768
 20
6.0174837833
 30
0.0
 10
11.8069712939
 20
6.0148979877
 30
0.0
 10
11.8108701661
 20
6.0136604186
 30
0.0
 10
11.8128406038
 20
6.0131690657
 30
0.0
  0
SPLINE
  5
2AB
100
AcDbEntity
  8
0
100
AcDbSpline
 62
9
  6
CONTINUOUS
 70
0
 71
3
 72
25
 73
21
 74
0
 42
0.0000001
 43
0.0000001
 44
0.0000000001
 40
0.0
 40
0.0
 40
0.0
 40
0.0
 40
0.023715453
 40
0.0468978693
 40
0.0697353644
 40
0.0924145406
 40
0.1151166281
 40
0.1380124747
 40
0.1849674237
 40
0.2343808468
 40
0.2870588472
 40
0.3435092579
 40
0.4038960069
 40
0.4681738905
 40
0.536155934
 40
0.6075407571
 40
0.6819342438
 40
0.8378537124
 40
0.9184246462
 40
1.0
 40
1.0
 40
1.0
 40
1.0
 10
11.4586349802
 20
6.1014951983
 30
0.0
 10
11.457808033
 20
6.1017014312
 30
0.0
 10
11.4561868614
 20
6.1021691228
 30
0.0
 10
11.4538373784
 20
6.1030482402
 30
0.0
 10
11.4515982645
 20
6.1040945408
 30
0.0
 10
11.4494645244
 20
6.1053070033
 30
0.0
 10
11.4474309527
 20
6.1066845844
 30
0.0
 10
11.4448252961
 20
6.1087563107
 30
0.0
 10
11.4417756677
 20
6.1117896253
 30
0.0
 10
11.4384905194
 20
6.1160357023
 30
0.0
 10
11.4355129734
 20
6.1209045866
 30
0.0
 10
11.4328199062
 20
6.1263769558
 30
0.0
 10
11.4304131045
 20
6.1324308016
 30
0.0
 10
11.4283050273
 20
6.1390304434
 30
0.0
 10
11.4265116628
 20
6.1461301071
 30
0.0
 10
11.4250500581
 20
6.1536757178
 30
0.0
 10
11.4235435651
 20
6.1644167606
 30
0.0
 10
11.4228175363
 20
6.1755846764
 30
0.0
 10
11.4227990628
 20
6.1870168826
 30
0.0
 10
11.4230122068
 20
6.1928417567
 30
0.0
 10
11.4231664232
 20
6.1957693171
 30
0.0
  0
SPLINE
  5
2AC
100
AcDbEntity
  8
0
100
AcDbSpline
 62
9
  6
CONTINUOUS
 70
0
 71
3
 72
21
 73
17
 74
0
 42
0.0000001
 43
0.0000001
 44
0.0000000001
 40
0.0
 40
0.0
 40
0.0
 40
0.0
 40
0.0544517099
 40
0.1085035258
 40
0.1626044207
 40
0.2172170918
 40
0.2727653045
 40
0.3296241736
 40
0.3880997557
 40
0.4484206138
 40
0.5107348918
 40
0.575112095
 40
0.7098520465
 40
0.7801330762
 40
0.8520864377
 40
1.0
 40
1.0
 40
1.0
 40
1.0
 10
11.766325404
 20
6.1101978185
 30
0.0
 10
11.7675424016
 20
6.1098943431
 30
0.0
 10
11.7700088986
 20
6.1094427136
 30
0.0
 10
11.7737599074
 20
6.1092531181
 30
0.0
 10
11.7775076583
 20
6.1095572879
 30
0.0
 10
11.7812175642
 20
6.110352001
 30
0.0
 10
11.7848569404
 20
6.1116295852
 30
0.0
 10
11.7883939137
 20
6.1133776784
 30
0.0
 10
11.7917982073
 20
6.1155800288
 30
0.0
 10
11.7950410164
 20
6.1182165978
 30
0.0
 10
11.7980954583
 20
6.1212643536
 30
0.0
 10
11.8019394746
 20
6.1259091658
 30
0.0
 10
11.8052325996
 20
6.1312100225
 30
0.0
 10
11.8079456368
 20
6.1369890851
 30
0.0
 10
11.810324396
 20
6.1432402588
 30
0.0
 10
11.8116054304
 20
6.1481624887
 30
0.0
 10
11.8122427887
 20
6.1515094503
 30
0.0
  0
SPLINE
  5
2AD
100
AcDbEntity
  8
0
100
AcDbSpline
 62
9
  6
CONTINUOUS
 70
0
 71
3
 72
17
 73
13
 74
0
 42
0.0000001
 43
0.0000001
 44
0.0000000001
 40
0.0
 40
0.0
 40
0.0
 40
0.0
 40
0.0522776835
 40
0.1055960855
 40
0.160180636
 40
0.2162064269
 40
0.3329074814
 40
0.4562073994
 40
0.5857420121
 40
0.7205471507
 40
0.8592008984
 40
1.0
 40
1.0
 40
1.0
 40
1.0
 10
11.4579197706
 20
6.0998882859
 30
0.0
 10
11.457131923
 20
6.0996329275
 30
0.0
 10
11.4555685261
 20
6.0990263757
 30
0.0
 10
11.4533120823
 20
6.0978555581
 30
0.0
 10
11.4511394569
 20
6.0964244039
 30
0.0
 10
11.4483382787
 20
6.0941534992
 30
0.0
 10
11.4451314214
 20
6.0906942406
 30
0.0
 10
11.4419069932
 20
6.0857800593
 30
0.0
 10
11.4393325455
 20
6.0801814106
 30
0.0
 10
11.4374763368
 20
6.0740533929
 30
0.0
 10
11.4363865562
 20
6.0675652352
 30
0.0
 10
11.4361912159
 20
6.0631295432
 30
0.0
 10
11.4362269581
 20
6.0608992501
 30
0.0
  0
SPLINE
  5
2AE
100
AcDbEntity
  8
0
100
AcDbSpline
 62
9
  6
CONTINUOUS
 70
0
 71
3
 72
23
 73
19
 74
0
 42
0.0000001
 43
0.0000001
 44
0.0000000001
 40
0.0
 40
0.0
 40
0.0
 40
0.0
 40
0.0526852401
 40
0.1093969877
 40
0.169627854
 40
0.232833552
 40
0.2984342094
 40
0.3658247382
 40
0.4343803876
 40
0.5034640829
 40
0.5724330992
 40
0.6406459297
 40
0.7074691527
 40
0.7722841134
 40
0.8344942602
 40
0.893530784
 40
0.948862983
 40
1.0
 40
1.0
 40
1.0
 40
1.0
 10
11.8122427887
 20
6.1515094503
 30
0.0
 10
11.8145730004
 20
6.1506219708
 30
0.0
 10
11.819443872
 20
6.1488635565
 30
0.0
 10
11.8270703554
 20
6.1463531842
 30
0.0
 10
11.8352337778
 20
6.1438901697
 30
0.0
 10
11.8438556569
 20
6.1414984936
 30
0.0
 10
11.8528533012
 20
6.139201379
 30
0.0
 10
11.8621401937
 20
6.1370210692
 30
0.0
 10
11.8716270437
 20
6.134978644
 30
0.0
 10
11.8812225894
 20
6.1330938064
 30
0.0
 10
11.8908345129
 20
6.1313847058
 30
0.0
 10
11.900370332
 20
6.1298677555
 30
0.0
 10
11.9097382957
 20
6.1285574797
 30
0.0
 10
11.9188482986
 20
6.1274663464
 30
0.0
 10
11.9276126984
 20
6.1266046763
 30
0.0
 10
11.9359473627
 20
6.1259804294
 30
0.0
 10
11.9437720765
 20
6.1255992825
 30
0.0
 10
11.9488112834
 20
6.1255052219
 30
0.0
 10
11.9512315018
 20
6.1255052219
 30
0.0
  0
SPLINE
  5
2AF
100
AcDbEntity
  8
0
100
AcDbSpline
 62
9
  6
CONTINUOUS
 70
0
 71
3
 72
13
 73
9
 74
0
 42
0.0000001
 43
0.0000001
 44
0.0000000001
 40
0.0
 40
0.0
 40
0.0
 40
0.0
 40
0.248888716
 40
0.3743087166
 40
0.5
 40
0.6256912834
 40
0.751111284
 40
1.0
 40
1.0
 40
1.0
 40
1.0
 10
11.9512315018
 20
6.1255052219
 30
0.0
 10
11.9563450967
 20
6.152358256
 30
0.0
 10
11.9620858897
 20
6.1931481623
 30
0.0
 10
11.9659161504
 20
6.2479426225
 30
0.0
 10
11.9668780018
 20
6.2893318604
 30
0.0
 10
11.9659161504
 20
6.3307210982
 30
0.0
 10
11.9620858897
 20
6.3855155584
 30
0.0
 10
11.9563450967
 20
6.4263054648
 30
0.0
 10
11.9512315018
 20
6.4531584988
 30
0.0
  0
SPLINE
  5
2B0
100
AcDbEntity
  8
0
100
AcDbSpline
 62
9
  6
CONTINUOUS
 70
0
 71
3
 72
22
 73
18
 74
0
 42
0.0000001
 43
0.0000001
 44
0.0000000001
 40
0.0
 40
0.0
 40
0.0
 40
0.0
 40
0.0531161149
 40
0.1065838188
 40
0.1607374893
 40
0.2158821396
 40
0.2722807484
 40
0.3301471199
 40
0.3896416494
 40
0.4508703683
 40
0.5138862742
 40
0.578692301
 40
0.6452453898
 40
0.7134607409
 40
0.7832175685
 40
0.8543608926
 40
1.0
 40
1.0
 40
1.0
 40
1.0
 10
11.8440349869
 20
6.0093318567
 30
0.0
 10
11.8470612059
 20
6.0093318576
 30
0.0
 10
11.8531394551
 20
6.0096844199
 30
0.0
 10
11.8621790424
 20
6.0112650038
 30
0.0
 10
11.8710944804
 20
6.0138861663
 30
0.0
 10
11.8798234314
 20
6.0175284686
 30
0.0
 10
11.8883076516
 20
6.0221656447
 30
0.0
 10
11.8964906626
 20
6.0277649065
 30
0.0
 10
11.9043186301
 20
6.0342874472
 30
0.0
 10
11.9117403073
 20
6.0416887313
 30
0.0
 10
11.9187072518
 20
6.049918777
 30
0.0
 10
11.9251740143
 20
6.0589223887
 30
0.0
 10
11.9310983678
 20
6.0686395467
 30
0.0
 10
11.9364415298
 20
6.079005355
 30
0.0
 10
11.9411686652
 20
6.0899518149
 30
0.0
 10
11.9466496206
 20
6.1053380273
 30
0.0
 10
11.9496792935
 20
6.1173541068
 30
0.0
 10
11.9512315018
 20
6.1255052219
 30
0.0
  0
SPLINE
  5
2B1
100
AcDbEntity
  8
0
100
AcDbSpline
 62
9
  6
CONTINUOUS
 70
0
 71
3
 72
13
 73
9
 74
0
 42
0.0000001
 43
0.0000001
 44
0.0000000001
 40
0.0
 40
0.0
 40
0.0
 40
0.0
 40
0.2488885655
 40
0.3743086263
 40
0.4999999998
 40
0.6256913732
 40
0.7511114342
 40
1.0
 40
1.0
 40
1.0
 40
1.0
 10
11.8122427887
 20
6.1515094503
 30
0.0
 10
11.8165446993
 20
6.1741000843
 30
0.0
 10
11.8213742548
 20
6.2084153939
 30
0.0
 10
11.8245965401
 20
6.2545123206
 30
0.0
 10
11.8254057177
 20
6.2893318603
 30
0.0
 10
11.8245965401
 20
6.3241514001
 30
0.0
 10
11.8213742548
 20
6.3702483269
 30
0.0
 10
11.8165446993
 20
6.4045636365
 30
0.0
 10
11.8122427887
 20
6.4271542706
 30
0.0
  0
SPLINE
  5
2B2
100
AcDbEntity
  8
0
100
AcDbSpline
 62
9
  6
CONTINUOUS
 70
0
 71
3
 72
23
 73
19
 74
0
 42
0.0000001
 43
0.0000001
 44
0.0000000001
 40
0.0
 40
0.0
 40
0.0
 40
0.0
 40
0.0526852404
 40
0.1093969883
 40
0.1696278546
 40
0.2328335526
 40
0.2984342099
 40
0.3658247386
 40
0.4343803878
 40
0.5034640829
 40
0.5724330989
 40
0.6406459293
 40
0.7074691521
 40
0.7722841128
 40
0.8344942596
 40
0.8935307835
 40
0.9488629826
 40
1.0
 40
1.0
 40
1.0
 40
1.0
 10
11.8122427887
 20
6.4271542706
 30
0.0
 10
11.8145730004
 20
6.4280417502
 30
0.0
 10
11.8194438719
 20
6.4298001647
 30
0.0
 10
11.8270703552
 20
6.4323105375
 30
0.0
 10
11.8352337776
 20
6.4347735523
 30
0.0
 10
11.8438556566
 20
6.4371652286
 30
0.0
 10
11.8528533009
 20
6.4394623435
 30
0.0
 10
11.8621401933
 20
6.4416426534
 30
0.0
 10
11.8716270434
 20
6.4436850787
 30
0.0
 10
11.881222589
 20
6.4455699163
 30
0.0
 10
11.8908345125
 20
6.4472790169
 30
0.0
 10
11.9003703317
 20
6.448795967
 30
0.0
 10
11.9097382954
 20
6.4501062426
 30
0.0
 10
11.9188482984
 20
6.4511973757
 30
0.0
 10
11.9276126983
 20
6.4520590455
 30
0.0
 10
11.9359473626
 20
6.4526832921
 30
0.0
 10
11.9437720764
 20
6.4530644387
 30
0.0
 10
11.9488112834
 20
6.453158499
 30
0.0
 10
11.9512315018
 20
6.4531584988
 30
0.0
  0
SPLINE
  5
2B3
100
AcDbEntity
  8
0
100
AcDbSpline
 62
9
  6
CONTINUOUS
 70
0
 71
3
 72
22
 73
18
 74
0
 42
0.0000001
 43
0.0000001
 44
0.0000000001
 40
0.0
 40
0.0
 40
0.0
 40
0.0
 40
0.1456391286
 40
0.2167823543
 40
0.2865391926
 40
0.3547545255
 40
0.4213076058
 40
0.486113624
 40
0.5491295148
 40
0.6103582124
 40
0.6698527192
 40
0.7277190964
 40
0.784117626
 40
0.8392625017
 40
0.8934155546
 40
0.9468844392
 40
1.0
 40
1.0
 40
1.0
 40
1.0
 10
11.9512315018
 20
6.4531584988
 30
0.0
 10
11.9496792933
 20
6.4613096152
 30
0.0
 10
11.9466496232
 20
6.4733256912
 30
0.0
 10
11.9411686642
 20
6.4887118982
 30
0.0
 10
11.936441535
 20
6.4996583541
 30
0.0
 10
11.9310983747
 20
6.5100241624
 30
0.0
 10
11.9251740252
 20
6.5197413205
 30
0.0
 10
11.9187072658
 20
6.5287449322
 30
0.0
 10
11.9117403227
 20
6.536974976
 30
0.0
 10
11.904318644
 20
6.5443762535
 30
0.0
 10
11.8964906799
 20
6.5508987956
 30
0.0
 10
11.8883076707
 20
6.5564980483
 30
0.0
 10
11.8798234555
 20
6.5611352547
 30
0.0
 10
11.8710945171
 20
6.5647775135
 30
0.0
 10
11.862179057
 20
6.5673987598
 30
0.0
 10
11.8531394568
 20
6.5689792916
 30
0.0
 10
11.8470611744
 20
6.5693318604
 30
0.0
 10
11.8440349869
 20
6.5693318604
 30
0.0
  0
SPLINE
  5
2B4
100
AcDbEntity
  8
0
100
AcDbSpline
 62
9
  6
CONTINUOUS
 70
0
 71
3
 72
18
 73
14
 74
0
 42
0.0000001
 43
0.0000001
 44
0.0000000001
 40
0.0
 40
0.0
 40
0.0
 40
0.0
 40
0.1456962129
 40
0.2865726235
 40
0.4213069985
 40
0.5490766749
 40
0.6697260974
 40
0.7276145739
 40
0.7840353999
 40
0.8392014166
 40
0.8933738413
 40
0.9468682874
 40
1.0
 40
1.0
 40
1.0
 40
1.0
 10
11.8122427887
 20
6.4271542706
 30
0.0
 10
11.811679244
 20
6.4301136145
 30
0.0
 10
11.810226352
 20
6.4358760303
 30
0.0
 10
11.8070458173
 20
6.4440112258
 30
0.0
 10
11.8029700717
 20
6.4513212095
 30
0.0
 10
11.7981015659
 20
6.4576114126
 30
0.0
 10
11.7934130554
 20
6.4619252105
 30
0.0
 10
11.7893978916
 20
6.4646723596
 30
0.0
 10
11.7863175142
 20
6.4663560424
 30
0.0
 10
11.7831484674
 20
6.4676783784
 30
0.0
 10
11.7799115663
 20
6.4686300792
 30
0.0
 10
11.7766296728
 20
6.4692037838
 30
0.0
 10
11.7744228998
 20
6.4693318604
 30
0.0
 10
11.7733243088
 20
6.4693318604
 30
0.0
  0
SPLINE
  5
2B5
100
AcDbEntity
  8
0
100
AcDbSpline
 62
7
  6
CONTINUOUS
 70
0
 71
3
 72
9
 73
5
 74
0
 42
0.0000001
 43
0.0000001
 44
0.0000000001
 40
0.0
 40
0.0
 40
0.0
 40
0.0
 40
0.5083766679
 40
1.0
 40
1.0
 40
1.0
 40
1.0
 10
11.390889037
 20
6.5487622414
 30
0.0
 10
11.3929539156
 20
6.5507723327
 30
0.0
 10
11.3972085642
 20
6.5545337031
 30
0.0
 10
11.4018286538
 20
6.5578388687
 30
0.0
 10
11.4041817078
 20
6.5593318604
 30
0.0
  0
LINE
  5
2B6
100
AcDbEntity
  8
0
100
AcDbLine
 62
9
  6
CONTINUOUS
 10
11.3916393105
 20
6.548109191
 11
11.390889037
 21
6.5487622414
  0
SPLINE
  5
2B7
100
AcDbEntity
  8
0
100
AcDbSpline
 62
9
  6
CONTINUOUS
 70
0
 71
3
 72
20
 73
16
 74
0
 42
0.0000001
 43
0.0000001
 44
0.0000000001
 40
0.0
 40
0.0
 40
0.0
 40
0.0
 40
0.1803371771
 40
0.3440205165
 40
0.4178108757
 40
0.4864835798
 40
0.5505460709
 40
0.6105816216
 40
0.6671657085
 40
0.7208048166
 40
0.7719307022
 40
0.8208933911
 40
0.8679791594
 40
0.9134150203
 40
1.0
 40
1.0
 40
1.0
 40
1.0
 10
11.4240773177
 20
6.4693318604
 30
0.0
 10
11.424077376
 20
6.4746179022
 30
0.0
 10
11.4235097058
 20
6.4847124066
 30
0.0
 10
11.4213916341
 20
6.4968054888
 30
0.0
 10
11.4190414188
 20
6.5054708209
 30
0.0
 10
11.4171142402
 20
6.5112133941
 30
0.0
 10
11.4149982821
 20
6.516456368
 30
0.0
 10
11.4127264852
 20
6.5212438851
 30
0.0
 10
11.4103300909
 20
6.5256245299
 30
0.0
 10
11.4078331248
 20
6.5296438137
 30
0.0
 10
11.4052565485
 20
6.5333429511
 30
0.0
 10
11.4026171417
 20
6.5367573234
 30
0.0
 10
11.399929978
 20
6.5399181616
 30
0.0
 10
11.3963543151
 20
6.5437638614
 30
0.0
 10
11.3935450497
 20
6.5464330372
 30
0.0
 10
11.3916393105
 20
6.548109191
 30
0.0
  0
SPLINE
  5
2B8
100
AcDbEntity
  8
0
100
AcDbSpline
 62
9
  6
CONTINUOUS
 70
0
 71
3
 72
22
 73
18
 74
0
 42
0.0000001
 43
0.0000001
 44
0.0000000001
 40
0.0
 40
0.0
 40
0.0
 40
0.0
 40
0.1448636649
 40
0.2164759555
 40
0.2870772399
 40
0.3563691899
 40
0.4240895926
 40
0.4900197237
 40
0.5539945598
 40
0.6159122455
 40
0.6757436416
 40
0.7335409782
 40
0.7894443927
 40
0.8436853835
 40
0.8965829393
 40
0.94853633
 40
1.0
 40
1.0
 40
1.0
 40
1.0
 10
11.7733243088
 20
6.4693318604
 30
0.0
 10
11.7733243088
 20
6.4758506395
 30
0.0
 10
11.7739971337
 20
6.4856107634
 30
0.0
 10
11.7762462651
 20
6.4983394593
 30
0.0
 10
11.7785772952
 20
6.5075767276
 30
0.0
 10
11.781536238
 20
6.5164476268
 30
0.0
 10
11.7850952591
 20
6.5248684435
 30
0.0
 10
11.7892208723
 20
6.5327584433
 30
0.0
 10
11.7938743996
 20
6.5400422191
 30
0.0
 10
11.7990123674
 20
6.5466498721
 30
0.0
 10
11.8045868949
 20
6.5525176476
 30
0.0
 10
11.8105460475
 20
6.5575882982
 30
0.0
 10
11.8168341259
 20
6.5618115222
 30
0.0
 10
11.8233916099
 20
6.5651442328
 30
0.0
 10
11.8301559958
 20
6.5675514491
 30
0.0
 10
11.8370590925
 20
6.5690066866
 30
0.0
 10
11.8417191523
 20
6.5693318604
 30
0.0
 10
11.8440349869
 20
6.5693318604
 30
0.0
  0
SPLINE
  5
2B9
100
AcDbEntity
  8
0
100
AcDbSpline
 62
7
  6
CONTINUOUS
 70
0
 71
3
 72
15
 73
11
 74
0
 42
0.0000001
 43
0.0000001
 44
0.0000000001
 40
0.0
 40
0.0
 40
0.0
 40
0.0
 40
0.1638615661
 40
0.3132195786
 40
0.4496896786
 40
0.5749695039
 40
0.6907903562
 40
0.798963931
 40
0.9013848505
 40
1.0
 40
1.0
 40
1.0
 40
1.0
 10
11.4041817078
 20
6.5593318604
 30
0.0
 10
11.4054391504
 20
6.5601296966
 30
0.0
 10
11.4078510359
 20
6.561641977
 30
0.0
 10
11.4113764
 20
6.5637111618
 30
0.0
 10
11.4146815155
 20
6.5654569902
 30
0.0
 10
11.4178076338
 20
6.5668779752
 30
0.0
 10
11.4207891021
 20
6.5679771297
 30
0.0
 10
11.423655395
 20
6.5687584789
 30
0.0
 10
11.4264312554
 20
6.5692260575
 30
0.0
 10
11.4282597724
 20
6.5693318604
 30
0.0
 10
11.4291560001
 20
6.5693318604
 30
0.0
  0
SPLINE
  5
2BA
100
AcDbEntity
  8
0
100
AcDbSpline
 62
9
  6
CONTINUOUS
 70
0
 71
3
 72
19
 73
15
 74
0
 42
0.0000001
 43
0.0000001
 44
0.0000000001
 40
0.0
 40
0.0
 40
0.0
 40
0.0
 40
0.049879548
 40
0.1030593029
 40
0.1592416189
 40
0.2181158519
 40
0.279343752
 40
0.3425715292
 40
0.4735326334
 40
0.6079265246
 40
0.7425766279
 40
0.8742983309
 40
0.9380928666
 40
1.0
 40
1.0
 40
1.0
 40
1.0
 10
11.4231664232
 20
6.1957693171
 30
0.0
 10
11.4209467221
 20
6.196174591
 30
0.0
 10
11.4163459405
 20
6.1969336211
 30
0.0
 10
11.4092068837
 20
6.1979017304
 30
0.0
 10
11.4016409921
 20
6.1987314549
 30
0.0
 10
11.3936953603
 20
6.1994175291
 30
0.0
 10
11.3854189591
 20
6.1999555618
 30
0.0
 10
11.3738758462
 20
6.2004768223
 30
0.0
 10
11.359010416
 20
6.2007284363
 30
0.0
 10
11.3409148366
 20
6.2004136809
 30
0.0
 10
11.3228055639
 20
6.1994921505
 30
0.0
 10
11.3079202352
 20
6.198225234
 30
0.0
 10
11.2963484646
 20
6.1969160867
 30
0.0
 10
11.2907111538
 20
6.1961673097
 30
0.0
 10
11.2879390926
 20
6.1957693171
 30
0.0
  0
SPLINE
  5
2BB
100
AcDbEntity
  8
0
100
AcDbSpline
 62
7
  6
CONTINUOUS
 70
0
 71
3
 72
23
 73
19
 74
0
 42
0.0000001
 43
0.0000001
 44
0.0000000001
 40
0.0
 40
0.0
 40
0.0
 40
0.0
 40
0.0663392552
 40
0.1321155922
 40
0.1973005624
 40
0.2618829544
 40
0.325870526
 40
0.3892704619
 40
0.4521043314
 40
0.51439711
 40
0.5761850564
 40
0.6375111979
 40
0.6984288945
 40
0.7590030594
 40
0.8193172431
 40
0.8794808906
 40
0.9396429213
 40
1.0
 40
1.0
 40
1.0
 40
1.0
 10
11.2869863872
 20
6.4693318604
 30
0.0
 10
11.2888774403
 20
6.471448322
 30
0.0
 10
11.2927478666
 20
6.4755713458
 30
0.0
 10
11.298817191
 20
6.4814421512
 30
0.0
 10
11.3050877488
 20
6.4869842057
 30
0.0
 10
11.311518544
 20
6.4922180625
 30
0.0
 10
11.3180664005
 20
6.4971782805
 30
0.0
 10
11.3246935352
 20
6.5019035296
 30
0.0
 10
11.3313661897
 20
6.5064357651
 30
0.0
 10
11.3380538322
 20
6.5108207761
 30
0.0
 10
11.344727803
 20
6.5151080423
 30
0.0
 10
11.3513622736
 20
6.5193478298
 30
0.0
 10
11.3579327833
 20
6.5235912599
 30
0.0
 10
11.3644163469
 20
6.5278889223
 30
0.0
 10
11.3707883131
 20
6.5322945517
 30
0.0
 10
11.377020962
 20
6.5368666165
 30
0.0
 10
11.3830799952
 20
6.5416704425
 30
0.0
 10
11.386962841
 20
6.5450678287
 30
0.0
 10
11.3888538358
 20
6.5468263277
 30
0.0
  0
LINE
  5
2BC
100
AcDbEntity
  8
0
100
AcDbLine
 62
7
  6
CONTINUOUS
 10
10.9559080819
 20
5.5912388813
 11
10.9557434257
 21
5.5912641895
  0
SPLINE
  5
2BD
100
AcDbEntity
  8
0
100
AcDbSpline
 62
7
  6
CONTINUOUS
 70
0
 71
3
 72
11
 73
7
 74
0
 42
0.0000001
 43
0.0000001
 44
0.0000000001
 40
0.0
 40
0.0
 40
0.0
 40
0.0
 40
0.2369199385
 40
0.480817756
 40
0.734390952
 40
1.0
 40
1.0
 40
1.0
 40
1.0
 10
10.9557434257
 20
5.5912641895
 30
0.0
 10
10.9537591918
 20
5.5915725754
 30
0.0
 10
10.9497667605
 20
5.5924439421
 30
0.0
 10
10.9438661805
 20
5.594463601
 30
0.0
 10
10.9379957321
 20
5.5972043989
 30
0.0
 10
10.934203647
 20
5.5994514347
 30
0.0
 10
10.9323183383
 20
5.6006817105
 30
0.0
  0
SPLINE
  5
2BE
100
AcDbEntity
  8
0
100
AcDbSpline
 62
7
  6
CONTINUOUS
 70
0
 71
3
 72
39
 73
35
 74
0
 42
0.0000001
 43
0.0000001
 44
0.0000000001
 40
0.0
 40
0.0
 40
0.0
 40
0.0
 40
0.0352249384
 40
0.0699583162
 40
0.1041765515
 40
0.13785342
 40
0.1709667047
 40
0.2034995706
 40
0.2354403254
 40
0.2667855615
 40
0.2975420565
 40
0.3277292452
 40
0.3573816275
 40
0.3865502503
 40
0.4153036641
 40
0.443727478
 40
0.4719221403
 40
0.499999224
 40
0.5280763093
 40
0.556270976
 40
0.584694797
 40
0.6134482201
 40
0.6426168543
 40
0.6722692494
 40
0.7024564518
 40
0.733212962
 40
0.7645582138
 40
0.7964989758
 40
0.8290318687
 40
0.8621451954
 40
0.8958219511
 40
0.9300402109
 40
0.9647743927
 40
1.0
 40
1.0
 40
1.0
 40
1.0
 10
11.42634879
 20
7.9393878043
 30
0.0
 10
11.4300147324
 20
7.9357324278
 30
0.0
 10
11.4373757145
 20
7.9285525359
 30
0.0
 10
11.4485920142
 20
7.9181285691
 30
0.0
 10
11.4599090172
 20
7.9081542881
 30
0.0
 10
11.4713313003
 20
7.8986686473
 30
0.0
 10
11.4828607488
 20
7.889711105
 30
0.0
 10
11.4944975443
 20
7.8813217497
 30
0.0
 10
11.5062416079
 20
7.8735432959
 30
0.0
 10
11.5180913324
 20
7.8664196802
 30
0.0
 10
11.5300435184
 20
7.859995432
 30
0.0
 10
11.5420930085
 20
7.8543146381
 30
0.0
 10
11.5542325982
 20
7.8494201195
 30
0.0
 10
11.5664527973
 20
7.8453521713
 30
0.0
 10
11.5787415182
 20
7.8421465634
 30
0.0
 10
11.5910843282
 20
7.8398334576
 30
0.0
 10
11.6034646568
 20
7.8384361119
 30
0.0
 10
11.6158641714
 20
7.8379687611
 30
0.0
 10
11.6282636858
 20
7.8384361353
 30
0.0
 10
11.6406440137
 20
7.8398335042
 30
0.0
 10
11.6529868225
 20
7.8421466327
 30
0.0
 10
11.6652755419
 20
7.8453522626
 30
0.0
 10
11.6774957391
 20
7.849420232
 30
0.0
 10
11.6896353264
 20
7.8543147713
 30
0.0
 10
11.7016848148
 20
7.8599955832
 30
0.0
 10
11.7136369982
 20
7.8664198503
 30
0.0
 10
11.7254867162
 20
7.8735434873
 30
0.0
 10
11.737230787
 20
7.8813219431
 30
0.0
 10
11.7488675813
 20
7.8897113211
 30
0.0
 10
11.7603969692
 20
7.8986689295
 30
0.0
 10
11.7718193373
 20
7.9081544529
 30
0.0
 10
11.7831365079
 20
7.9181287111
 30
0.0
 10
11.7943524271
 20
7.9285534195
 30
0.0
 10
11.8017132326
 20
7.9357337947
 30
0.0
 10
11.8053792417
 20
7.9393892435
 30
0.0
  0
SPLINE
  5
2BF
100
AcDbEntity
  8
0
100
AcDbSpline
 62
7
  6
CONTINUOUS
 70
0
 71
3
 72
33
 73
29
 74
0
 42
0.0000001
 43
0.0000001
 44
0.0000000001
 40
0.0
 40
0.0
 40
0.0
 40
0.0
 40
0.0624986917
 40
0.0937494909
 40
0.1250001737
 40
0.1562510231
 40
0.1875020004
 40
0.2499978623
 40
0.3124925232
 40
0.3437436734
 40
0.3749949141
 40
0.4062461404
 40
0.4374973939
 40
0.4687487061
 40
0.5
 40
0.531251294
 40
0.5625026062
 40
0.5937538597
 40
0.625005086
 40
0.6562563266
 40
0.6875074769
 40
0.7500021378
 40
0.8124979996
 40
0.8437489769
 40
0.8749998263
 40
0.906250509
 40
0.9375013083
 40
1.0
 40
1.0
 40
1.0
 40
1.0
 10
10.6682878866
 20
7.939387318
 30
0.0
 10
10.6830508701
 20
7.9320270777
 30
0.0
 10
10.7053947865
 20
7.9213772413
 30
0.0
 10
10.7355897256
 20
7.9080765919
 30
0.0
 10
10.7584467866
 20
7.8985906241
 30
0.0
 10
10.7815169101
 20
7.8896342271
 30
0.0
 10
10.8125593247
 20
7.8784524889
 30
0.0
 10
10.851897485
 20
7.866004787
 30
0.0
 10
10.8919076605
 20
7.8558947142
 30
0.0
 10
10.9242561219
 20
7.8493833908
 30
0.0
 10
10.9486719435
 20
7.8453262683
 30
0.0
 10
10.9732155821
 20
7.8421309379
 30
0.0
 10
10.9978591605
 20
7.8398263146
 30
0.0
 10
11.0225713037
 20
7.8384345924
 30
0.0
 10
11.0473183384
 20
7.8379692002
 30
0.0
 10
11.0720653731
 20
7.8384345924
 30
0.0
 10
11.0967775163
 20
7.8398263146
 30
0.0
 10
11.1214210947
 20
7.8421309379
 30
0.0
 10
11.1459647333
 20
7.8453262683
 30
0.0
 10
11.1703805548
 20
7.8493833909
 30
0.0
 10
11.2027290162
 20
7.8558947142
 30
0.0
 10
11.2427391918
 20
7.8660047871
 30
0.0
 10
11.282077352
 20
7.8784524889
 30
0.0
 10
11.3131197666
 20
7.8896342272
 30
0.0
 10
11.3361898901
 20
7.8985906242
 30
0.0
 10
11.3590469511
 20
7.908076592
 30
0.0
 10
11.3892418902
 20
7.9213772413
 30
0.0
 10
11.4115858065
 20
7.9320270781
 30
0.0
 10
11.42634879
 20
7.9393873184
 30
0.0
  0
SPLINE
  5
2C0
100
AcDbEntity
  8
0
100
AcDbSpline
 62
7
  6
CONTINUOUS
 70
0
 71
3
 72
39
 73
35
 74
0
 42
0.0000001
 43
0.0000001
 44
0.0000000001
 40
0.0
 40
0.0
 40
0.0
 40
0.0
 40
0.0352256072
 40
0.0699597889
 40
0.1041780487
 40
0.1378548044
 40
0.1709681311
 40
0.2035010241
 40
0.235441786
 40
0.2667870378
 40
0.297543548
 40
0.3277307504
 40
0.3573831456
 40
0.3865517797
 40
0.4153052029
 40
0.4437290239
 40
0.4719236905
 40
0.5000007758
 40
0.5280778595
 40
0.5562725218
 40
0.5846963358
 40
0.6134497495
 40
0.6426183723
 40
0.6722707546
 40
0.7024579433
 40
0.7332144383
 40
0.7645596743
 40
0.7965004292
 40
0.8290332951
 40
0.8621465797
 40
0.8958234482
 40
0.9300416836
 40
0.9647750615
 40
1.0
 40
1.0
 40
1.0
 40
1.0
 10
10.2892574348
 20
7.9393892433
 30
0.0
 10
10.2929234439
 20
7.9357337945
 30
0.0
 10
10.3002842494
 20
7.9285534193
 30
0.0
 10
10.3115001688
 20
7.918128711
 30
0.0
 10
10.3228173394
 20
7.9081544529
 30
0.0
 10
10.3342397074
 20
7.8986689295
 30
0.0
 10
10.3457690953
 20
7.8897113211
 30
0.0
 10
10.3574058896
 20
7.881321943
 30
0.0
 10
10.3691499604
 20
7.8735434872
 30
0.0
 10
10.3809996784
 20
7.8664198503
 30
0.0
 10
10.3929518618
 20
7.8599955832
 30
0.0
 10
10.4050013502
 20
7.8543147713
 30
0.0
 10
10.4171409375
 20
7.849420232
 30
0.0
 10
10.4293611347
 20
7.8453522626
 30
0.0
 10
10.4416498541
 20
7.8421466327
 30
0.0
 10
10.4539926629
 20
7.8398335042
 30
0.0
 10
10.4663729908
 20
7.8384361353
 30
0.0
 10
10.4787725052
 20
7.8379687611
 30
0.0
 10
10.4911720198
 20
7.8384361119
 30
0.0
 10
10.5035523484
 20
7.8398334576
 30
0.0
 10
10.5158951584
 20
7.8421465634
 30
0.0
 10
10.5281838793
 20
7.8453521713
 30
0.0
 10
10.5404040784
 20
7.8494201195
 30
0.0
 10
10.5525436681
 20
7.8543146381
 30
0.0
 10
10.5645931583
 20
7.859995432
 30
0.0
 10
10.5765453442
 20
7.8664196802
 30
0.0
 10
10.5883950687
 20
7.8735432959
 30
0.0
 10
10.6001391323
 20
7.8813217497
 30
0.0
 10
10.6117759278
 20
7.8897111051
 30
0.0
 10
10.6233053763
 20
7.8986686474
 30
0.0
 10
10.6347276595
 20
7.9081542881
 30
0.0
 10
10.6460446624
 20
7.9181285691
 30
0.0
 10
10.657260962
 20
7.9285525361
 30
0.0
 10
10.6646219441
 20
7.9357324281
 30
0.0
 10
10.6682878866
 20
7.9393878045
 30
0.0
  0
SPLINE
  5
2C1
100
AcDbEntity
  8
0
100
AcDbSpline
 62
9
  6
CONTINUOUS
 70
0
 71
3
 72
38
 73
34
 74
0
 42
0.0000001
 43
0.0000001
 44
0.0000000001
 40
0.0
 40
0.0
 40
0.0
 40
0.0
 40
0.0077759954
 40
0.0155587764
 40
0.023349044
 40
0.0311468951
 40
0.0389498219
 40
0.0467562727
 40
0.054567431
 40
0.0623828027
 40
0.0662908597
 40
0.0701984236
 40
0.0780121511
 40
0.0858249606
 40
0.0936378922
 40
0.1092649412
 40
0.1248920797
 40
0.1405189141
 40
0.1561458183
 40
0.1873997081
 40
0.2186535566
 40
0.2499074173
 40
0.2811612741
 40
0.312415132
 40
0.3436689896
 40
0.3749228471
 40
0.4374305623
 40
0.4999382774
 40
0.5624459925
 40
0.6249537076
 40
0.749969138
 40
0.8749845688
 40
1.0
 40
1.0
 40
1.0
 40
1.0
 10
11.4231664232
 20
6.1957693171
 30
0.0
 10
11.423238985
 20
6.1964747613
 30
0.0
 10
11.4233775114
 20
6.1978869582
 30
0.0
 10
11.4235661651
 20
6.2000080325
 30
0.0
 10
11.4237361915
 20
6.2021326743
 30
0.0
 10
11.4238890967
 20
6.2042604744
 30
0.0
 10
11.4240123807
 20
6.2063917376
 30
0.0
 10
11.4240907173
 20
6.2085264745
 30
0.0
 10
11.4241130581
 20
6.2106635979
 30
0.0
 10
11.424107566
 20
6.2124451347
 30
0.0
 10
11.4241007407
 20
6.2138706558
 30
0.0
 10
11.424096764
 20
6.2152960387
 30
0.0
 10
11.4240964979
 20
6.2170775394
 30
0.0
 10
11.4240996537
 20
6.2192152026
 30
0.0
 10
11.4241024858
 20
6.2220654377
 30
0.0
 10
11.4241006614
 20
6.2256283363
 30
0.0
 10
11.4240996901
 20
6.2299038575
 30
0.0
 10
11.4241002484
 20
6.2341793659
 30
0.0
 10
11.4240999318
 20
6.2398800246
 30
0.0
 10
11.4240993371
 20
6.2470058579
 30
0.0
 10
11.424098834
 20
6.2555568603
 30
0.0
 10
11.4240980665
 20
6.2641078597
 30
0.0
 10
11.4240972797
 20
6.27265886
 30
0.0
 10
11.4240963874
 20
6.2812098599
 30
0.0
 10
11.4240954347
 20
6.28976086
 30
0.0
 10
11.4240940832
 20
6.3011621933
 30
0.0
 10
11.424092272
 20
6.3154138599
 30
0.0
 10
11.4240899838
 20
6.3325158599
 30
0.0
 10
11.4240876613
 20
6.3496178598
 30
0.0
 10
11.4240846265
 20
6.3724205264
 30
0.0
 10
11.4240811504
 20
6.4009238598
 30
0.0
 10
11.4240781318
 20
6.43512786
 30
0.0
 10
11.4240773177
 20
6.4579305269
 30
0.0
 10
11.4240773177
 20
6.4693318604
 30
0.0
  0
SPLINE
  5
2C2
100
AcDbEntity
  8
0
100
AcDbSpline
 62
9
  6
CONTINUOUS
 70
0
 71
3
 72
29
 73
25
 74
0
 42
0.0000001
 43
0.0000001
 44
0.0000000001
 40
0.0
 40
0.0
 40
0.0
 40
0.0
 40
0.0707724094
 40
0.1412458711
 40
0.2112706705
 40
0.2806684584
 40
0.349231741
 40
0.4167244338
 40
0.4828948294
 40
0.5474979828
 40
0.579156708
 40
0.6103500491
 40
0.6410635638
 40
0.6712887943
 40
0.7010288375
 40
0.7302903993
 40
0.7590880157
 40
0.7874368395
 40
0.8153563835
 40
0.8428630826
 40
0.8699771538
 40
0.8967086294
 40
0.9490730257
 40
1.0
 40
1.0
 40
1.0
 40
1.0
 10
10.8062168372
 20
6.1958837846
 30
0.0
 10
10.8056167849
 20
6.1906801554
 30
0.0
 10
10.8039783428
 20
6.1803401009
 30
0.0
 10
10.8002125567
 20
6.1651443099
 30
0.0
 10
10.7951666872
 20
6.1504296692
 30
0.0
 10
10.7888725793
 20
6.1363577447
 30
0.0
 10
10.7813792041
 20
6.1230991151
 30
0.0
 10
10.7727588268
 20
6.110832251
 30
0.0
 10
10.7631171685
 20
6.0997350783
 30
0.0
 10
10.7542854661
 20
6.0915391815
 30
0.0
 10
10.746851303
 20
6.085725203
 30
0.0
 10
10.7411596149
 20
6.0817734662
 30
0.0
 10
10.7353408387
 20
6.0782108408
 30
0.0
 10
10.7294202436
 20
6.0750422002
 30
0.0
 10
10.723426279
 20
6.0722616633
 30
0.0
 10
10.7173852262
 20
6.0698583094
 30
0.0
 10
10.7113219593
 20
6.0678150357
 30
0.0
 10
10.7052580175
 20
6.0661117535
 30
0.0
 10
10.6992129118
 20
6.0647224612
 30
0.0
 10
10.6932024426
 20
6.0636191638
 30
0.0
 10
10.6872405332
 20
6.0627667002
 30
0.0
 10
10.6794235518
 20
6.0619240119
 30
0.0
 10
10.6698168902
 20
6.0612981619
 30
0.0
 10
10.6621766324
 20
6.0610297251
 30
0.0
 10
10.6584096086
 20
6.0608992528
 30
0.0
  0
SPLINE
  5
2C3
100
AcDbEntity
  8
0
100
AcDbSpline
 62
9
  6
CONTINUOUS
 70
0
 71
3
 72
28
 73
24
 74
0
 42
0.0000001
 43
0.0000001
 44
0.0000000001
 40
0.0
 40
0.0
 40
0.0
 40
0.0
 40
0.125003791
 40
0.250007582
 40
0.3750113728
 40
0.4375132685
 40
0.5000151646
 40
0.5625170572
 40
0.6250189587
 40
0.6875208491
 40
0.718771774
 40
0.750022731
 40
0.7812737603
 40
0.8125247209
 40
0.8281501098
 40
0.8437754407
 40
0.8594007935
 40
0.8750262966
 40
0.8906521991
 40
0.9062785001
 40
0.9375285485
 40
0.9687774484
 40
1.0
 40
1.0
 40
1.0
 40
1.0
 10
10.8076746985
 20
6.4693332402
 30
0.0
 10
10.8076746985
 20
6.4579371299
 30
0.0
 10
10.8076746993
 20
6.4351449095
 30
0.0
 10
10.8076746961
 20
6.4009565788
 30
0.0
 10
10.8076747007
 20
6.3724663032
 30
0.0
 10
10.8076747175
 20
6.3496740827
 30
0.0
 10
10.8076746006
 20
6.3325799176
 30
0.0
 10
10.8076749046
 20
6.3154857519
 30
0.0
 10
10.8076745433
 20
6.2983915868
 30
0.0
 10
10.8076740864
 20
6.2841464508
 30
0.0
 10
10.8076761904
 20
6.2727503426
 30
0.0
 10
10.8076763836
 20
6.2642032533
 30
0.0
 10
10.8076713164
 20
6.2556561627
 30
0.0
 10
10.8076684954
 20
6.2485335926
 30
0.0
 10
10.8076727515
 20
6.2428355576
 30
0.0
 10
10.8076798867
 20
6.2385620541
 30
0.0
 10
10.8076847357
 20
6.2342885357
 30
0.0
 10
10.8076815337
 20
6.2300149623
 30
0.0
 10
10.8076644921
 20
6.2257413201
 30
0.0
 10
10.8076151088
 20
6.2200434531
 30
0.0
 10
10.8074693423
 20
6.2129219559
 30
0.0
 10
10.8070508479
 20
6.2043865149
 30
0.0
 10
10.8065433725
 20
6.1987114318
 30
0.0
 10
10.8062168372
 20
6.1958837846
 30
0.0
  0
SPLINE
  5
2C4
100
AcDbEntity
  8
0
100
AcDbSpline
 62
9
  6
CONTINUOUS
 70
0
 71
3
 72
48
 73
44
 74
0
 42
0.0000001
 43
0.0000001
 44
0.0000000001
 40
0.0
 40
0.0
 40
0.0
 40
0.0
 40
0.0078046625
 40
0.0117066324
 40
0.015608238
 40
0.0195095292
 40
0.0234116018
 40
0.027315472
 40
0.031221246
 40
0.0390361358
 40
0.0468504583
 40
0.0507563954
 40
0.0546613969
 40
0.0585658849
 40
0.0624708248
 40
0.0663768286
 40
0.0702837416
 40
0.0780979913
 40
0.0859108869
 40
0.0937235715
 40
0.097629867
 40
0.1015361642
 40
0.1093489055
 40
0.1171617496
 40
0.1249745075
 40
0.1405999346
 40
0.1562253915
 40
0.1718508535
 40
0.1874763063
 40
0.2031017615
 40
0.218727218
 40
0.249978129
 40
0.2812290404
 40
0.3124799517
 40
0.343730863
 40
0.3749817743
 40
0.4374835968
 40
0.4999854193
 40
0.5624872418
 40
0.6249890644
 40
0.7499927095
 40
0.8749963547
 40
1.0
 40
1.0
 40
1.0
 40
1.0
 10
11.2879390926
 20
6.1957693171
 30
0.0
 10
11.2878860277
 20
6.196479126
 30
0.0
 10
11.2877794648
 20
6.1975417039
 30
0.0
 10
11.2876229289
 20
6.1989565042
 30
0.0
 10
11.2875081063
 20
6.200017814
 30
0.0
 10
11.2874057706
 20
6.2010804512
 30
0.0
 10
11.2873254798
 20
6.2021452035
 30
0.0
 10
11.2872617323
 20
6.2032114414
 30
0.0
 10
11.2871919262
 20
6.2046347133
 30
0.0
 10
11.2871199299
 20
6.206414873
 30
0.0
 10
11.2870340245
 20
6.208194428
 30
0.0
 10
11.2869755608
 20
6.2096182718
 30
0.0
 10
11.2869413469
 20
6.2106861975
 30
0.0
 10
11.2869213937
 20
6.211754422
 30
0.0
 10
11.2869200811
 20
6.212822918
 30
0.0
 10
11.2869313005
 20
6.2138915475
 30
0.0
 10
11.2869551952
 20
6.2153165478
 30
0.0
 10
11.2869865615
 20
6.2170978479
 30
0.0
 10
11.2869813627
 20
6.219235669
 30
0.0
 10
11.2869636661
 20
6.221016885
 30
0.0
 10
11.2869540802
 20
6.2224418921
 30
0.0
 10
11.28695114
 20
6.2238669324
 30
0.0
 10
11.2869558625
 20
6.2256482497
 30
0.0
 10
11.2869646155
 20
6.2277858221
 30
0.0
 10
11.2869666846
 20
6.2306359372
 30
0.0
 10
11.2869610276
 20
6.2341985596
 30
0.0
 10
11.2869622404
 20
6.2384737099
 30
0.0
 10
11.2869632206
 20
6.2427488608
 30
0.0
 10
11.2869634619
 20
6.2470240121
 30
0.0
 10
11.2869636294
 20
6.2512991628
 30
0.0
 10
11.286963959
 20
6.2569993641
 30
0.0
 10
11.2869647704
 20
6.2641246157
 30
0.0
 10
11.2869655025
 20
6.2726749176
 30
0.0
 10
11.2869664705
 20
6.2812252195
 30
0.0
 10
11.2869674562
 20
6.2897755213
 30
0.0
 10
11.2869688699
 20
6.3011759238
 30
0.0
 10
11.2869707624
 20
6.3154264268
 30
0.0
 10
11.2869731532
 20
6.3325270305
 30
0.0
 10
11.28697558
 20
6.3496276341
 30
0.0
 10
11.2869787508
 20
6.372428439
 30
0.0
 10
11.2869823828
 20
6.4009294452
 30
0.0
 10
11.2869855367
 20
6.4351306527
 30
0.0
 10
11.2869863872
 20
6.4579314578
 30
0.0
 10
11.2869863872
 20
6.4693318604
 30
0.0
  0
SPLINE
  5
2C5
100
AcDbEntity
  8
0
100
AcDbSpline
 62
9
  6
CONTINUOUS
 70
0
 71
3
 72
30
 73
26
 74
0
 42
0.0000001
 43
0.0000001
 44
0.0000000001
 40
0.0
 40
0.0
 40
0.0
 40
0.0
 40
0.0508779631
 40
0.0768472706
 40
0.1031713827
 40
0.129854889
 40
0.1569155457
 40
0.1843680682
 40
0.2122351264
 40
0.2405374406
 40
0.2692984059
 40
0.2985358385
 40
0.3282667408
 40
0.3584970022
 40
0.3892263307
 40
0.4204444376
 40
0.4521347115
 40
0.5168141108
 40
0.5830685155
 40
0.6506403618
 40
0.7192689719
 40
0.7887139251
 40
0.8587656622
 40
0.9292447344
 40
1.0
 40
1.0
 40
1.0
 40
1.0
 10
11.4362271767
 20
6.060899248
 30
0.0
 10
11.4324196362
 20
6.0607683238
 30
0.0
 10
11.4266663929
 20
6.0606080507
 30
0.0
 10
11.418940094
 20
6.0606371627
 30
0.0
 10
11.4130282639
 20
6.0608251601
 30
0.0
 10
11.4070443718
 20
6.0612213811
 30
0.0
 10
11.4009969562
 20
6.0618686425
 30
0.0
 10
11.3948969327
 20
6.0628021283
 30
0.0
 10
11.388759316
 20
6.0640563607
 30
0.0
 10
11.3826016988
 20
6.0656592942
 30
0.0
 10
11.3764455661
 20
6.067636347
 30
0.0
 10
11.3703149746
 20
6.0700073624
 30
0.0
 10
11.3642378037
 20
6.0727885891
 30
0.0
 10
11.3582413842
 20
6.0759850134
 30
0.0
 10
11.3523541515
 20
6.0795960809
 30
0.0
 10
11.346602458
 20
6.0836136622
 30
0.0
 10
11.3390996415
 20
6.0895357884
 30
0.0
 10
11.3302093041
 20
6.0978988561
 30
0.0
 10
11.3205451588
 20
6.1092290654
 30
0.0
 10
11.3119493215
 20
6.1217487832
 30
0.0
 10
11.3045265411
 20
6.1352682631
 30
0.0
 10
11.2983485619
 20
6.1496006178
 30
0.0
 10
11.2934650387
 20
6.1645688623
 30
0.0
 10
11.2899094017
 20
6.180005464
 30
0.0
 10
11.2884436469
 20
6.1904951742
 30
0.0
 10
11.2879390926
 20
6.1957693171
 30
0.0
  0
SPLINE
  5
2C6
100
AcDbEntity
  8
0
100
AcDbSpline
 62
9
  6
CONTINUOUS
 70
0
 71
3
 72
22
 73
18
 74
0
 42
0.0000001
 43
0.0000001
 44
0.0000000001
 40
0.0
 40
0.0
 40
0.0
 40
0.0
 40
0.0661755302
 40
0.1306206664
 40
0.1935696461
 40
0.2553037008
 40
0.3161486087
 40
0.3764350292
 40
0.4364797388
 40
0.4965731912
 40
0.5569630891
 40
0.6178571834
 40
0.6794131663
 40
0.7417465692
 40
0.8049414195
 40
0.8690368228
 40
1.0
 40
1.0
 40
1.0
 40
1.0
 10
11.5102856706
 20
6.0885257611
 30
0.0
 10
11.5091487518
 20
6.0871161545
 30
0.0
 10
11.5068109736
 20
6.0844074982
 30
0.0
 10
11.5030660009
 20
6.0806544706
 30
0.0
 10
11.4991389118
 20
6.0772751254
 30
0.0
 10
11.4950377558
 20
6.0742731761
 30
0.0
 10
11.4907751597
 20
6.0716417246
 30
0.0
 10
11.486362957
 20
6.0693695995
 30
0.0
 10
11.481813255
 20
6.0674404259
 30
0.0
 10
11.4771377199
 20
6.0658332352
 30
0.0
 10
11.4723467898
 20
6.064523814
 30
0.0
 10
11.4674501451
 20
6.0634832192
 30
0.0
 10
11.4624558592
 20
6.0626794207
 30
0.0
 10
11.4573703838
 20
6.0620778421
 30
0.0
 10
11.4521990979
 20
6.0616382203
 30
0.0
 10
11.4451440383
 20
6.0612129947
 30
0.0
 10
11.4398089677
 20
6.0610233046
 30
0.0
 10
11.4362271767
 20
6.060899248
 30
0.0
  0
SPLINE
  5
2C7
100
AcDbEntity
  8
0
100
AcDbSpline
 62
9
  6
CONTINUOUS
 70
0
 71
3
 72
21
 73
17
 74
0
 42
0.0000001
 43
0.0000001
 44
0.0000000001
 40
0.0
 40
0.0
 40
0.0
 40
0.0
 40
0.1310190611
 40
0.2580790444
 40
0.3201874697
 40
0.381449557
 40
0.4419972247
 40
0.5020203337
 40
0.5617653823
 40
0.6215318818
 40
0.6816625158
 40
0.7425297206
 40
0.8044925389
 40
0.867882076
 40
0.9329761177
 40
1.0
 40
1.0
 40
1.0
 40
1.0
 10
10.6584096086
 20
6.0608992535
 30
0.0
 10
10.6547088695
 20
6.0607720017
 30
0.0
 10
10.6474177779
 20
6.0605565768
 30
0.0
 10
10.6383625343
 20
6.0606865659
 30
0.0
 10
10.6313021717
 20
6.0612155399
 30
0.0
 10
10.6261418535
 20
6.0618607023
 30
0.0
 10
10.621084746
 20
6.0627931414
 30
0.0
 10
10.6161411239
 20
6.0640476527
 30
0.0
 10
10.611322636
 20
6.0656534632
 30
0.0
 10
10.6066425852
 20
6.0676362021
 30
0.0
 10
10.6021149006
 20
6.0700159504
 30
0.0
 10
10.5977555577
 20
6.0728088942
 30
0.0
 10
10.5935768767
 20
6.0760188344
 30
0.0
 10
10.5895905815
 20
6.0796444146
 30
0.0
 10
10.5858046666
 20
6.0836762147
 30
0.0
 10
10.5834544239
 20
6.0865825358
 30
0.0
 10
10.5823137817
 20
6.0880948737
 30
0.0
  0
SPLINE
  5
2C8
100
AcDbEntity
  8
0
100
AcDbSpline
 62
9
  6
CONTINUOUS
 70
0
 71
3
 72
30
 73
26
 74
0
 42
0.0000001
 43
0.0000001
 44
0.0000000001
 40
0.0
 40
0.0
 40
0.0
 40
0.0
 40
0.1250206104
 40
0.2500412209
 40
0.3750618313
 40
0.4375721366
 40
0.5000824418
 40
0.562592747
 40
0.6251030522
 40
0.6876133574
 40
0.71886851
 40
0.750123663
 40
0.7813788144
 40
0.7970063907
 40
0.8126339714
 40
0.8282615512
 40
0.8438891195
 40
0.8595166914
 40
0.8751442713
 40
0.8907718028
 40
0.9063989429
 40
0.9376464751
 40
0.9688630074
 40
0.9844461894
 40
1.0
 40
1.0
 40
1.0
 40
1.0
 10
10.6705359997
 20
6.4693318604
 30
0.0
 10
10.6705359997
 20
6.4579344293
 30
0.0
 10
10.6705359999
 20
6.435139567
 30
0.0
 10
10.670535999
 20
6.4009472736
 30
0.0
 10
10.6705360014
 20
6.3724536958
 30
0.0
 10
10.6705359957
 20
6.3496588335
 30
0.0
 10
10.6705360158
 20
6.3325626868
 30
0.0
 10
10.6705359509
 20
6.3154665401
 30
0.0
 10
10.6705361192
 20
6.2983703934
 30
0.0
 10
10.6705358076
 20
6.2841236045
 30
0.0
 10
10.6705361993
 20
6.2727261733
 30
0.0
 10
10.6705363864
 20
6.2641781
 30
0.0
 10
10.670535049
 20
6.2570547058
 30
0.0
 10
10.6705347785
 20
6.2513559898
 30
0.0
 10
10.6705369775
 20
6.2470819528
 30
0.0
 10
10.6705400617
 20
6.2428079172
 30
0.0
 10
10.6705385472
 20
6.23853388
 30
0.0
 10
10.6705310919
 20
6.2342598504
 30
0.0
 10
10.6705295091
 20
6.2299858154
 30
0.0
 10
10.6705437282
 20
6.2257118257
 30
0.0
 10
10.6705926176
 20
6.2200140534
 30
0.0
 10
10.6707309934
 20
6.2128957871
 30
0.0
 10
10.6710684526
 20
6.2057871583
 30
0.0
 10
10.6714982367
 20
6.200118684
 30
0.0
 10
10.6717737907
 20
6.1972931864
 30
0.0
 10
10.671929291
 20
6.1958837846
 30
0.0
  0
SPLINE
  5
2C9
100
AcDbEntity
  8
0
100
AcDbSpline
 62
7
  6
CONTINUOUS
 70
0
 71
3
 72
15
 73
11
 74
0
 42
0.0000001
 43
0.0000001
 44
0.0000000001
 40
0.0
 40
0.0
 40
0.0
 40
0.0
 40
0.0986151495
 40
0.201036069
 40
0.3092096438
 40
0.4250304961
 40
0.5503103214
 40
0.6867804215
 40
0.8361384339
 40
1.0
 40
1.0
 40
1.0
 40
1.0
 10
10.6654806764
 20
6.5693318604
 30
0.0
 10
10.6663769042
 20
6.5693318604
 30
0.0
 10
10.6682054211
 20
6.5692260575
 30
0.0
 10
10.6709812816
 20
6.5687584789
 30
0.0
 10
10.6738475745
 20
6.5679771297
 30
0.0
 10
10.6768290427
 20
6.5668779752
 30
0.0
 10
10.6799551611
 20
6.5654569902
 30
0.0
 10
10.6832602766
 20
6.5637111618
 30
0.0
 10
10.6867856407
 20
6.561641977
 30
0.0
 10
10.6891975261
 20
6.5601296966
 30
0.0
 10
10.6904549688
 20
6.5593318604
 30
0.0
  0
SPLINE
  5
2CA
100
AcDbEntity
  8
0
100
AcDbSpline
 62
7
  6
CONTINUOUS
 70
0
 71
3
 72
9
 73
5
 74
0
 42
0.0000001
 43
0.0000001
 44
0.0000000001
 40
0.0
 40
0.0
 40
0.0
 40
0.0
 40
0.4919777736
 40
1.0
 40
1.0
 40
1.0
 40
1.0
 10
10.6904549688
 20
6.5593318604
 30
0.0
 10
10.6927001058
 20
6.557907341
 30
0.0
 10
10.6971123022
 20
6.5547678083
 30
0.0
 10
10.7011930406
 20
6.5512102532
 30
0.0
 10
10.7031773024
 20
6.5493125574
 30
0.0
  0
SPLINE
  5
2CB
100
AcDbEntity
  8
0
100
AcDbSpline
 62
9
  6
CONTINUOUS
 70
0
 71
3
 72
33
 73
29
 74
0
 42
0.0000001
 43
0.0000001
 44
0.0000000001
 40
0.0
 40
0.0
 40
0.0
 40
0.0
 40
0.0868036694
 40
0.1320009373
 40
0.1785507611
 40
0.2267219844
 40
0.2515401867
 40
0.2769121003
 40
0.3028938276
 40
0.3295548168
 40
0.356974118
 40
0.3852393255
 40
0.4144441043
 40
0.4446866405
 40
0.4760530397
 40
0.5086123716
 40
0.5775822112
 40
0.6141564928
 40
0.65219255
 40
0.6917052582
 40
0.7326053428
 40
0.77479031
 40
0.796348557
 40
0.8182036667
 40
0.8626865647
 40
0.9079907869
 40
0.9538615756
 40
1.0
 40
1.0
 40
1.0
 40
1.0
 10
10.7031773024
 20
6.5493125574
 30
0.0
 10
10.7011143194
 20
6.5477215465
 30
0.0
 10
10.698047261
 20
6.5452069535
 30
0.0
 10
10.6941215275
 20
6.5415566913
 30
0.0
 10
10.6912065166
 20
6.5385301034
 30
0.0
 10
10.6888926891
 20
6.5357845885
 30
0.0
 10
10.6870963024
 20
6.5334415441
 30
0.0
 10
10.6857593506
 20
6.5315866593
 30
0.0
 10
10.6844481194
 20
6.5296463383
 30
0.0
 10
10.6831700736
 20
6.5276109401
 30
0.0
 10
10.6819316339
 20
6.5254715488
 30
0.0
 10
10.6807389189
 20
6.5232195077
 30
0.0
 10
10.6795959572
 20
6.520847349
 30
0.0
 10
10.6785080172
 20
6.5183475997
 30
0.0
 10
10.6774768921
 20
6.5157154693
 30
0.0
 10
10.6761502201
 20
6.5119533932
 30
0.0
 10
10.674965608
 20
6.5079777511
 30
0.0
 10
10.67393481
 20
6.503793039
 30
0.0
 10
10.6732245954
 20
6.5004416198
 30
0.0
 10
10.6726016687
 20
6.4969411037
 30
0.0
 10
10.6720505218
 20
6.493302801
 30
0.0
 10
10.6716494468
 20
6.4901875213
 30
0.0
 10
10.6713734259
 20
6.4876332576
 30
0.0
 10
10.6711272121
 20
6.4850066767
 30
0.0
 10
10.6708808805
 20
6.4816646552
 30
0.0
 10
10.6706770243
 20
6.4775979444
 30
0.0
 10
10.6705597655
 20
6.4734781532
 30
0.0
 10
10.6705356765
 20
6.4707166075
 30
0.0
 10
10.6705359997
 20
6.4693318604
 30
0.0
  0
SPLINE
  5
2CC
100
AcDbEntity
  8
0
100
AcDbSpline
 62
9
  6
CONTINUOUS
 70
0
 71
3
 72
22
 73
18
 74
0
 42
0.0000001
 43
0.0000001
 44
0.0000000001
 40
0.0
 40
0.0
 40
0.0
 40
0.0
 40
0.1448636662
 40
0.2164759575
 40
0.2870772428
 40
0.3563691936
 40
0.4240895971
 40
0.4900197288
 40
0.5539945653
 40
0.6159122513
 40
0.6757436474
 40
0.7335409837
 40
0.7894443977
 40
0.8436853876
 40
0.8965829423
 40
0.9485363315
 40
1.0
 40
1.0
 40
1.0
 40
1.0
 10
10.3213123678
 20
6.4693318604
 30
0.0
 10
10.3213123676
 20
6.4758506395
 30
0.0
 10
10.3206395424
 20
6.4856107634
 30
0.0
 10
10.3183904106
 20
6.4983394593
 30
0.0
 10
10.3160593804
 20
6.5075767276
 30
0.0
 10
10.3131004374
 20
6.5164476268
 30
0.0
 10
10.3095414163
 20
6.5248684435
 30
0.0
 10
10.305415803
 20
6.5327584433
 30
0.0
 10
10.3007622757
 20
6.5400422191
 30
0.0
 10
10.295624308
 20
6.5466498721
 30
0.0
 10
10.2900497805
 20
6.5525176476
 30
0.0
 10
10.2840906281
 20
6.5575882982
 30
0.0
 10
10.2778025498
 20
6.5618115222
 30
0.0
 10
10.271245066
 20
6.5651442328
 30
0.0
 10
10.2644806803
 20
6.5675514491
 30
0.0
 10
10.2575775839
 20
6.5690066866
 30
0.0
 10
10.2529175242
 20
6.5693318604
 30
0.0
 10
10.2506016897
 20
6.5693318604
 30
0.0
  0
SPLINE
  5
2CD
100
AcDbEntity
  8
0
100
AcDbSpline
 62
9
  6
CONTINUOUS
 70
0
 71
3
 72
18
 73
14
 74
0
 42
0.0000001
 43
0.0000001
 44
0.0000000001
 40
0.0
 40
0.0
 40
0.0
 40
0.0
 40
0.0531317126
 40
0.1066261587
 40
0.1607985834
 40
0.2159646001
 40
0.2723854261
 40
0.3302739026
 40
0.4509233251
 40
0.5786930015
 40
0.7134273765
 40
0.8543037871
 40
1.0
 40
1.0
 40
1.0
 40
1.0
 10
10.3213123678
 20
6.4693318604
 30
0.0
 10
10.3202137768
 20
6.4693318604
 30
0.0
 10
10.3180070037
 20
6.4692037838
 30
0.0
 10
10.3147251103
 20
6.4686300792
 30
0.0
 10
10.3114882091
 20
6.4676783784
 30
0.0
 10
10.3083191624
 20
6.4663560424
 30
0.0
 10
10.305238785
 20
6.4646723596
 30
0.0
 10
10.3012236212
 20
6.4619252105
 30
0.0
 10
10.2965351107
 20
6.4576114126
 30
0.0
 10
10.2916666049
 20
6.4513212095
 30
0.0
 10
10.2875908593
 20
6.4440112258
 30
0.0
 10
10.2844103245
 20
6.4358760303
 30
0.0
 10
10.2829574326
 20
6.4301136145
 30
0.0
 10
10.2823938879
 20
6.4271542706
 30
0.0
  0
SPLINE
  5
2CE
100
AcDbEntity
  8
0
100
AcDbSpline
 62
9
  6
CONTINUOUS
 70
0
 71
3
 72
23
 73
19
 74
0
 42
0.0000001
 43
0.0000001
 44
0.0000000001
 40
0.0
 40
0.0
 40
0.0
 40
0.0
 40
0.0526852401
 40
0.1093969877
 40
0.169627854
 40
0.232833552
 40
0.2984342094
 40
0.3658247382
 40
0.4343803876
 40
0.5034640829
 40
0.5724330992
 40
0.6406459296
 40
0.7074691527
 40
0.7722841134
 40
0.8344942602
 40
0.893530784
 40
0.948862983
 40
1.0
 40
1.0
 40
1.0
 40
1.0
 10
10.2823938879
 20
6.4271542706
 30
0.0
 10
10.2800636762
 20
6.4280417501
 30
0.0
 10
10.2751928046
 20
6.4298001643
 30
0.0
 10
10.2675663212
 20
6.4323105366
 30
0.0
 10
10.2594028988
 20
6.4347735511
 30
0.0
 10
10.2507810197
 20
6.4371652272
 30
0.0
 10
10.2417833753
 20
6.4394623419
 30
0.0
 10
10.2324964829
 20
6.4416426516
 30
0.0
 10
10.2230096328
 20
6.4436850769
 30
0.0
 10
10.2134140872
 20
6.4455699145
 30
0.0
 10
10.2038021637
 20
6.447279015
 30
0.0
 10
10.1942663446
 20
6.4487959653
 30
0.0
 10
10.1848983809
 20
6.4501062411
 30
0.0
 10
10.1757883779
 20
6.4511973744
 30
0.0
 10
10.1670239781
 20
6.4520590445
 30
0.0
 10
10.1586893139
 20
6.4526832914
 30
0.0
 10
10.1508646001
 20
6.4530644384
 30
0.0
 10
10.1458253931
 20
6.4531584989
 30
0.0
 10
10.1434051748
 20
6.4531584989
 30
0.0
  0
SPLINE
  5
2CF
100
AcDbEntity
  8
0
100
AcDbSpline
 62
9
  6
CONTINUOUS
 70
0
 71
3
 72
13
 73
9
 74
0
 42
0.0000001
 43
0.0000001
 44
0.0000000001
 40
0.0
 40
0.0
 40
0.0
 40
0.0
 40
0.2488885658
 40
0.3743086268
 40
0.5000000002
 40
0.6256913737
 40
0.7511114345
 40
1.0
 40
1.0
 40
1.0
 40
1.0
 10
10.2823938879
 20
6.4271542706
 30
0.0
 10
10.2780919772
 20
6.4045636365
 30
0.0
 10
10.2732624217
 20
6.3702483269
 30
0.0
 10
10.2700401365
 20
6.3241514001
 30
0.0
 10
10.2692309589
 20
6.2893318603
 30
0.0
 10
10.2700401365
 20
6.2545123206
 30
0.0
 10
10.2732624217
 20
6.2084153939
 30
0.0
 10
10.2780919772
 20
6.1741000843
 30
0.0
 10
10.2823938879
 20
6.1515094503
 30
0.0
  0
SPLINE
  5
2D0
100
AcDbEntity
  8
0
100
AcDbSpline
 62
9
  6
CONTINUOUS
 70
0
 71
3
 72
23
 73
19
 74
0
 42
0.0000001
 43
0.0000001
 44
0.0000000001
 40
0.0
 40
0.0
 40
0.0
 40
0.0
 40
0.0526852403
 40
0.1093969882
 40
0.1696278545
 40
0.2328335525
 40
0.2984342099
 40
0.3658247385
 40
0.4343803877
 40
0.5034640829
 40
0.572433099
 40
0.6406459293
 40
0.7074691522
 40
0.7722841129
 40
0.8344942597
 40
0.8935307836
 40
0.9488629827
 40
1.0
 40
1.0
 40
1.0
 40
1.0
 10
10.2823938879
 20
6.1515094503
 30
0.0
 10
10.2800636762
 20
6.1506219706
 30
0.0
 10
10.2751928046
 20
6.1488635561
 30
0.0
 10
10.2675663213
 20
6.1463531835
 30
0.0
 10
10.259402899
 20
6.1438901687
 30
0.0
 10
10.2507810199
 20
6.1414984924
 30
0.0
 10
10.2417833756
 20
6.1392013775
 30
0.0
 10
10.2324964832
 20
6.1370210677
 30
0.0
 10
10.2230096331
 20
6.1349786424
 30
0.0
 10
10.2134140875
 20
6.1330938048
 30
0.0
 10
10.203802164
 20
6.1313847042
 30
0.0
 10
10.1942663449
 20
6.1298677541
 30
0.0
 10
10.1848983811
 20
6.1285574784
 30
0.0
 10
10.1757883782
 20
6.1274663453
 30
0.0
 10
10.1670239783
 20
6.1266046754
 30
0.0
 10
10.158689314
 20
6.1259804287
 30
0.0
 10
10.1508646001
 20
6.1255992821
 30
0.0
 10
10.1458253931
 20
6.1255052218
 30
0.0
 10
10.1434051748
 20
6.1255052219
 30
0.0
  0
SPLINE
  5
2D1
100
AcDbEntity
  8
0
100
AcDbSpline
 62
9
  6
CONTINUOUS
 70
0
 71
3
 72
21
 73
17
 74
0
 42
0.0000001
 43
0.0000001
 44
0.0000000001
 40
0.0
 40
0.0
 40
0.0
 40
0.0
 40
0.1479135623
 40
0.2198669238
 40
0.2901479535
 40
0.424887905
 40
0.4892651082
 40
0.5515793862
 40
0.6119002443
 40
0.6703758264
 40
0.7272346955
 40
0.7827829082
 40
0.8373955793
 40
0.8914964742
 40
0.9455482901
 40
1.0
 40
1.0
 40
1.0
 40
1.0
 10
10.2823938879
 20
6.1515094503
 30
0.0
 10
10.2830312462
 20
6.1481624887
 30
0.0
 10
10.2843122805
 20
6.1432402588
 30
0.0
 10
10.2866910397
 20
6.1369890851
 30
0.0
 10
10.2894040769
 20
6.1312100225
 30
0.0
 10
10.292697202
 20
6.1259091658
 30
0.0
 10
10.2965412183
 20
6.1212643536
 30
0.0
 10
10.2995956602
 20
6.1182165978
 30
0.0
 10
10.3028384692
 20
6.1155800288
 30
0.0
 10
10.3062427628
 20
6.1133776784
 30
0.0
 10
10.3097797361
 20
6.1116295852
 30
0.0
 10
10.3134191124
 20
6.110352001
 30
0.0
 10
10.3171290183
 20
6.1095572879
 30
0.0
 10
10.3208767691
 20
6.1092531181
 30
0.0
 10
10.3246277779
 20
6.1094427136
 30
0.0
 10
10.327094275
 20
6.1098943431
 30
0.0
 10
10.3283112726
 20
6.1101978185
 30
0.0
  0
SPLINE
  5
2D2
100
AcDbEntity
  8
0
100
AcDbSpline
 62
9
  6
CONTINUOUS
 70
0
 71
3
 72
25
 73
21
 74
0
 42
0.0000001
 43
0.0000001
 44
0.0000000001
 40
0.0
 40
0.0
 40
0.0
 40
0.0
 40
0.0805759875
 40
0.1599923677
 40
0.3134412508
 40
0.386652197
 40
0.456962804
 40
0.5240337035
 40
0.5876113101
 40
0.647547295
 40
0.7038470277
 40
0.7567979671
 40
0.8069778142
 40
0.8552147343
 40
0.8789442773
 40
0.9026063905
 40
0.9263671412
 40
0.9504015997
 40
0.9748872819
 40
1.0
 40
1.0
 40
1.0
 40
1.0
 10
10.671929291
 20
6.1958837846
 30
0.0
 10
10.6721989062
 20
6.1929828071
 30
0.0
 10
10.6726248003
 20
6.1872113033
 30
0.0
 10
10.6729623145
 20
6.175880538
 30
0.0
 10
10.6725075247
 20
6.1647999242
 30
0.0
 10
10.6712042761
 20
6.154136972
 30
0.0
 10
10.6698589483
 20
6.1466376565
 30
0.0
 10
10.6681482084
 20
6.1395707653
 30
0.0
 10
10.666089124
 20
6.1329886367
 30
0.0
 10
10.6636974294
 20
6.126935847
 30
0.0
 10
10.6609836017
 20
6.1214442991
 30
0.0
 10
10.6579344301
 20
6.1165392841
 30
0.0
 10
10.6545235964
 20
6.1122417206
 30
0.0
 10
10.6513333408
 20
6.1091644509
 30
0.0
 10
10.6485930666
 20
6.1070511089
 30
0.0
 10
10.646441201
 20
6.1056362992
 30
0.0
 10
10.6441775579
 20
6.1043853715
 30
0.0
 10
10.6417973553
 20
6.103299669
 30
0.0
 10
10.639296115
 20
6.1023804588
 30
0.0
 10
10.6375702601
 20
6.1018863527
 30
0.0
 10
10.6366892125
 20
6.1016666415
 30
0.0
  0
SPLINE
  5
2D3
100
AcDbEntity
  8
0
100
AcDbSpline
 62
9
  6
CONTINUOUS
 70
0
 71
3
 72
22
 73
18
 74
0
 42
0.0000001
 43
0.0000001
 44
0.0000000001
 40
0.0
 40
0.0
 40
0.0
 40
0.0
 40
0.1465831022
 40
0.2183784152
 40
0.2888315785
 40
0.3577305553
 40
0.4249017784
 40
0.4902116169
 40
0.5535743298
 40
0.6149582956
 40
0.6743920602
 40
0.7319694865
 40
0.7878530846
 40
0.8422744245
 40
0.8955303093
 40
0.9479745541
 40
1.0
 40
1.0
 40
1.0
 40
1.0
 10
10.3283112726
 20
6.1101978185
 30
0.0
 10
10.3290191927
 20
6.1045200132
 30
0.0
 10
10.3295590422
 20
6.0959827449
 30
0.0
 10
10.3291728743
 20
6.0847092317
 30
0.0
 10
10.3283404396
 20
6.0765025116
 30
0.0
 10
10.326969168
 20
6.0685516833
 30
0.0
 10
10.3250692417
 20
6.0609163848
 30
0.0
 10
10.3226545894
 20
6.0536546765
 30
0.0
 10
10.3197429757
 20
6.0468216294
 30
0.0
 10
10.3163557546
 20
6.0404692421
 30
0.0
 10
10.3125177271
 20
6.0346460861
 30
0.0
 10
10.3082570397
 20
6.0293970765
 30
0.0
 10
10.303605071
 20
6.0247632211
 30
0.0
 10
10.2985965766
 20
6.0207814125
 30
0.0
 10
10.2932692004
 20
6.0174837835
 30
0.0
 10
10.2876653832
 20
6.0148979878
 30
0.0
 10
10.2837665109
 20
6.0136604187
 30
0.0
 10
10.2817960731
 20
6.0131690658
 30
0.0
  0
SPLINE
  5
2D4
100
AcDbEntity
  8
0
100
AcDbSpline
 62
9
  6
CONTINUOUS
 70
0
 71
3
 72
22
 73
18
 74
0
 42
0.0000001
 43
0.0000001
 44
0.0000000001
 40
0.0
 40
0.0
 40
0.0
 40
0.0
 40
0.1456391286
 40
0.2167823543
 40
0.2865391926
 40
0.3547545255
 40
0.4213076058
 40
0.486113624
 40
0.5491295148
 40
0.6103582124
 40
0.6698527192
 40
0.7277190964
 40
0.784117626
 40
0.8392625017
 40
0.8934155546
 40
0.9468844392
 40
1.0
 40
1.0
 40
1.0
 40
1.0
 10
10.1434051748
 20
6.4531584988
 30
0.0
 10
10.1449573833
 20
6.4613096152
 30
0.0
 10
10.1479870534
 20
6.4733256912
 30
0.0
 10
10.1534680123
 20
6.4887118982
 30
0.0
 10
10.1581951416
 20
6.4996583541
 30
0.0
 10
10.1635383019
 20
6.5100241624
 30
0.0
 10
10.1694626513
 20
6.5197413205
 30
0.0
 10
10.1759294108
 20
6.5287449322
 30
0.0
 10
10.1828963539
 20
6.536974976
 30
0.0
 10
10.1903180326
 20
6.5443762535
 30
0.0
 10
10.1981459967
 20
6.5508987956
 30
0.0
 10
10.2063290059
 20
6.5564980483
 30
0.0
 10
10.214813221
 20
6.5611352546
 30
0.0
 10
10.2235421594
 20
6.5647775135
 30
0.0
 10
10.2324576196
 20
6.5673987598
 30
0.0
 10
10.2414972197
 20
6.5689792916
 30
0.0
 10
10.2475755022
 20
6.5693318604
 30
0.0
 10
10.2506016896
 20
6.5693318604
 30
0.0
  0
SPLINE
  5
2D5
100
AcDbEntity
  8
0
100
AcDbSpline
 62
9
  6
CONTINUOUS
 70
0
 71
3
 72
13
 73
9
 74
0
 42
0.0000001
 43
0.0000001
 44
0.0000000001
 40
0.0
 40
0.0
 40
0.0
 40
0.0
 40
0.248888716
 40
0.3743087166
 40
0.5
 40
0.6256912834
 40
0.751111284
 40
1.0
 40
1.0
 40
1.0
 40
1.0
 10
10.1434051748
 20
6.1255052219
 30
0.0
 10
10.1382915798
 20
6.152358256
 30
0.0
 10
10.1325507869
 20
6.1931481623
 30
0.0
 10
10.1287205262
 20
6.2479426225
 30
0.0
 10
10.1277586748
 20
6.2893318604
 30
0.0
 10
10.1287205262
 20
6.3307210982
 30
0.0
 10
10.1325507869
 20
6.3855155584
 30
0.0
 10
10.1382915798
 20
6.4263054648
 30
0.0
 10
10.1434051748
 20
6.4531584988
 30
0.0
  0
SPLINE
  5
2D6
100
AcDbEntity
  8
0
100
AcDbSpline
 62
9
  6
CONTINUOUS
 70
0
 71
3
 72
21
 73
17
 74
0
 42
0.0000001
 43
0.0000001
 44
0.0000000001
 40
0.0
 40
0.0
 40
0.0
 40
0.0
 40
0.0500001082
 40
0.1032573561
 40
0.1594849243
 40
0.2183805661
 40
0.2796122825
 40
0.3428310382
 40
0.4076711508
 40
0.4737542692
 40
0.6080845114
 40
0.742665534
 40
0.8090608047
 40
0.8743325764
 40
0.9381052656
 40
1.0
 40
1.0
 40
1.0
 40
1.0
 10
10.671929291
 20
6.1958837846
 30
0.0
 10
10.6741264626
 20
6.1963672144
 30
0.0
 10
10.6786845889
 20
6.1972731052
 30
0.0
 10
10.6857679167
 20
6.1984293904
 30
0.0
 10
10.6932800865
 20
6.19942056
 30
0.0
 10
10.7011735484
 20
6.2002402564
 30
0.0
 10
10.7093988507
 20
6.2008831105
 30
0.0
 10
10.7179040878
 20
6.2013449563
 30
0.0
 10
10.7266356986
 20
6.2016228285
 30
0.0
 10
10.7385707519
 20
6.2017460484
 30
0.0
 10
10.7536447842
 20
6.2014304614
 30
0.0
 10
10.7687079732
 20
6.2005090791
 30
0.0
 10
10.7806376273
 20
6.19940733
 30
0.0
 10
10.7893756269
 20
6.1984127384
 30
0.0
 10
10.7978888263
 20
6.1972526215
 30
0.0
 10
10.8034727268
 20
6.1963587858
 30
0.0
 10
10.8062168372
 20
6.1958837846
 30
0.0
  0
SPLINE
  5
2D7
100
AcDbEntity
  8
0
100
AcDbSpline
 62
7
  6
CONTINUOUS
 70
0
 71
3
 72
24
 73
20
 74
0
 42
0.0000001
 43
0.0000001
 44
0.0000000001
 40
0.0
 40
0.0
 40
0.0
 40
0.0
 40
0.0603639938
 40
0.1204252275
 40
0.180423617
 40
0.2405517948
 40
0.300946387
 40
0.3312784147
 40
0.3617162186
 40
0.4229431284
 40
0.4846861458
 40
0.5469940643
 40
0.6098977787
 40
0.6734152845
 40
0.7375544501
 40
0.8023047378
 40
0.8676501251
 40
0.9335628608
 40
1.0
 40
1.0
 40
1.0
 40
1.0
 10
10.7031745397
 20
6.5493149436
 30
0.0
 10
10.7050942982
 20
6.5474789371
 30
0.0
 10
10.709052685
 20
6.5439489138
 30
0.0
 10
10.7152712617
 20
6.5390075826
 30
0.0
 10
10.7216925642
 20
6.5343522222
 30
0.0
 10
10.7282690517
 20
6.5298944988
 30
0.0
 10
10.7338431523
 20
6.5262884573
 30
0.0
 10
10.7383445809
 20
6.523430641
 30
0.0
 10
10.742885525
 20
6.5205667535
 30
0.0
 10
10.748600924
 20
6.5169739032
 30
0.0
 10
10.7554764382
 20
6.5125913369
 30
0.0
 10
10.7623494869
 20
6.5080686693
 30
0.0
 10
10.7691892572
 20
6.5033561226
 30
0.0
 10
10.7759638266
 20
6.4984115987
 30
0.0
 10
10.7826392879
 20
6.4932002617
 30
0.0
 10
10.7891845901
 20
6.4876999298
 30
0.0
 10
10.7955678808
 20
6.4818951887
 30
0.0
 10
10.8017595831
 20
6.4757803088
 30
0.0
 10
10.8057282733
 20
6.4715147801
 30
0.0
 10
10.8076746985
 20
6.4693332402
 30
0.0
  0
ENDSEC
  0
SECTION
  2
OBJECTS
  0
DICTIONARY
  5
C
100
AcDbDictionary
280
0
281
1
  3
ACAD_GROUP
350
D
  3
ACAD_MLINESTYLE
350
17
  3
ACAD_LAYOUT
350
1A
  3
ACAD_PLOTSETTINGS
350
19
  3
ACAD_PLOTSTYLENAME
350
E
  0
DICTIONARY
  5
D
102
{ACAD_REACTORS
330
C
102
}
100
AcDbDictionary
280
0
281
1
  0
ACDBDICTIONARYWDFLT
  5
E
102
{ACAD_REACTORS
330
C
102
}
100
AcDbDictionary
281
1
  3
Normal
350
F
100
AcDbDictionaryWithDefault
340
F
  0
DICTIONARY
  5
17
102
{ACAD_REACTORS
330
C
102
}
100
AcDbDictionary
280
0
281
1
  3
Standard
350
18
  0
DICTIONARY
  5
19
102
{ACAD_REACTORS
330
C
102
}
100
AcDbDictionary
281
1
  0
DICTIONARY
  5
1A
102
{ACAD_REACTORS
330
C
102
}
100
AcDbDictionary
281
1
  3
Model
350
2D8
  3
Layout1
350
2D9
  0
ACDBPLACEHOLDER
  5
F
102
{ACAD_REACTORS
330
E
102
}
  0
MLINESTYLE
  5
18
102
{ACAD_REACTORS
330
17
102
}
100
AcDbMlineStyle
  2
STANDARD
 70
0
  3

 62
256
 51
90.0
 52
90.0
 71
2
 49
0.5
 62
256
  6
BYLAYER
 49
-0.5
 62
256
  6
BYLAYER
  0
LAYOUT
  5
2D8
102
{ACAD_REACTORS
330
1A
102
}
100
AcDbPlotSettings
  1

  2
none_device
  4
ANSI_C_(22.00_x_17.00_Inches)
  6

 40
0.0
 41
0.0
 42
0.0
 43
0.0
 44
558.8
 45
431.8
 46
0.0
 47
0.0
 48
0.0
 49
0.0
140
0.0
141
0.0
142
1.0
143
1.0
 70
1024
 72
0
 73
0
 74
0
  7

 75
0
147
1.0
148
0.0
149
0.0
100
AcDbLayout
  1
Model
 70
0
 71
0
 10
0.0
 20
0.0
 11
22.0
 21
17.0
 12
0.0
 22
0.0
 32
0.0
 14
0.0
 24
0.0
 34
0.0
 15
0.0
 25
0.0
 35
0.0
146
0.0
 13
0.0
 23
0.0
 33
0.0
 16
1.0
 26
0.0
 36
0.0
 17
0.0
 27
1.0
 37
0.0
 76
0
330
205
345
0
346
0
  0
LAYOUT
  5
2D9
102
{ACAD_REACTORS
330
1A
102
}
100
AcDbPlotSettings
  1

  2
none_device
  4
ANSI_C_(22.00_x_17.00_Inches)
  6

 40
0.0
 41
0.0
 42
0.0
 43
0.0
 44
558.8
 45
431.8
 46
0.0
 47
0.0
 48
0.0
 49
0.0
140
0.0
141
0.0
142
1.0
143
1.0
 70
0
 72
0
 73
0
 74
0
  7

 75
0
147
1.0
148
0.0
149
0.0
100
AcDbLayout
  1
Layout1
 70
0
 71
1
 10
0.0
 20
0.0
 11
22.0
 21
17.0
 12
0.0
 22
0.0
 32
0.0
 14
0.0
 24
0.0
 34
0.0
 15
0.0
 25
0.0
 35
0.0
146
0.0
 13
0.0
 23
0.0
 33
0.0
 16
1.0
 26
0.0
 36
0.0
 17
0.0
 27
1.0
 37
0.0
 76
0
330
206
345
0
346
0
  0
ENDSEC
  0
EOF
