999
DXF file: E:\BT Custom\CADOUTPUT\_RIGHT.dxf
999
Pro/ENGINEER 2018400 by Parametric Technology Corporation
  0
SECTION
  2
HEADER
  9
$ACADVER
  1
AC1018
  9
$DWGCODEPAGE
  3
ANSI_1252
  9
$EXTMAX
 10
22.0
 20
17.0
 30
0.0
  9
$EXTMIN
 10
0.0
 20
0.0
 30
0.0
  9
$LIMMIN
 10
0.0
 20
0.0
  9
$LIMMAX
 10
22.0
 20
17.0
  9
$VIEWCTR
 10
11.0
 20
8.5
  9
$VIEWSIZE
 40
17.0
  9
$CLAYER
  8
0
  9
$LTSCALE
 40
1.21
  9
$CELTYPE
  6
BYLAYER
  9
$DIMSCALE
 40
1.0
  9
$DIMASZ
 40
0.1
  9
$DIMEXO
 40
0.0625
  9
$DIMDLI
 40
0.836
  9
$DIMEXE
 40
0.125
  9
$DIMCEN
 40
0.198
  9
$DIMLFAC
 40
1.0
  9
$DIMBLK
  1
_FILLED
  9
$DIMALT
 70
1
  9
$DIMALTD
 70
2
  9
$DIMALTTD
 70
2
  9
$DIMALTF
 40
25.4
  9
$DIMTXT
 40
0.08
  9
$DIMTOL
 70
1
  9
$DIMLIM
 70
0
  9
$DIMTFAC
 40
1.0
  9
$DIMTP
 40
0.001
  9
$DIMTM
 40
0.001
  9
$DIMGAP
 40
0.09
  9
$DIMDSEP
 70
46
  9
$AUNITS
 70
0
  9
$PDMODE
 70
3
  9
$PDSIZE
 40
0.06
  9
$HANDSEED
  5
2CE
  9
$TILEMODE
 70
1
  9
$MEASUREMENT
 70
0
  9
$INSUNITS
 70
1
  0
ENDSEC
  0
SECTION
  2
CLASSES
  0
CLASS
  1
ACDBDICTIONARYWDFLT
  2
AcDbDictionaryWithDefault
  3
AutoCAD 2000
 90
0
 91
1
280
0
281
0
  0
CLASS
  1
ACDBPLACEHOLDER
  2
AcDbPlaceHolder
  3
AutoCAD 2000
 90
0
 91
1
280
0
281
0
  0
CLASS
  1
LAYOUT
  2
AcDbLayout
  3
AutoCAD 2000
 90
0
 91
0
280
0
281
0
  0
ENDSEC
  0
SECTION
  2
TABLES
  0
TABLE
  2
VPORT
  5
8
100
AcDbSymbolTable
 70
2
  0
VPORT
  5
1F4
100
AcDbSymbolTableRecord
100
AcDbViewportTableRecord
  2
*ACTIVE
 70
0
 10
0.0
 20
0.0
 11
1.0
 21
1.0
 12
11.0
 22
8.5
 13
0.0
 23
0.0
 14
1.0
 24
1.0
 15
0.0
 25
0.0
 16
0.0
 26
0.0
 36
1.0
 17
0.0
 27
0.0
 37
0.0
 40
17.0
 41
1.2941176471
 42
50.0
 43
0.0
 44
0.0
 50
0.0
 51
0.0
 71
0
 72
100
 73
1
 74
1
 75
0
 76
0
 77
0
 78
0
  0
ENDTAB
  0
TABLE
  2
LTYPE
  5
5
100
AcDbSymbolTable
 70
6
  0
LTYPE
  5
14
100
AcDbSymbolTableRecord
100
AcDbLinetypeTableRecord
  2
BYBLOCK
 70
0
  3

 72
65
 73
0
 40
0.0
  0
LTYPE
  5
15
100
AcDbSymbolTableRecord
100
AcDbLinetypeTableRecord
  2
BYLAYER
 70
0
  3

 72
65
 73
0
 40
0.0
  0
LTYPE
  5
16
100
AcDbSymbolTableRecord
100
AcDbLinetypeTableRecord
  2
CONTINUOUS
 70
64
  3
Solid line
 72
65
 73
0
 40
0.0
  0
LTYPE
  5
1F5
100
AcDbSymbolTableRecord
100
AcDbLinetypeTableRecord
  2
CENTER
 70
64
  3
____ _ ____ _ ____ _ ____ _ ____ _ ____ _ ____
 72
65
 73
4
 40
0.6
 49
0.375
 74
0
 49
-0.075
 74
0
 49
0.075
 74
0
 49
-0.075
 74
0
  0
LTYPE
  5
1F6
100
AcDbSymbolTableRecord
100
AcDbLinetypeTableRecord
  2
HIDDEN
 70
64
  3
- - - - - - - - - - - - - - - - - - - -
 72
65
 73
2
 40
0.2
 49
0.1
 74
0
 49
-0.1
 74
0
  0
LTYPE
  5
1F7
100
AcDbSymbolTableRecord
100
AcDbLinetypeTableRecord
  2
PHANTOM
 70
64
  3
_____ _ _ _____ _ _ _____ _ _ _____
 72
65
 73
6
 40
0.8
 49
0.45
 74
0
 49
-0.05
 74
0
 49
0.1
 74
0
 49
-0.05
 74
0
 49
0.1
 74
0
 49
-0.05
 74
0
  0
LTYPE
  5
1F8
100
AcDbSymbolTableRecord
100
AcDbLinetypeTableRecord
  2
DOT
 70
64
  3
. . . . . . . . . . . . . . . . . . . .
 72
65
 73
2
 40
0.2
 49
0.1
 74
0
 49
-0.1
 74
0
  0
LTYPE
  5
1F9
100
AcDbSymbolTableRecord
100
AcDbLinetypeTableRecord
  2
DASHED
 70
64
  3
- - - - - - - - - - - - - - - - - - - -
 72
65
 73
2
 40
0.2
 49
0.1
 74
0
 49
-0.1
 74
0
  0
ENDTAB
  0
TABLE
  2
LAYER
  5
2
100
AcDbSymbolTable
 70
36
  0
LAYER
  5
10
100
AcDbSymbolTableRecord
100
AcDbLayerTableRecord
  2
0
 70
0
 62
7
  6
CONTINUOUS
370
-3
390
F
  0
LAYER
  5
1FA
100
AcDbSymbolTableRecord
100
AcDbLayerTableRecord
  2
DEFAULT_1
 70
0
 62
7
  6
CENTER
370
-3
390
F
  0
LAYER
  5
1FB
100
AcDbSymbolTableRecord
100
AcDbLayerTableRecord
  2
DEFAULT_2
 70
0
 62
8
  6
HIDDEN
370
-3
390
F
  0
LAYER
  5
1FC
100
AcDbSymbolTableRecord
100
AcDbLayerTableRecord
  2
DEFAULT_3
 70
0
 62
7
  6
PHANTOM
370
-3
390
F
  0
LAYER
  5
1FD
100
AcDbSymbolTableRecord
100
AcDbLayerTableRecord
  2
ALL_FEATURES
 70
0
 62
7
  6
CONTINUOUS
370
-3
390
F
  0
LAYER
  5
1FE
100
AcDbSymbolTableRecord
100
AcDbLayerTableRecord
  2
AXES_FEATURES
 70
0
 62
7
  6
CONTINUOUS
370
-3
390
F
  0
LAYER
  5
1FF
100
AcDbSymbolTableRecord
100
AcDbLayerTableRecord
  2
DEFAULT_COORDINATE_SYSTEM
 70
0
 62
7
  6
CONTINUOUS
370
-3
390
F
  0
LAYER
  5
200
100
AcDbSymbolTableRecord
100
AcDbLayerTableRecord
  2
DEFAULT_DATUM_AXES
 70
0
 62
7
  6
CONTINUOUS
370
-3
390
F
  0
LAYER
  5
201
100
AcDbSymbolTableRecord
100
AcDbLayerTableRecord
  2
DEFAULT_DATUM_PLANES
 70
0
 62
7
  6
CONTINUOUS
370
-3
390
F
  0
LAYER
  5
202
100
AcDbSymbolTableRecord
100
AcDbLayerTableRecord
  2
DIMENSIONS
 70
0
 62
7
  6
CONTINUOUS
370
-3
390
F
  0
ENDTAB
  0
TABLE
  2
STYLE
  5
3
100
AcDbSymbolTable
 70
1
  0
STYLE
  5
11
100
AcDbSymbolTableRecord
100
AcDbTextStyleTableRecord
  2
STANDARD
 70
0
 40
0.0
 41
0.8
 50
0.0
 71
0
 42
0.2
  3
txt
  4

  0
STYLE
  5
203
100
AcDbSymbolTableRecord
100
AcDbTextStyleTableRecord
  2
TEXTSTYLE_1
 70
0
 40
0.0
 41
0.8
 50
0.0
 71
0
 42
0.2
  3
gdt
  4

  0
ENDTAB
  0
TABLE
  2
VIEW
  5
6
100
AcDbSymbolTable
 70
0
  0
ENDTAB
  0
TABLE
  2
UCS
  5
7
100
AcDbSymbolTable
 70
0
  0
ENDTAB
  0
TABLE
  2
APPID
  5
9
100
AcDbSymbolTable
 70
1
  0
APPID
  5
204
100
AcDbSymbolTableRecord
100
AcDbRegAppTableRecord
  2
ACAD
 70
0
  0
ENDTAB
  0
TABLE
  2
BLOCK_RECORD
  5
1
100
AcDbSymbolTable
 70
0
  0
BLOCK_RECORD
  5
205
100
AcDbSymbolTableRecord
100
AcDbBlockTableRecord
  2
*Model_Space
  0
BLOCK_RECORD
  5
206
100
AcDbSymbolTableRecord
100
AcDbBlockTableRecord
  2
*Paper_Space
  0
BLOCK_RECORD
  5
207
100
AcDbSymbolTableRecord
100
AcDbBlockTableRecord
  2
_FILLED
  0
ENDTAB
  0
TABLE
  2
DIMSTYLE
  5
A
100
AcDbSymbolTable
 70
1
100
AcDbDimStyleTable
 71
0
  0
DIMSTYLE
105
208
100
AcDbSymbolTableRecord
100
AcDbDimStyleTableRecord
  2
STANDARD
 70
0
  3

  4

 40
1.0
 41
0.1
 42
0.0625
 43
0.38
 44
0.125
 45
0.0
 46
0.0
 47
0.001
 48
0.001
140
0.08
141
0.09
142
0.0
143
25.4
144
1.0
145
0.0
146
1.0
147
0.09
 71
1.0
 72
0.0
 73
1
 74
1
 75
0
 76
0
 77
0
 78
4
 79
1
170
1
171
2
172
0
173
0
174
0
175
0
176
0
177
0
178
0
270
2
179
3
271
3
272
3
273
2
274
2
275
0
280
0
281
0
282
0
283
1
284
4
285
0
286
0
287
3
288
0
340
11
278
46
341
207
342
207
343
207
344
207
  0
ENDTAB
  0
ENDSEC
  0
SECTION
  2
BLOCKS
  0
BLOCK
  5
20
100
AcDbEntity
  8
0
100
AcDbBlockBegin
  2
*Model_Space
 70
0
 10
0.0
 20
0.0
 30
0.0
  3
*Model_Space
  1

  0
ENDBLK
  5
21
100
AcDbEntity
  8
0
100
AcDbBlockEnd
  0
BLOCK
  5
1C
100
AcDbEntity
  8
0
100
AcDbBlockBegin
  2
*Paper_Space
 70
0
 10
0.0
 20
0.0
 30
0.0
  3
*Paper_Space
  1

  0
ENDBLK
  5
1D
100
AcDbEntity
  8
0
100
AcDbBlockEnd
  0
BLOCK
  5
209
100
AcDbEntity
  8
0
100
AcDbBlockBegin
  2
_FILLED
 70
64
 10
0.0
 20
0.0
  3
_FILLED
  1

  0
SOLID
  5
20A
100
AcDbEntity
  8
0
  6
BYBLOCK
 62
0
100
AcDbTrace
 10
0.0
 20
0.0
 11
-1.0
 21
0.2
 12
-1.0
 22
-0.2
 13
-1.0
 23
-0.2
  0
ENDBLK
  5
20B
100
AcDbEntity
  8
0
  6
BYBLOCK
 62
0
100
AcDbBlockEnd
  0
ENDSEC
  0
SECTION
  2
ENTITIES
  0
LINE
  5
20C
100
AcDbEntity
  8
0
100
AcDbLine
 62
7
  6
CONTINUOUS
 10
9.1014834891
 20
5.753391804
 11
9.1214834891
 21
5.733391804
  0
LINE
  5
20D
100
AcDbEntity
  8
0
100
AcDbLine
 62
7
  6
CONTINUOUS
 10
9.6444834891
 20
5.733391804
 11
9.1214834891
 21
5.733391804
  0
LINE
  5
20E
100
AcDbEntity
  8
0
100
AcDbLine
 62
7
  6
CONTINUOUS
 10
9.1014834891
 20
5.753391804
 11
9.6644834891
 21
5.753391804
  0
LINE
  5
20F
100
AcDbEntity
  8
0
100
AcDbLine
 62
7
  6
CONTINUOUS
 10
9.1014834891
 20
5.833391804
 11
9.6644834891
 21
5.833391804
  0
LINE
  5
210
100
AcDbEntity
  8
0
100
AcDbLine
 62
7
  6
CONTINUOUS
 10
10.5089834891
 20
6.389891804
 11
10.4189834891
 21
6.389891804
  0
LINE
  5
211
100
AcDbEntity
  8
0
100
AcDbLine
 62
7
  6
CONTINUOUS
 10
10.4119885196
 20
6.3906913007
 11
10.2759885196
 21
6.4221913007
  0
LINE
  5
212
100
AcDbEntity
  8
0
100
AcDbLine
 62
7
  6
CONTINUOUS
 10
11.6889834891
 20
6.603891804
 11
11.3359834891
 21
6.603891804
  0
LINE
  5
213
100
AcDbEntity
  8
0
100
AcDbLine
 62
7
  6
CONTINUOUS
 10
10.7449834891
 20
6.662891804
 11
11.3239834891
 21
6.662891804
  0
LINE
  5
214
100
AcDbEntity
  8
0
100
AcDbLine
 62
7
  6
CONTINUOUS
 10
10.7449834891
 20
7.016891804
 11
11.3239834891
 21
7.016891804
  0
LINE
  5
215
100
AcDbEntity
  8
0
100
AcDbLine
 62
9
  6
CONTINUOUS
 10
8.9331741959
 20
8.6147471475
 11
8.9331741959
 21
9.4050364606
  0
LINE
  5
216
100
AcDbEntity
  8
0
100
AcDbLine
 62
7
  6
CONTINUOUS
 10
8.9569834891
 20
8.5553824768
 11
8.9569834891
 21
9.4644011313
  0
LINE
  5
217
100
AcDbEntity
  8
0
100
AcDbLine
 62
7
  6
CONTINUOUS
 10
8.9734798132
 20
8.5046113828
 11
8.9734798132
 21
9.5151722253
  0
LINE
  5
218
100
AcDbEntity
  8
0
100
AcDbLine
 62
7
  6
CONTINUOUS
 10
8.995699392
 20
8.482391804
 11
8.995699392
 21
9.537391804
  0
LINE
  5
219
100
AcDbEntity
  8
0
100
AcDbLine
 62
7
  6
CONTINUOUS
 10
8.9569834891
 20
9.4644017602
 11
8.9734798132
 21
9.5151722253
  0
LINE
  5
21A
100
AcDbEntity
  8
0
100
AcDbLine
 62
7
  6
CONTINUOUS
 10
11.6889834891
 20
7.075891804
 11
11.3359834891
 21
7.075891804
  0
LINE
  5
21B
100
AcDbEntity
  8
0
100
AcDbLine
 62
7
  6
CONTINUOUS
 10
10.5089834891
 20
7.289891804
 11
10.4189834891
 21
7.289891804
  0
LINE
  5
21C
100
AcDbEntity
  8
0
100
AcDbLine
 62
7
  6
CONTINUOUS
 10
8.9569834891
 20
8.5553818479
 11
8.9734798132
 21
8.5046113828
  0
LINE
  5
21D
100
AcDbEntity
  8
0
100
AcDbLine
 62
7
  6
CONTINUOUS
 10
9.0669834891
 20
8.482391804
 11
9.0669834891
 21
9.537391804
  0
LINE
  5
21E
100
AcDbEntity
  8
0
100
AcDbLine
 62
7
  6
CONTINUOUS
 10
9.0819834891
 20
8.508391804
 11
9.0819834891
 21
9.511391804
  0
LINE
  5
21F
100
AcDbEntity
  8
0
100
AcDbLine
 62
7
  6
CONTINUOUS
 10
9.0979834891
 20
8.4806994888
 11
9.0979834891
 21
9.5390841193
  0
LINE
  5
220
100
AcDbEntity
  8
0
100
AcDbLine
 62
7
  6
CONTINUOUS
 10
9.1014834891
 20
5.753391804
 11
9.1014834891
 21
5.833391804
  0
LINE
  5
221
100
AcDbEntity
  8
0
100
AcDbLine
 62
7
  6
CONTINUOUS
 10
9.1014834891
 20
8.122391804
 11
9.1014834891
 21
8.227391804
  0
LINE
  5
222
100
AcDbEntity
  8
0
100
AcDbLine
 62
7
  6
CONTINUOUS
 10
9.1779834891
 20
8.452391804
 11
9.1779834891
 21
9.567391804
  0
LINE
  5
223
100
AcDbEntity
  8
0
100
AcDbLine
 62
7
  6
CONTINUOUS
 10
9.1859834891
 20
8.427391804
 11
9.1859834891
 21
8.4552793731
  0
LINE
  5
224
100
AcDbEntity
  8
0
100
AcDbLine
 62
7
  6
CONTINUOUS
 10
9.0819834891
 20
9.511391804
 11
9.0979834891
 21
9.5390841193
  0
LINE
  5
225
100
AcDbEntity
  8
0
100
AcDbLine
 62
7
  6
CONTINUOUS
 10
9.5880202099
 20
9.9193535464
 11
9.5537208465
 21
9.8701874764
  0
LINE
  5
226
100
AcDbEntity
  8
0
100
AcDbLine
 62
7
  6
CONTINUOUS
 10
8.9734798132
 20
9.5151722253
 11
8.995699392
 21
9.537391804
  0
LINE
  5
227
100
AcDbEntity
  8
0
100
AcDbLine
 62
7
  6
CONTINUOUS
 10
10.4119885196
 20
7.2890923074
 11
10.2759885196
 21
7.2575923074
  0
LINE
  5
228
100
AcDbEntity
  8
0
100
AcDbLine
 62
7
  6
CONTINUOUS
 10
8.9734798132
 20
8.5046113828
 11
8.995699392
 21
8.482391804
  0
LINE
  5
229
100
AcDbEntity
  8
0
100
AcDbLine
 62
7
  6
CONTINUOUS
 10
9.0819834891
 20
8.508391804
 11
9.0979834891
 21
8.4806994888
  0
LINE
  5
22A
100
AcDbEntity
  8
0
100
AcDbLine
 62
7
  6
CONTINUOUS
 10
9.5799834891
 20
8.427391804
 11
9.5799834891
 21
8.4552793731
  0
LINE
  5
22B
100
AcDbEntity
  8
0
100
AcDbLine
 62
7
  6
CONTINUOUS
 10
9.5879834891
 20
8.452391804
 11
9.5879834891
 21
9.567391804
  0
LINE
  5
22C
100
AcDbEntity
  8
0
100
AcDbLine
 62
7
  6
CONTINUOUS
 10
9.1014834891
 20
8.227391804
 11
9.1859834891
 21
8.427391804
  0
LINE
  5
22D
100
AcDbEntity
  8
0
100
AcDbLine
 62
7
  6
CONTINUOUS
 10
9.0669834891
 20
8.482391804
 11
9.0819834891
 21
8.508391804
  0
LINE
  5
22E
100
AcDbEntity
  8
0
100
AcDbLine
 62
7
  6
CONTINUOUS
 10
10.7449834891
 20
7.064891804
 11
10.5309974482
 21
7.2807180636
  0
LINE
  5
22F
100
AcDbEntity
  8
0
100
AcDbLine
 62
7
  6
CONTINUOUS
 10
9.0669834891
 20
9.537391804
 11
9.0819834891
 21
9.511391804
  0
LINE
  5
230
100
AcDbEntity
  8
0
100
AcDbLine
 62
7
  6
CONTINUOUS
 10
9.6644834891
 20
8.227391804
 11
9.5799834891
 21
8.427391804
  0
LINE
  5
231
100
AcDbEntity
  8
0
100
AcDbLine
 62
7
  6
CONTINUOUS
 10
9.6644834891
 20
5.753391804
 11
9.6644834891
 21
5.833391804
  0
LINE
  5
232
100
AcDbEntity
  8
0
100
AcDbLine
 62
7
  6
CONTINUOUS
 10
9.6644834891
 20
8.122391804
 11
9.6644834891
 21
8.227391804
  0
LINE
  5
233
100
AcDbEntity
  8
0
100
AcDbLine
 62
7
  6
CONTINUOUS
 10
9.6669834891
 20
8.482391804
 11
9.6669834891
 21
9.537391804
  0
LINE
  5
234
100
AcDbEntity
  8
0
100
AcDbLine
 62
7
  6
CONTINUOUS
 10
9.7179834891
 20
8.6393917812
 11
9.7179834891
 21
9.3803918269
  0
LINE
  5
235
100
AcDbEntity
  8
0
100
AcDbLine
 62
7
  6
CONTINUOUS
 10
9.6669834891
 20
8.482391804
 11
9.7179834891
 21
8.639391804
  0
LINE
  5
236
100
AcDbEntity
  8
0
100
AcDbLine
 62
7
  6
CONTINUOUS
 10
9.1014834891
 20
8.122391804
 11
9.6644834891
 21
8.122391804
  0
LINE
  5
237
100
AcDbEntity
  8
0
100
AcDbLine
 62
7
  6
CONTINUOUS
 10
9.6669834891
 20
9.537391804
 11
9.7179834891
 21
9.380391804
  0
LINE
  5
238
100
AcDbEntity
  8
0
100
AcDbLine
 62
7
  6
CONTINUOUS
 10
10.0769834891
 20
8.666391804
 11
10.0769834891
 21
9.353391804
  0
LINE
  5
239
100
AcDbEntity
  8
0
100
AcDbLine
 62
7
  6
CONTINUOUS
 10
10.0969834891
 20
9.4087406926
 11
10.0969834891
 21
8.6110429155
  0
LINE
  5
23A
100
AcDbEntity
  8
0
100
AcDbLine
 62
9
  6
CONTINUOUS
 10
10.1253842465
 20
8.5801520765
 11
10.1253842465
 21
9.4396315316
  0
LINE
  5
23B
100
AcDbEntity
  8
0
100
AcDbLine
 62
7
  6
CONTINUOUS
 10
10.4313670503
 20
9.550391804
 11
10.5372846776
 21
9.6245257982
  0
LINE
  5
23C
100
AcDbEntity
  8
0
100
AcDbLine
 62
7
  6
CONTINUOUS
 10
9.1014834891
 20
8.227391804
 11
9.6644834891
 21
8.227391804
  0
LINE
  5
23D
100
AcDbEntity
  8
0
100
AcDbLine
 62
7
  6
CONTINUOUS
 10
11.3469834891
 20
8.268891804
 11
11.4089834891
 21
8.268891804
  0
LINE
  5
23E
100
AcDbEntity
  8
0
100
AcDbLine
 62
7
  6
CONTINUOUS
 10
11.3469834891
 20
8.353391804
 11
10.9957757313
 21
8.353391804
  0
LINE
  5
23F
100
AcDbEntity
  8
0
100
AcDbLine
 62
7
  6
CONTINUOUS
 10
9.1859834891
 20
8.427391804
 11
9.5799834891
 21
8.427391804
  0
LINE
  5
240
100
AcDbEntity
  8
0
100
AcDbLine
 62
7
  6
CONTINUOUS
 10
10.4313670503
 20
8.469391804
 11
10.5372846776
 21
8.3952578098
  0
LINE
  5
241
100
AcDbEntity
  8
0
100
AcDbLine
 62
7
  6
CONTINUOUS
 10
9.1779467684
 20
9.9193535464
 11
9.2122461318
 21
9.8701874764
  0
LINE
  5
242
100
AcDbEntity
  8
0
100
AcDbLine
 62
7
  6
CONTINUOUS
 10
10.2519834891
 20
6.4523921173
 11
10.2519834891
 21
7.2273914907
  0
LINE
  5
243
100
AcDbEntity
  8
0
100
AcDbLine
 62
9
  6
CONTINUOUS
 10
10.2759885196
 20
6.4221913007
 11
10.2759885196
 21
7.2575923074
  0
LINE
  5
244
100
AcDbEntity
  8
0
100
AcDbLine
 62
9
  6
CONTINUOUS
 10
10.4119885196
 20
6.3906913007
 11
10.4119885196
 21
7.2890923074
  0
LINE
  5
245
100
AcDbEntity
  8
0
100
AcDbLine
 62
9
  6
CONTINUOUS
 10
10.4189834891
 20
6.389891804
 11
10.4189834891
 21
7.289891804
  0
LINE
  5
246
100
AcDbEntity
  8
0
100
AcDbLine
 62
9
  6
CONTINUOUS
 10
10.4313670503
 20
8.469391804
 11
10.4313670503
 21
9.550391804
  0
LINE
  5
247
100
AcDbEntity
  8
0
100
AcDbLine
 62
7
  6
CONTINUOUS
 10
10.9804834891
 20
9.6510552437
 11
10.9957758709
 21
9.666391804
  0
LINE
  5
248
100
AcDbEntity
  8
0
100
AcDbLine
 62
7
  6
CONTINUOUS
 10
8.995699392
 20
8.482391804
 11
9.0669834891
 21
8.482391804
  0
LINE
  5
249
100
AcDbEntity
  8
0
100
AcDbLine
 62
7
  6
CONTINUOUS
 10
9.3179834891
 20
8.487391804
 11
9.4479834891
 21
8.487391804
  0
LINE
  5
24A
100
AcDbEntity
  8
0
100
AcDbLine
 62
7
  6
CONTINUOUS
 10
9.7179834891
 20
8.666391804
 11
10.0769834891
 21
8.666391804
  0
LINE
  5
24B
100
AcDbEntity
  8
0
100
AcDbLine
 62
7
  6
CONTINUOUS
 10
8.9088683338
 20
8.722391804
 11
8.9090194615
 21
8.722391804
  0
LINE
  5
24C
100
AcDbEntity
  8
0
100
AcDbLine
 62
7
  6
CONTINUOUS
 10
10.9804834891
 20
8.3687283644
 11
10.9957758709
 21
8.353391804
  0
LINE
  5
24D
100
AcDbEntity
  8
0
100
AcDbLine
 62
9
  6
CONTINUOUS
 10
10.5089834891
 20
6.389891804
 11
10.5089834891
 21
7.289891804
  0
LINE
  5
24E
100
AcDbEntity
  8
0
100
AcDbLine
 62
9
  6
CONTINUOUS
 10
10.5309974482
 20
6.3990655445
 11
10.5309974482
 21
7.2807180636
  0
LINE
  5
24F
100
AcDbEntity
  8
0
100
AcDbLine
 62
9
  6
CONTINUOUS
 10
10.5372846776
 20
8.3952578098
 11
10.5372846776
 21
9.6245257982
  0
LINE
  5
250
100
AcDbEntity
  8
0
100
AcDbLine
 62
7
  6
CONTINUOUS
 10
10.7449834891
 20
6.614891804
 11
10.7449834891
 21
7.064891804
  0
LINE
  5
251
100
AcDbEntity
  8
0
100
AcDbLine
 62
7
  6
CONTINUOUS
 10
10.0969834891
 20
8.809891804
 11
10.0769834891
 21
8.809891804
  0
LINE
  5
252
100
AcDbEntity
  8
0
100
AcDbLine
 62
7
  6
CONTINUOUS
 10
11.3469834891
 20
9.009891804
 11
11.0970408722
 21
9.009891804
  0
LINE
  5
253
100
AcDbEntity
  8
0
100
AcDbLine
 62
9
  6
CONTINUOUS
 10
10.7654834891
 20
8.391391804
 11
10.7654834891
 21
9.628391804
  0
LINE
  5
254
100
AcDbEntity
  8
0
100
AcDbLine
 62
9
  6
CONTINUOUS
 10
10.9804834891
 20
8.3687283644
 11
10.9804834891
 21
9.6510552437
  0
LINE
  5
255
100
AcDbEntity
  8
0
100
AcDbLine
 62
7
  6
CONTINUOUS
 10
8.8847449457
 20
9.077391804
 11
8.8837438084
 21
9.077391804
  0
LINE
  5
256
100
AcDbEntity
  8
0
100
AcDbLine
 62
7
  6
CONTINUOUS
 10
8.8889684748
 20
9.0916880613
 11
8.8879646002
 21
9.0916880613
  0
LINE
  5
257
100
AcDbEntity
  8
0
100
AcDbLine
 62
9
  6
CONTINUOUS
 10
8.8908091065
 20
9.1160123026
 11
8.8898040343
 21
9.1160123026
  0
LINE
  5
258
100
AcDbEntity
  8
0
100
AcDbLine
 62
7
  6
CONTINUOUS
 10
10.0969834891
 20
9.209891804
 11
10.0769834891
 21
9.209891804
  0
LINE
  5
259
100
AcDbEntity
  8
0
100
AcDbLine
 62
7
  6
CONTINUOUS
 10
8.909395465
 20
9.297391804
 11
8.9089616687
 21
9.297391804
  0
LINE
  5
25A
100
AcDbEntity
  8
0
100
AcDbLine
 62
7
  6
CONTINUOUS
 10
8.9127780996
 20
9.317391804
 11
8.9132407901
 21
9.317391804
  0
LINE
  5
25B
100
AcDbEntity
  8
0
100
AcDbLine
 62
7
  6
CONTINUOUS
 10
9.7179834891
 20
9.353391804
 11
10.0769834891
 21
9.353391804
  0
LINE
  5
25C
100
AcDbEntity
  8
0
100
AcDbLine
 62
7
  6
CONTINUOUS
 10
9.3179834891
 20
9.532391804
 11
9.4479834891
 21
9.532391804
  0
LINE
  5
25D
100
AcDbEntity
  8
0
100
AcDbLine
 62
7
  6
CONTINUOUS
 10
8.995699392
 20
9.537391804
 11
9.0669834891
 21
9.537391804
  0
LINE
  5
25E
100
AcDbEntity
  8
0
100
AcDbLine
 62
9
  6
CONTINUOUS
 10
9.2442309917
 20
9.5465815498
 11
9.5217359829
 21
9.5465815498
  0
LINE
  5
25F
100
AcDbEntity
  8
0
100
AcDbLine
 62
9
  6
CONTINUOUS
 10
9.194840632
 20
9.5672069749
 11
9.5711263463
 21
9.5672069749
  0
LINE
  5
260
100
AcDbEntity
  8
0
100
AcDbLine
 62
7
  6
CONTINUOUS
 10
11.3239834891
 20
6.615891804
 11
11.3239834891
 21
7.063891804
  0
LINE
  5
261
100
AcDbEntity
  8
0
100
AcDbLine
 62
9
  6
CONTINUOUS
 10
11.3359834891
 20
6.603891804
 11
11.3359834891
 21
7.075891804
  0
LINE
  5
262
100
AcDbEntity
  8
0
100
AcDbLine
 62
7
  6
CONTINUOUS
 10
11.3469834891
 20
8.2688922391
 11
11.3469834891
 21
9.7508913693
  0
LINE
  5
263
100
AcDbEntity
  8
0
100
AcDbLine
 62
7
  6
CONTINUOUS
 10
11.4089834891
 20
9.8228944779
 11
11.4089834891
 21
8.1968891302
  0
LINE
  5
264
100
AcDbEntity
  8
0
100
AcDbLine
 62
7
  6
CONTINUOUS
 10
11.5969834891
 20
8.009891804
 11
11.5969834891
 21
10.009891804
  0
LINE
  5
265
100
AcDbEntity
  8
0
100
AcDbLine
 62
7
  6
CONTINUOUS
 10
10.9957757313
 20
9.666391804
 11
11.3469834891
 21
9.666391804
  0
LINE
  5
266
100
AcDbEntity
  8
0
100
AcDbLine
 62
7
  6
CONTINUOUS
 10
11.3469834891
 20
9.750891804
 11
11.4089834891
 21
9.750891804
  0
LINE
  5
267
100
AcDbEntity
  8
0
100
AcDbLine
 62
9
  6
CONTINUOUS
 10
9.1913399248
 20
9.8185316049
 11
9.5746270535
 21
9.8185316049
  0
LINE
  5
268
100
AcDbEntity
  8
0
100
AcDbLine
 62
7
  6
CONTINUOUS
 10
9.5629834891
 20
9.8455055472
 11
9.2029834891
 21
9.8455055472
  0
LINE
  5
269
100
AcDbEntity
  8
0
100
AcDbLine
 62
9
  6
CONTINUOUS
 10
9.2122461318
 20
9.8701874764
 11
9.5537208465
 21
9.8701874764
  0
LINE
  5
26A
100
AcDbEntity
  8
0
100
AcDbLine
 62
7
  6
CONTINUOUS
 10
11.6889834891
 20
6.559891804
 11
11.6889834891
 21
7.119891804
  0
LINE
  5
26B
100
AcDbEntity
  8
0
100
AcDbLine
 62
7
  6
CONTINUOUS
 10
11.7839834891
 20
11.7634699897
 11
11.7839834891
 21
6.2563136183
  0
LINE
  5
26C
100
AcDbEntity
  8
0
100
AcDbLine
 62
9
  6
CONTINUOUS
 10
9.1779467684
 20
9.9193535464
 11
9.5880202099
 21
9.9193535464
  0
LINE
  5
26D
100
AcDbEntity
  8
0
100
AcDbLine
 62
9
  6
CONTINUOUS
 10
11.9119834891
 20
6.0381027112
 11
11.9119834891
 21
11.9816808969
  0
LINE
  5
26E
100
AcDbEntity
  8
0
100
AcDbLine
 62
7
  6
CONTINUOUS
 10
12.0399736539
 20
12.2030279345
 11
12.0399736539
 21
5.8167556736
  0
LINE
  5
26F
100
AcDbEntity
  8
0
100
AcDbLine
 62
9
  6
CONTINUOUS
 10
12.163981294
 20
5.6008189982
 11
12.163981294
 21
12.4189646099
  0
LINE
  5
270
100
AcDbEntity
  8
0
100
AcDbLine
 62
7
  6
CONTINUOUS
 10
12.2879834891
 20
12.634891804
 11
12.2879834891
 21
5.384891804
  0
LINE
  5
271
100
AcDbEntity
  8
0
100
AcDbLine
 62
7
  6
CONTINUOUS
 10
10.7449834891
 20
6.614891804
 11
10.5309974482
 21
6.3990655445
  0
LINE
  5
272
100
AcDbEntity
  8
0
100
AcDbLine
 62
7
  6
CONTINUOUS
 10
9.6644834891
 20
5.753391804
 11
9.6444834891
 21
5.733391804
  0
LINE
  5
273
100
AcDbEntity
  8
0
100
AcDbLine
 62
7
  6
CONTINUOUS
 10
12.5379834891
 20
5.1348927399
 11
12.5379834891
 21
12.8848908682
  0
ARC
  5
274
100
AcDbEntity
  8
0
100
AcDbCircle
 62
7
  6
CONTINUOUS
 10
10.4311840241
 20
9.0096443454
 40
1.5491805496
100
AcDbArc
 50
177.4931852497
 51
178.667191158
  0
ARC
  5
275
100
AcDbEntity
  8
0
100
AcDbCircle
 62
7
  6
CONTINUOUS
 10
10.431172824
 20
9.0096436441
 40
1.5491693919
100
AcDbArc
 50
169.2955162888
 51
177.4186813548
  0
ARC
  5
276
100
AcDbEntity
  8
0
100
AcDbCircle
 62
7
  6
CONTINUOUS
 10
10.4311768447
 20
9.0090186041
 40
1.5489428318
100
AcDbArc
 50
168.5164702372
 51
177.4700363147
  0
ARC
  5
277
100
AcDbEntity
  8
0
100
AcDbCircle
 62
7
  6
CONTINUOUS
 10
10.4311495294
 20
9.0096454983
 40
1.5481460255
100
AcDbArc
 50
177.4931219419
 51
177.8562071686
  0
ARC
  5
278
100
AcDbEntity
  8
0
100
AcDbCircle
 62
7
  6
CONTINUOUS
 10
9.5914295008
 20
8.2717597593
 40
1.36
100
AcDbArc
 50
107.6982774827
 51
111.2739720086
  0
ARC
  5
279
100
AcDbEntity
  8
0
100
AcDbCircle
 62
7
  6
CONTINUOUS
 10
9.1449016736
 20
8.2815930232
 40
1.36
100
AcDbArc
 50
67.4255442891
 51
70.9862257999
  0
ARC
  5
27A
100
AcDbEntity
  8
0
100
AcDbCircle
 62
7
  6
CONTINUOUS
 10
10.1350728084
 20
8.9864879187
 40
1.2506800864
100
AcDbArc
 50
178.9277656686
 51
180.0925271557
  0
ARC
  5
27B
100
AcDbEntity
  8
0
100
AcDbCircle
 62
7
  6
CONTINUOUS
 10
10.0496891333
 20
8.988836625
 40
1.1662685405
100
AcDbArc
 50
174.9406004503
 51
178.9655569046
  0
ARC
  5
27C
100
AcDbEntity
  8
0
100
AcDbCircle
 62
7
  6
CONTINUOUS
 10
10.0499382586
 20
8.9888365748
 40
1.1655167383
100
AcDbArc
 50
174.9373259556
 51
178.9648871123
  0
ARC
  5
27D
100
AcDbEntity
  8
0
100
AcDbCircle
 62
7
  6
CONTINUOUS
 10
10.0128909332
 20
8.982473899
 40
1.1284696221
100
AcDbArc
 50
174.4492937154
 51
178.607773915
  0
ARC
  5
27E
100
AcDbEntity
  8
0
100
AcDbCircle
 62
7
  6
CONTINUOUS
 10
9.9388527426
 20
8.9888496915
 40
1.0541622042
100
AcDbArc
 50
174.2030410876
 51
174.4049659653
  0
ARC
  5
27F
100
AcDbEntity
  8
0
100
AcDbCircle
 62
7
  6
CONTINUOUS
 10
10.0729801606
 20
7.957352902
 40
0.625
100
AcDbArc
 50
55.0110095298
 51
85.1903004544
  0
ARC
  5
280
100
AcDbEntity
  8
0
100
AcDbCircle
 62
7
  6
CONTINUOUS
 10
9.3829834891
 20
6.0109126374
 40
0.3735208333
100
AcDbArc
 50
227.9864211385
 51
312.0135788615
  0
ARC
  5
281
100
AcDbEntity
  8
0
100
AcDbCircle
 62
7
  6
CONTINUOUS
 10
10.6542478924
 20
8.5623669251
 40
0.2039751211
100
AcDbArc
 50
235.0110095298
 51
303.0478355064
  0
ARC
  5
282
100
AcDbEntity
  8
0
100
AcDbCircle
 62
7
  6
CONTINUOUS
 10
10.1279834891
 20
8.6110429155
 40
0.031
100
AcDbArc
 50
180.0
 51
265.1903004544
  0
ARC
  5
283
100
AcDbEntity
  8
0
100
AcDbCircle
 62
7
  6
CONTINUOUS
 10
10.5089834891
 20
7.258891804
 40
0.031
100
AcDbArc
 50
44.7546926505
 51
90.0
  0
ARC
  5
284
100
AcDbEntity
  8
0
100
AcDbCircle
 62
7
  6
CONTINUOUS
 10
10.4189834891
 20
7.258891804
 40
0.031
100
AcDbArc
 50
90.0
 51
103.0407610339
  0
ARC
  5
285
100
AcDbEntity
  8
0
100
AcDbCircle
 62
7
  6
CONTINUOUS
 10
10.5089834891
 20
6.420891804
 40
0.031
100
AcDbArc
 50
270.0
 51
315.2453073495
  0
ARC
  5
286
100
AcDbEntity
  8
0
100
AcDbCircle
 62
7
  6
CONTINUOUS
 10
10.4189834891
 20
6.420891804
 40
0.031
100
AcDbArc
 50
256.9592389661
 51
270.0
  0
ARC
  5
287
100
AcDbEntity
  8
0
100
AcDbCircle
 62
7
  6
CONTINUOUS
 10
10.2829834891
 20
7.227391804
 40
0.031
100
AcDbArc
 50
103.0407610339
 51
180.0
  0
ARC
  5
288
100
AcDbEntity
  8
0
100
AcDbCircle
 62
7
  6
CONTINUOUS
 10
10.2829834891
 20
6.452391804
 40
0.031
100
AcDbArc
 50
180.0
 51
256.9592389661
  0
ARC
  5
289
100
AcDbEntity
  8
0
100
AcDbCircle
 62
7
  6
CONTINUOUS
 10
8.9621838361
 20
8.622391804
 40
0.03
100
AcDbArc
 50
194.7630312681
 51
260.0138853066
  0
ARC
  5
28A
100
AcDbEntity
  8
0
100
AcDbCircle
 62
7
  6
CONTINUOUS
 10
10.4326535046
 20
9.009891804
 40
1.5506700155
100
AcDbArc
 50
191.4376457584
 51
194.7630312681
  0
ARC
  5
28B
100
AcDbEntity
  8
0
100
AcDbCircle
 62
7
  6
CONTINUOUS
 10
10.4326535046
 20
9.009891804
 40
1.5506700155
100
AcDbArc
 50
165.2369687319
 51
168.5623542416
  0
ARC
  5
28C
100
AcDbEntity
  8
0
100
AcDbCircle
 62
7
  6
CONTINUOUS
 10
10.4326535046
 20
9.009891804
 40
1.5506700155
100
AcDbArc
 50
178.6775962817
 51
186.9590384502
  0
ARC
  5
28D
100
AcDbEntity
  8
0
100
AcDbCircle
 62
7
  6
CONTINUOUS
 10
9.5914295008
 20
9.7480238488
 40
1.36
100
AcDbArc
 50
248.7260279914
 51
252.3017225173
  0
ARC
  5
28E
100
AcDbEntity
  8
0
100
AcDbCircle
 62
7
  6
CONTINUOUS
 10
9.1449016736
 20
9.7381905849
 40
1.36
100
AcDbArc
 50
289.0137742001
 51
292.5744557109
  0
ARC
  5
28F
100
AcDbEntity
  8
0
100
AcDbCircle
 62
7
  6
CONTINUOUS
 10
10.0729801606
 20
10.0624307061
 40
0.625
100
AcDbArc
 50
274.8096995456
 51
304.9889904702
  0
ARC
  5
290
100
AcDbEntity
  8
0
100
AcDbCircle
 62
7
  6
CONTINUOUS
 10
9.1679162087
 20
9.0525931968
 40
0.2842715598
100
AcDbArc
 50
167.1314596161
 51
171.9710734458
  0
ARC
  5
291
100
AcDbEntity
  8
0
100
AcDbCircle
 62
7
  6
CONTINUOUS
 10
9.1650013606
 20
9.0347132151
 40
0.2828347569
100
AcDbArc
 50
168.3786943153
 51
170.9391481593
  0
ARC
  5
292
100
AcDbEntity
  8
0
100
AcDbCircle
 62
7
  6
CONTINUOUS
 10
9.1632408658
 20
9.0533195958
 40
0.2805317741
100
AcDbArc
 50
167.0865991248
 51
175.0774411389
  0
ARC
  5
293
100
AcDbEntity
  8
0
100
AcDbCircle
 62
7
  6
CONTINUOUS
 10
9.1624352752
 20
9.0351321024
 40
0.2802347244
100
AcDbArc
 50
170.9410995833
 51
171.3469258707
  0
ARC
  5
294
100
AcDbEntity
  8
0
100
AcDbCircle
 62
7
  6
CONTINUOUS
 10
9.1601635654
 20
9.0537846592
 40
0.276428496
100
AcDbArc
 50
172.0748309762
 51
175.1009417114
  0
ARC
  5
295
100
AcDbEntity
  8
0
100
AcDbCircle
 62
7
  6
CONTINUOUS
 10
9.157441691
 20
9.0358089284
 40
0.2751961192
100
AcDbArc
 50
171.3606730833
 51
177.9365429284
  0
ARC
  5
296
100
AcDbEntity
  8
0
100
AcDbCircle
 62
7
  6
CONTINUOUS
 10
9.3829834891
 20
10.062391804
 40
0.25
100
AcDbArc
 50
325.0995
 51
214.9005
  0
ARC
  5
297
100
AcDbEntity
  8
0
100
AcDbCircle
 62
7
  6
CONTINUOUS
 10
10.6542478924
 20
9.457416683
 40
0.2039751211
100
AcDbArc
 50
56.9521644936
 51
124.9889904702
  0
ARC
  5
298
100
AcDbEntity
  8
0
100
AcDbCircle
 62
7
  6
CONTINUOUS
 10
9.7099834891
 20
9.6909595259
 40
0.186
100
AcDbArc
 50
136.6958241996
 51
221.7081302521
  0
ARC
  5
299
100
AcDbEntity
  8
0
100
AcDbCircle
 62
7
  6
CONTINUOUS
 10
9.0559834891
 20
9.6909595259
 40
0.186
100
AcDbArc
 50
318.2918697479
 51
43.3041758004
  0
ARC
  5
29A
100
AcDbEntity
  8
0
100
AcDbCircle
 62
7
  6
CONTINUOUS
 10
9.2179834891
 20
9.5465815498
 40
0.031
100
AcDbArc
 50
138.2918697479
 51
148.8795990219
  0
ARC
  5
29B
100
AcDbEntity
  8
0
100
AcDbCircle
 62
7
  6
CONTINUOUS
 10
9.5479834891
 20
9.5465815498
 40
0.031
100
AcDbArc
 50
31.1204009542
 51
41.7081302521
  0
ARC
  5
29C
100
AcDbEntity
  8
0
100
AcDbCircle
 62
7
  6
CONTINUOUS
 10
10.1279834891
 20
9.4087406926
 40
0.031
100
AcDbArc
 50
94.8096995456
 51
180.0
  0
ARC
  5
29D
100
AcDbEntity
  8
0
100
AcDbCircle
 62
7
  6
CONTINUOUS
 10
8.9621838361
 20
9.397391804
 40
0.03
100
AcDbArc
 50
99.9861146934
 51
165.2369687319
  0
ARC
  5
29E
100
AcDbEntity
  8
0
100
AcDbCircle
 62
7
  6
CONTINUOUS
 10
9.5668431966
 20
9.8610330279
 40
0.016
100
AcDbArc
 50
145.0995
 51
256.0407512246
  0
ARC
  5
29F
100
AcDbEntity
  8
0
100
AcDbCircle
 62
7
  6
CONTINUOUS
 10
9.5629834891
 20
9.8295055472
 40
0.016
100
AcDbArc
 50
316.6958241996
 51
90.0
  0
ARC
  5
2A0
100
AcDbEntity
  8
0
100
AcDbCircle
 62
7
  6
CONTINUOUS
 10
9.1991237816
 20
9.8610330279
 40
0.016
100
AcDbArc
 50
283.9592487754
 51
34.9005
  0
ARC
  5
2A1
100
AcDbEntity
  8
0
100
AcDbCircle
 62
7
  6
CONTINUOUS
 10
9.2029834891
 20
9.8295055472
 40
0.016
100
AcDbArc
 50
90.0
 51
223.3041758004
  0
ARC
  5
2A2
100
AcDbEntity
  8
0
100
AcDbCircle
 62
7
  6
CONTINUOUS
 10
12.2899846314
 20
5.8167556736
 40
0.2500109774
100
AcDbArc
 50
180.0
 51
239.7355898687
  0
ARC
  5
2A3
100
AcDbEntity
  8
0
100
AcDbCircle
 62
7
  6
CONTINUOUS
 10
12.0339834891
 20
6.2563136183
 40
0.25
100
AcDbArc
 50
180.0
 51
240.7907880662
  0
ARC
  5
2A4
100
AcDbEntity
  8
0
100
AcDbCircle
 62
7
  6
CONTINUOUS
 10
11.7899834891
 20
5.819891804
 40
0.25
100
AcDbArc
 50
0.0594822709
 51
60.7907880662
  0
ARC
  5
2A5
100
AcDbEntity
  8
0
100
AcDbCircle
 62
7
  6
CONTINUOUS
 10
12.0379834891
 20
5.384891804
 40
0.25
100
AcDbArc
 50
0.0
 51
59.7355898687
  0
ARC
  5
2A6
100
AcDbEntity
  8
0
100
AcDbCircle
 62
7
  6
CONTINUOUS
 10
12.5379834891
 20
5.384891804
 40
0.25
100
AcDbArc
 50
180.0
 51
270.0
  0
ARC
  5
2A7
100
AcDbEntity
  8
0
100
AcDbCircle
 62
7
  6
CONTINUOUS
 10
11.7839834891
 20
8.0170279152
 40
0.1871361111
100
AcDbArc
 50
182.1854050713
 51
270.0
  0
ARC
  5
2A8
100
AcDbEntity
  8
0
100
AcDbCircle
 62
7
  6
CONTINUOUS
 10
11.5959834891
 20
8.1968891302
 40
0.187
100
AcDbArc
 50
180.0
 51
270.3063960032
  0
ARC
  5
2A9
100
AcDbEntity
  8
0
100
AcDbCircle
 62
7
  6
CONTINUOUS
 10
10.8590225137
 20
8.2476172704
 40
0.1715245336
100
AcDbArc
 50
44.9173576842
 51
123.0478355064
  0
ARC
  5
2AA
100
AcDbEntity
  8
0
100
AcDbCircle
 62
7
  6
CONTINUOUS
 10
11.7839834891
 20
6.559891804
 40
0.095
100
AcDbArc
 50
180.0
 51
270.0
  0
ARC
  5
2AB
100
AcDbEntity
  8
0
100
AcDbCircle
 62
7
  6
CONTINUOUS
 10
11.7839834891
 20
7.119891804
 40
0.095
100
AcDbArc
 50
90.0
 51
180.0
  0
ARC
  5
2AC
100
AcDbEntity
  8
0
100
AcDbCircle
 62
7
  6
CONTINUOUS
 10
11.3359834891
 20
7.063891804
 40
0.012
100
AcDbArc
 50
90.0
 51
180.0
  0
ARC
  5
2AD
100
AcDbEntity
  8
0
100
AcDbCircle
 62
7
  6
CONTINUOUS
 10
11.3359834891
 20
6.615891804
 40
0.012
100
AcDbArc
 50
180.0
 51
270.0
  0
ARC
  5
2AE
100
AcDbEntity
  8
0
100
AcDbCircle
 62
7
  6
CONTINUOUS
 10
12.2899846314
 20
12.2030279345
 40
0.2500109774
100
AcDbArc
 50
120.2644101313
 51
180.0
  0
ARC
  5
2AF
100
AcDbEntity
  8
0
100
AcDbCircle
 62
7
  6
CONTINUOUS
 10
12.0339834891
 20
11.7634699897
 40
0.25
100
AcDbArc
 50
119.2092119338
 51
180.0
  0
ARC
  5
2B0
100
AcDbEntity
  8
0
100
AcDbCircle
 62
7
  6
CONTINUOUS
 10
11.7899834891
 20
12.199891804
 40
0.25
100
AcDbArc
 50
299.2092119338
 51
359.9405177291
  0
ARC
  5
2B1
100
AcDbEntity
  8
0
100
AcDbCircle
 62
7
  6
CONTINUOUS
 10
12.0379834891
 20
12.634891804
 40
0.25
100
AcDbArc
 50
300.2644101313
 51
360.0
  0
ARC
  5
2B2
100
AcDbEntity
  8
0
100
AcDbCircle
 62
7
  6
CONTINUOUS
 10
12.5379834891
 20
12.634891804
 40
0.25
100
AcDbArc
 50
90.0
 51
180.0
  0
ARC
  5
2B3
100
AcDbEntity
  8
0
100
AcDbCircle
 62
7
  6
CONTINUOUS
 10
11.7839834891
 20
10.0027556929
 40
0.1871361111
100
AcDbArc
 50
90.0
 51
177.8145949287
  0
ARC
  5
2B4
100
AcDbEntity
  8
0
100
AcDbCircle
 62
7
  6
CONTINUOUS
 10
11.5959834891
 20
9.8228944779
 40
0.187
100
AcDbArc
 50
89.6936039968
 51
180.0
  0
ARC
  5
2B5
100
AcDbEntity
  8
0
100
AcDbCircle
 62
7
  6
CONTINUOUS
 10
10.8590225137
 20
9.7721663377
 40
0.1715245336
100
AcDbArc
 50
236.9521644936
 51
315.0826423158
  0
SPLINE
  5
2B6
100
AcDbEntity
  8
0
100
AcDbSpline
 62
7
  6
CONTINUOUS
 70
0
 71
3
 72
51
 73
47
 74
0
 42
0.0000001
 43
0.0000001
 44
0.0000000001
 40
0.0
 40
0.0
 40
0.0
 40
0.0
 40
0.0000045902
 40
0.0000183575
 40
0.0000413
 40
0.0000734163
 40
0.0001147044
 40
0.0001651627
 40
0.000293583
 40
0.0004586633
 40
0.0006603901
 40
0.0008987495
 40
0.0011737277
 40
0.0018334857
 40
0.0026395543
 40
0.0035918235
 40
0.0046901833
 40
0.0059345053
 40
0.0073245302
 40
0.0088599421
 40
0.0105404249
 40
0.0143353398
 40
0.0187067486
 40
0.0236519974
 40
0.0291674726
 40
0.0352491324
 40
0.0418929367
 40
0.0490947876
 40
0.0568498555
 40
0.0739984309
 40
0.0932957309
 40
0.1146939729
 40
0.1381427275
 40
0.1635884501
 40
0.1909754877
 40
0.2202464953
 40
0.2513425641
 40
0.2842041512
 40
0.3549812447
 40
0.4320913572
 40
0.5150454247
 40
0.6033524131
 40
0.6965171201
 40
0.7940326881
 40
0.8953774995
 40
1.0
 40
1.0
 40
1.0
 40
1.0
 10
9.5879834891
 20
9.567391804
 30
0.0
 10
9.5879834891
 20
9.5673915828
 30
0.0
 10
9.5879821534
 20
9.5673916287
 30
0.0
 10
9.5879807733
 20
9.5673906006
 30
0.0
 10
9.5879773814
 20
9.567389648
 30
0.0
 10
9.5879731457
 20
9.5673879577
 30
0.0
 10
9.5879674944
 20
9.5673859285
 30
0.0
 10
9.5879575564
 20
9.5673822471
 30
0.0
 10
9.5879419798
 20
9.5673765322
 30
0.0
 10
9.58791958
 20
9.5673682865
 30
0.0
 10
9.5878921963
 20
9.5673582198
 30
0.0
 10
9.5878598424
 20
9.5673463253
 30
0.0
 10
9.5878067609
 20
9.5673268175
 30
0.0
 10
9.587727988
 20
9.5672978792
 30
0.0
 10
9.5876185601
 20
9.5672577002
 30
0.0
 10
9.587489276
 20
9.5672102548
 30
0.0
 10
9.587340149
 20
9.5671555556
 30
0.0
 10
9.5871711994
 20
9.5670936165
 30
0.0
 10
9.5869824525
 20
9.5670244676
 30
0.0
 10
9.5867739413
 20
9.5669481435
 30
0.0
 10
9.5864565234
 20
9.5668320687
 30
0.0
 10
9.5860106162
 20
9.5666692804
 30
0.0
 10
9.5854166974
 20
9.5664529808
 30
0.0
 10
9.5847446405
 20
9.5662088507
 30
0.0
 10
9.583994824
 20
9.565937306
 30
0.0
 10
9.5831676839
 20
9.5656388008
 30
0.0
 10
9.5822636793
 20
9.5653137961
 30
0.0
 10
9.581283309
 20
9.564962757
 30
0.0
 10
9.579825435
 20
9.5644430571
 30
0.0
 10
9.5778166027
 20
9.5637323917
 30
0.0
 10
9.5751845069
 20
9.5628114982
 30
0.0
 10
9.5722617077
 20
9.561801875
 30
0.0
 10
9.5690539382
 20
9.5607094979
 30
0.0
 10
9.5655671736
 20
9.5595409146
 30
0.0
 10
9.5618076836
 20
9.5583029798
 30
0.0
 10
9.557781945
 20
9.5570029071
 30
0.0
 10
9.5534965775
 20
9.555648256
 30
0.0
 10
9.5472904738
 20
9.5537316814
 30
0.0
 10
9.5389369903
 20
9.5512516356
 30
0.0
 10
9.5282188834
 20
9.5482559699
 30
0.0
 10
9.5166307797
 20
9.5452400424
 30
0.0
 10
9.5042323277
 20
9.5422739982
 30
0.0
 10
9.4910862533
 20
9.5394285538
 30
0.0
 10
9.4772595198
 20
9.5367737293
 30
0.0
 10
9.4628252527
 20
9.5343776059
 30
0.0
 10
9.4529885285
 20
9.5330144405
 30
0.0
 10
9.4479834891
 20
9.532391804
 30
0.0
  0
SPLINE
  5
2B7
100
AcDbEntity
  8
0
100
AcDbSpline
 62
7
  6
CONTINUOUS
 70
0
 71
3
 72
16
 73
12
 74
0
 42
0.0000001
 43
0.0000001
 44
0.0000000001
 40
0.0
 40
0.0
 40
0.0
 40
0.0
 40
0.0226879822
 40
0.0471867707
 40
0.075311768
 40
0.1082817091
 40
0.1913505155
 40
0.2996714984
 40
0.4344616314
 40
0.5961568355
 40
1.0
 40
1.0
 40
1.0
 40
1.0
 10
8.8903755614
 20
9.117391764
 30
0.0
 10
8.8903853121
 20
9.1173917672
 30
0.0
 10
8.8904057263
 20
9.1173883567
 30
0.0
 10
8.8904348294
 20
9.1173733118
 30
0.0
 10
8.8904627499
 20
9.1173489651
 30
0.0
 10
8.8905017493
 20
9.1173005383
 30
0.0
 10
8.8905468098
 20
9.1172145022
 30
0.0
 10
8.8905950712
 20
9.1170827563
 30
0.0
 10
8.8906408798
 20
9.1169147301
 30
0.0
 10
8.8907031146
 20
9.1166201611
 30
0.0
 10
8.8907378018
 20
9.1163793285
 30
0.0
 10
8.8907591651
 20
9.1162070854
 30
0.0
  0
LINE
  5
2B8
100
AcDbEntity
  8
0
100
AcDbLine
 62
7
  6
CONTINUOUS
 10
8.8907591651
 20
9.1162070854
 11
8.8908613228
 21
9.1150508709
  0
SPLINE
  5
2B9
100
AcDbEntity
  8
0
100
AcDbSpline
 62
7
  6
CONTINUOUS
 70
0
 71
3
 72
15
 73
11
 74
0
 42
0.0000001
 43
0.0000001
 44
0.0000000001
 40
0.0
 40
0.0
 40
0.0
 40
0.0
 40
0.087001511
 40
0.1932961885
 40
0.3152176636
 40
0.4485118149
 40
0.5885148193
 40
0.7303496088
 40
0.869094796
 40
1.0
 40
1.0
 40
1.0
 40
1.0
 10
8.8908613228
 20
9.1150508709
 30
0.0
 10
8.8908970363
 20
9.1144790047
 30
0.0
 10
8.890942626
 20
9.1132064029
 30
0.0
 10
8.8909568685
 20
9.1111303346
 30
0.0
 10
8.8909217216
 20
9.1087495666
 30
0.0
 10
8.8908380615
 20
9.1061479492
 30
0.0
 10
8.8907084817
 20
9.1034169181
 30
0.0
 10
8.8905375068
 20
9.1006522004
 30
0.0
 10
8.8903311963
 20
9.0979499873
 30
0.0
 10
8.8901685272
 20
9.0961814702
 30
0.0
 10
8.8900814488
 20
9.095323755
 30
0.0
  0
SPLINE
  5
2BA
100
AcDbEntity
  8
0
100
AcDbSpline
 62
7
  6
CONTINUOUS
 70
0
 71
3
 72
8
 73
4
 74
0
 42
0.0000001
 43
0.0000001
 44
0.0000000001
 40
0.0
 40
0.0
 40
0.0
 40
0.0
 40
1.0
 40
1.0
 40
1.0
 40
1.0
 10
8.9127780929
 20
8.7023918388
 30
0.0
 10
8.9127743499
 20
8.7024116269
 30
0.0
 10
8.9127706068
 20
8.7024314149
 30
0.0
 10
8.9127668637
 20
8.702451203
 30
0.0
  0
SPLINE
  5
2BB
100
AcDbEntity
  8
0
100
AcDbSpline
 62
7
  6
CONTINUOUS
 70
0
 71
3
 72
91
 73
87
 74
0
 42
0.0000001
 43
0.0000001
 44
0.0000000001
 40
0.0
 40
0.0
 40
0.0
 40
0.0
 40
0.0625016005
 40
0.1250032039
 40
0.1875048033
 40
0.2500064064
 40
0.3125080118
 40
0.343759358
 40
0.3750107037
 40
0.4062620499
 40
0.4375133966
 40
0.4687647429
 40
0.500016089
 40
0.5312674354
 40
0.5625187819
 40
0.5781445233
 40
0.5937702645
 40
0.6093960056
 40
0.6250217466
 40
0.6406474879
 40
0.6562732298
 40
0.6640861091
 40
0.6718989879
 40
0.679711866
 40
0.6875247445
 40
0.6953376248
 40
0.7031505062
 40
0.7070569456
 40
0.7109633822
 40
0.7148698199
 40
0.7187762647
 40
0.7226827156
 40
0.7265891349
 40
0.7285423406
 40
0.730495575
 40
0.7324488565
 40
0.7344021279
 40
0.7353787304
 40
0.736355297
 40
0.7373318216
 40
0.7383083522
 40
0.7392849982
 40
0.7397734101
 40
0.7402618959
 40
0.7407503944
 40
0.7412388273
 40
0.7417271371
 40
0.7422153114
 40
0.7427034064
 40
0.7431915554
 40
0.7441682242
 40
0.7446566271
 40
0.7451449759
 40
0.7461215768
 40
0.7470981649
 40
0.7480747695
 40
0.7490513794
 40
0.7500279871
 40
0.751981189
 40
0.753934397
 40
0.7558876195
 40
0.7578408535
 40
0.7597940857
 40
0.761747306
 40
0.7656536807
 40
0.7695600561
 40
0.7734664506
 40
0.7773728478
 40
0.7812792392
 40
0.7890916985
 40
0.7969041594
 40
0.8047166292
 40
0.8125290961
 40
0.8203415624
 40
0.8281540295
 40
0.8437764726
 40
0.8593989462
 40
0.8750212989
 40
0.8906436811
 40
0.9062662149
 40
0.921888825
 40
0.9375110546
 40
0.9531331267
 40
0.9687554922
 40
0.9843778146
 40
1.0
 40
1.0
 40
1.0
 40
1.0
 10
9.6644834891
 20
8.122391804
 30
0.0
 10
9.6622342883
 20
8.0732516989
 30
0.0
 10
9.6588965962
 20
7.9749143944
 30
0.0
 10
9.657373539
 20
7.8273345868
 30
0.0
 10
9.6593345093
 20
7.6797589684
 30
0.0
 10
9.6647800449
 20
7.532271467
 30
0.0
 10
9.6722186904
 20
7.4095048203
 30
0.0
 10
9.6799072064
 20
7.3114198624
 30
0.0
 10
9.6865417208
 20
7.2379283068
 30
0.0
 10
9.6940434957
 20
7.1645203158
 30
0.0
 10
9.7024113562
 20
7.0912059717
 30
0.0
 10
9.7116441653
 20
7.017995537
 30
0.0
 10
9.7217407305
 20
6.9448992017
 30
0.0
 10
9.7326994941
 20
6.8719272044
 30
0.0
 10
9.742549087
 20
6.8112290384
 30
0.0
 10
9.7508582866
 20
6.7627431215
 30
0.0
 10
9.7573047647
 20
6.7264159771
 30
0.0
 10
9.7639655787
 20
6.6901275352
 30
0.0
 10
9.7708404953
 20
6.6538790404
 30
0.0
 10
9.7779292556
 20
6.6176717648
 30
0.0
 10
9.7840145451
 20
6.5875343994
 30
0.0
 10
9.7889894537
 20
6.5634464144
 30
0.0
 10
9.7927739664
 20
6.5453915068
 30
0.0
 10
9.7966117954
 20
6.5273478597
 30
0.0
 10
9.8005028492
 20
6.5093156136
 30
0.0
 10
9.8044470343
 20
6.4912949128
 30
0.0
 10
9.8077780218
 20
6.4762873933
 30
0.0
 10
9.8104695764
 20
6.4642873685
 30
0.0
 10
9.8125017557
 20
6.4552903943
 30
0.0
 10
9.8145471283
 20
6.4462964062
 30
0.0
 10
9.8166054974
 20
6.4373053726
 30
0.0
 10
9.818675889
 20
6.4283171137
 30
0.0
 10
9.8204147042
 20
6.4208300325
 30
0.0
 10
9.8218131109
 20
6.4148420849
 30
0.0
 10
9.8228633739
 20
6.4103514027
 30
0.0
 10
9.8239126191
 20
6.4058604301
 30
0.0
 10
9.824789824
 20
6.4021186141
 30
0.0
 10
9.8254970236
 20
6.3991265095
 30
0.0
 10
9.82603069
 20
6.3968833152
 30
0.0
 10
9.8265694056
 20
6.3946413867
 30
0.0
 10
9.8271095408
 20
6.3923997375
 30
0.0
 10
9.8275529122
 20
6.3905299349
 30
0.0
 10
9.8278994115
 20
6.3890319557
 30
0.0
 10
9.8281541708
 20
6.3879071103
 30
0.0
 10
9.8284083891
 20
6.3867821278
 30
0.0
 10
9.8286665443
 20
6.3856581784
 30
0.0
 10
9.8289331553
 20
6.3845364546
 30
0.0
 10
9.8292126742
 20
6.3834181345
 30
0.0
 10
9.8295097861
 20
6.382304457
 30
0.0
 10
9.8299344779
 20
6.3808271855
 30
0.0
 10
9.8303863544
 20
6.3793577755
 30
0.0
 10
9.8308368987
 20
6.3778878475
 30
0.0
 10
9.8312766997
 20
6.3764147044
 30
0.0
 10
9.8318095386
 20
6.3745684288
 30
0.0
 10
9.8324365666
 20
6.3723494392
 30
0.0
 10
9.8330584809
 20
6.3701290008
 30
0.0
 10
9.8336725636
 20
6.3679063654
 30
0.0
 10
9.8344799803
 20
6.3649397453
 30
0.0
 10
9.8354638168
 20
6.3612245909
 30
0.0
 10
9.8366016431
 20
6.3567552957
 30
0.0
 10
9.8376981967
 20
6.3522756719
 30
0.0
 10
9.8387541021
 20
6.3477862775
 30
0.0
 10
9.8397703689
 20
6.3432877448
 30
0.0
 10
9.8410727809
 20
6.337278148
 30
0.0
 10
9.8426012131
 20
6.3297449413
 30
0.0
 10
9.8442731704
 20
6.3206737622
 30
0.0
 10
9.845782267
 20
6.3115740511
 30
0.0
 10
9.8471286847
 20
6.3024488142
 30
0.0
 10
9.8487065289
 20
6.2902521503
 30
0.0
 10
9.8502704998
 20
6.2749563181
 30
0.0
 10
9.8514903947
 20
6.2565465938
 30
0.0
 10
9.8520522868
 20
6.2381049125
 30
0.0
 10
9.8519552778
 20
6.2196550204
 30
0.0
 10
9.8511997335
 20
6.2012201042
 30
0.0
 10
9.8493159485
 20
6.176694991
 30
0.0
 10
9.8453199084
 20
6.1461871231
 30
0.0
 10
9.8379248518
 20
6.1100181803
 30
0.0
 10
9.8279696238
 20
6.0744675557
 30
0.0
 10
9.8154996313
 20
6.0397194066
 30
0.0
 10
9.8005856241
 20
6.0059477641
 30
0.0
 10
9.7832987683
 20
5.9733270789
 30
0.0
 10
9.7637273741
 20
5.9420237787
 30
0.0
 10
9.741962684
 20
5.9122042967
 30
0.0
 10
9.7181317393
 20
5.8840085169
 30
0.0
 10
9.6923592722
 20
5.8575781192
 30
0.0
 10
9.673961112
 20
5.8412244597
 30
0.0
 10
9.6644834891
 20
5.833391804
 30
0.0
  0
SPLINE
  5
2BC
100
AcDbEntity
  8
0
100
AcDbSpline
 62
7
  6
CONTINUOUS
 70
0
 71
3
 72
91
 73
87
 74
0
 42
0.0000001
 43
0.0000001
 44
0.0000000001
 40
0.0
 40
0.0
 40
0.0
 40
0.0
 40
0.0625016005
 40
0.1250032039
 40
0.1875048033
 40
0.2500064064
 40
0.3125080118
 40
0.343759358
 40
0.3750107037
 40
0.4062620499
 40
0.4375133966
 40
0.4687647429
 40
0.500016089
 40
0.5312674354
 40
0.5625187819
 40
0.5781445233
 40
0.5937702645
 40
0.6093960056
 40
0.6250217466
 40
0.6406474879
 40
0.6562732298
 40
0.6640861091
 40
0.6718989879
 40
0.679711866
 40
0.6875247445
 40
0.6953376248
 40
0.7031505062
 40
0.7070569456
 40
0.7109633822
 40
0.7148698199
 40
0.7187762647
 40
0.7226827156
 40
0.7265891349
 40
0.7285423406
 40
0.730495575
 40
0.7324488565
 40
0.7344021279
 40
0.7353787304
 40
0.736355297
 40
0.7373318216
 40
0.7383083522
 40
0.7392849982
 40
0.7397734101
 40
0.7402618959
 40
0.7407503944
 40
0.7412388273
 40
0.7417271371
 40
0.7422153114
 40
0.7427034064
 40
0.7431915554
 40
0.7441682242
 40
0.7446566271
 40
0.7451449759
 40
0.7461215768
 40
0.7470981649
 40
0.7480747695
 40
0.7490513794
 40
0.7500279871
 40
0.751981189
 40
0.753934397
 40
0.7558876195
 40
0.7578408535
 40
0.7597940857
 40
0.761747306
 40
0.7656536807
 40
0.7695600561
 40
0.7734664506
 40
0.7773728478
 40
0.7812792392
 40
0.7890916985
 40
0.7969041594
 40
0.8047166292
 40
0.8125290961
 40
0.8203415624
 40
0.8281540295
 40
0.8437764726
 40
0.8593989462
 40
0.8750212989
 40
0.8906436811
 40
0.9062662149
 40
0.921888825
 40
0.9375110546
 40
0.9531331267
 40
0.9687554922
 40
0.9843778146
 40
1.0
 40
1.0
 40
1.0
 40
1.0
 10
9.1014834891
 20
8.122391804
 30
0.0
 10
9.1037326899
 20
8.0732516989
 30
0.0
 10
9.1070703821
 20
7.9749143944
 30
0.0
 10
9.1085934392
 20
7.8273345868
 30
0.0
 10
9.1066324689
 20
7.6797589684
 30
0.0
 10
9.1011869334
 20
7.532271467
 30
0.0
 10
9.0937482878
 20
7.4095048203
 30
0.0
 10
9.0860597718
 20
7.3114198624
 30
0.0
 10
9.0794252575
 20
7.2379283068
 30
0.0
 10
9.0719234825
 20
7.1645203158
 30
0.0
 10
9.0635556221
 20
7.0912059717
 30
0.0
 10
9.054322813
 20
7.017995537
 30
0.0
 10
9.0442262478
 20
6.9448992017
 30
0.0
 10
9.0332674842
 20
6.8719272044
 30
0.0
 10
9.0234178913
 20
6.8112290384
 30
0.0
 10
9.0151086916
 20
6.7627431215
 30
0.0
 10
9.0086622135
 20
6.7264159771
 30
0.0
 10
9.0020013995
 20
6.6901275352
 30
0.0
 10
8.9951264829
 20
6.6538790404
 30
0.0
 10
8.9880377226
 20
6.6176717648
 30
0.0
 10
8.9819524331
 20
6.5875343994
 30
0.0
 10
8.9769775246
 20
6.5634464144
 30
0.0
 10
8.9731930119
 20
6.5453915068
 30
0.0
 10
8.9693551828
 20
6.5273478597
 30
0.0
 10
8.9654641291
 20
6.5093156136
 30
0.0
 10
8.961519944
 20
6.4912949128
 30
0.0
 10
8.9581889565
 20
6.4762873933
 30
0.0
 10
8.9554974019
 20
6.4642873685
 30
0.0
 10
8.9534652226
 20
6.4552903943
 30
0.0
 10
8.95141985
 20
6.4462964062
 30
0.0
 10
8.9493614809
 20
6.4373053726
 30
0.0
 10
8.9472910893
 20
6.4283171137
 30
0.0
 10
8.9455522741
 20
6.4208300325
 30
0.0
 10
8.9441538674
 20
6.4148420849
 30
0.0
 10
8.9431036044
 20
6.4103514027
 30
0.0
 10
8.9420543592
 20
6.4058604301
 30
0.0
 10
8.9411771543
 20
6.4021186141
 30
0.0
 10
8.9404699547
 20
6.3991265095
 30
0.0
 10
8.9399362882
 20
6.3968833152
 30
0.0
 10
8.9393975727
 20
6.3946413867
 30
0.0
 10
8.9388574374
 20
6.3923997375
 30
0.0
 10
8.9384140661
 20
6.3905299349
 30
0.0
 10
8.9380675667
 20
6.3890319557
 30
0.0
 10
8.9378128075
 20
6.3879071103
 30
0.0
 10
8.9375585892
 20
6.3867821278
 30
0.0
 10
8.937300434
 20
6.3856581784
 30
0.0
 10
8.937033823
 20
6.3845364546
 30
0.0
 10
8.9367543041
 20
6.3834181345
 30
0.0
 10
8.9364571922
 20
6.382304457
 30
0.0
 10
8.9360325004
 20
6.3808271855
 30
0.0
 10
8.9355806239
 20
6.3793577755
 30
0.0
 10
8.9351300796
 20
6.3778878475
 30
0.0
 10
8.9346902786
 20
6.3764147044
 30
0.0
 10
8.9341574396
 20
6.3745684288
 30
0.0
 10
8.9335304117
 20
6.3723494392
 30
0.0
 10
8.9329084973
 20
6.3701290008
 30
0.0
 10
8.9322944147
 20
6.3679063654
 30
0.0
 10
8.9314869979
 20
6.3649397453
 30
0.0
 10
8.9305031615
 20
6.3612245909
 30
0.0
 10
8.9293653352
 20
6.3567552957
 30
0.0
 10
8.9282687816
 20
6.3522756719
 30
0.0
 10
8.9272128762
 20
6.3477862775
 30
0.0
 10
8.9261966093
 20
6.3432877448
 30
0.0
 10
8.9248941974
 20
6.337278148
 30
0.0
 10
8.9233657652
 20
6.3297449413
 30
0.0
 10
8.9216938078
 20
6.3206737622
 30
0.0
 10
8.9201847113
 20
6.3115740511
 30
0.0
 10
8.9188382935
 20
6.3024488142
 30
0.0
 10
8.9172604494
 20
6.2902521503
 30
0.0
 10
8.9156964785
 20
6.2749563181
 30
0.0
 10
8.9144765836
 20
6.2565465938
 30
0.0
 10
8.9139146915
 20
6.2381049125
 30
0.0
 10
8.9140117005
 20
6.2196550204
 30
0.0
 10
8.9147672448
 20
6.2012201042
 30
0.0
 10
8.9166510298
 20
6.176694991
 30
0.0
 10
8.9206470699
 20
6.1461871231
 30
0.0
 10
8.9280421264
 20
6.1100181803
 30
0.0
 10
8.9379973545
 20
6.0744675557
 30
0.0
 10
8.950467347
 20
6.0397194066
 30
0.0
 10
8.9653813541
 20
6.0059477641
 30
0.0
 10
8.9826682099
 20
5.9733270789
 30
0.0
 10
9.0022396042
 20
5.9420237787
 30
0.0
 10
9.0240042943
 20
5.9122042967
 30
0.0
 10
9.047835239
 20
5.8840085169
 30
0.0
 10
9.0736077061
 20
5.8575781192
 30
0.0
 10
9.0920058663
 20
5.8412244597
 30
0.0
 10
9.1014834891
 20
5.833391804
 30
0.0
  0
SPLINE
  5
2BD
100
AcDbEntity
  8
0
100
AcDbSpline
 62
7
  6
CONTINUOUS
 70
0
 71
3
 72
51
 73
47
 74
0
 42
0.0000001
 43
0.0000001
 44
0.0000000001
 40
0.0
 40
0.0
 40
0.0
 40
0.0
 40
0.0000045887
 40
0.0000183538
 40
0.0000412934
 40
0.000073406
 40
0.0001146898
 40
0.0001651431
 40
0.0002935517
 40
0.0004586183
 40
0.0006603293
 40
0.0008986713
 40
0.0011736308
 40
0.0018333482
 40
0.0026393738
 40
0.0035915996
 40
0.0046899177
 40
0.0059342015
 40
0.007324192
 40
0.0088595726
 40
0.0105400269
 40
0.0143348902
 40
0.0187062515
 40
0.0236514528
 40
0.0291668802
 40
0.035248493
 40
0.0418922524
 40
0.0490940615
 40
0.056849091
 40
0.0739975984
 40
0.0932948406
 40
0.1146930342
 40
0.1381417504
 40
0.1635874447
 40
0.1909744634
 40
0.2202454613
 40
0.2513415294
 40
0.2842031245
 40
0.3549802586
 40
0.4320904424
 40
0.5150446087
 40
0.6033517213
 40
0.6965165749
 40
0.7940323084
 40
0.8953773038
 40
1.0
 40
1.0
 40
1.0
 40
1.0
 10
9.1779834891
 20
8.452391804
 30
0.0
 10
9.1779834891
 20
8.4523920253
 30
0.0
 10
9.1779848249
 20
8.4523919785
 30
0.0
 10
9.1779862047
 20
8.4523930068
 30
0.0
 10
9.1779895964
 20
8.4523939586
 30
0.0
 10
9.1779938316
 20
8.4523956486
 30
0.0
 10
9.1779994824
 20
8.4523976774
 30
0.0
 10
9.1780094196
 20
8.4524013581
 30
0.0
 10
9.1780249949
 20
8.4524070723
 30
0.0
 10
9.1780473928
 20
8.4524153172
 30
0.0
 10
9.1780747744
 20
8.452425383
 30
0.0
 10
9.178107126
 20
8.4524372767
 30
0.0
 10
9.1781602039
 20
8.4524567833
 30
0.0
 10
9.1782389721
 20
8.4524857204
 30
0.0
 10
9.1783483941
 20
8.4525258977
 30
0.0
 10
9.1784776721
 20
8.4525733416
 30
0.0
 10
9.1786267934
 20
8.4526280393
 30
0.0
 10
9.1787957376
 20
8.4526899769
 30
0.0
 10
9.1789844797
 20
8.4527591243
 30
0.0
 10
9.1791929867
 20
8.4528354468
 30
0.0
 10
9.1795103996
 20
8.4529515198
 30
0.0
 10
9.1799563011
 20
8.4531143058
 30
0.0
 10
9.1805502134
 20
8.4533306027
 30
0.0
 10
9.1812222637
 20
8.4535747304
 30
0.0
 10
9.1819720738
 20
8.4538462729
 30
0.0
 10
9.1827992075
 20
8.4541447759
 30
0.0
 10
9.1837032059
 20
8.4544697786
 30
0.0
 10
9.1846835705
 20
8.4548208158
 30
0.0
 10
9.1861414377
 20
8.4553405136
 30
0.0
 10
9.1881502624
 20
8.4560511766
 30
0.0
 10
9.1907823501
 20
8.4569720678
 30
0.0
 10
9.1937051426
 20
8.4579816891
 30
0.0
 10
9.1969129067
 20
8.4590740651
 30
0.0
 10
9.2003996671
 20
8.4602426478
 30
0.0
 10
9.2041591542
 20
8.4614805825
 30
0.0
 10
9.2081848912
 20
8.4627806556
 30
0.0
 10
9.2124702584
 20
8.4641353076
 30
0.0
 10
9.2186763638
 20
8.4660518842
 30
0.0
 10
9.2270298523
 20
8.4685319335
 30
0.0
 10
9.2377479684
 20
8.4715276042
 30
0.0
 10
9.2493360852
 20
8.4745435375
 30
0.0
 10
9.2617345541
 20
8.477509588
 30
0.0
 10
9.2748806485
 20
8.4803550389
 30
0.0
 10
9.2887074052
 20
8.4830098695
 30
0.0
 10
9.3031416981
 20
8.4854059983
 30
0.0
 10
9.3129784404
 20
8.4867691664
 30
0.0
 10
9.3179834891
 20
8.487391804
 30
0.0
  0
SPLINE
  5
2BE
100
AcDbEntity
  8
0
100
AcDbSpline
 62
7
  6
CONTINUOUS
 70
0
 71
3
 72
11
 73
7
 74
0
 42
0.0000001
 43
0.0000001
 44
0.0000000001
 40
0.0
 40
0.0
 40
0.0
 40
0.0
 40
0.2422027821
 40
0.4905429388
 40
0.7436272016
 40
1.0
 40
1.0
 40
1.0
 40
1.0
 10
8.8847544403
 20
9.009891804
 30
0.0
 10
8.8841702669
 20
8.9865534485
 30
0.0
 10
8.8843663364
 20
8.939241674
 30
0.0
 10
8.8885567845
 20
8.8676547611
 30
0.0
 10
8.8966104189
 20
8.7950258083
 30
0.0
 10
8.9044751622
 20
8.7465295274
 30
0.0
 10
8.9090290653
 20
8.7222412565
 30
0.0
  0
LINE
  5
2BF
100
AcDbEntity
  8
0
100
AcDbLine
 62
7
  6
CONTINUOUS
 10
8.9090290653
 20
8.7222412565
 11
8.9093632217
 21
8.7204649154
  0
LINE
  5
2C0
100
AcDbEntity
  8
0
100
AcDbLine
 62
7
  6
CONTINUOUS
 10
8.9093632217
 20
8.7204649154
 11
8.912500522
 21
8.7038593583
  0
LINE
  5
2C1
100
AcDbEntity
  8
0
100
AcDbLine
 62
7
  6
CONTINUOUS
 10
8.912500522
 20
8.7038593583
 11
8.9127668637
 21
8.702451203
  0
SPLINE
  5
2C2
100
AcDbEntity
  8
0
100
AcDbSpline
 62
7
  6
CONTINUOUS
 70
0
 71
3
 72
8
 73
4
 74
0
 42
0.0000001
 43
0.0000001
 44
0.0000000001
 40
0.0
 40
0.0
 40
0.0
 40
0.0
 40
1.0
 40
1.0
 40
1.0
 40
1.0
 10
8.8824225989
 20
9.0456779825
 30
0.0
 10
8.8824230724
 20
9.0456912323
 30
0.0
 10
8.882423546
 20
9.0457044822
 30
0.0
 10
8.8824240196
 20
9.0457177321
 30
0.0
  0
LINE
  5
2C3
100
AcDbEntity
  8
0
100
AcDbLine
 62
7
  6
CONTINUOUS
 10
8.885368082
 20
9.0771472313
 11
8.8853903395
 21
9.077293748
  0
SPLINE
  5
2C4
100
AcDbEntity
  8
0
100
AcDbSpline
 62
7
  6
CONTINUOUS
 70
0
 71
3
 72
51
 73
47
 74
0
 42
0.0000001
 43
0.0000001
 44
0.0000000001
 40
0.0
 40
0.0
 40
0.0
 40
0.0
 40
0.104622691
 40
0.2059676812
 40
0.3034834103
 40
0.3966482598
 40
0.4849553692
 40
0.5679095328
 40
0.6450197147
 40
0.7157968477
 40
0.7486584425
 40
0.7797545107
 40
0.8090255089
 40
0.8364125281
 40
0.8618582232
 40
0.8853069404
 40
0.9067051353
 40
0.926002379
 40
0.9431508883
 40
0.9509059188
 40
0.9581077291
 40
0.9647514897
 40
0.9708331037
 40
0.9763485325
 40
0.981293735
 40
0.9856650976
 40
0.9894599624
 40
0.9911404174
 40
0.9926757989
 40
0.9940657903
 40
0.9953100752
 40
0.9964083944
 40
0.9973606213
 40
0.9981666481
 40
0.9988263666
 40
0.9991013266
 40
0.9993396691
 40
0.9995413805
 40
0.9997064474
 40
0.9998348563
 40
0.9998853098
 40
0.9999265937
 40
0.9999587064
 40
0.9999816461
 40
0.9999954112
 40
1.0
 40
1.0
 40
1.0
 40
1.0
 10
9.4479834891
 20
8.487391804
 30
0.0
 10
9.4529885376
 20
8.4867691664
 30
0.0
 10
9.4628252795
 20
8.4854059984
 30
0.0
 10
9.4772595716
 20
8.4830098697
 30
0.0
 10
9.4910863277
 20
8.4803550393
 30
0.0
 10
9.5042324216
 20
8.4775095886
 30
0.0
 10
9.51663089
 20
8.4745435383
 30
0.0
 10
9.5282190064
 20
8.4715276051
 30
0.0
 10
9.5389371223
 20
8.4685319345
 30
0.0
 10
9.5472906107
 20
8.4660518853
 30
0.0
 10
9.553496716
 20
8.4641353088
 30
0.0
 10
9.5577820832
 20
8.4627806568
 30
0.0
 10
9.5618078202
 20
8.4614805838
 30
0.0
 10
9.5655673074
 20
8.460242649
 30
0.0
 10
9.569054068
 20
8.4590740663
 30
0.0
 10
9.5722618322
 20
8.4579816903
 30
0.0
 10
9.5751846248
 20
8.4569720689
 30
0.0
 10
9.5778167128
 20
8.4560511777
 30
0.0
 10
9.5798255377
 20
8.4553405146
 30
0.0
 10
9.5812834051
 20
8.4548208168
 30
0.0
 10
9.5822637698
 20
8.4544697795
 30
0.0
 10
9.5831677684
 20
8.4541447767
 30
0.0
 10
9.5839949023
 20
8.4538462736
 30
0.0
 10
9.5847447125
 20
8.4535747311
 30
0.0
 10
9.5854167631
 20
8.4533306034
 30
0.0
 10
9.5860106755
 20
8.4531143064
 30
0.0
 10
9.5864565772
 20
8.4529515204
 30
0.0
 10
9.5867739902
 20
8.4528354473
 30
0.0
 10
9.5869824973
 20
8.4527591247
 30
0.0
 10
9.5871712395
 20
8.4526899772
 30
0.0
 10
9.5873401839
 20
8.4526280397
 30
0.0
 10
9.5874893053
 20
8.4525733419
 30
0.0
 10
9.5876185835
 20
8.452525898
 30
0.0
 10
9.5877280057
 20
8.4524857206
 30
0.0
 10
9.587806774
 20
8.4524567835
 30
0.0
 10
9.587859852
 20
8.4524372769
 30
0.0
 10
9.5878922037
 20
8.4524253832
 30
0.0
 10
9.5879195853
 20
8.4524153173
 30
0.0
 10
9.5879419833
 20
8.4524070724
 30
0.0
 10
9.5879575587
 20
8.4524013582
 30
0.0
 10
9.5879674958
 20
8.4523976774
 30
0.0
 10
9.5879731466
 20
8.4523956486
 30
0.0
 10
9.5879773819
 20
8.4523939587
 30
0.0
 10
9.5879807736
 20
8.4523930068
 30
0.0
 10
9.5879821534
 20
8.4523919785
 30
0.0
 10
9.5879834891
 20
8.4523920253
 30
0.0
 10
9.5879834891
 20
8.452391804
 30
0.0
  0
SPLINE
  5
2C5
100
AcDbEntity
  8
0
100
AcDbSpline
 62
7
  6
CONTINUOUS
 70
0
 71
3
 72
51
 73
47
 74
0
 42
0.0000001
 43
0.0000001
 44
0.0000000001
 40
0.0
 40
0.0
 40
0.0
 40
0.0
 40
0.1046226222
 40
0.2059675469
 40
0.3034832179
 40
0.3966480158
 40
0.4849550813
 40
0.5679092103
 40
0.6450193671
 40
0.7157964859
 40
0.7486580779
 40
0.7797541464
 40
0.809025148
 40
0.8364121739
 40
0.8618578789
 40
0.8853066097
 40
0.9067048217
 40
0.9260020859
 40
0.9431506191
 40
0.9509056631
 40
0.9581074881
 40
0.9647512645
 40
0.9708328951
 40
0.9763483407
 40
0.98129356
 40
0.9856649393
 40
0.9894598222
 40
0.9911402873
 40
0.9926756798
 40
0.9940656833
 40
0.9953099816
 40
0.9964083155
 40
0.9973605578
 40
0.9981665996
 40
0.9988263325
 40
0.9991012991
 40
0.9993396477
 40
0.9995413646
 40
0.9997064364
 40
0.9998348495
 40
0.9998853047
 40
0.9999265901
 40
0.9999587041
 40
0.9999816448
 40
0.9999954107
 40
1.0
 40
1.0
 40
1.0
 40
1.0
 10
9.3179834891
 20
9.532391804
 30
0.0
 10
9.312978444
 20
9.5330144412
 30
0.0
 10
9.3031417085
 20
9.5343776083
 30
0.0
 10
9.2887074255
 20
9.5367737351
 30
0.0
 10
9.2748806776
 20
9.5394285634
 30
0.0
 10
9.2617345907
 20
9.5422740118
 30
0.0
 10
9.2493361283
 20
9.5452400598
 30
0.0
 10
9.2377480164
 20
9.548255991
 30
0.0
 10
9.2270299038
 20
9.5512516598
 30
0.0
 10
9.2186764172
 20
9.5537317078
 30
0.0
 10
9.2124703124
 20
9.5556482836
 30
0.0
 10
9.2081849451
 20
9.5570029353
 30
0.0
 10
9.2041592075
 20
9.5583030082
 30
0.0
 10
9.2003997193
 20
9.559540943
 30
0.0
 10
9.1969129573
 20
9.5607095259
 30
0.0
 10
9.1937051911
 20
9.5618019023
 30
0.0
 10
9.1907823961
 20
9.5628115244
 30
0.0
 10
9.1881503053
 20
9.5637324164
 30
0.0
 10
9.1861414777
 20
9.5644430803
 30
0.0
 10
9.184683608
 20
9.5649627789
 30
0.0
 10
9.1837032412
 20
9.5653138168
 30
0.0
 10
9.1827992405
 20
9.5656388203
 30
0.0
 10
9.1819721043
 20
9.5659373241
 30
0.0
 10
9.1812222918
 20
9.5662088675
 30
0.0
 10
9.180550239
 20
9.5664529961
 30
0.0
 10
9.1799563242
 20
9.566669294
 30
0.0
 10
9.1795104206
 20
9.5668320808
 30
0.0
 10
9.1791930057
 20
9.5669481545
 30
0.0
 10
9.1789844972
 20
9.5670244776
 30
0.0
 10
9.1787957533
 20
9.5670936257
 30
0.0
 10
9.178626807
 20
9.5671555638
 30
0.0
 10
9.1784776836
 20
9.5672102621
 30
0.0
 10
9.1783484032
 20
9.5672577065
 30
0.0
 10
9.178238979
 20
9.5672978845
 30
0.0
 10
9.178160209
 20
9.567326822
 30
0.0
 10
9.1781071297
 20
9.5673463291
 30
0.0
 10
9.1780747773
 20
9.5673582231
 30
0.0
 10
9.1780473949
 20
9.5673682892
 30
0.0
 10
9.1780249962
 20
9.5673765344
 30
0.0
 10
9.1780094204
 20
9.5673822489
 30
0.0
 10
9.177999483
 20
9.5673859299
 30
0.0
 10
9.177993832
 20
9.5673879588
 30
0.0
 10
9.1779895966
 20
9.5673896489
 30
0.0
 10
9.1779862048
 20
9.5673906011
 30
0.0
 10
9.1779848249
 20
9.5673916293
 30
0.0
 10
9.1779834891
 20
9.5673915828
 30
0.0
 10
9.1779834891
 20
9.567391804
 30
0.0
  0
SPLINE
  5
2C6
100
AcDbEntity
  8
0
100
AcDbSpline
 62
7
  6
CONTINUOUS
 70
0
 71
3
 72
15
 73
11
 74
0
 42
0.0000001
 43
0.0000001
 44
0.0000000001
 40
0.0
 40
0.0
 40
0.0
 40
0.0
 40
0.2145983826
 40
0.403478093
 40
0.5661734888
 40
0.7023905217
 40
0.8123275903
 40
0.8576867467
 40
0.8968706001
 40
1.0
 40
1.0
 40
1.0
 40
1.0
 10
8.8898040343
 20
9.1160123026
 30
0.0
 10
8.8898284093
 20
9.1161189525
 30
0.0
 10
8.8898763601
 20
9.1163189961
 30
0.0
 10
8.8899515864
 20
9.1165977124
 30
0.0
 10
8.8900251854
 20
9.1168352788
 30
0.0
 10
8.8900971267
 20
9.1170311577
 30
0.0
 10
8.8901582324
 20
9.1171665032
 30
0.0
 10
8.8902079294
 20
9.1172531191
 30
0.0
 10
8.8902606285
 20
9.1173302783
 30
0.0
 10
8.8903229871
 20
9.1173917465
 30
0.0
 10
8.8903755614
 20
9.117391764
 30
0.0
  0
SPLINE
  5
2C7
100
AcDbEntity
  8
0
100
AcDbSpline
 62
7
  6
CONTINUOUS
 70
0
 71
3
 72
30
 73
26
 74
0
 42
0.0000001
 43
0.0000001
 44
0.0000000001
 40
0.0
 40
0.0
 40
0.0
 40
0.0
 40
0.063530756
 40
0.1267593141
 40
0.1896674345
 40
0.2522486632
 40
0.3145155134
 40
0.3455473422
 40
0.3765176869
 40
0.4074358968
 40
0.4383132248
 40
0.4691624058
 40
0.4999971867
 40
0.5308319674
 40
0.5616811478
 40
0.5925584749
 40
0.6234766837
 40
0.6544470269
 40
0.6854788542
 40
0.7477457007
 40
0.8103269247
 40
0.8417433465
 40
0.8732408937
 40
0.9364694593
 40
1.0
 40
1.0
 40
1.0
 40
1.0
 10
11.097040872
 20
9.009891804
 30
0.0
 10
11.0896973233
 20
8.997135659
 30
0.0
 10
11.0755274605
 20
8.9714016796
 30
0.0
 10
11.0560254568
 20
8.932006416
 30
0.0
 10
11.0386356143
 20
8.8918668959
 30
0.0
 10
11.0236908617
 20
8.8509862207
 30
0.0
 10
11.0135600608
 20
8.8162871886
 30
0.0
 10
11.0070395447
 20
8.7882382277
 30
0.0
 10
11.0029809919
 20
8.7670903592
 30
0.0
 10
10.9997844028
 20
8.7458311681
 30
0.0
 10
10.9974787749
 20
8.7244848267
 30
0.0
 10
10.9960864029
 20
8.7030786725
 30
0.0
 10
10.9956207809
 20
8.6816420729
 30
0.0
 10
10.9960863795
 20
8.660205473
 30
0.0
 10
10.9974787285
 20
8.6387993174
 30
0.0
 10
10.9997843336
 20
8.617452975
 30
0.0
 10
11.0029809014
 20
8.5961937783
 30
0.0
 10
11.0070394302
 20
8.5750459182
 30
0.0
 10
11.0135599327
 20
8.5469968952
 30
0.0
 10
11.0236905977
 20
8.5122982959
 30
0.0
 10
11.0361290522
 20
8.4782728625
 30
0.0
 10
11.0472971052
 20
8.4514250316
 30
0.0
 10
11.0592541068
 20
8.4247544454
 30
0.0
 10
11.075528112
 20
8.3918824509
 30
0.0
 10
11.0896959182
 20
8.3661479109
 30
0.0
 10
11.0970394332
 20
8.353391804
 30
0.0
  0
SPLINE
  5
2C8
100
AcDbEntity
  8
0
100
AcDbSpline
 62
7
  6
CONTINUOUS
 70
0
 71
3
 72
30
 73
26
 74
0
 42
0.0000001
 43
0.0000001
 44
0.0000000001
 40
0.0
 40
0.0
 40
0.0
 40
0.0
 40
0.0635305407
 40
0.1267591063
 40
0.1582566535
 40
0.1896730752
 40
0.2522542993
 40
0.3145211458
 40
0.3455529731
 40
0.3765233163
 40
0.4074415251
 40
0.4383188522
 40
0.4691680326
 40
0.5000028133
 40
0.5308375943
 40
0.5616867752
 40
0.5925641032
 40
0.6234823131
 40
0.6544526578
 40
0.6854844866
 40
0.7477513368
 40
0.8103325655
 40
0.8732406859
 40
0.9364692439
 40
1.0
 40
1.0
 40
1.0
 40
1.0
 10
11.097039433
 20
9.666391804
 30
0.0
 10
11.0896959179
 20
9.6536356972
 30
0.0
 10
11.0755281121
 20
9.627901157
 30
0.0
 10
11.0592541067
 20
9.5950291626
 30
0.0
 10
11.0472971052
 20
9.5683585764
 30
0.0
 10
11.0361290521
 20
9.5415107456
 30
0.0
 10
11.0236905976
 20
9.5074853121
 30
0.0
 10
11.0135599327
 20
9.4727867128
 30
0.0
 10
11.0070394302
 20
9.4447376898
 30
0.0
 10
11.0029809014
 20
9.4235898297
 30
0.0
 10
10.9997843335
 20
9.402330633
 30
0.0
 10
10.9974787285
 20
9.3809842906
 30
0.0
 10
10.9960863795
 20
9.359578135
 30
0.0
 10
10.9956207809
 20
9.3381415351
 30
0.0
 10
10.9960864029
 20
9.3167049355
 30
0.0
 10
10.9974787749
 20
9.2952987813
 30
0.0
 10
10.9997844029
 20
9.2739524399
 30
0.0
 10
11.0029809919
 20
9.2526932488
 30
0.0
 10
11.0070395447
 20
9.2315453803
 30
0.0
 10
11.0135600608
 20
9.2034964194
 30
0.0
 10
11.0236908618
 20
9.1687973873
 30
0.0
 10
11.0386356144
 20
9.1279167121
 30
0.0
 10
11.0560254569
 20
9.0877771921
 30
0.0
 10
11.0755274605
 20
9.0483819283
 30
0.0
 10
11.0896973235
 20
9.0226479491
 30
0.0
 10
11.0970408722
 20
9.009891804
 30
0.0
  0
LINE
  5
2C9
100
AcDbEntity
  8
0
100
AcDbLine
 62
7
  6
CONTINUOUS
 10
8.88643117
 20
9.0922982679
 11
8.8863752406
 21
9.0918985224
  0
SPLINE
  5
2CA
100
AcDbEntity
  8
0
100
AcDbSpline
 62
7
  6
CONTINUOUS
 70
0
 71
3
 72
11
 73
7
 74
0
 42
0.0000001
 43
0.0000001
 44
0.0000000001
 40
0.0
 40
0.0
 40
0.0
 40
0.0
 40
0.256103226
 40
0.5090584405
 40
0.7574707649
 40
1.0
 40
1.0
 40
1.0
 40
1.0
 10
8.9088683338
 20
8.722391804
 30
0.0
 10
8.9042929633
 20
8.7466418271
 30
0.0
 10
8.8963566933
 20
8.7950710748
 30
0.0
 10
8.8881068913
 20
8.8676221455
 30
0.0
 10
8.8836272664
 20
8.9391937876
 30
0.0
 10
8.8831729992
 20
8.9865260029
 30
0.0
 10
8.8836106676
 20
9.009891804
 30
0.0
  0
LINE
  5
2CB
100
AcDbEntity
  8
0
100
AcDbLine
 62
7
  6
CONTINUOUS
 10
8.8835753629
 20
9.0794140046
 11
8.8834859993
 21
9.0774027353
  0
ENDSEC
  0
SECTION
  2
OBJECTS
  0
DICTIONARY
  5
C
100
AcDbDictionary
280
0
281
1
  3
ACAD_GROUP
350
D
  3
ACAD_MLINESTYLE
350
17
  3
ACAD_LAYOUT
350
1A
  3
ACAD_PLOTSETTINGS
350
19
  3
ACAD_PLOTSTYLENAME
350
E
  0
DICTIONARY
  5
D
102
{ACAD_REACTORS
330
C
102
}
100
AcDbDictionary
280
0
281
1
  0
ACDBDICTIONARYWDFLT
  5
E
102
{ACAD_REACTORS
330
C
102
}
100
AcDbDictionary
281
1
  3
Normal
350
F
100
AcDbDictionaryWithDefault
340
F
  0
DICTIONARY
  5
17
102
{ACAD_REACTORS
330
C
102
}
100
AcDbDictionary
280
0
281
1
  3
Standard
350
18
  0
DICTIONARY
  5
19
102
{ACAD_REACTORS
330
C
102
}
100
AcDbDictionary
281
1
  0
DICTIONARY
  5
1A
102
{ACAD_REACTORS
330
C
102
}
100
AcDbDictionary
281
1
  3
Model
350
2CC
  3
Layout1
350
2CD
  0
ACDBPLACEHOLDER
  5
F
102
{ACAD_REACTORS
330
E
102
}
  0
MLINESTYLE
  5
18
102
{ACAD_REACTORS
330
17
102
}
100
AcDbMlineStyle
  2
STANDARD
 70
0
  3

 62
256
 51
90.0
 52
90.0
 71
2
 49
0.5
 62
256
  6
BYLAYER
 49
-0.5
 62
256
  6
BYLAYER
  0
LAYOUT
  5
2CC
102
{ACAD_REACTORS
330
1A
102
}
100
AcDbPlotSettings
  1

  2
none_device
  4
ANSI_C_(22.00_x_17.00_Inches)
  6

 40
0.0
 41
0.0
 42
0.0
 43
0.0
 44
558.8
 45
431.8
 46
0.0
 47
0.0
 48
0.0
 49
0.0
140
0.0
141
0.0
142
1.0
143
1.0
 70
1024
 72
0
 73
0
 74
0
  7

 75
0
147
1.0
148
0.0
149
0.0
100
AcDbLayout
  1
Model
 70
0
 71
0
 10
0.0
 20
0.0
 11
22.0
 21
17.0
 12
0.0
 22
0.0
 32
0.0
 14
0.0
 24
0.0
 34
0.0
 15
0.0
 25
0.0
 35
0.0
146
0.0
 13
0.0
 23
0.0
 33
0.0
 16
1.0
 26
0.0
 36
0.0
 17
0.0
 27
1.0
 37
0.0
 76
0
330
205
345
0
346
0
  0
LAYOUT
  5
2CD
102
{ACAD_REACTORS
330
1A
102
}
100
AcDbPlotSettings
  1

  2
none_device
  4
ANSI_C_(22.00_x_17.00_Inches)
  6

 40
0.0
 41
0.0
 42
0.0
 43
0.0
 44
558.8
 45
431.8
 46
0.0
 47
0.0
 48
0.0
 49
0.0
140
0.0
141
0.0
142
1.0
143
1.0
 70
0
 72
0
 73
0
 74
0
  7

 75
0
147
1.0
148
0.0
149
0.0
100
AcDbLayout
  1
Layout1
 70
0
 71
1
 10
0.0
 20
0.0
 11
22.0
 21
17.0
 12
0.0
 22
0.0
 32
0.0
 14
0.0
 24
0.0
 34
0.0
 15
0.0
 25
0.0
 35
0.0
146
0.0
 13
0.0
 23
0.0
 33
0.0
 16
1.0
 26
0.0
 36
0.0
 17
0.0
 27
1.0
 37
0.0
 76
0
330
206
345
0
346
0
  0
ENDSEC
  0
EOF
