999
DXF file: E:\BT Custom\CADOUTPUT\_TOP.dxf
999
Pro/ENGINEER 2018400 by Parametric Technology Corporation
  0
SECTION
  2
HEADER
  9
$ACADVER
  1
AC1018
  9
$DWGCODEPAGE
  3
ANSI_1252
  9
$EXTMAX
 10
22.0
 20
17.0
 30
0.0
  9
$EXTMIN
 10
0.0
 20
0.0
 30
0.0
  9
$LIMMIN
 10
0.0
 20
0.0
  9
$LIMMAX
 10
22.0
 20
17.0
  9
$VIEWCTR
 10
11.0
 20
8.5
  9
$VIEWSIZE
 40
17.0
  9
$CLAYER
  8
0
  9
$LTSCALE
 40
1.21
  9
$CELTYPE
  6
BYLAYER
  9
$DIMSCALE
 40
1.0
  9
$DIMASZ
 40
0.1
  9
$DIMEXO
 40
0.0625
  9
$DIMDLI
 40
0.836
  9
$DIMEXE
 40
0.125
  9
$DIMCEN
 40
0.198
  9
$DIMLFAC
 40
1.0
  9
$DIMBLK
  1
_FILLED
  9
$DIMALT
 70
1
  9
$DIMALTD
 70
2
  9
$DIMALTTD
 70
2
  9
$DIMALTF
 40
25.4
  9
$DIMTXT
 40
0.08
  9
$DIMTOL
 70
1
  9
$DIMLIM
 70
0
  9
$DIMTFAC
 40
1.0
  9
$DIMTP
 40
0.001
  9
$DIMTM
 40
0.001
  9
$DIMGAP
 40
0.09
  9
$DIMDSEP
 70
46
  9
$AUNITS
 70
0
  9
$PDMODE
 70
3
  9
$PDSIZE
 40
0.06
  9
$HANDSEED
  5
2B7
  9
$TILEMODE
 70
1
  9
$MEASUREMENT
 70
0
  9
$INSUNITS
 70
1
  0
ENDSEC
  0
SECTION
  2
CLASSES
  0
CLASS
  1
ACDBDICTIONARYWDFLT
  2
AcDbDictionaryWithDefault
  3
AutoCAD 2000
 90
0
 91
1
280
0
281
0
  0
CLASS
  1
ACDBPLACEHOLDER
  2
AcDbPlaceHolder
  3
AutoCAD 2000
 90
0
 91
1
280
0
281
0
  0
CLASS
  1
LAYOUT
  2
AcDbLayout
  3
AutoCAD 2000
 90
0
 91
0
280
0
281
0
  0
ENDSEC
  0
SECTION
  2
TABLES
  0
TABLE
  2
VPORT
  5
8
100
AcDbSymbolTable
 70
2
  0
VPORT
  5
1F4
100
AcDbSymbolTableRecord
100
AcDbViewportTableRecord
  2
*ACTIVE
 70
0
 10
0.0
 20
0.0
 11
1.0
 21
1.0
 12
11.0
 22
8.5
 13
0.0
 23
0.0
 14
1.0
 24
1.0
 15
0.0
 25
0.0
 16
0.0
 26
0.0
 36
1.0
 17
0.0
 27
0.0
 37
0.0
 40
17.0
 41
1.2941176471
 42
50.0
 43
0.0
 44
0.0
 50
0.0
 51
0.0
 71
0
 72
100
 73
1
 74
1
 75
0
 76
0
 77
0
 78
0
  0
ENDTAB
  0
TABLE
  2
LTYPE
  5
5
100
AcDbSymbolTable
 70
6
  0
LTYPE
  5
14
100
AcDbSymbolTableRecord
100
AcDbLinetypeTableRecord
  2
BYBLOCK
 70
0
  3

 72
65
 73
0
 40
0.0
  0
LTYPE
  5
15
100
AcDbSymbolTableRecord
100
AcDbLinetypeTableRecord
  2
BYLAYER
 70
0
  3

 72
65
 73
0
 40
0.0
  0
LTYPE
  5
16
100
AcDbSymbolTableRecord
100
AcDbLinetypeTableRecord
  2
CONTINUOUS
 70
64
  3
Solid line
 72
65
 73
0
 40
0.0
  0
LTYPE
  5
1F5
100
AcDbSymbolTableRecord
100
AcDbLinetypeTableRecord
  2
CENTER
 70
64
  3
____ _ ____ _ ____ _ ____ _ ____ _ ____ _ ____
 72
65
 73
4
 40
0.6
 49
0.375
 74
0
 49
-0.075
 74
0
 49
0.075
 74
0
 49
-0.075
 74
0
  0
LTYPE
  5
1F6
100
AcDbSymbolTableRecord
100
AcDbLinetypeTableRecord
  2
HIDDEN
 70
64
  3
- - - - - - - - - - - - - - - - - - - -
 72
65
 73
2
 40
0.2
 49
0.1
 74
0
 49
-0.1
 74
0
  0
LTYPE
  5
1F7
100
AcDbSymbolTableRecord
100
AcDbLinetypeTableRecord
  2
PHANTOM
 70
64
  3
_____ _ _ _____ _ _ _____ _ _ _____
 72
65
 73
6
 40
0.8
 49
0.45
 74
0
 49
-0.05
 74
0
 49
0.1
 74
0
 49
-0.05
 74
0
 49
0.1
 74
0
 49
-0.05
 74
0
  0
LTYPE
  5
1F8
100
AcDbSymbolTableRecord
100
AcDbLinetypeTableRecord
  2
DOT
 70
64
  3
. . . . . . . . . . . . . . . . . . . .
 72
65
 73
2
 40
0.2
 49
0.1
 74
0
 49
-0.1
 74
0
  0
LTYPE
  5
1F9
100
AcDbSymbolTableRecord
100
AcDbLinetypeTableRecord
  2
DASHED
 70
64
  3
- - - - - - - - - - - - - - - - - - - -
 72
65
 73
2
 40
0.2
 49
0.1
 74
0
 49
-0.1
 74
0
  0
ENDTAB
  0
TABLE
  2
LAYER
  5
2
100
AcDbSymbolTable
 70
36
  0
LAYER
  5
10
100
AcDbSymbolTableRecord
100
AcDbLayerTableRecord
  2
0
 70
0
 62
7
  6
CONTINUOUS
370
-3
390
F
  0
LAYER
  5
1FA
100
AcDbSymbolTableRecord
100
AcDbLayerTableRecord
  2
DEFAULT_1
 70
0
 62
7
  6
CENTER
370
-3
390
F
  0
LAYER
  5
1FB
100
AcDbSymbolTableRecord
100
AcDbLayerTableRecord
  2
DEFAULT_2
 70
0
 62
8
  6
HIDDEN
370
-3
390
F
  0
LAYER
  5
1FC
100
AcDbSymbolTableRecord
100
AcDbLayerTableRecord
  2
DEFAULT_3
 70
0
 62
7
  6
PHANTOM
370
-3
390
F
  0
LAYER
  5
1FD
100
AcDbSymbolTableRecord
100
AcDbLayerTableRecord
  2
ALL_FEATURES
 70
0
 62
7
  6
CONTINUOUS
370
-3
390
F
  0
LAYER
  5
1FE
100
AcDbSymbolTableRecord
100
AcDbLayerTableRecord
  2
AXES_FEATURES
 70
0
 62
7
  6
CONTINUOUS
370
-3
390
F
  0
LAYER
  5
1FF
100
AcDbSymbolTableRecord
100
AcDbLayerTableRecord
  2
DEFAULT_COORDINATE_SYSTEM
 70
0
 62
7
  6
CONTINUOUS
370
-3
390
F
  0
LAYER
  5
200
100
AcDbSymbolTableRecord
100
AcDbLayerTableRecord
  2
DEFAULT_DATUM_AXES
 70
0
 62
7
  6
CONTINUOUS
370
-3
390
F
  0
LAYER
  5
201
100
AcDbSymbolTableRecord
100
AcDbLayerTableRecord
  2
DEFAULT_DATUM_PLANES
 70
0
 62
7
  6
CONTINUOUS
370
-3
390
F
  0
LAYER
  5
202
100
AcDbSymbolTableRecord
100
AcDbLayerTableRecord
  2
DIMENSIONS
 70
0
 62
7
  6
CONTINUOUS
370
-3
390
F
  0
ENDTAB
  0
TABLE
  2
STYLE
  5
3
100
AcDbSymbolTable
 70
1
  0
STYLE
  5
11
100
AcDbSymbolTableRecord
100
AcDbTextStyleTableRecord
  2
STANDARD
 70
0
 40
0.0
 41
0.8
 50
0.0
 71
0
 42
0.2
  3
txt
  4

  0
STYLE
  5
203
100
AcDbSymbolTableRecord
100
AcDbTextStyleTableRecord
  2
TEXTSTYLE_1
 70
0
 40
0.0
 41
0.8
 50
0.0
 71
0
 42
0.2
  3
gdt
  4

  0
ENDTAB
  0
TABLE
  2
VIEW
  5
6
100
AcDbSymbolTable
 70
0
  0
ENDTAB
  0
TABLE
  2
UCS
  5
7
100
AcDbSymbolTable
 70
0
  0
ENDTAB
  0
TABLE
  2
APPID
  5
9
100
AcDbSymbolTable
 70
1
  0
APPID
  5
204
100
AcDbSymbolTableRecord
100
AcDbRegAppTableRecord
  2
ACAD
 70
0
  0
ENDTAB
  0
TABLE
  2
BLOCK_RECORD
  5
1
100
AcDbSymbolTable
 70
0
  0
BLOCK_RECORD
  5
205
100
AcDbSymbolTableRecord
100
AcDbBlockTableRecord
  2
*Model_Space
  0
BLOCK_RECORD
  5
206
100
AcDbSymbolTableRecord
100
AcDbBlockTableRecord
  2
*Paper_Space
  0
BLOCK_RECORD
  5
207
100
AcDbSymbolTableRecord
100
AcDbBlockTableRecord
  2
_FILLED
  0
ENDTAB
  0
TABLE
  2
DIMSTYLE
  5
A
100
AcDbSymbolTable
 70
1
100
AcDbDimStyleTable
 71
0
  0
DIMSTYLE
105
208
100
AcDbSymbolTableRecord
100
AcDbDimStyleTableRecord
  2
STANDARD
 70
0
  3

  4

 40
1.0
 41
0.1
 42
0.0625
 43
0.38
 44
0.125
 45
0.0
 46
0.0
 47
0.001
 48
0.001
140
0.08
141
0.09
142
0.0
143
25.4
144
1.0
145
0.0
146
1.0
147
0.09
 71
1.0
 72
0.0
 73
1
 74
1
 75
0
 76
0
 77
0
 78
4
 79
1
170
1
171
2
172
0
173
0
174
0
175
0
176
0
177
0
178
0
270
2
179
3
271
3
272
3
273
2
274
2
275
0
280
0
281
0
282
0
283
1
284
4
285
0
286
0
287
3
288
0
340
11
278
46
341
207
342
207
343
207
344
207
  0
ENDTAB
  0
ENDSEC
  0
SECTION
  2
BLOCKS
  0
BLOCK
  5
20
100
AcDbEntity
  8
0
100
AcDbBlockBegin
  2
*Model_Space
 70
0
 10
0.0
 20
0.0
 30
0.0
  3
*Model_Space
  1

  0
ENDBLK
  5
21
100
AcDbEntity
  8
0
100
AcDbBlockEnd
  0
BLOCK
  5
1C
100
AcDbEntity
  8
0
100
AcDbBlockBegin
  2
*Paper_Space
 70
0
 10
0.0
 20
0.0
 30
0.0
  3
*Paper_Space
  1

  0
ENDBLK
  5
1D
100
AcDbEntity
  8
0
100
AcDbBlockEnd
  0
BLOCK
  5
209
100
AcDbEntity
  8
0
100
AcDbBlockBegin
  2
_FILLED
 70
64
 10
0.0
 20
0.0
  3
_FILLED
  1

  0
SOLID
  5
20A
100
AcDbEntity
  8
0
  6
BYBLOCK
 62
0
100
AcDbTrace
 10
0.0
 20
0.0
 11
-1.0
 21
0.2
 12
-1.0
 22
-0.2
 13
-1.0
 23
-0.2
  0
ENDBLK
  5
20B
100
AcDbEntity
  8
0
  6
BYBLOCK
 62
0
100
AcDbBlockEnd
  0
ENDSEC
  0
SECTION
  2
ENTITIES
  0
LINE
  5
20C
100
AcDbEntity
  8
0
100
AcDbLine
 62
9
  6
CONTINUOUS
 10
10.6521736817
 20
5.7055225672
 11
11.4424629948
 21
5.7055225672
  0
LINE
  5
20D
100
AcDbEntity
  8
0
100
AcDbLine
 62
7
  6
CONTINUOUS
 10
10.5928083822
 20
5.7293318604
 11
11.5018282944
 21
5.7293318604
  0
LINE
  5
20E
100
AcDbEntity
  8
0
100
AcDbLine
 62
7
  6
CONTINUOUS
 10
10.5420379171
 20
5.7458281845
 11
11.5525987595
 21
5.7458281845
  0
LINE
  5
20F
100
AcDbEntity
  8
0
100
AcDbLine
 62
7
  6
CONTINUOUS
 10
10.5198183383
 20
5.7680477633
 11
11.5748183383
 21
5.7680477633
  0
LINE
  5
210
100
AcDbEntity
  8
0
100
AcDbLine
 62
7
  6
CONTINUOUS
 10
10.5420379171
 20
5.7458281845
 11
10.5928083822
 21
5.7293318604
  0
LINE
  5
211
100
AcDbEntity
  8
0
100
AcDbLine
 62
7
  6
CONTINUOUS
 10
10.5198183383
 20
5.8393318604
 11
11.5748183383
 21
5.8393318604
  0
LINE
  5
212
100
AcDbEntity
  8
0
100
AcDbLine
 62
7
  6
CONTINUOUS
 10
10.5458183383
 20
5.8543318604
 11
11.5488183383
 21
5.8543318604
  0
LINE
  5
213
100
AcDbEntity
  8
0
100
AcDbLine
 62
7
  6
CONTINUOUS
 10
10.518126023
 20
5.8703318604
 11
11.5765106536
 21
5.8703318604
  0
LINE
  5
214
100
AcDbEntity
  8
0
100
AcDbLine
 62
7
  6
CONTINUOUS
 10
10.4898183383
 20
5.9503318604
 11
10.9045792982
 21
5.9503318604
  0
LINE
  5
215
100
AcDbEntity
  8
0
100
AcDbLine
 62
7
  6
CONTINUOUS
 10
11.1900573784
 20
5.9503318604
 11
11.6048183383
 21
5.9503318604
  0
LINE
  5
216
100
AcDbEntity
  8
0
100
AcDbLine
 62
7
  6
CONTINUOUS
 10
10.518126023
 20
5.8703318604
 11
10.5458183383
 21
5.8543318604
  0
LINE
  5
217
100
AcDbEntity
  8
0
100
AcDbLine
 62
7
  6
CONTINUOUS
 10
10.5198183383
 20
5.7680477633
 11
10.5420379171
 21
5.7458281845
  0
LINE
  5
218
100
AcDbEntity
  8
0
100
AcDbLine
 62
7
  6
CONTINUOUS
 10
10.4898183383
 20
6.3603318604
 11
10.9045792982
 21
6.3603318604
  0
LINE
  5
219
100
AcDbEntity
  8
0
100
AcDbLine
 62
7
  6
CONTINUOUS
 10
11.1900573784
 20
6.3603318604
 11
11.6048183383
 21
6.3603318604
  0
LINE
  5
21A
100
AcDbEntity
  8
0
100
AcDbLine
 62
7
  6
CONTINUOUS
 10
11.5488183383
 20
5.8543318604
 11
11.5748183383
 21
5.8393318604
  0
LINE
  5
21B
100
AcDbEntity
  8
0
100
AcDbLine
 62
7
  6
CONTINUOUS
 10
10.5198183383
 20
6.4393318604
 11
11.5748183383
 21
6.4393318604
  0
LINE
  5
21C
100
AcDbEntity
  8
0
100
AcDbLine
 62
7
  6
CONTINUOUS
 10
10.6768183383
 20
6.4903318604
 11
11.4178183383
 21
6.4903318604
  0
LINE
  5
21D
100
AcDbEntity
  8
0
100
AcDbLine
 62
7
  6
CONTINUOUS
 10
11.4178183383
 20
6.4903318604
 11
11.5748183383
 21
6.4393318604
  0
LINE
  5
21E
100
AcDbEntity
  8
0
100
AcDbLine
 62
7
  6
CONTINUOUS
 10
10.2892574348
 20
8.1193318604
 11
10.2892574348
 21
7.8693873184
  0
LINE
  5
21F
100
AcDbEntity
  8
0
100
AcDbLine
 62
7
  6
CONTINUOUS
 10
10.3063183383
 20
8.1813318604
 11
10.3063183383
 21
8.1193318604
  0
LINE
  5
220
100
AcDbEntity
  8
0
100
AcDbLine
 62
7
  6
CONTINUOUS
 10
10.4898183383
 20
5.9503318604
 11
10.4898183383
 21
6.3603318604
  0
LINE
  5
221
100
AcDbEntity
  8
0
100
AcDbLine
 62
7
  6
CONTINUOUS
 10
10.7038183383
 20
6.8493318604
 11
11.3908183383
 21
6.8493318604
  0
LINE
  5
222
100
AcDbEntity
  8
0
100
AcDbLine
 62
7
  6
CONTINUOUS
 10
11.4461672268
 20
6.8693318604
 11
10.6484694498
 21
6.8693318604
  0
LINE
  5
223
100
AcDbEntity
  8
0
100
AcDbLine
 62
9
  6
CONTINUOUS
 10
11.4770580658
 20
6.8977326177
 11
10.6175786107
 21
6.8977326177
  0
LINE
  5
224
100
AcDbEntity
  8
0
100
AcDbLine
 62
7
  6
CONTINUOUS
 10
10.4326843441
 20
7.3096330489
 11
10.5068183383
 21
7.2037154216
  0
LINE
  5
225
100
AcDbEntity
  8
0
100
AcDbLine
 62
7
  6
CONTINUOUS
 10
10.5198183383
 20
5.8393318604
 11
10.5198183383
 21
5.7680477633
  0
LINE
  5
226
100
AcDbEntity
  8
0
100
AcDbLine
 62
7
  6
CONTINUOUS
 10
10.6682878866
 20
8.1193318604
 11
10.6682878866
 21
7.8693878045
  0
LINE
  5
227
100
AcDbEntity
  8
0
100
AcDbLine
 62
7
  6
CONTINUOUS
 10
10.7038183383
 20
6.8493318604
 11
10.7038183383
 21
6.4903318604
  0
LINE
  5
228
100
AcDbEntity
  8
0
100
AcDbLine
 62
9
  6
CONTINUOUS
 10
10.5068183383
 20
7.2037154216
 11
11.5878183383
 21
7.2037154216
  0
LINE
  5
229
100
AcDbEntity
  8
0
100
AcDbLine
 62
7
  6
CONTINUOUS
 10
10.289265592
 20
7.8693844548
 11
10.4061548986
 21
7.7528318604
  0
LINE
  5
22A
100
AcDbEntity
  8
0
100
AcDbLine
 62
7
  6
CONTINUOUS
 10
10.8473183383
 20
6.8693318604
 11
10.8473183383
 21
6.8493318604
  0
LINE
  5
22B
100
AcDbEntity
  8
0
100
AcDbLine
 62
9
  6
CONTINUOUS
 10
10.9140879686
 20
5.6632750633
 11
10.9140879686
 21
5.6624298201
  0
LINE
  5
22C
100
AcDbEntity
  8
0
100
AcDbLine
 62
7
  6
CONTINUOUS
 10
10.9385844527
 20
5.6613168461
 11
10.9385844527
 21
5.6603129715
  0
LINE
  5
22D
100
AcDbEntity
  8
0
100
AcDbLine
 62
7
  6
CONTINUOUS
 10
11.0173183383
 20
5.6570933169
 11
11.0173183383
 21
5.6560921797
  0
LINE
  5
22E
100
AcDbEntity
  8
0
100
AcDbLine
 62
7
  6
CONTINUOUS
 10
11.0304531015
 20
5.6823277575
 11
11.0304531015
 21
5.68131004
  0
LINE
  5
22F
100
AcDbEntity
  8
0
100
AcDbLine
 62
7
  6
CONTINUOUS
 10
11.064183575
 20
5.6823277575
 11
11.064183575
 21
5.68131004
  0
LINE
  5
230
100
AcDbEntity
  8
0
100
AcDbLine
 62
7
  6
CONTINUOUS
 10
11.0773183383
 20
5.6570933169
 11
11.0773183383
 21
5.6560921797
  0
LINE
  5
231
100
AcDbEntity
  8
0
100
AcDbLine
 62
9
  6
CONTINUOUS
 10
10.4326843441
 20
7.3096330489
 11
11.6619523325
 21
7.3096330489
  0
LINE
  5
232
100
AcDbEntity
  8
0
100
AcDbLine
 62
7
  6
CONTINUOUS
 10
11.1560522239
 20
5.6613168461
 11
11.1560522239
 21
5.6603129715
  0
LINE
  5
233
100
AcDbEntity
  8
0
100
AcDbLine
 62
9
  6
CONTINUOUS
 10
11.180548708
 20
5.6632750629
 11
11.180548708
 21
5.6624298201
  0
LINE
  5
234
100
AcDbEntity
  8
0
100
AcDbLine
 62
7
  6
CONTINUOUS
 10
11.2473183383
 20
6.8693318604
 11
11.2473183383
 21
6.8493318604
  0
LINE
  5
235
100
AcDbEntity
  8
0
100
AcDbLine
 62
7
  6
CONTINUOUS
 10
11.8053740287
 20
7.8693873904
 11
11.6884817779
 21
7.7528318604
  0
LINE
  5
236
100
AcDbEntity
  8
0
100
AcDbLine
 62
9
  6
CONTINUOUS
 10
10.4288183383
 20
7.5378318604
 11
11.6658183383
 21
7.5378318604
  0
LINE
  5
237
100
AcDbEntity
  8
0
100
AcDbLine
 62
9
  6
CONTINUOUS
 10
10.4061548986
 20
7.7528318604
 11
11.6884817779
 21
7.7528318604
  0
LINE
  5
238
100
AcDbEntity
  8
0
100
AcDbLine
 62
7
  6
CONTINUOUS
 10
11.3908183383
 20
6.8493318604
 11
11.3908183383
 21
6.4903318604
  0
LINE
  5
239
100
AcDbEntity
  8
0
100
AcDbLine
 62
7
  6
CONTINUOUS
 10
11.42634879
 20
8.1193318604
 11
11.42634879
 21
7.8693873184
  0
LINE
  5
23A
100
AcDbEntity
  8
0
100
AcDbLine
 62
7
  6
CONTINUOUS
 10
11.5748183383
 20
5.8393318604
 11
11.5748183383
 21
5.7680477633
  0
LINE
  5
23B
100
AcDbEntity
  8
0
100
AcDbLine
 62
7
  6
CONTINUOUS
 10
11.6048183383
 20
5.9503318604
 11
11.6048183383
 21
6.3603318604
  0
LINE
  5
23C
100
AcDbEntity
  8
0
100
AcDbLine
 62
7
  6
CONTINUOUS
 10
11.6619523325
 20
7.3096330489
 11
11.5878183383
 21
7.2037154216
  0
LINE
  5
23D
100
AcDbEntity
  8
0
100
AcDbLine
 62
7
  6
CONTINUOUS
 10
11.7883183383
 20
8.1813318604
 11
11.7883183383
 21
8.1193318604
  0
LINE
  5
23E
100
AcDbEntity
  8
0
100
AcDbLine
 62
7
  6
CONTINUOUS
 10
11.8053792417
 20
8.1193318604
 11
11.8053792417
 21
7.8693892435
  0
LINE
  5
23F
100
AcDbEntity
  8
0
100
AcDbLine
 62
7
  6
CONTINUOUS
 10
10.6768183383
 20
6.4903318604
 11
10.5198183383
 21
6.4393318604
  0
LINE
  5
240
100
AcDbEntity
  8
0
100
AcDbLine
 62
7
  6
CONTINUOUS
 10
10.2892574348
 20
8.1193318604
 11
11.8053792417
 21
8.1193318604
  0
LINE
  5
241
100
AcDbEntity
  8
0
100
AcDbLine
 62
7
  6
CONTINUOUS
 10
10.2343156645
 20
8.1813318604
 11
11.8603210121
 21
8.1813318604
  0
LINE
  5
242
100
AcDbEntity
  8
0
100
AcDbLine
 62
7
  6
CONTINUOUS
 10
10.0473183383
 20
8.3693318604
 11
12.0473183383
 21
8.3693318604
  0
LINE
  5
243
100
AcDbEntity
  8
0
100
AcDbLine
 62
7
  6
CONTINUOUS
 10
10.5458183383
 20
5.8543318604
 11
10.5198183383
 21
5.8393318604
  0
LINE
  5
244
100
AcDbEntity
  8
0
100
AcDbLine
 62
7
  6
CONTINUOUS
 10
13.800896524
 20
8.5563318604
 11
8.2937401526
 21
8.5563318604
  0
LINE
  5
245
100
AcDbEntity
  8
0
100
AcDbLine
 62
9
  6
CONTINUOUS
 10
14.0191074311
 20
8.6843318604
 11
8.0755292454
 21
8.6843318604
  0
LINE
  5
246
100
AcDbEntity
  8
0
100
AcDbLine
 62
7
  6
CONTINUOUS
 10
7.8541822079
 20
8.8123220252
 11
14.2404544687
 21
8.8123220252
  0
LINE
  5
247
100
AcDbEntity
  8
0
100
AcDbLine
 62
9
  6
CONTINUOUS
 10
14.4563911441
 20
8.9363296653
 11
7.6382455324
 21
8.9363296653
  0
LINE
  5
248
100
AcDbEntity
  8
0
100
AcDbLine
 62
7
  6
CONTINUOUS
 10
11.5748183383
 20
5.7680477633
 11
11.5525987595
 21
5.7458281845
  0
LINE
  5
249
100
AcDbEntity
  8
0
100
AcDbLine
 62
7
  6
CONTINUOUS
 10
11.5765106536
 20
5.8703318604
 11
11.5488183383
 21
5.8543318604
  0
LINE
  5
24A
100
AcDbEntity
  8
0
100
AcDbLine
 62
7
  6
CONTINUOUS
 10
14.6723183383
 20
9.0603318604
 11
7.4223183383
 21
9.0603318604
  0
LINE
  5
24B
100
AcDbEntity
  8
0
100
AcDbLine
 62
7
  6
CONTINUOUS
 10
11.5525987595
 20
5.7458281845
 11
11.5018282944
 21
5.7293318604
  0
LINE
  5
24C
100
AcDbEntity
  8
0
100
AcDbLine
 62
7
  6
CONTINUOUS
 10
14.9223183383
 20
9.3103318604
 11
7.1723183383
 21
9.3103318604
  0
ARC
  5
24D
100
AcDbEntity
  8
0
100
AcDbCircle
 62
7
  6
CONTINUOUS
 10
10.3091862935
 20
6.3637778721
 40
1.36
100
AcDbArc
 50
338.7260279914
 51
342.3017225173
  0
ARC
  5
24E
100
AcDbEntity
  8
0
100
AcDbCircle
 62
7
  6
CONTINUOUS
 10
10.3190195575
 20
5.9172500449
 40
1.36
100
AcDbArc
 50
19.0137742001
 51
22.5744557109
  0
ARC
  5
24F
100
AcDbEntity
  8
0
100
AcDbCircle
 62
7
  6
CONTINUOUS
 10
11.0266630085
 20
6.9365865804
 40
1.2814984441
100
AcDbArc
 50
275.7934341458
 51
276.0188277798
  0
ARC
  5
250
100
AcDbEntity
  8
0
100
AcDbCircle
 62
7
  6
CONTINUOUS
 10
11.0267104202
 20
6.9361156239
 40
1.2810251072
100
AcDbArc
 50
275.0648433715
 51
275.7934506895
  0
ARC
  5
251
100
AcDbEntity
  8
0
100
AcDbCircle
 62
7
  6
CONTINUOUS
 10
11.0352439217
 20
6.9341552832
 40
1.2795580803
100
AcDbArc
 50
271.8855940388
 51
275.4175976376
  0
ARC
  5
252
100
AcDbEntity
  8
0
100
AcDbCircle
 62
7
  6
CONTINUOUS
 10
11.0268392693
 20
6.9346211947
 40
1.2795251379
100
AcDbArc
 50
272.260985972
 51
275.0650039893
  0
ARC
  5
253
100
AcDbEntity
  8
0
100
AcDbCircle
 62
7
  6
CONTINUOUS
 10
11.0352035189
 20
6.9348817476
 40
1.2792857257
100
AcDbArc
 50
273.199573327
 51
275.420572132
  0
ARC
  5
254
100
AcDbEntity
  8
0
100
AcDbCircle
 62
7
  6
CONTINUOUS
 10
11.0352815758
 20
6.9331729094
 40
1.2785749994
100
AcDbArc
 50
270.9427097325
 51
271.8613010851
  0
ARC
  5
255
100
AcDbEntity
  8
0
100
AcDbCircle
 62
7
  6
CONTINUOUS
 10
11.035281456
 20
6.9333522637
 40
1.2777541838
100
AcDbArc
 50
270.9861395294
 51
271.8623291865
  0
ARC
  5
256
100
AcDbEntity
  8
0
100
AcDbCircle
 62
7
  6
CONTINUOUS
 10
9.9947794362
 20
6.8453285319
 40
0.625
100
AcDbArc
 50
4.8096995456
 51
34.9889904702
  0
ARC
  5
257
100
AcDbEntity
  8
0
100
AcDbCircle
 62
7
  6
CONTINUOUS
 10
10.9876972369
 20
6.0492302555
 40
0.3927542681
100
AcDbArc
 50
259.318113825
 51
261.808572703
  0
ARC
  5
258
100
AcDbEntity
  8
0
100
AcDbCircle
 62
7
  6
CONTINUOUS
 10
11.0020706926
 20
6.026270336
 40
0.371423337
100
AcDbArc
 50
260.1582846024
 51
262.6630992698
  0
ARC
  5
259
100
AcDbEntity
  8
0
100
AcDbCircle
 62
7
  6
CONTINUOUS
 10
10.9795051671
 20
5.995443654
 40
0.3383495007
100
AcDbArc
 50
261.8839168319
 51
262.1608295358
  0
ARC
  5
25A
100
AcDbEntity
  8
0
100
AcDbCircle
 62
7
  6
CONTINUOUS
 10
10.9773917966
 20
5.9800074256
 40
0.3227692781
100
AcDbArc
 50
262.1587400674
 51
263.0591655954
  0
ARC
  5
25B
100
AcDbEntity
  8
0
100
AcDbCircle
 62
7
  6
CONTINUOUS
 10
10.9750695902
 20
5.9604843226
 40
0.3041040462
100
AcDbArc
 50
263.0712036163
 51
263.3491129498
  0
ARC
  5
25C
100
AcDbEntity
  8
0
100
AcDbCircle
 62
7
  6
CONTINUOUS
 10
10.9750548635
 20
5.9611743228
 40
0.303791791
100
AcDbArc
 50
263.0903435694
 51
263.4343878018
  0
ARC
  5
25D
100
AcDbEntity
  8
0
100
AcDbCircle
 62
7
  6
CONTINUOUS
 10
10.9719377693
 20
5.9333793098
 40
0.2758226703
100
AcDbArc
 50
263.4174670893
 51
265.7228133298
  0
ARC
  5
25E
100
AcDbEntity
  8
0
100
AcDbCircle
 62
7
  6
CONTINUOUS
 10
10.9671437982
 20
5.8610693563
 40
0.2043483609
100
AcDbArc
 50
266.4969454825
 51
269.4515586201
  0
ARC
  5
25F
100
AcDbEntity
  8
0
100
AcDbCircle
 62
7
  6
CONTINUOUS
 10
10.5997934594
 20
7.4265962636
 40
0.2039751211
100
AcDbArc
 50
146.9521644936
 51
214.9889904702
  0
ARC
  5
260
100
AcDbEntity
  8
0
100
AcDbCircle
 62
7
  6
CONTINUOUS
 10
10.6484694498
 20
6.9003318604
 40
0.031
100
AcDbArc
 50
184.8096995457
 51
270.0
  0
ARC
  5
261
100
AcDbEntity
  8
0
100
AcDbCircle
 62
7
  6
CONTINUOUS
 10
10.6598183383
 20
5.7345322074
 40
0.03
100
AcDbArc
 50
189.9861146934
 51
255.2369687319
  0
ARC
  5
262
100
AcDbEntity
  8
0
100
AcDbCircle
 62
7
  6
CONTINUOUS
 10
7.8541822079
 20
9.0623330026
 40
0.2500109774
100
AcDbArc
 50
210.2644101313
 51
270.0
  0
ARC
  5
263
100
AcDbEntity
  8
0
100
AcDbCircle
 62
7
  6
CONTINUOUS
 10
7.8573183383
 20
8.5623318604
 40
0.25
100
AcDbArc
 50
29.2092119338
 51
89.9405177291
  0
ARC
  5
264
100
AcDbEntity
  8
0
100
AcDbCircle
 62
7
  6
CONTINUOUS
 10
7.4223183383
 20
9.3103318604
 40
0.25
100
AcDbArc
 50
180.0
 51
270.0
  0
ARC
  5
265
100
AcDbEntity
  8
0
100
AcDbCircle
 62
7
  6
CONTINUOUS
 10
7.4223183383
 20
8.8103318604
 40
0.25
100
AcDbArc
 50
30.2644101313
 51
90.0
  0
ARC
  5
266
100
AcDbEntity
  8
0
100
AcDbCircle
 62
7
  6
CONTINUOUS
 10
8.2937401526
 20
8.8063318604
 40
0.25
100
AcDbArc
 50
209.2092119338
 51
270.0
  0
ARC
  5
267
100
AcDbEntity
  8
0
100
AcDbCircle
 62
7
  6
CONTINUOUS
 10
10.0544544494
 20
8.5563318604
 40
0.1871361111
100
AcDbArc
 50
180.0
 51
267.8145949287
  0
ARC
  5
268
100
AcDbEntity
  8
0
100
AcDbCircle
 62
7
  6
CONTINUOUS
 10
10.2343156645
 20
8.3683318604
 40
0.187
100
AcDbArc
 50
179.6936039968
 51
270.0
  0
ARC
  5
269
100
AcDbEntity
  8
0
100
AcDbCircle
 62
7
  6
CONTINUOUS
 10
10.2850438047
 20
7.631370885
 40
0.1715245336
100
AcDbArc
 50
326.9521644936
 51
45.0826423158
  0
ARC
  5
26A
100
AcDbEntity
  8
0
100
AcDbCircle
 62
7
  6
CONTINUOUS
 10
11.0473183383
 20
7.2050018759
 40
1.5506700155
100
AcDbArc
 50
255.2369687319
 51
266.5742389704
  0
ARC
  5
26B
100
AcDbEntity
  8
0
100
AcDbCircle
 62
7
  6
CONTINUOUS
 10
11.0473183383
 20
7.2050018759
 40
1.5506700155
100
AcDbArc
 50
273.4257610296
 51
284.7630312681
  0
ARC
  5
26C
100
AcDbEntity
  8
0
100
AcDbCircle
 62
7
  6
CONTINUOUS
 10
11.0473183383
 20
7.2050018759
 40
1.5506700155
100
AcDbArc
 50
267.3749745646
 51
272.6250254354
  0
ARC
  5
26D
100
AcDbEntity
  8
0
100
AcDbCircle
 62
7
  6
CONTINUOUS
 10
11.0473183383
 20
7.2050018759
 40
1.5237851708
100
AcDbArc
 50
269.3658380229
 51
270.6341619771
  0
ARC
  5
26E
100
AcDbEntity
  8
0
100
AcDbCircle
 62
7
  6
CONTINUOUS
 10
11.0473183383
 20
7.2050018759
 40
1.5227675157
100
AcDbArc
 50
269.3654141994
 51
270.6345858006
  0
ARC
  5
26F
100
AcDbEntity
  8
0
100
AcDbCircle
 62
7
  6
CONTINUOUS
 10
11.0473183383
 20
7.2050018759
 40
1.519875405
100
AcDbArc
 50
268.5861934599
 51
271.4138065401
  0
ARC
  5
270
100
AcDbEntity
  8
0
100
AcDbCircle
 62
7
  6
CONTINUOUS
 10
11.785450383
 20
6.3637778721
 40
1.36
100
AcDbArc
 50
197.6982774827
 51
201.2739720086
  0
ARC
  5
271
100
AcDbEntity
  8
0
100
AcDbCircle
 62
7
  6
CONTINUOUS
 10
11.7756171191
 20
5.9172500449
 40
1.36
100
AcDbArc
 50
157.4255442891
 51
160.9862257999
  0
ARC
  5
272
100
AcDbEntity
  8
0
100
AcDbCircle
 62
7
  6
CONTINUOUS
 10
11.067973668
 20
6.9365865798
 40
1.2814984434
100
AcDbArc
 50
263.9811722202
 51
264.2065658543
  0
ARC
  5
273
100
AcDbEntity
  8
0
100
AcDbCircle
 62
7
  6
CONTINUOUS
 10
11.0679262564
 20
6.936115624
 40
1.2810251073
100
AcDbArc
 50
264.2065493105
 51
264.9351566285
  0
ARC
  5
274
100
AcDbEntity
  8
0
100
AcDbCircle
 62
7
  6
CONTINUOUS
 10
11.0593927549
 20
6.9341552832
 40
1.2795580803
100
AcDbArc
 50
264.5824023624
 51
268.1144059612
  0
ARC
  5
275
100
AcDbEntity
  8
0
100
AcDbCircle
 62
7
  6
CONTINUOUS
 10
11.0677974073
 20
6.9346211947
 40
1.2795251379
100
AcDbArc
 50
264.9349960107
 51
267.739014028
  0
ARC
  5
276
100
AcDbEntity
  8
0
100
AcDbCircle
 62
7
  6
CONTINUOUS
 10
11.0594331577
 20
6.9348817476
 40
1.2792857257
100
AcDbArc
 50
264.579427868
 51
266.800426673
  0
ARC
  5
277
100
AcDbEntity
  8
0
100
AcDbCircle
 62
7
  6
CONTINUOUS
 10
11.0593551008
 20
6.9331729094
 40
1.2785749994
100
AcDbArc
 50
268.1386989149
 51
269.0572902675
  0
ARC
  5
278
100
AcDbEntity
  8
0
100
AcDbCircle
 62
7
  6
CONTINUOUS
 10
11.0593552205
 20
6.9333522637
 40
1.2777541838
100
AcDbArc
 50
268.1376708136
 51
269.0138604706
  0
ARC
  5
279
100
AcDbEntity
  8
0
100
AcDbCircle
 62
7
  6
CONTINUOUS
 10
12.0998572404
 20
6.8453285319
 40
0.625
100
AcDbArc
 50
145.0110095298
 51
175.1903004544
  0
ARC
  5
27A
100
AcDbEntity
  8
0
100
AcDbCircle
 62
7
  6
CONTINUOUS
 10
11.1089512179
 20
6.0373074057
 40
0.380665202
100
AcDbArc
 50
277.9015844975
 51
280.7172067882
  0
ARC
  5
27B
100
AcDbEntity
  8
0
100
AcDbCircle
 62
7
  6
CONTINUOUS
 10
11.0946567256
 20
6.0124282445
 40
0.3574277167
100
AcDbArc
 50
277.2884289292
 51
279.8907692462
  0
ARC
  5
27C
100
AcDbEntity
  8
0
100
AcDbCircle
 62
7
  6
CONTINUOUS
 10
11.1177870179
 20
5.9758281433
 40
0.3185551114
100
AcDbArc
 50
276.935506413
 51
277.8475835178
  0
ARC
  5
27D
100
AcDbEntity
  8
0
100
AcDbCircle
 62
7
  6
CONTINUOUS
 10
11.1195420063
 20
5.9607055656
 40
0.304326699
100
AcDbArc
 50
276.5614942113
 51
276.9278024014
  0
ARC
  5
27E
100
AcDbEntity
  8
0
100
AcDbCircle
 62
7
  6
CONTINUOUS
 10
11.1195952039
 20
5.9610520746
 40
0.3036688198
100
AcDbArc
 50
276.6553907257
 51
276.9103455814
  0
ARC
  5
27F
100
AcDbEntity
  8
0
100
AcDbCircle
 62
7
  6
CONTINUOUS
 10
11.123452824
 20
5.9255642598
 40
0.2679732101
100
AcDbArc
 50
274.2406821777
 51
276.715540784
  0
CIRCLE
  5
280
100
AcDbEntity
  8
0
100
AcDbCircle
 62
7
  6
CONTINUOUS
 10
11.0473183383
 20
6.1553318604
 40
0.25
  0
ARC
  5
281
100
AcDbEntity
  8
0
100
AcDbCircle
 62
7
  6
CONTINUOUS
 10
11.1272247373
 20
5.8686191041
 40
0.2119004748
100
AcDbArc
 50
270.6120963096
 51
273.4506900479
  0
ARC
  5
282
100
AcDbEntity
  8
0
100
AcDbCircle
 62
7
  6
CONTINUOUS
 10
11.4948432172
 20
7.4265962636
 40
0.2039751211
100
AcDbArc
 50
325.0110095298
 51
33.0478355064
  0
ARC
  5
283
100
AcDbEntity
  8
0
100
AcDbCircle
 62
7
  6
CONTINUOUS
 10
11.4461672268
 20
6.9003318604
 40
0.031
100
AcDbArc
 50
270.0
 51
355.1903004543
  0
ARC
  5
284
100
AcDbEntity
  8
0
100
AcDbCircle
 62
7
  6
CONTINUOUS
 10
11.4348183383
 20
5.7345322074
 40
0.03
100
AcDbArc
 50
284.7630312681
 51
350.0138853066
  0
ARC
  5
285
100
AcDbEntity
  8
0
100
AcDbCircle
 62
7
  6
CONTINUOUS
 10
14.2404544687
 20
9.0623330026
 40
0.2500109774
100
AcDbArc
 50
270.0
 51
329.7355898687
  0
ARC
  5
286
100
AcDbEntity
  8
0
100
AcDbCircle
 62
7
  6
CONTINUOUS
 10
14.2373183383
 20
8.5623318604
 40
0.25
100
AcDbArc
 50
90.0594822709
 51
150.7907880662
  0
ARC
  5
287
100
AcDbEntity
  8
0
100
AcDbCircle
 62
7
  6
CONTINUOUS
 10
14.6723183383
 20
9.3103318604
 40
0.25
100
AcDbArc
 50
270.0
 51
360.0
  0
ARC
  5
288
100
AcDbEntity
  8
0
100
AcDbCircle
 62
7
  6
CONTINUOUS
 10
14.6723183383
 20
8.8103318604
 40
0.25
100
AcDbArc
 50
90.0
 51
149.7355898687
  0
ARC
  5
289
100
AcDbEntity
  8
0
100
AcDbCircle
 62
7
  6
CONTINUOUS
 10
13.800896524
 20
8.8063318604
 40
0.25
100
AcDbArc
 50
270.0
 51
330.7907880662
  0
ARC
  5
28A
100
AcDbEntity
  8
0
100
AcDbCircle
 62
7
  6
CONTINUOUS
 10
12.0401822272
 20
8.5563318604
 40
0.1871361111
100
AcDbArc
 50
272.1854050713
 51
360.0
  0
ARC
  5
28B
100
AcDbEntity
  8
0
100
AcDbCircle
 62
7
  6
CONTINUOUS
 10
11.8603210121
 20
8.3683318604
 40
0.187
100
AcDbArc
 50
270.0
 51
0.3063960032
  0
ARC
  5
28C
100
AcDbEntity
  8
0
100
AcDbCircle
 62
7
  6
CONTINUOUS
 10
11.8095928719
 20
7.631370885
 40
0.1715245336
100
AcDbArc
 50
134.9173576842
 51
213.0478355064
  0
SPLINE
  5
28D
100
AcDbEntity
  8
0
100
AcDbSpline
 62
7
  6
CONTINUOUS
 70
0
 71
3
 72
19
 73
15
 74
0
 42
0.0000001
 43
0.0000001
 44
0.0000000001
 40
0.0
 40
0.0
 40
0.0
 40
0.0
 40
0.0148303086
 40
0.0327725071
 40
0.0560697677
 40
0.0857614204
 40
0.1223340734
 40
0.1660346427
 40
0.2169797077
 40
0.2752079029
 40
0.4135027085
 40
0.5807614748
 40
0.7764907639
 40
1.0
 40
1.0
 40
1.0
 40
1.0
 10
10.912318341
 20
5.6629914195
 30
0.0
 10
10.9123183363
 20
5.6630010483
 30
0.0
 10
10.9123247463
 20
5.6630224906
 30
0.0
 10
10.9123500665
 20
5.6630496238
 30
0.0
 10
10.9123889974
 20
5.663074646
 30
0.0
 10
10.9124422713
 20
5.6630983324
 30
0.0
 10
10.9125100976
 20
5.6631208429
 30
0.0
 10
10.9125926363
 20
5.6631421453
 30
0.0
 10
10.9126898719
 20
5.6631622084
 30
0.0
 10
10.9128483582
 20
5.6631887904
 30
0.0
 10
10.9130829148
 20
5.6632173804
 30
0.0
 10
10.9134072573
 20
5.663244857
 30
0.0
 10
10.9137874493
 20
5.6632668482
 30
0.0
 10
10.9140594676
 20
5.6632771047
 30
0.0
 10
10.9142045177
 20
5.663281487
 30
0.0
  0
SPLINE
  5
28E
100
AcDbEntity
  8
0
100
AcDbSpline
 62
7
  6
CONTINUOUS
 70
0
 71
3
 72
14
 73
10
 74
0
 42
0.0000001
 43
0.0000001
 44
0.0000000001
 40
0.0
 40
0.0
 40
0.0
 40
0.0
 40
0.0815803317
 40
0.1839210573
 40
0.3034486263
 40
0.4359629296
 40
0.5768127701
 40
0.7210881146
 40
1.0
 40
1.0
 40
1.0
 40
1.0
 10
10.9142045177
 20
5.663281487
 30
0.0
 10
10.9147329069
 20
5.6632974507
 30
0.0
 10
10.9159249868
 20
5.6633035266
 30
0.0
 10
10.9178909799
 20
5.6632642114
 30
0.0
 10
10.9201857787
 20
5.6631765355
 30
0.0
 10
10.9227282421
 20
5.6630433297
 30
0.0
 10
10.9254289425
 20
5.6628689815
 30
0.0
 10
10.9290733984
 20
5.662592587
 30
0.0
 10
10.931804459
 20
5.6623419119
 30
0.0
 10
10.9336018101
 20
5.6621524056
 30
0.0
  0
SPLINE
  5
28F
100
AcDbEntity
  8
0
100
AcDbSpline
 62
7
  6
CONTINUOUS
 70
0
 71
3
 72
14
 73
10
 74
0
 42
0.0000001
 43
0.0000001
 44
0.0000000001
 40
0.0
 40
0.0
 40
0.0
 40
0.0
 40
0.2789115959
 40
0.4231868098
 40
0.5640365612
 40
0.6965508453
 40
0.8160784852
 40
0.9184193826
 40
1.0
 40
1.0
 40
1.0
 40
1.0
 10
11.1610348665
 20
5.6621524056
 30
0.0
 10
11.1628322136
 20
5.6623419115
 30
0.0
 10
11.1655632681
 20
5.6625925861
 30
0.0
 10
11.1692077163
 20
5.6628689803
 30
0.0
 10
11.1719084118
 20
5.6630433284
 30
0.0
 10
11.1744508719
 20
5.6631765343
 30
0.0
 10
11.1767456694
 20
5.6632642106
 30
0.0
 10
11.1787116636
 20
5.6633035263
 30
0.0
 10
11.1799037449
 20
5.6632974511
 30
0.0
 10
11.1804321354
 20
5.6632814877
 30
0.0
  0
LINE
  5
290
100
AcDbEntity
  8
0
100
AcDbLine
 62
7
  6
CONTINUOUS
 10
11.1804321354
 20
5.6632814877
 11
11.1820896053
 21
5.663130163
  0
LINE
  5
291
100
AcDbEntity
  8
0
100
AcDbLine
 62
7
  6
CONTINUOUS
 10
11.1820896053
 20
5.663130163
 11
11.1823183355
 21
5.6629914195
  0
SPLINE
  5
292
100
AcDbEntity
  8
0
100
AcDbSpline
 62
7
  6
CONTINUOUS
 70
0
 71
3
 72
15
 73
11
 74
0
 42
0.0000001
 43
0.0000001
 44
0.0000000001
 40
0.0
 40
0.0
 40
0.0
 40
0.0
 40
0.1745520424
 40
0.3348559241
 40
0.4809221406
 40
0.6127809301
 40
0.7304884996
 40
0.8341399829
 40
0.9238912554
 40
1.0
 40
1.0
 40
1.0
 40
1.0
 10
11.064183575
 20
5.68131004
 30
0.0
 10
11.0639513701
 20
5.6799054244
 30
0.0
 10
11.0634886534
 20
5.6772136464
 30
0.0
 10
11.0627635448
 20
5.67335857
 30
0.0
 10
11.0620372142
 20
5.6698586149
 30
0.0
 10
11.0613099766
 20
5.6667144247
 30
0.0
 10
11.0605822001
 20
5.6639264923
 30
0.0
 10
11.0598543038
 20
5.6614948812
 30
0.0
 10
11.0591267902
 20
5.6594197027
 30
0.0
 10
11.0585998652
 20
5.6581720057
 30
0.0
 10
11.0583308432
 20
5.6576125712
 30
0.0
  0
SPLINE
  5
293
100
AcDbEntity
  8
0
100
AcDbSpline
 62
7
  6
CONTINUOUS
 70
0
 71
3
 72
11
 73
7
 74
0
 42
0.0000001
 43
0.0000001
 44
0.0000000001
 40
0.0
 40
0.0
 40
0.0
 40
0.0
 40
0.3091540343
 40
0.5769727176
 40
0.8059270735
 40
1.0
 40
1.0
 40
1.0
 40
1.0
 10
11.0583308432
 20
5.6576125712
 30
0.0
 10
11.0581740486
 20
5.6572865149
 30
0.0
 10
11.0578638008
 20
5.6566861059
 30
0.0
 10
11.0573638404
 20
5.6558846822
 30
0.0
 10
11.0568630748
 20
5.6552476879
 30
0.0
 10
11.0564996933
 20
5.6549066007
 30
0.0
 10
11.0563175181
 20
5.6547709701
 30
0.0
  0
SPLINE
  5
294
100
AcDbEntity
  8
0
100
AcDbSpline
 62
7
  6
CONTINUOUS
 70
0
 71
3
 72
15
 73
11
 74
0
 42
0.0000001
 43
0.0000001
 44
0.0000000001
 40
0.0
 40
0.0
 40
0.0
 40
0.0
 40
0.1745520424
 40
0.3348559241
 40
0.4809221406
 40
0.6127809301
 40
0.7304884996
 40
0.8341399829
 40
0.9238912554
 40
1.0
 40
1.0
 40
1.0
 40
1.0
 10
11.0304531015
 20
5.68131004
 30
0.0
 10
11.0306853064
 20
5.6799054244
 30
0.0
 10
11.0311480231
 20
5.6772136464
 30
0.0
 10
11.0318731318
 20
5.67335857
 30
0.0
 10
11.0325994624
 20
5.6698586149
 30
0.0
 10
11.0333267
 20
5.6667144247
 30
0.0
 10
11.0340544765
 20
5.6639264923
 30
0.0
 10
11.0347823728
 20
5.6614948812
 30
0.0
 10
11.0355098863
 20
5.6594197027
 30
0.0
 10
11.0360368114
 20
5.6581720057
 30
0.0
 10
11.0363058334
 20
5.6576125712
 30
0.0
  0
SPLINE
  5
295
100
AcDbEntity
  8
0
100
AcDbSpline
 62
7
  6
CONTINUOUS
 70
0
 71
3
 72
11
 73
7
 74
0
 42
0.0000001
 43
0.0000001
 44
0.0000000001
 40
0.0
 40
0.0
 40
0.0
 40
0.0
 40
0.3091540343
 40
0.5769727176
 40
0.8059270735
 40
1.0
 40
1.0
 40
1.0
 40
1.0
 10
11.0363058334
 20
5.6576125712
 30
0.0
 10
11.0364626279
 20
5.6572865149
 30
0.0
 10
11.0367728758
 20
5.6566861059
 30
0.0
 10
11.0372728362
 20
5.6558846822
 30
0.0
 10
11.0377736017
 20
5.6552476879
 30
0.0
 10
11.0381369833
 20
5.6549066007
 30
0.0
 10
11.0383191584
 20
5.6547709701
 30
0.0
  0
LINE
  5
296
100
AcDbEntity
  8
0
100
AcDbLine
 62
7
  6
CONTINUOUS
 10
10.9546386692
 20
5.6578880638
 11
10.9547677166
 21
5.6578716455
  0
LINE
  5
297
100
AcDbEntity
  8
0
100
AcDbLine
 62
7
  6
CONTINUOUS
 10
10.9547677166
 20
5.6578716455
 11
10.955569671
 21
5.657770801
  0
SPLINE
  5
298
100
AcDbEntity
  8
0
100
AcDbSpline
 62
7
  6
CONTINUOUS
 70
0
 71
3
 72
9
 73
5
 74
0
 42
0.0000001
 43
0.0000001
 44
0.0000000001
 40
0.0
 40
0.0
 40
0.0
 40
0.0
 40
0.5150800036
 40
1.0
 40
1.0
 40
1.0
 40
1.0
 10
10.955569671
 20
5.657770801
 30
0.0
 10
10.959106717
 20
5.65733055
 30
0.0
 10
10.9659886221
 20
5.6565902238
 30
0.0
 10
10.9728945972
 20
5.6561159025
 30
0.0
 10
10.9762466729
 20
5.6559614313
 30
0.0
  0
SPLINE
  5
299
100
AcDbEntity
  8
0
100
AcDbSpline
 62
7
  6
CONTINUOUS
 70
0
 71
3
 72
8
 73
4
 74
0
 42
0.0000001
 43
0.0000001
 44
0.0000000001
 40
0.0
 40
0.0
 40
0.0
 40
0.0
 40
1.0
 40
1.0
 40
1.0
 40
1.0
 10
10.9762466729
 20
5.6559614313
 30
0.0
 10
10.9762640223
 20
5.6559606338
 30
0.0
 10
10.9762813716
 20
5.6559598363
 30
0.0
 10
10.9762987209
 20
5.6559590389
 30
0.0
  0
SPLINE
  5
29A
100
AcDbEntity
  8
0
100
AcDbSpline
 62
7
  6
CONTINUOUS
 70
0
 71
3
 72
8
 73
4
 74
0
 42
0.0000001
 43
0.0000001
 44
0.0000000001
 40
0.0
 40
0.0
 40
0.0
 40
0.0
 40
1.0
 40
1.0
 40
1.0
 40
1.0
 10
11.1183379557
 20
5.6559590389
 30
0.0
 10
11.1183554145
 20
5.6559598414
 30
0.0
 10
11.1183728733
 20
5.6559606439
 30
0.0
 10
11.1183903322
 20
5.6559614464
 30
0.0
  0
SPLINE
  5
29B
100
AcDbEntity
  8
0
100
AcDbSpline
 62
7
  6
CONTINUOUS
 70
0
 71
3
 72
9
 73
5
 74
0
 42
0.0000001
 43
0.0000001
 44
0.0000000001
 40
0.0
 40
0.0
 40
0.0
 40
0.0
 40
0.4846785977
 40
1.0
 40
1.0
 40
1.0
 40
1.0
 10
11.1183903322
 20
5.6559614464
 30
0.0
 10
11.1218009801
 20
5.6561186219
 30
0.0
 10
11.1288310115
 20
5.6566042286
 30
0.0
 10
11.135835973
 20
5.6573645914
 30
0.0
 10
11.139437778
 20
5.6578171703
 30
0.0
  0
LINE
  5
29C
100
AcDbEntity
  8
0
100
AcDbLine
 62
7
  6
CONTINUOUS
 10
11.139437778
 20
5.6578171703
 11
11.1398717688
 21
5.6578720022
  0
LINE
  5
29D
100
AcDbEntity
  8
0
100
AcDbLine
 62
7
  6
CONTINUOUS
 10
11.1398717688
 20
5.6578720022
 11
11.140001539
 21
5.6578885139
  0
SPLINE
  5
29E
100
AcDbEntity
  8
0
100
AcDbSpline
 62
7
  6
CONTINUOUS
 70
0
 71
3
 72
17
 73
13
 74
0
 42
0.0000001
 43
0.0000001
 44
0.0000000001
 40
0.0
 40
0.0
 40
0.0
 40
0.0
 40
0.0338985661
 40
0.0585260872
 40
0.0894648799
 40
0.1271086845
 40
0.171659363
 40
0.2817692328
 40
0.4200158067
 40
0.5862301796
 40
0.7798279703
 40
1.0
 40
1.0
 40
1.0
 40
1.0
 10
11.1823183355
 20
5.6629914195
 30
0.0
 10
11.182318325
 20
5.6629700843
 30
0.0
 10
11.1822954547
 20
5.6629355487
 30
0.0
 10
11.1822523112
 20
5.6629006736
 30
0.0
 10
11.1822021437
 20
5.6628694479
 30
0.0
 10
11.1821384899
 20
5.6628376333
 30
0.0
 10
11.1820269979
 20
5.6627902709
 30
0.0
 10
11.1818524258
 20
5.6627305281
 30
0.0
 10
11.1816014338
 20
5.6626589996
 30
0.0
 10
11.1812969785
 20
5.6625841366
 30
0.0
 10
11.1809403329
 20
5.6625062124
 30
0.0
 10
11.1806848441
 20
5.6624556911
 30
0.0
 10
11.180548708
 20
5.6624298201
 30
0.0
  0
LINE
  5
29F
100
AcDbEntity
  8
0
100
AcDbLine
 62
7
  6
CONTINUOUS
 10
11.0768059792
 20
5.6562729912
 11
11.0773114309
 21
5.6562895261
  0
LINE
  5
2A0
100
AcDbEntity
  8
0
100
AcDbLine
 62
7
  6
CONTINUOUS
 10
11.0773183383
 20
5.6570933169
 11
11.07787377
 21
5.6579815466
  0
SPLINE
  5
2A1
100
AcDbEntity
  8
0
100
AcDbSpline
 62
7
  6
CONTINUOUS
 70
0
 71
3
 72
17
 73
13
 74
0
 42
0.0000001
 43
0.0000001
 44
0.0000000001
 40
0.0
 40
0.0
 40
0.0
 40
0.0
 40
0.0324966293
 40
0.0688021313
 40
0.1089993879
 40
0.1531483191
 40
0.2534582913
 40
0.3699782946
 40
0.5028394201
 40
0.6521126854
 40
0.8178306895
 40
1.0
 40
1.0
 40
1.0
 40
1.0
 10
11.07787377
 20
5.6579815466
 30
0.0
 10
11.0780247801
 20
5.6582508934
 30
0.0
 10
11.0783243027
 20
5.6588325586
 30
0.0
 10
11.0787490728
 20
5.6597775635
 30
0.0
 10
11.0791738199
 20
5.6608427682
 30
0.0
 10
11.0797654475
 20
5.6624949724
 30
0.0
 10
11.0804942709
 20
5.6648666176
 30
0.0
 10
11.0813361721
 20
5.6680816912
 30
0.0
 10
11.0821775727
 20
5.6717757226
 30
0.0
 10
11.0830180001
 20
5.6759478649
 30
0.0
 10
11.0838568532
 20
5.6805971939
 30
0.0
 10
11.0843895573
 20
5.6838598477
 30
0.0
 10
11.084657112
 20
5.6855700622
 30
0.0
  0
LINE
  5
2A2
100
AcDbEntity
  8
0
100
AcDbLine
 62
7
  6
CONTINUOUS
 10
11.0173183383
 20
5.6570933169
 11
11.0167629066
 21
5.6579815466
  0
SPLINE
  5
2A3
100
AcDbEntity
  8
0
100
AcDbSpline
 62
7
  6
CONTINUOUS
 70
0
 71
3
 72
17
 73
13
 74
0
 42
0.0000001
 43
0.0000001
 44
0.0000000001
 40
0.0
 40
0.0
 40
0.0
 40
0.0
 40
0.0324966293
 40
0.0688021313
 40
0.1089993879
 40
0.1531483191
 40
0.2534582913
 40
0.3699782946
 40
0.5028394201
 40
0.6521126854
 40
0.8178306895
 40
1.0
 40
1.0
 40
1.0
 40
1.0
 10
11.0167629066
 20
5.6579815466
 30
0.0
 10
11.0166118964
 20
5.6582508934
 30
0.0
 10
11.0163123738
 20
5.6588325586
 30
0.0
 10
11.0158876037
 20
5.6597775635
 30
0.0
 10
11.0154628567
 20
5.6608427682
 30
0.0
 10
11.0148712291
 20
5.6624949724
 30
0.0
 10
11.0141424057
 20
5.6648666176
 30
0.0
 10
11.0133005045
 20
5.6680816912
 30
0.0
 10
11.0124591039
 20
5.6717757226
 30
0.0
 10
11.0116186764
 20
5.6759478649
 30
0.0
 10
11.0107798234
 20
5.6805971939
 30
0.0
 10
11.0102471193
 20
5.6838598477
 30
0.0
 10
11.0099795646
 20
5.6855700622
 30
0.0
  0
LINE
  5
2A4
100
AcDbEntity
  8
0
100
AcDbLine
 62
7
  6
CONTINUOUS
 10
11.0178306973
 20
5.6562729912
 11
11.0173252457
 21
5.6562895261
  0
LINE
  5
2A5
100
AcDbEntity
  8
0
100
AcDbLine
 62
7
  6
CONTINUOUS
 10
11.0768098436
 20
5.6552725095
 11
11.0773463525
 21
5.6552900572
  0
LINE
  5
2A6
100
AcDbEntity
  8
0
100
AcDbLine
 62
7
  6
CONTINUOUS
 10
11.017826833
 20
5.6552725095
 11
11.0172903241
 21
5.6552900572
  0
SPLINE
  5
2A7
100
AcDbEntity
  8
0
100
AcDbSpline
 62
7
  6
CONTINUOUS
 70
0
 71
3
 72
19
 73
15
 74
0
 42
0.0000001
 43
0.0000001
 44
0.0000000001
 40
0.0
 40
0.0
 40
0.0
 40
0.0
 40
0.0287411112
 40
0.0616491878
 40
0.098879963
 40
0.1405393385
 40
0.186701311
 40
0.2374186924
 40
0.2927297345
 40
0.3526623565
 40
0.4864633682
 40
0.6389300245
 40
0.8101066758
 40
1.0
 40
1.0
 40
1.0
 40
1.0
 10
11.0773183383
 20
5.6560921797
 30
0.0
 10
11.0774875523
 20
5.656331431
 30
0.0
 10
11.0778223534
 20
5.6568646468
 30
0.0
 10
11.0782914197
 20
5.6577577902
 30
0.0
 10
11.078760494
 20
5.6587973106
 30
0.0
 10
11.0792295064
 20
5.659983338
 30
0.0
 10
11.0796984332
 20
5.6613160683
 30
0.0
 10
11.0801671819
 20
5.6627955249
 30
0.0
 10
11.0806357037
 20
5.6644216765
 30
0.0
 10
11.0812840006
 20
5.6668769543
 30
0.0
 10
11.0820845005
 20
5.6703156044
 30
0.0
 10
11.0830123619
 20
5.6748869148
 30
0.0
 10
11.0839384556
 20
5.6800407333
 30
0.0
 10
11.0845239715
 20
5.683675522
 30
0.0
 10
11.0848183383
 20
5.6855891614
 30
0.0
  0
SPLINE
  5
2A8
100
AcDbEntity
  8
0
100
AcDbSpline
 62
7
  6
CONTINUOUS
 70
0
 71
3
 72
39
 73
35
 74
0
 42
0.0000001
 43
0.0000001
 44
0.0000000001
 40
0.0
 40
0.0
 40
0.0
 40
0.0
 40
0.0352256072
 40
0.0699597889
 40
0.1041780487
 40
0.1378548044
 40
0.1709681311
 40
0.2035010241
 40
0.235441786
 40
0.2667870378
 40
0.297543548
 40
0.3277307504
 40
0.3573831456
 40
0.3865517797
 40
0.4153052029
 40
0.4437290239
 40
0.4719236905
 40
0.5000007758
 40
0.5280778595
 40
0.5562725218
 40
0.5846963358
 40
0.6134497495
 40
0.6426183723
 40
0.6722707546
 40
0.7024579433
 40
0.7332144383
 40
0.7645596743
 40
0.7965004292
 40
0.8290332951
 40
0.8621465797
 40
0.8958234482
 40
0.9300416836
 40
0.9647750615
 40
1.0
 40
1.0
 40
1.0
 40
1.0
 10
10.2892574348
 20
7.8693892433
 30
0.0
 10
10.2929234439
 20
7.8657337945
 30
0.0
 10
10.3002842494
 20
7.8585534193
 30
0.0
 10
10.3115001688
 20
7.848128711
 30
0.0
 10
10.3228173394
 20
7.8381544529
 30
0.0
 10
10.3342397074
 20
7.8286689295
 30
0.0
 10
10.3457690953
 20
7.8197113211
 30
0.0
 10
10.3574058896
 20
7.811321943
 30
0.0
 10
10.3691499604
 20
7.8035434872
 30
0.0
 10
10.3809996784
 20
7.7964198503
 30
0.0
 10
10.3929518618
 20
7.7899955832
 30
0.0
 10
10.4050013502
 20
7.7843147713
 30
0.0
 10
10.4171409375
 20
7.779420232
 30
0.0
 10
10.4293611347
 20
7.7753522626
 30
0.0
 10
10.4416498541
 20
7.7721466327
 30
0.0
 10
10.4539926629
 20
7.7698335042
 30
0.0
 10
10.4663729908
 20
7.7684361353
 30
0.0
 10
10.4787725052
 20
7.7679687611
 30
0.0
 10
10.4911720198
 20
7.7684361119
 30
0.0
 10
10.5035523484
 20
7.7698334576
 30
0.0
 10
10.5158951584
 20
7.7721465634
 30
0.0
 10
10.5281838793
 20
7.7753521713
 30
0.0
 10
10.5404040784
 20
7.7794201195
 30
0.0
 10
10.5525436681
 20
7.7843146381
 30
0.0
 10
10.5645931583
 20
7.789995432
 30
0.0
 10
10.5765453442
 20
7.7964196802
 30
0.0
 10
10.5883950687
 20
7.8035432959
 30
0.0
 10
10.6001391323
 20
7.8113217497
 30
0.0
 10
10.6117759278
 20
7.8197111051
 30
0.0
 10
10.6233053763
 20
7.8286686474
 30
0.0
 10
10.6347276595
 20
7.8381542881
 30
0.0
 10
10.6460446624
 20
7.8481285691
 30
0.0
 10
10.657260962
 20
7.8585525361
 30
0.0
 10
10.6646219441
 20
7.8657324281
 30
0.0
 10
10.6682878866
 20
7.8693878045
 30
0.0
  0
SPLINE
  5
2A9
100
AcDbEntity
  8
0
100
AcDbSpline
 62
7
  6
CONTINUOUS
 70
0
 71
3
 72
9
 73
5
 74
0
 42
0.0000001
 43
0.0000001
 44
0.0000000001
 40
0.0
 40
0.0
 40
0.0
 40
0.0
 40
0.514572353
 40
1.0
 40
1.0
 40
1.0
 40
1.0
 10
11.180548708
 20
5.6624298201
 30
0.0
 10
11.1764029798
 20
5.6616419759
 30
0.0
 10
11.1683236567
 20
5.6602270549
 30
0.0
 10
11.1602013049
 20
5.6590809162
 30
0.0
 10
11.1562494526
 20
5.6586007773
 30
0.0
  0
LINE
  5
2AA
100
AcDbEntity
  8
0
100
AcDbLine
 62
7
  6
CONTINUOUS
 10
11.1543172738
 20
5.6583722719
 11
11.1400452183
 21
5.6571067898
  0
SPLINE
  5
2AB
100
AcDbEntity
  8
0
100
AcDbSpline
 62
7
  6
CONTINUOUS
 70
0
 71
3
 72
8
 73
4
 74
0
 42
0.0000001
 43
0.0000001
 44
0.0000000001
 40
0.0
 40
0.0
 40
0.0
 40
0.0
 40
1.0
 40
1.0
 40
1.0
 40
1.0
 10
11.1400452183
 20
5.6571067898
 30
0.0
 10
11.1400231193
 20
5.6571054637
 30
0.0
 10
11.1400010202
 20
5.6571041377
 30
0.0
 10
11.1399789212
 20
5.6571028116
 30
0.0
  0
SPLINE
  5
2AC
100
AcDbEntity
  8
0
100
AcDbSpline
 62
7
  6
CONTINUOUS
 70
0
 71
3
 72
33
 73
29
 74
0
 42
0.0000001
 43
0.0000001
 44
0.0000000001
 40
0.0
 40
0.0
 40
0.0
 40
0.0
 40
0.0624986917
 40
0.0937494909
 40
0.1250001737
 40
0.1562510231
 40
0.1875020004
 40
0.2499978623
 40
0.3124925232
 40
0.3437436734
 40
0.3749949141
 40
0.4062461404
 40
0.4374973939
 40
0.4687487061
 40
0.5
 40
0.531251294
 40
0.5625026062
 40
0.5937538597
 40
0.625005086
 40
0.6562563266
 40
0.6875074769
 40
0.7500021378
 40
0.8124979996
 40
0.8437489769
 40
0.8749998263
 40
0.906250509
 40
0.9375013083
 40
1.0
 40
1.0
 40
1.0
 40
1.0
 10
10.6682878866
 20
7.869387318
 30
0.0
 10
10.6830508701
 20
7.8620270777
 30
0.0
 10
10.7053947865
 20
7.8513772413
 30
0.0
 10
10.7355897256
 20
7.8380765919
 30
0.0
 10
10.7584467866
 20
7.8285906241
 30
0.0
 10
10.7815169101
 20
7.8196342271
 30
0.0
 10
10.8125593247
 20
7.8084524889
 30
0.0
 10
10.851897485
 20
7.796004787
 30
0.0
 10
10.8919076605
 20
7.7858947142
 30
0.0
 10
10.9242561219
 20
7.7793833908
 30
0.0
 10
10.9486719435
 20
7.7753262683
 30
0.0
 10
10.9732155821
 20
7.7721309379
 30
0.0
 10
10.9978591605
 20
7.7698263146
 30
0.0
 10
11.0225713037
 20
7.7684345924
 30
0.0
 10
11.0473183384
 20
7.7679692002
 30
0.0
 10
11.0720653731
 20
7.7684345924
 30
0.0
 10
11.0967775163
 20
7.7698263146
 30
0.0
 10
11.1214210947
 20
7.7721309379
 30
0.0
 10
11.1459647333
 20
7.7753262683
 30
0.0
 10
11.1703805548
 20
7.7793833909
 30
0.0
 10
11.2027290162
 20
7.7858947142
 30
0.0
 10
11.2427391918
 20
7.7960047871
 30
0.0
 10
11.282077352
 20
7.8084524889
 30
0.0
 10
11.3131197666
 20
7.8196342272
 30
0.0
 10
11.3361898901
 20
7.8285906242
 30
0.0
 10
11.3590469511
 20
7.838076592
 30
0.0
 10
11.3892418902
 20
7.8513772413
 30
0.0
 10
11.4115858065
 20
7.8620270781
 30
0.0
 10
11.42634879
 20
7.8693873184
 30
0.0
  0
SPLINE
  5
2AD
100
AcDbEntity
  8
0
100
AcDbSpline
 62
7
  6
CONTINUOUS
 70
0
 71
3
 72
39
 73
35
 74
0
 42
0.0000001
 43
0.0000001
 44
0.0000000001
 40
0.0
 40
0.0
 40
0.0
 40
0.0
 40
0.0352249384
 40
0.0699583162
 40
0.1041765515
 40
0.13785342
 40
0.1709667047
 40
0.2034995706
 40
0.2354403254
 40
0.2667855615
 40
0.2975420565
 40
0.3277292452
 40
0.3573816275
 40
0.3865502503
 40
0.4153036641
 40
0.443727478
 40
0.4719221403
 40
0.499999224
 40
0.5280763093
 40
0.556270976
 40
0.584694797
 40
0.6134482201
 40
0.6426168543
 40
0.6722692494
 40
0.7024564518
 40
0.733212962
 40
0.7645582138
 40
0.7964989758
 40
0.8290318687
 40
0.8621451954
 40
0.8958219511
 40
0.9300402109
 40
0.9647743927
 40
1.0
 40
1.0
 40
1.0
 40
1.0
 10
11.42634879
 20
7.8693878043
 30
0.0
 10
11.4300147324
 20
7.8657324278
 30
0.0
 10
11.4373757145
 20
7.8585525359
 30
0.0
 10
11.4485920142
 20
7.8481285691
 30
0.0
 10
11.4599090172
 20
7.8381542881
 30
0.0
 10
11.4713313003
 20
7.8286686473
 30
0.0
 10
11.4828607488
 20
7.819711105
 30
0.0
 10
11.4944975443
 20
7.8113217497
 30
0.0
 10
11.5062416079
 20
7.8035432959
 30
0.0
 10
11.5180913324
 20
7.7964196802
 30
0.0
 10
11.5300435184
 20
7.789995432
 30
0.0
 10
11.5420930085
 20
7.7843146381
 30
0.0
 10
11.5542325982
 20
7.7794201195
 30
0.0
 10
11.5664527973
 20
7.7753521713
 30
0.0
 10
11.5787415182
 20
7.7721465634
 30
0.0
 10
11.5910843282
 20
7.7698334576
 30
0.0
 10
11.6034646568
 20
7.7684361119
 30
0.0
 10
11.6158641714
 20
7.7679687611
 30
0.0
 10
11.6282636858
 20
7.7684361353
 30
0.0
 10
11.6406440137
 20
7.7698335042
 30
0.0
 10
11.6529868225
 20
7.7721466327
 30
0.0
 10
11.6652755419
 20
7.7753522626
 30
0.0
 10
11.6774957391
 20
7.779420232
 30
0.0
 10
11.6896353264
 20
7.7843147713
 30
0.0
 10
11.7016848148
 20
7.7899955832
 30
0.0
 10
11.7136369982
 20
7.7964198503
 30
0.0
 10
11.7254867162
 20
7.8035434873
 30
0.0
 10
11.737230787
 20
7.8113219431
 30
0.0
 10
11.7488675813
 20
7.8197113211
 30
0.0
 10
11.7603969692
 20
7.8286689295
 30
0.0
 10
11.7718193373
 20
7.8381544529
 30
0.0
 10
11.7831365079
 20
7.8481287111
 30
0.0
 10
11.7943524271
 20
7.8585534195
 30
0.0
 10
11.8017132326
 20
7.8657337947
 30
0.0
 10
11.8053792417
 20
7.8693892435
 30
0.0
  0
SPLINE
  5
2AE
100
AcDbEntity
  8
0
100
AcDbSpline
 62
7
  6
CONTINUOUS
 70
0
 71
3
 72
8
 73
4
 74
0
 42
0.0000001
 43
0.0000001
 44
0.0000000001
 40
0.0
 40
0.0
 40
0.0
 40
0.0
 40
1.0
 40
1.0
 40
1.0
 40
1.0
 10
10.9546577554
 20
5.6571028116
 30
0.0
 10
10.9546355564
 20
5.6571041437
 30
0.0
 10
10.9546133575
 20
5.6571054758
 30
0.0
 10
10.9545911585
 20
5.6571068078
 30
0.0
  0
SPLINE
  5
2AF
100
AcDbEntity
  8
0
100
AcDbSpline
 62
7
  6
CONTINUOUS
 70
0
 71
3
 72
9
 73
5
 74
0
 42
0.0000001
 43
0.0000001
 44
0.0000000001
 40
0.0
 40
0.0
 40
0.0
 40
0.0
 40
0.2418392502
 40
1.0
 40
1.0
 40
1.0
 40
1.0
 10
10.9545911585
 20
5.6571068078
 30
0.0
 10
10.9534000129
 20
5.6571784567
 30
0.0
 10
10.9484769708
 20
5.65751279
 30
0.0
 10
10.9435642438
 20
5.6579935493
 30
0.0
 10
10.9398484525
 20
5.6584268075
 30
0.0
  0
SPLINE
  5
2B0
100
AcDbEntity
  8
0
100
AcDbSpline
 62
7
  6
CONTINUOUS
 70
0
 71
3
 72
9
 73
5
 74
0
 42
0.0000001
 43
0.0000001
 44
0.0000000001
 40
0.0
 40
0.0
 40
0.0
 40
0.0
 40
0.4854301241
 40
1.0
 40
1.0
 40
1.0
 40
1.0
 10
10.9383837629
 20
5.6586011978
 30
0.0
 10
10.9344324558
 20
5.6590813159
 30
0.0
 10
10.9263112643
 20
5.6602273539
 30
0.0
 10
10.9182330894
 20
5.6616420913
 30
0.0
 10
10.9140879686
 20
5.6624298201
 30
0.0
  0
SPLINE
  5
2B1
100
AcDbEntity
  8
0
100
AcDbSpline
 62
7
  6
CONTINUOUS
 70
0
 71
3
 72
17
 73
13
 74
0
 42
0.0000001
 43
0.0000001
 44
0.0000000001
 40
0.0
 40
0.0
 40
0.0
 40
0.0
 40
0.220172031
 40
0.4137698221
 40
0.5799841941
 40
0.7182307674
 40
0.8283406371
 40
0.8728913156
 40
0.9105351203
 40
0.9414739135
 40
0.9661014348
 40
1.0
 40
1.0
 40
1.0
 40
1.0
 10
10.9140879686
 20
5.6624298201
 30
0.0
 10
10.9139518325
 20
5.6624556911
 30
0.0
 10
10.9136963437
 20
5.6625062124
 30
0.0
 10
10.9133396981
 20
5.6625841366
 30
0.0
 10
10.9130352427
 20
5.6626589996
 30
0.0
 10
10.9127842508
 20
5.6627305281
 30
0.0
 10
10.9126096787
 20
5.6627902709
 30
0.0
 10
10.9124981867
 20
5.6628376333
 30
0.0
 10
10.9124345328
 20
5.6628694479
 30
0.0
 10
10.9123843654
 20
5.6629006736
 30
0.0
 10
10.9123412219
 20
5.6629355487
 30
0.0
 10
10.9123183516
 20
5.6629700843
 30
0.0
 10
10.912318341
 20
5.6629914195
 30
0.0
  0
LINE
  5
2B2
100
AcDbEntity
  8
0
100
AcDbLine
 62
7
  6
CONTINUOUS
 10
11.1561314501
 20
5.6595892164
 11
11.1562531947
 21
5.6596039946
  0
SPLINE
  5
2B3
100
AcDbEntity
  8
0
100
AcDbSpline
 62
7
  6
CONTINUOUS
 70
0
 71
3
 72
19
 73
15
 74
0
 42
0.0000001
 43
0.0000001
 44
0.0000000001
 40
0.0
 40
0.0
 40
0.0
 40
0.0
 40
0.0287411112
 40
0.0616491878
 40
0.098879963
 40
0.1405393385
 40
0.186701311
 40
0.2374186924
 40
0.2927297345
 40
0.3526623565
 40
0.4864633682
 40
0.6389300245
 40
0.8101066758
 40
1.0
 40
1.0
 40
1.0
 40
1.0
 10
11.0173183383
 20
5.6560921797
 30
0.0
 10
11.0171491243
 20
5.656331431
 30
0.0
 10
11.0168143232
 20
5.6568646468
 30
0.0
 10
11.0163452569
 20
5.6577577902
 30
0.0
 10
11.0158761826
 20
5.6587973106
 30
0.0
 10
11.0154071702
 20
5.659983338
 30
0.0
 10
11.0149382434
 20
5.6613160683
 30
0.0
 10
11.0144694947
 20
5.6627955249
 30
0.0
 10
11.0140009728
 20
5.6644216765
 30
0.0
 10
11.013352676
 20
5.6668769543
 30
0.0
 10
11.0125521761
 20
5.6703156044
 30
0.0
 10
11.0116243146
 20
5.6748869148
 30
0.0
 10
11.010698221
 20
5.6800407333
 30
0.0
 10
11.0101127051
 20
5.683675522
 30
0.0
 10
11.0098183383
 20
5.6855891614
 30
0.0
  0
LINE
  5
2B4
100
AcDbEntity
  8
0
100
AcDbLine
 62
7
  6
CONTINUOUS
 10
10.9383869558
 20
5.6596035722
 11
10.9385074494
 21
5.6595889471
  0
ENDSEC
  0
SECTION
  2
OBJECTS
  0
DICTIONARY
  5
C
100
AcDbDictionary
280
0
281
1
  3
ACAD_GROUP
350
D
  3
ACAD_MLINESTYLE
350
17
  3
ACAD_LAYOUT
350
1A
  3
ACAD_PLOTSETTINGS
350
19
  3
ACAD_PLOTSTYLENAME
350
E
  0
DICTIONARY
  5
D
102
{ACAD_REACTORS
330
C
102
}
100
AcDbDictionary
280
0
281
1
  0
ACDBDICTIONARYWDFLT
  5
E
102
{ACAD_REACTORS
330
C
102
}
100
AcDbDictionary
281
1
  3
Normal
350
F
100
AcDbDictionaryWithDefault
340
F
  0
DICTIONARY
  5
17
102
{ACAD_REACTORS
330
C
102
}
100
AcDbDictionary
280
0
281
1
  3
Standard
350
18
  0
DICTIONARY
  5
19
102
{ACAD_REACTORS
330
C
102
}
100
AcDbDictionary
281
1
  0
DICTIONARY
  5
1A
102
{ACAD_REACTORS
330
C
102
}
100
AcDbDictionary
281
1
  3
Model
350
2B5
  3
Layout1
350
2B6
  0
ACDBPLACEHOLDER
  5
F
102
{ACAD_REACTORS
330
E
102
}
  0
MLINESTYLE
  5
18
102
{ACAD_REACTORS
330
17
102
}
100
AcDbMlineStyle
  2
STANDARD
 70
0
  3

 62
256
 51
90.0
 52
90.0
 71
2
 49
0.5
 62
256
  6
BYLAYER
 49
-0.5
 62
256
  6
BYLAYER
  0
LAYOUT
  5
2B5
102
{ACAD_REACTORS
330
1A
102
}
100
AcDbPlotSettings
  1

  2
none_device
  4
ANSI_C_(22.00_x_17.00_Inches)
  6

 40
0.0
 41
0.0
 42
0.0
 43
0.0
 44
558.8
 45
431.8
 46
0.0
 47
0.0
 48
0.0
 49
0.0
140
0.0
141
0.0
142
1.0
143
1.0
 70
1024
 72
0
 73
0
 74
0
  7

 75
0
147
1.0
148
0.0
149
0.0
100
AcDbLayout
  1
Model
 70
0
 71
0
 10
0.0
 20
0.0
 11
22.0
 21
17.0
 12
0.0
 22
0.0
 32
0.0
 14
0.0
 24
0.0
 34
0.0
 15
0.0
 25
0.0
 35
0.0
146
0.0
 13
0.0
 23
0.0
 33
0.0
 16
1.0
 26
0.0
 36
0.0
 17
0.0
 27
1.0
 37
0.0
 76
0
330
205
345
0
346
0
  0
LAYOUT
  5
2B6
102
{ACAD_REACTORS
330
1A
102
}
100
AcDbPlotSettings
  1

  2
none_device
  4
ANSI_C_(22.00_x_17.00_Inches)
  6

 40
0.0
 41
0.0
 42
0.0
 43
0.0
 44
558.8
 45
431.8
 46
0.0
 47
0.0
 48
0.0
 49
0.0
140
0.0
141
0.0
142
1.0
143
1.0
 70
0
 72
0
 73
0
 74
0
  7

 75
0
147
1.0
148
0.0
149
0.0
100
AcDbLayout
  1
Layout1
 70
0
 71
1
 10
0.0
 20
0.0
 11
22.0
 21
17.0
 12
0.0
 22
0.0
 32
0.0
 14
0.0
 24
0.0
 34
0.0
 15
0.0
 25
0.0
 35
0.0
146
0.0
 13
0.0
 23
0.0
 33
0.0
 16
1.0
 26
0.0
 36
0.0
 17
0.0
 27
1.0
 37
0.0
 76
0
330
206
345
0
346
0
  0
ENDSEC
  0
EOF
