999
DXF file: E:\BT Custom\CADOUTPUT\_RIGHT.dxf
999
Pro/ENGINEER 2018400 by Parametric Technology Corporation
  0
SECTION
  2
HEADER
  9
$ACADVER
  1
AC1018
  9
$DWGCODEPAGE
  3
ANSI_1252
  9
$EXTMAX
 10
22.0
 20
17.0
 30
0.0
  9
$EXTMIN
 10
0.0
 20
0.0
 30
0.0
  9
$LIMMIN
 10
0.0
 20
0.0
  9
$LIMMAX
 10
22.0
 20
17.0
  9
$VIEWCTR
 10
11.0
 20
8.5
  9
$VIEWSIZE
 40
17.0
  9
$CLAYER
  8
0
  9
$LTSCALE
 40
1.21
  9
$CELTYPE
  6
BYLAYER
  9
$DIMSCALE
 40
1.0
  9
$DIMASZ
 40
0.1
  9
$DIMEXO
 40
0.0625
  9
$DIMDLI
 40
0.836
  9
$DIMEXE
 40
0.125
  9
$DIMCEN
 40
0.198
  9
$DIMLFAC
 40
1.0
  9
$DIMBLK
  1
_FILLED
  9
$DIMALT
 70
1
  9
$DIMALTD
 70
2
  9
$DIMALTTD
 70
2
  9
$DIMALTF
 40
25.4
  9
$DIMTXT
 40
0.08
  9
$DIMTOL
 70
1
  9
$DIMLIM
 70
0
  9
$DIMTFAC
 40
1.0
  9
$DIMTP
 40
0.001
  9
$DIMTM
 40
0.001
  9
$DIMGAP
 40
0.09
  9
$DIMDSEP
 70
46
  9
$AUNITS
 70
0
  9
$PDMODE
 70
3
  9
$PDSIZE
 40
0.06
  9
$HANDSEED
  5
278
  9
$TILEMODE
 70
1
  9
$MEASUREMENT
 70
0
  9
$INSUNITS
 70
1
  0
ENDSEC
  0
SECTION
  2
CLASSES
  0
CLASS
  1
ACDBDICTIONARYWDFLT
  2
AcDbDictionaryWithDefault
  3
AutoCAD 2000
 90
0
 91
1
280
0
281
0
  0
CLASS
  1
ACDBPLACEHOLDER
  2
AcDbPlaceHolder
  3
AutoCAD 2000
 90
0
 91
1
280
0
281
0
  0
CLASS
  1
LAYOUT
  2
AcDbLayout
  3
AutoCAD 2000
 90
0
 91
0
280
0
281
0
  0
ENDSEC
  0
SECTION
  2
TABLES
  0
TABLE
  2
VPORT
  5
8
100
AcDbSymbolTable
 70
2
  0
VPORT
  5
1F4
100
AcDbSymbolTableRecord
100
AcDbViewportTableRecord
  2
*ACTIVE
 70
0
 10
0.0
 20
0.0
 11
1.0
 21
1.0
 12
11.0
 22
8.5
 13
0.0
 23
0.0
 14
1.0
 24
1.0
 15
0.0
 25
0.0
 16
0.0
 26
0.0
 36
1.0
 17
0.0
 27
0.0
 37
0.0
 40
17.0
 41
1.2941176471
 42
50.0
 43
0.0
 44
0.0
 50
0.0
 51
0.0
 71
0
 72
100
 73
1
 74
1
 75
0
 76
0
 77
0
 78
0
  0
ENDTAB
  0
TABLE
  2
LTYPE
  5
5
100
AcDbSymbolTable
 70
6
  0
LTYPE
  5
14
100
AcDbSymbolTableRecord
100
AcDbLinetypeTableRecord
  2
BYBLOCK
 70
0
  3

 72
65
 73
0
 40
0.0
  0
LTYPE
  5
15
100
AcDbSymbolTableRecord
100
AcDbLinetypeTableRecord
  2
BYLAYER
 70
0
  3

 72
65
 73
0
 40
0.0
  0
LTYPE
  5
16
100
AcDbSymbolTableRecord
100
AcDbLinetypeTableRecord
  2
CONTINUOUS
 70
64
  3
Solid line
 72
65
 73
0
 40
0.0
  0
LTYPE
  5
1F5
100
AcDbSymbolTableRecord
100
AcDbLinetypeTableRecord
  2
CENTER
 70
64
  3
____ _ ____ _ ____ _ ____ _ ____ _ ____ _ ____
 72
65
 73
4
 40
0.6
 49
0.375
 74
0
 49
-0.075
 74
0
 49
0.075
 74
0
 49
-0.075
 74
0
  0
LTYPE
  5
1F6
100
AcDbSymbolTableRecord
100
AcDbLinetypeTableRecord
  2
HIDDEN
 70
64
  3
- - - - - - - - - - - - - - - - - - - -
 72
65
 73
2
 40
0.2
 49
0.1
 74
0
 49
-0.1
 74
0
  0
LTYPE
  5
1F7
100
AcDbSymbolTableRecord
100
AcDbLinetypeTableRecord
  2
PHANTOM
 70
64
  3
_____ _ _ _____ _ _ _____ _ _ _____
 72
65
 73
6
 40
0.8
 49
0.45
 74
0
 49
-0.05
 74
0
 49
0.1
 74
0
 49
-0.05
 74
0
 49
0.1
 74
0
 49
-0.05
 74
0
  0
LTYPE
  5
1F8
100
AcDbSymbolTableRecord
100
AcDbLinetypeTableRecord
  2
DOT
 70
64
  3
. . . . . . . . . . . . . . . . . . . .
 72
65
 73
2
 40
0.2
 49
0.1
 74
0
 49
-0.1
 74
0
  0
LTYPE
  5
1F9
100
AcDbSymbolTableRecord
100
AcDbLinetypeTableRecord
  2
DASHED
 70
64
  3
- - - - - - - - - - - - - - - - - - - -
 72
65
 73
2
 40
0.2
 49
0.1
 74
0
 49
-0.1
 74
0
  0
ENDTAB
  0
TABLE
  2
LAYER
  5
2
100
AcDbSymbolTable
 70
36
  0
LAYER
  5
10
100
AcDbSymbolTableRecord
100
AcDbLayerTableRecord
  2
0
 70
0
 62
7
  6
CONTINUOUS
370
-3
390
F
  0
LAYER
  5
1FA
100
AcDbSymbolTableRecord
100
AcDbLayerTableRecord
  2
DEFAULT_1
 70
0
 62
7
  6
CENTER
370
-3
390
F
  0
LAYER
  5
1FB
100
AcDbSymbolTableRecord
100
AcDbLayerTableRecord
  2
DEFAULT_2
 70
0
 62
8
  6
HIDDEN
370
-3
390
F
  0
LAYER
  5
1FC
100
AcDbSymbolTableRecord
100
AcDbLayerTableRecord
  2
DEFAULT_3
 70
0
 62
7
  6
PHANTOM
370
-3
390
F
  0
LAYER
  5
1FD
100
AcDbSymbolTableRecord
100
AcDbLayerTableRecord
  2
ALL_FEATURES
 70
0
 62
7
  6
CONTINUOUS
370
-3
390
F
  0
LAYER
  5
1FE
100
AcDbSymbolTableRecord
100
AcDbLayerTableRecord
  2
AXES_FEATURES
 70
0
 62
7
  6
CONTINUOUS
370
-3
390
F
  0
LAYER
  5
1FF
100
AcDbSymbolTableRecord
100
AcDbLayerTableRecord
  2
DEFAULT_COORDINATE_SYSTEM
 70
0
 62
7
  6
CONTINUOUS
370
-3
390
F
  0
LAYER
  5
200
100
AcDbSymbolTableRecord
100
AcDbLayerTableRecord
  2
DEFAULT_DATUM_AXES
 70
0
 62
7
  6
CONTINUOUS
370
-3
390
F
  0
LAYER
  5
201
100
AcDbSymbolTableRecord
100
AcDbLayerTableRecord
  2
DEFAULT_DATUM_PLANES
 70
0
 62
7
  6
CONTINUOUS
370
-3
390
F
  0
LAYER
  5
202
100
AcDbSymbolTableRecord
100
AcDbLayerTableRecord
  2
DIMENSIONS
 70
0
 62
7
  6
CONTINUOUS
370
-3
390
F
  0
ENDTAB
  0
TABLE
  2
STYLE
  5
3
100
AcDbSymbolTable
 70
1
  0
STYLE
  5
11
100
AcDbSymbolTableRecord
100
AcDbTextStyleTableRecord
  2
STANDARD
 70
0
 40
0.0
 41
0.8
 50
0.0
 71
0
 42
0.2
  3
txt
  4

  0
STYLE
  5
203
100
AcDbSymbolTableRecord
100
AcDbTextStyleTableRecord
  2
TEXTSTYLE_1
 70
0
 40
0.0
 41
0.8
 50
0.0
 71
0
 42
0.2
  3
gdt
  4

  0
ENDTAB
  0
TABLE
  2
VIEW
  5
6
100
AcDbSymbolTable
 70
0
  0
ENDTAB
  0
TABLE
  2
UCS
  5
7
100
AcDbSymbolTable
 70
0
  0
ENDTAB
  0
TABLE
  2
APPID
  5
9
100
AcDbSymbolTable
 70
1
  0
APPID
  5
204
100
AcDbSymbolTableRecord
100
AcDbRegAppTableRecord
  2
ACAD
 70
0
  0
ENDTAB
  0
TABLE
  2
BLOCK_RECORD
  5
1
100
AcDbSymbolTable
 70
0
  0
BLOCK_RECORD
  5
205
100
AcDbSymbolTableRecord
100
AcDbBlockTableRecord
  2
*Model_Space
  0
BLOCK_RECORD
  5
206
100
AcDbSymbolTableRecord
100
AcDbBlockTableRecord
  2
*Paper_Space
  0
BLOCK_RECORD
  5
207
100
AcDbSymbolTableRecord
100
AcDbBlockTableRecord
  2
_FILLED
  0
ENDTAB
  0
TABLE
  2
DIMSTYLE
  5
A
100
AcDbSymbolTable
 70
1
100
AcDbDimStyleTable
 71
0
  0
DIMSTYLE
105
208
100
AcDbSymbolTableRecord
100
AcDbDimStyleTableRecord
  2
STANDARD
 70
0
  3

  4

 40
1.0
 41
0.1
 42
0.0625
 43
0.38
 44
0.125
 45
0.0
 46
0.0
 47
0.001
 48
0.001
140
0.08
141
0.09
142
0.0
143
25.4
144
1.0
145
0.0
146
1.0
147
0.09
 71
1.0
 72
0.0
 73
1
 74
1
 75
0
 76
0
 77
0
 78
4
 79
1
170
1
171
2
172
0
173
0
174
0
175
0
176
0
177
0
178
0
270
2
179
3
271
3
272
3
273
2
274
2
275
0
280
0
281
0
282
0
283
1
284
4
285
0
286
0
287
3
288
0
340
11
278
46
341
207
342
207
343
207
344
207
  0
ENDTAB
  0
ENDSEC
  0
SECTION
  2
BLOCKS
  0
BLOCK
  5
20
100
AcDbEntity
  8
0
100
AcDbBlockBegin
  2
*Model_Space
 70
0
 10
0.0
 20
0.0
 30
0.0
  3
*Model_Space
  1

  0
ENDBLK
  5
21
100
AcDbEntity
  8
0
100
AcDbBlockEnd
  0
BLOCK
  5
1C
100
AcDbEntity
  8
0
100
AcDbBlockBegin
  2
*Paper_Space
 70
0
 10
0.0
 20
0.0
 30
0.0
  3
*Paper_Space
  1

  0
ENDBLK
  5
1D
100
AcDbEntity
  8
0
100
AcDbBlockEnd
  0
BLOCK
  5
209
100
AcDbEntity
  8
0
100
AcDbBlockBegin
  2
_FILLED
 70
64
 10
0.0
 20
0.0
  3
_FILLED
  1

  0
SOLID
  5
20A
100
AcDbEntity
  8
0
  6
BYBLOCK
 62
0
100
AcDbTrace
 10
0.0
 20
0.0
 11
-1.0
 21
0.2
 12
-1.0
 22
-0.2
 13
-1.0
 23
-0.2
  0
ENDBLK
  5
20B
100
AcDbEntity
  8
0
  6
BYBLOCK
 62
0
100
AcDbBlockEnd
  0
ENDSEC
  0
SECTION
  2
ENTITIES
  0
LINE
  5
20C
100
AcDbEntity
  8
0
100
AcDbLine
 62
7
  6
CONTINUOUS
 10
9.0234834891
 20
5.924391804
 11
9.0013800691
 21
5.9371532195
  0
LINE
  5
20D
100
AcDbEntity
  8
0
100
AcDbLine
 62
9
  6
CONTINUOUS
 10
9.2119051882
 20
5.7666926009
 11
9.5800617901
 21
5.7666926009
  0
LINE
  5
20E
100
AcDbEntity
  8
0
100
AcDbLine
 62
7
  6
CONTINUOUS
 10
9.0629834891
 20
5.816891804
 11
9.7289834891
 21
5.816891804
  0
LINE
  5
20F
100
AcDbEntity
  8
0
100
AcDbLine
 62
9
  6
CONTINUOUS
 10
8.9999834891
 20
5.879891804
 11
9.7919834891
 21
5.879891804
  0
LINE
  5
210
100
AcDbEntity
  8
0
100
AcDbLine
 62
7
  6
CONTINUOUS
 10
8.9999834891
 20
5.9108240727
 11
9.7919834891
 21
5.9108240727
  0
LINE
  5
211
100
AcDbEntity
  8
0
100
AcDbLine
 62
7
  6
CONTINUOUS
 10
9.0234834891
 20
5.924391804
 11
9.7684834891
 21
5.924391804
  0
LINE
  5
212
100
AcDbEntity
  8
0
100
AcDbLine
 62
7
  6
CONTINUOUS
 10
9.0013800691
 20
5.9371532195
 11
9.7905869091
 21
5.9371532195
  0
LINE
  5
213
100
AcDbEntity
  8
0
100
AcDbLine
 62
7
  6
CONTINUOUS
 10
9.7919834891
 20
5.9108240727
 11
9.7684834891
 21
5.924391804
  0
LINE
  5
214
100
AcDbEntity
  8
0
100
AcDbLine
 62
7
  6
CONTINUOUS
 10
10.3909834891
 20
6.389891804
 11
10.3009834891
 21
6.389891804
  0
LINE
  5
215
100
AcDbEntity
  8
0
100
AcDbLine
 62
7
  6
CONTINUOUS
 10
10.2939885196
 20
6.3906913007
 11
10.1579885196
 21
6.4221913007
  0
LINE
  5
216
100
AcDbEntity
  8
0
100
AcDbLine
 62
7
  6
CONTINUOUS
 10
11.5709834891
 20
6.603891804
 11
11.2179834891
 21
6.603891804
  0
LINE
  5
217
100
AcDbEntity
  8
0
100
AcDbLine
 62
7
  6
CONTINUOUS
 10
10.6269834891
 20
6.662891804
 11
11.2059834891
 21
6.662891804
  0
LINE
  5
218
100
AcDbEntity
  8
0
100
AcDbLine
 62
7
  6
CONTINUOUS
 10
10.6269834891
 20
7.016891804
 11
11.2059834891
 21
7.016891804
  0
LINE
  5
219
100
AcDbEntity
  8
0
100
AcDbLine
 62
7
  6
CONTINUOUS
 10
8.9999834891
 20
5.879891804
 11
8.9999834891
 21
5.9108240727
  0
LINE
  5
21A
100
AcDbEntity
  8
0
100
AcDbLine
 62
7
  6
CONTINUOUS
 10
11.5709834891
 20
7.075891804
 11
11.2179834891
 21
7.075891804
  0
LINE
  5
21B
100
AcDbEntity
  8
0
100
AcDbLine
 62
7
  6
CONTINUOUS
 10
10.3909834891
 20
7.289891804
 11
10.3009834891
 21
7.289891804
  0
LINE
  5
21C
100
AcDbEntity
  8
0
100
AcDbLine
 62
7
  6
CONTINUOUS
 10
9.0839834891
 20
9.499891804
 11
9.0839834891
 21
8.519891804
  0
LINE
  5
21D
100
AcDbEntity
  8
0
100
AcDbLine
 62
7
  6
CONTINUOUS
 10
9.2134834891
 20
8.502891804
 11
9.2134834891
 21
8.5237324011
  0
LINE
  5
21E
100
AcDbEntity
  8
0
100
AcDbLine
 62
7
  6
CONTINUOUS
 10
9.0013800691
 20
5.9371532195
 11
9.1304834891
 21
8.345891804
  0
LINE
  5
21F
100
AcDbEntity
  8
0
100
AcDbLine
 62
7
  6
CONTINUOUS
 10
10.2939885196
 20
7.2890923074
 11
10.1579885196
 21
7.2575923074
  0
LINE
  5
220
100
AcDbEntity
  8
0
100
AcDbLine
 62
7
  6
CONTINUOUS
 10
10.6269834891
 20
7.064891804
 11
10.4129974482
 21
7.2807180636
  0
LINE
  5
221
100
AcDbEntity
  8
0
100
AcDbLine
 62
7
  6
CONTINUOUS
 10
9.5784834891
 20
8.502891804
 11
9.5784834891
 21
8.5237324011
  0
LINE
  5
222
100
AcDbEntity
  8
0
100
AcDbLine
 62
7
  6
CONTINUOUS
 10
11.3592362464
 20
7.822391804
 11
11.6659834891
 21
7.822391804
  0
LINE
  5
223
100
AcDbEntity
  8
0
100
AcDbLine
 62
7
  6
CONTINUOUS
 10
9.7905869091
 20
5.9371532195
 11
9.6614834891
 21
8.345891804
  0
LINE
  5
224
100
AcDbEntity
  8
0
100
AcDbLine
 62
7
  6
CONTINUOUS
 10
9.7089834891
 20
9.499891804
 11
9.7089834891
 21
8.519891804
  0
LINE
  5
225
100
AcDbEntity
  8
0
100
AcDbLine
 62
7
  6
CONTINUOUS
 10
9.7919834891
 20
5.879891804
 11
9.7919834891
 21
5.9108240727
  0
LINE
  5
226
100
AcDbEntity
  8
0
100
AcDbLine
 62
7
  6
CONTINUOUS
 10
10.0189834891
 20
8.579891804
 11
10.0189834891
 21
9.439891804
  0
LINE
  5
227
100
AcDbEntity
  8
0
100
AcDbLine
 62
7
  6
CONTINUOUS
 10
10.1339834891
 20
6.4523918119
 11
10.1339834891
 21
7.2273917962
  0
LINE
  5
228
100
AcDbEntity
  8
0
100
AcDbLine
 62
7
  6
CONTINUOUS
 10
10.1389834891
 20
8.4325415349
 11
10.1389834891
 21
9.5872420732
  0
LINE
  5
229
100
AcDbEntity
  8
0
100
AcDbLine
 62
9
  6
CONTINUOUS
 10
10.1579885196
 20
6.4221913007
 11
10.1579885196
 21
7.2575923074
  0
LINE
  5
22A
100
AcDbEntity
  8
0
100
AcDbLine
 62
7
  6
CONTINUOUS
 10
9.1304834891
 20
8.345891804
 11
9.6614834891
 21
8.345891804
  0
LINE
  5
22B
100
AcDbEntity
  8
0
100
AcDbLine
 62
7
  6
CONTINUOUS
 10
9.1304834891
 20
8.439891804
 11
9.6614834891
 21
8.439891804
  0
LINE
  5
22C
100
AcDbEntity
  8
0
100
AcDbLine
 62
7
  6
CONTINUOUS
 10
10.1389834891
 20
8.4325415349
 11
10.5317916394
 21
8.34535012
  0
LINE
  5
22D
100
AcDbEntity
  8
0
100
AcDbLine
 62
9
  6
CONTINUOUS
 10
10.2939885196
 20
6.3906913007
 11
10.2939885196
 21
7.2890923074
  0
LINE
  5
22E
100
AcDbEntity
  8
0
100
AcDbLine
 62
9
  6
CONTINUOUS
 10
10.3009834891
 20
6.389891804
 11
10.3009834891
 21
7.289891804
  0
LINE
  5
22F
100
AcDbEntity
  8
0
100
AcDbLine
 62
9
  6
CONTINUOUS
 10
10.3909834891
 20
6.389891804
 11
10.3909834891
 21
7.289891804
  0
LINE
  5
230
100
AcDbEntity
  8
0
100
AcDbLine
 62
9
  6
CONTINUOUS
 10
10.4129974482
 20
6.3990655445
 11
10.4129974482
 21
7.2807180636
  0
LINE
  5
231
100
AcDbEntity
  8
0
100
AcDbLine
 62
7
  6
CONTINUOUS
 10
11.3442153624
 20
10.1796034494
 11
11.3592362464
 21
10.197391804
  0
LINE
  5
232
100
AcDbEntity
  8
0
100
AcDbLine
 62
9
  6
CONTINUOUS
 10
9.2134834891
 20
8.502891804
 11
9.5784834891
 21
8.502891804
  0
LINE
  5
233
100
AcDbEntity
  8
0
100
AcDbLine
 62
7
  6
CONTINUOUS
 10
9.0839834891
 20
8.519891804
 11
9.2034834891
 21
8.519891804
  0
LINE
  5
234
100
AcDbEntity
  8
0
100
AcDbLine
 62
7
  6
CONTINUOUS
 10
9.5884834891
 20
8.519891804
 11
9.7089834891
 21
8.519891804
  0
LINE
  5
235
100
AcDbEntity
  8
0
100
AcDbLine
 62
7
  6
CONTINUOUS
 10
10.1389834891
 20
8.579891804
 11
10.0189834891
 21
8.579891804
  0
LINE
  5
236
100
AcDbEntity
  8
0
100
AcDbLine
 62
7
  6
CONTINUOUS
 10
9.7089834891
 20
8.697391804
 11
10.0189834891
 21
8.697391804
  0
LINE
  5
237
100
AcDbEntity
  8
0
100
AcDbLine
 62
7
  6
CONTINUOUS
 10
10.1389834891
 20
8.7212166695
 11
10.5317916394
 21
8.677620962
  0
LINE
  5
238
100
AcDbEntity
  8
0
100
AcDbLine
 62
7
  6
CONTINUOUS
 10
11.3442153624
 20
7.8401801587
 11
11.3592362464
 21
7.822391804
  0
LINE
  5
239
100
AcDbEntity
  8
0
100
AcDbLine
 62
9
  6
CONTINUOUS
 10
10.5317916394
 20
8.34535012
 11
10.5317916394
 21
9.6744334881
  0
LINE
  5
23A
100
AcDbEntity
  8
0
100
AcDbLine
 62
7
  6
CONTINUOUS
 10
10.6269834891
 20
6.614891804
 11
10.6269834891
 21
7.064891804
  0
LINE
  5
23B
100
AcDbEntity
  8
0
100
AcDbLine
 62
7
  6
CONTINUOUS
 10
11.3442153624
 20
9.5947476267
 11
11.3592362464
 21
9.603641804
  0
LINE
  5
23C
100
AcDbEntity
  8
0
100
AcDbLine
 62
7
  6
CONTINUOUS
 10
11.3442153624
 20
8.4250359814
 11
11.3592362464
 21
8.416141804
  0
LINE
  5
23D
100
AcDbEntity
  8
0
100
AcDbLine
 62
7
  6
CONTINUOUS
 10
9.7089834891
 20
9.322391804
 11
10.0189834891
 21
9.322391804
  0
LINE
  5
23E
100
AcDbEntity
  8
0
100
AcDbLine
 62
7
  6
CONTINUOUS
 10
11.2059834891
 20
6.615891804
 11
11.2059834891
 21
7.063891804
  0
LINE
  5
23F
100
AcDbEntity
  8
0
100
AcDbLine
 62
9
  6
CONTINUOUS
 10
11.2179834891
 20
6.603891804
 11
11.2179834891
 21
7.075891804
  0
LINE
  5
240
100
AcDbEntity
  8
0
100
AcDbLine
 62
7
  6
CONTINUOUS
 10
10.1389834891
 20
9.2985669386
 11
10.5317916394
 21
9.342162646
  0
LINE
  5
241
100
AcDbEntity
  8
0
100
AcDbLine
 62
7
  6
CONTINUOUS
 10
10.1389834891
 20
9.439891804
 11
10.0189834891
 21
9.439891804
  0
LINE
  5
242
100
AcDbEntity
  8
0
100
AcDbLine
 62
7
  6
CONTINUOUS
 10
9.0839834891
 20
9.499891804
 11
9.7089834891
 21
9.499891804
  0
LINE
  5
243
100
AcDbEntity
  8
0
100
AcDbLine
 62
9
  6
CONTINUOUS
 10
11.3442153624
 20
7.8401801587
 11
11.3442153624
 21
10.1796034494
  0
LINE
  5
244
100
AcDbEntity
  8
0
100
AcDbLine
 62
7
  6
CONTINUOUS
 10
11.5709834891
 20
6.5598918119
 11
11.5709834891
 21
7.1198917962
  0
LINE
  5
245
100
AcDbEntity
  8
0
100
AcDbLine
 62
7
  6
CONTINUOUS
 10
10.1389834891
 20
9.5872420732
 11
10.5317916394
 21
9.6744334881
  0
LINE
  5
246
100
AcDbEntity
  8
0
100
AcDbLine
 62
7
  6
CONTINUOUS
 10
11.6659834891
 20
11.7634699897
 11
11.6659834891
 21
6.2563136183
  0
LINE
  5
247
100
AcDbEntity
  8
0
100
AcDbLine
 62
9
  6
CONTINUOUS
 10
11.7939834891
 20
6.0381027112
 11
11.7939834891
 21
11.9816808969
  0
LINE
  5
248
100
AcDbEntity
  8
0
100
AcDbLine
 62
7
  6
CONTINUOUS
 10
11.9219736539
 20
12.2030279345
 11
11.9219736539
 21
5.8167556736
  0
LINE
  5
249
100
AcDbEntity
  8
0
100
AcDbLine
 62
9
  6
CONTINUOUS
 10
12.045981294
 20
5.6008189982
 11
12.045981294
 21
12.4189646099
  0
LINE
  5
24A
100
AcDbEntity
  8
0
100
AcDbLine
 62
7
  6
CONTINUOUS
 10
11.3592362464
 20
10.197391804
 11
11.6659834891
 21
10.197391804
  0
LINE
  5
24B
100
AcDbEntity
  8
0
100
AcDbLine
 62
7
  6
CONTINUOUS
 10
12.1699834891
 20
12.634891804
 11
12.1699834891
 21
5.384891804
  0
LINE
  5
24C
100
AcDbEntity
  8
0
100
AcDbLine
 62
7
  6
CONTINUOUS
 10
12.4199834891
 20
5.134891804
 11
12.4199834891
 21
12.884891804
  0
LINE
  5
24D
100
AcDbEntity
  8
0
100
AcDbLine
 62
7
  6
CONTINUOUS
 10
10.6269834891
 20
6.614891804
 11
10.4129974482
 21
6.3990655445
  0
LINE
  5
24E
100
AcDbEntity
  8
0
100
AcDbLine
 62
7
  6
CONTINUOUS
 10
8.9999834891
 20
5.9108240727
 11
9.0234834891
 21
5.924391804
  0
LINE
  5
24F
100
AcDbEntity
  8
0
100
AcDbLine
 62
7
  6
CONTINUOUS
 10
9.7684834891
 20
5.924391804
 11
9.7905869091
 21
5.9371532195
  0
ARC
  5
250
100
AcDbEntity
  8
0
100
AcDbCircle
 62
7
  6
CONTINUOUS
 10
10.5016929093
 20
9.009891804
 40
1.5
100
AcDbArc
 50
160.9334198993
 51
199.0665801007
  0
ARC
  5
251
100
AcDbEntity
  8
0
100
AcDbCircle
 62
7
  6
CONTINUOUS
 10
12.1719846314
 20
12.2030279345
 40
0.2500109774
100
AcDbArc
 50
120.2644101313
 51
180.0
  0
ARC
  5
252
100
AcDbEntity
  8
0
100
AcDbCircle
 62
7
  6
CONTINUOUS
 10
12.1719846314
 20
5.8167556736
 40
0.2500109774
100
AcDbArc
 50
180.0
 51
239.7355898687
  0
ARC
  5
253
100
AcDbEntity
  8
0
100
AcDbCircle
 62
7
  6
CONTINUOUS
 10
11.9159834891
 20
11.7634699897
 40
0.25
100
AcDbArc
 50
119.2092119338
 51
180.0
  0
ARC
  5
254
100
AcDbEntity
  8
0
100
AcDbCircle
 62
7
  6
CONTINUOUS
 10
11.6719834891
 20
12.199891804
 40
0.25
100
AcDbArc
 50
299.2092119338
 51
359.8335160759
  0
ARC
  5
255
100
AcDbEntity
  8
0
100
AcDbCircle
 62
7
  6
CONTINUOUS
 10
11.9199834891
 20
12.634891804
 40
0.25
100
AcDbArc
 50
300.2644101313
 51
360.0
  0
ARC
  5
256
100
AcDbEntity
  8
0
100
AcDbCircle
 62
7
  6
CONTINUOUS
 10
12.4199834891
 20
12.634891804
 40
0.25
100
AcDbArc
 50
90.0
 51
180.0
  0
ARC
  5
257
100
AcDbEntity
  8
0
100
AcDbCircle
 62
7
  6
CONTINUOUS
 10
11.9159834891
 20
6.2563136183
 40
0.25
100
AcDbArc
 50
180.0
 51
240.7907880662
  0
ARC
  5
258
100
AcDbEntity
  8
0
100
AcDbCircle
 62
7
  6
CONTINUOUS
 10
11.6719834891
 20
5.819891804
 40
0.25
100
AcDbArc
 50
0.1664839241
 51
60.7907880662
  0
ARC
  5
259
100
AcDbEntity
  8
0
100
AcDbCircle
 62
7
  6
CONTINUOUS
 10
11.9199834891
 20
5.384891804
 40
0.25
100
AcDbArc
 50
0.0
 51
59.7355898687
  0
ARC
  5
25A
100
AcDbEntity
  8
0
100
AcDbCircle
 62
7
  6
CONTINUOUS
 10
12.4199834891
 20
5.384891804
 40
0.25
100
AcDbArc
 50
180.0
 51
270.0
  0
ARC
  5
25B
100
AcDbEntity
  8
0
100
AcDbCircle
 62
7
  6
CONTINUOUS
 10
9.3959834891
 20
5.804891804
 40
0.188
100
AcDbArc
 50
191.7234029883
 51
348.2765970117
  0
ARC
  5
25C
100
AcDbEntity
  8
0
100
AcDbCircle
 62
7
  6
CONTINUOUS
 10
11.6659834891
 20
6.559891804
 40
0.095
100
AcDbArc
 50
180.0
 51
270.0
  0
ARC
  5
25D
100
AcDbEntity
  8
0
100
AcDbCircle
 62
7
  6
CONTINUOUS
 10
11.6659834891
 20
7.119891804
 40
0.095
100
AcDbArc
 50
90.0
 51
180.0
  0
ARC
  5
25E
100
AcDbEntity
  8
0
100
AcDbCircle
 62
7
  6
CONTINUOUS
 10
9.6414834891
 20
8.502891804
 40
0.063
100
AcDbArc
 50
180.0
 51
270.0
  0
ARC
  5
25F
100
AcDbEntity
  8
0
100
AcDbCircle
 62
7
  6
CONTINUOUS
 10
9.1504834891
 20
8.502891804
 40
0.063
100
AcDbArc
 50
270.0
 51
360.0
  0
ARC
  5
260
100
AcDbEntity
  8
0
100
AcDbCircle
 62
7
  6
CONTINUOUS
 10
9.7289834891
 20
5.879891804
 40
0.063
100
AcDbArc
 50
270.0
 51
360.0
  0
ARC
  5
261
100
AcDbEntity
  8
0
100
AcDbCircle
 62
7
  6
CONTINUOUS
 10
9.0629834891
 20
5.879891804
 40
0.063
100
AcDbArc
 50
180.0
 51
270.0
  0
ARC
  5
262
100
AcDbEntity
  8
0
100
AcDbCircle
 62
7
  6
CONTINUOUS
 10
9.6417476037
 20
5.753891804
 40
0.063
100
AcDbArc
 50
90.0
 51
168.2765970117
  0
ARC
  5
263
100
AcDbEntity
  8
0
100
AcDbCircle
 62
7
  6
CONTINUOUS
 10
9.1502193746
 20
5.753891804
 40
0.063
100
AcDbArc
 50
11.7234029883
 51
90.0
  0
ARC
  5
264
100
AcDbEntity
  8
0
100
AcDbCircle
 62
7
  6
CONTINUOUS
 10
9.6614834891
 20
8.392891804
 40
0.047
100
AcDbArc
 50
270.0
 51
90.0
  0
ARC
  5
265
100
AcDbEntity
  8
0
100
AcDbCircle
 62
7
  6
CONTINUOUS
 10
9.1304834891
 20
8.392891804
 40
0.047
100
AcDbArc
 50
90.0
 51
270.0
  0
ARC
  5
266
100
AcDbEntity
  8
0
100
AcDbCircle
 62
7
  6
CONTINUOUS
 10
10.3909834891
 20
7.258891804
 40
0.031
100
AcDbArc
 50
44.7546926505
 51
90.0
  0
ARC
  5
267
100
AcDbEntity
  8
0
100
AcDbCircle
 62
7
  6
CONTINUOUS
 10
10.3009834891
 20
7.258891804
 40
0.031
100
AcDbArc
 50
90.0
 51
103.0407610339
  0
ARC
  5
268
100
AcDbEntity
  8
0
100
AcDbCircle
 62
7
  6
CONTINUOUS
 10
10.3909834891
 20
6.420891804
 40
0.031
100
AcDbArc
 50
270.0
 51
315.2453073495
  0
ARC
  5
269
100
AcDbEntity
  8
0
100
AcDbCircle
 62
7
  6
CONTINUOUS
 10
10.3009834891
 20
6.420891804
 40
0.031
100
AcDbArc
 50
256.9592389661
 51
270.0
  0
ARC
  5
26A
100
AcDbEntity
  8
0
100
AcDbCircle
 62
7
  6
CONTINUOUS
 10
10.1649834891
 20
7.227391804
 40
0.031
100
AcDbArc
 50
103.0407610339
 51
180.0
  0
ARC
  5
26B
100
AcDbEntity
  8
0
100
AcDbCircle
 62
7
  6
CONTINUOUS
 10
10.1649834891
 20
6.452391804
 40
0.031
100
AcDbArc
 50
180.0
 51
256.9592389661
  0
ARC
  5
26C
100
AcDbEntity
  8
0
100
AcDbCircle
 62
7
  6
CONTINUOUS
 10
11.2179834891
 20
7.063891804
 40
0.012
100
AcDbArc
 50
90.0
 51
180.0
  0
ARC
  5
26D
100
AcDbEntity
  8
0
100
AcDbCircle
 62
7
  6
CONTINUOUS
 10
11.2179834891
 20
6.615891804
 40
0.012
100
AcDbArc
 50
180.0
 51
270.0
  0
SPLINE
  5
26E
100
AcDbEntity
  8
0
100
AcDbSpline
 62
7
  6
CONTINUOUS
 70
0
 71
3
 72
29
 73
25
 74
0
 42
0.0000001
 43
0.0000001
 44
0.0000000001
 40
0.0
 40
0.0
 40
0.0
 40
0.0
 40
0.0401842761
 40
0.0879213331
 40
0.1508866843
 40
0.1872398818
 40
0.2263915416
 40
0.2680044351
 40
0.311731143
 40
0.3572045056
 40
0.4040294339
 40
0.4517793705
 40
0.5
 40
0.5482206295
 40
0.5959705661
 40
0.6427954944
 40
0.688268857
 40
0.7319955649
 40
0.7736084584
 40
0.8127601182
 40
0.8491133157
 40
0.9120786669
 40
0.9598157239
 40
1.0
 40
1.0
 40
1.0
 40
1.0
 10
9.2034834891
 20
8.519891804
 30
0.0
 10
9.2084120323
 20
8.5218279834
 30
0.0
 10
9.2192424577
 20
8.5259452725
 30
0.0
 10
9.2380051311
 20
8.5325314657
 30
0.0
 10
9.2565066254
 20
8.5383137131
 30
0.0
 10
9.2740984417
 20
8.5431638515
 30
0.0
 10
9.2890834336
 20
8.5468636881
 30
0.0
 10
9.3051236798
 20
8.550314233
 30
0.0
 10
9.3220903719
 20
8.5533771995
 30
0.0
 10
9.3398373051
 20
8.5559221116
 30
0.0
 10
9.3581973567
 20
8.5578336432
 30
0.0
 10
9.3769817347
 20
8.559020228
 30
0.0
 10
9.3959834891
 20
8.5594226064
 30
0.0
 10
9.4149852436
 20
8.559020228
 30
0.0
 10
9.4337696216
 20
8.5578336432
 30
0.0
 10
9.4521296732
 20
8.5559221116
 30
0.0
 10
9.4698766063
 20
8.5533771995
 30
0.0
 10
9.4868432985
 20
8.550314233
 30
0.0
 10
9.5028835446
 20
8.5468636881
 30
0.0
 10
9.5178685365
 20
8.5431638515
 30
0.0
 10
9.5354603529
 20
8.5383137131
 30
0.0
 10
9.5539618471
 20
8.5325314657
 30
0.0
 10
9.5727245206
 20
8.5259452725
 30
0.0
 10
9.583554946
 20
8.5218279834
 30
0.0
 10
9.5884834891
 20
8.519891804
 30
0.0
  0
SPLINE
  5
26F
100
AcDbEntity
  8
0
100
AcDbSpline
 62
7
  6
CONTINUOUS
 70
0
 71
3
 72
30
 73
26
 74
0
 42
0.0000001
 43
0.0000001
 44
0.0000000001
 40
0.0
 40
0.0
 40
0.0
 40
0.0
 40
0.031250804
 40
0.0625016092
 40
0.0937524205
 40
0.1250032356
 40
0.1562540554
 40
0.18750488
 40
0.2187557096
 40
0.2500065444
 40
0.3125046448
 40
0.3750028581
 40
0.437501188
 40
0.4999996367
 40
0.5624982055
 40
0.6249968942
 40
0.6562478027
 40
0.6874987168
 40
0.7187496364
 40
0.7500005612
 40
0.8124995968
 40
0.87499874
 40
0.9062496986
 40
0.9375006303
 40
1.0
 40
1.0
 40
1.0
 40
1.0
 10
10.5317916394
 20
9.6744334881
 30
0.0
 10
10.5416946781
 20
9.6766316603
 30
0.0
 10
10.5614522161
 20
9.6812500456
 30
0.0
 10
10.5909259395
 20
9.6888371808
 30
0.0
 10
10.6202238811
 20
9.6970775812
 30
0.0
 10
10.6493322367
 20
9.7059642778
 30
0.0
 10
10.6782378075
 20
9.7154899186
 30
0.0
 10
10.706927633
 20
9.7256466911
 30
0.0
 10
10.7353893495
 20
9.7364264958
 30
0.0
 10
10.7730160819
 20
9.7516180544
 30
0.0
 10
10.819422895
 20
9.7721231013
 30
0.0
 10
10.874010247
 20
9.7990758329
 30
0.0
 10
10.9274174849
 20
9.8282977029
 30
0.0
 10
10.9795681125
 20
9.8597065009
 30
0.0
 10
11.0303924843
 20
9.8932174403
 30
0.0
 10
11.0715903114
 20
9.9228246355
 30
0.0
 10
11.1038235737
 20
9.9474732266
 30
0.0
 10
11.1276316589
 20
9.9664317041
 30
0.0
 10
11.1510656941
 20
9.9858505534
 30
0.0
 10
11.1818035839
 20
10.0123406715
 30
0.0
 10
11.2192647472
 20
10.0465515536
 30
0.0
 10
11.2554074589
 20
10.0821516063
 30
0.0
 10
11.283511863
 20
10.1114208614
 30
0.0
 10
11.3110719155
 20
10.1412027353
 30
0.0
 10
11.3311265136
 20
10.1641030912
 30
0.0
 10
11.3442153624
 20
10.1796034494
 30
0.0
  0
SPLINE
  5
270
100
AcDbEntity
  8
0
100
AcDbSpline
 62
7
  6
CONTINUOUS
 70
0
 71
3
 72
30
 73
26
 74
0
 42
0.0000001
 43
0.0000001
 44
0.0000000001
 40
0.0
 40
0.0
 40
0.0
 40
0.0
 40
0.031250804
 40
0.0625016092
 40
0.0937524205
 40
0.1250032356
 40
0.1562540554
 40
0.18750488
 40
0.2187557096
 40
0.2500065444
 40
0.3125046448
 40
0.3750028581
 40
0.437501188
 40
0.4999996367
 40
0.5624982055
 40
0.6249968942
 40
0.6562478027
 40
0.6874987168
 40
0.7187496364
 40
0.7500005612
 40
0.8124995968
 40
0.87499874
 40
0.9062496986
 40
0.9375006303
 40
1.0
 40
1.0
 40
1.0
 40
1.0
 10
10.5317916394
 20
8.34535012
 30
0.0
 10
10.5416946781
 20
8.3431519478
 30
0.0
 10
10.5614522161
 20
8.3385335625
 30
0.0
 10
10.5909259395
 20
8.3309464273
 30
0.0
 10
10.6202238811
 20
8.3227060269
 30
0.0
 10
10.6493322367
 20
8.3138193303
 30
0.0
 10
10.6782378075
 20
8.3042936895
 30
0.0
 10
10.706927633
 20
8.294136917
 30
0.0
 10
10.7353893495
 20
8.2833571122
 30
0.0
 10
10.7730160819
 20
8.2681655537
 30
0.0
 10
10.819422895
 20
8.2476605068
 30
0.0
 10
10.874010247
 20
8.2207077752
 30
0.0
 10
10.9274174849
 20
8.1914859052
 30
0.0
 10
10.9795681125
 20
8.1600771072
 30
0.0
 10
11.0303924843
 20
8.1265661678
 30
0.0
 10
11.0715903114
 20
8.0969589726
 30
0.0
 10
11.1038235737
 20
8.0723103815
 30
0.0
 10
11.1276316589
 20
8.053351904
 30
0.0
 10
11.1510656941
 20
8.0339330547
 30
0.0
 10
11.1818035839
 20
8.0074429365
 30
0.0
 10
11.2192647472
 20
7.9732320545
 30
0.0
 10
11.2554074589
 20
7.9376320018
 30
0.0
 10
11.283511863
 20
7.9083627467
 30
0.0
 10
11.3110719155
 20
7.8785808728
 30
0.0
 10
11.3311265136
 20
7.8556805169
 30
0.0
 10
11.3442153624
 20
7.8401801587
 30
0.0
  0
SPLINE
  5
271
100
AcDbEntity
  8
0
100
AcDbSpline
 62
7
  6
CONTINUOUS
 70
0
 71
3
 72
23
 73
19
 74
0
 42
0.0000001
 43
0.0000001
 44
0.0000000001
 40
0.0
 40
0.0
 40
0.0
 40
0.0
 40
0.0694889288
 40
0.1383679862
 40
0.2065464319
 40
0.2739395763
 40
0.3404692494
 40
0.4060641476
 40
0.4706600606
 40
0.5341999905
 40
0.5966341743
 40
0.6579200267
 40
0.7180220164
 40
0.7769114927
 40
0.8345664785
 40
0.890971443
 40
0.9461170547
 40
1.0
 40
1.0
 40
1.0
 40
1.0
 10
10.5317916394
 20
9.342162646
 30
0.0
 10
10.551520094
 20
9.3443522033
 30
0.0
 10
10.5907550222
 20
9.3491665021
 30
0.0
 10
10.6491369486
 20
9.3577214086
 30
0.0
 10
10.7067106408
 20
9.3675530361
 30
0.0
 10
10.7633741694
 20
9.378629573
 30
0.0
 10
10.8190322271
 20
9.3909163532
 30
0.0
 10
10.8735957526
 20
9.4043762184
 30
0.0
 10
10.9269822631
 20
9.4189699704
 30
0.0
 10
10.979115854
 20
9.4346567862
 30
0.0
 10
11.0299271526
 20
9.4513946188
 30
0.0
 10
11.0793531716
 20
9.4691405689
 30
0.0
 10
11.1273370841
 20
9.4878512207
 30
0.0
 10
11.1738279648
 20
9.507482957
 30
0.0
 10
11.2187803972
 20
9.5279921838
 30
0.0
 10
11.2621543712
 20
9.5493357082
 30
0.0
 10
11.3039140043
 20
9.5714703953
 30
0.0
 10
11.3309712555
 20
9.5869055161
 30
0.0
 10
11.3442153624
 20
9.5947476267
 30
0.0
  0
SPLINE
  5
272
100
AcDbEntity
  8
0
100
AcDbSpline
 62
7
  6
CONTINUOUS
 70
0
 71
3
 72
23
 73
19
 74
0
 42
0.0000001
 43
0.0000001
 44
0.0000000001
 40
0.0
 40
0.0
 40
0.0
 40
0.0
 40
0.0694889288
 40
0.1383679862
 40
0.2065464319
 40
0.2739395763
 40
0.3404692494
 40
0.4060641476
 40
0.4706600606
 40
0.5341999905
 40
0.5966341743
 40
0.6579200267
 40
0.7180220164
 40
0.7769114927
 40
0.8345664785
 40
0.890971443
 40
0.9461170547
 40
1.0
 40
1.0
 40
1.0
 40
1.0
 10
10.5317916394
 20
8.677620962
 30
0.0
 10
10.551520094
 20
8.6754314048
 30
0.0
 10
10.5907550222
 20
8.670617106
 30
0.0
 10
10.6491369486
 20
8.6620621995
 30
0.0
 10
10.7067106408
 20
8.652230572
 30
0.0
 10
10.7633741694
 20
8.6411540351
 30
0.0
 10
10.8190322271
 20
8.6288672549
 30
0.0
 10
10.8735957526
 20
8.6154073897
 30
0.0
 10
10.9269822631
 20
8.6008136377
 30
0.0
 10
10.979115854
 20
8.5851268219
 30
0.0
 10
11.0299271526
 20
8.5683889893
 30
0.0
 10
11.0793531716
 20
8.5506430392
 30
0.0
 10
11.1273370841
 20
8.5319323874
 30
0.0
 10
11.1738279648
 20
8.5123006511
 30
0.0
 10
11.2187803972
 20
8.4917914242
 30
0.0
 10
11.2621543712
 20
8.4704478999
 30
0.0
 10
11.3039140043
 20
8.4483132128
 30
0.0
 10
11.3309712555
 20
8.432878092
 30
0.0
 10
11.3442153624
 20
8.4250359814
 30
0.0
  0
ELLIPSE
  5
273
100
AcDbEntity
  8
0
100
AcDbEllipse
 62
7
  6
CONTINUOUS
 10
10.3564847187
 20
9.009891804
 30
0.0
 11
1.1162095399
 21
1.1492470711
 31
0.0
 40
0.2678505055
 41
-0.7926884546
 42
0.2545090966
  0
ELLIPSE
  5
274
100
AcDbEntity
  8
0
100
AcDbEllipse
 62
7
  6
CONTINUOUS
 10
10.3564847187
 20
9.009891804
 30
0.0
 11
0.0
 21
1.1875
 31
0.0
 40
0.9750549296
 41
-2.0943951024
 42
-1.0471975512
  0
ELLIPSE
  5
275
100
AcDbEntity
  8
0
100
AcDbEllipse
 62
7
  6
CONTINUOUS
 10
10.3564847187
 20
9.009891804
 30
0.0
 11
1.1162095399
 21
-1.1492470711
 31
0.0
 40
0.2678505055
 41
-0.2545090966
 42
0.7926884546
  0
ENDSEC
  0
SECTION
  2
OBJECTS
  0
DICTIONARY
  5
C
100
AcDbDictionary
280
0
281
1
  3
ACAD_GROUP
350
D
  3
ACAD_MLINESTYLE
350
17
  3
ACAD_LAYOUT
350
1A
  3
ACAD_PLOTSETTINGS
350
19
  3
ACAD_PLOTSTYLENAME
350
E
  0
DICTIONARY
  5
D
102
{ACAD_REACTORS
330
C
102
}
100
AcDbDictionary
280
0
281
1
  0
ACDBDICTIONARYWDFLT
  5
E
102
{ACAD_REACTORS
330
C
102
}
100
AcDbDictionary
281
1
  3
Normal
350
F
100
AcDbDictionaryWithDefault
340
F
  0
DICTIONARY
  5
17
102
{ACAD_REACTORS
330
C
102
}
100
AcDbDictionary
280
0
281
1
  3
Standard
350
18
  0
DICTIONARY
  5
19
102
{ACAD_REACTORS
330
C
102
}
100
AcDbDictionary
281
1
  0
DICTIONARY
  5
1A
102
{ACAD_REACTORS
330
C
102
}
100
AcDbDictionary
281
1
  3
Model
350
276
  3
Layout1
350
277
  0
ACDBPLACEHOLDER
  5
F
102
{ACAD_REACTORS
330
E
102
}
  0
MLINESTYLE
  5
18
102
{ACAD_REACTORS
330
17
102
}
100
AcDbMlineStyle
  2
STANDARD
 70
0
  3

 62
256
 51
90.0
 52
90.0
 71
2
 49
0.5
 62
256
  6
BYLAYER
 49
-0.5
 62
256
  6
BYLAYER
  0
LAYOUT
  5
276
102
{ACAD_REACTORS
330
1A
102
}
100
AcDbPlotSettings
  1

  2
none_device
  4
ANSI_C_(22.00_x_17.00_Inches)
  6

 40
0.0
 41
0.0
 42
0.0
 43
0.0
 44
558.8
 45
431.8
 46
0.0
 47
0.0
 48
0.0
 49
0.0
140
0.0
141
0.0
142
1.0
143
1.0
 70
1024
 72
0
 73
0
 74
0
  7

 75
0
147
1.0
148
0.0
149
0.0
100
AcDbLayout
  1
Model
 70
0
 71
0
 10
0.0
 20
0.0
 11
22.0
 21
17.0
 12
0.0
 22
0.0
 32
0.0
 14
0.0
 24
0.0
 34
0.0
 15
0.0
 25
0.0
 35
0.0
146
0.0
 13
0.0
 23
0.0
 33
0.0
 16
1.0
 26
0.0
 36
0.0
 17
0.0
 27
1.0
 37
0.0
 76
0
330
205
345
0
346
0
  0
LAYOUT
  5
277
102
{ACAD_REACTORS
330
1A
102
}
100
AcDbPlotSettings
  1

  2
none_device
  4
ANSI_C_(22.00_x_17.00_Inches)
  6

 40
0.0
 41
0.0
 42
0.0
 43
0.0
 44
558.8
 45
431.8
 46
0.0
 47
0.0
 48
0.0
 49
0.0
140
0.0
141
0.0
142
1.0
143
1.0
 70
0
 72
0
 73
0
 74
0
  7

 75
0
147
1.0
148
0.0
149
0.0
100
AcDbLayout
  1
Layout1
 70
0
 71
1
 10
0.0
 20
0.0
 11
22.0
 21
17.0
 12
0.0
 22
0.0
 32
0.0
 14
0.0
 24
0.0
 34
0.0
 15
0.0
 25
0.0
 35
0.0
146
0.0
 13
0.0
 23
0.0
 33
0.0
 16
1.0
 26
0.0
 36
0.0
 17
0.0
 27
1.0
 37
0.0
 76
0
330
206
345
0
346
0
  0
ENDSEC
  0
EOF
