999
DXF file: E:\BT Custom\CADOUTPUT\_FRONT.dxf
999
Pro/ENGINEER 2018400 by Parametric Technology Corporation
  0
SECTION
  2
HEADER
  9
$ACADVER
  1
AC1018
  9
$DWGCODEPAGE
  3
ANSI_1252
  9
$EXTMAX
 10
22.0
 20
17.0
 30
0.0
  9
$EXTMIN
 10
0.0
 20
0.0
 30
0.0
  9
$LIMMIN
 10
0.0
 20
0.0
  9
$LIMMAX
 10
22.0
 20
17.0
  9
$VIEWCTR
 10
11.0
 20
8.5
  9
$VIEWSIZE
 40
17.0
  9
$CLAYER
  8
0
  9
$LTSCALE
 40
1.21
  9
$CELTYPE
  6
BYLAYER
  9
$DIMSCALE
 40
1.0
  9
$DIMASZ
 40
0.1
  9
$DIMEXO
 40
0.0625
  9
$DIMDLI
 40
0.836
  9
$DIMEXE
 40
0.125
  9
$DIMCEN
 40
0.198
  9
$DIMLFAC
 40
1.0
  9
$DIMBLK
  1
_FILLED
  9
$DIMALT
 70
1
  9
$DIMALTD
 70
2
  9
$DIMALTTD
 70
2
  9
$DIMALTF
 40
25.4
  9
$DIMTXT
 40
0.08
  9
$DIMTOL
 70
1
  9
$DIMLIM
 70
0
  9
$DIMTFAC
 40
1.0
  9
$DIMTP
 40
0.001
  9
$DIMTM
 40
0.001
  9
$DIMGAP
 40
0.09
  9
$DIMDSEP
 70
46
  9
$AUNITS
 70
0
  9
$PDMODE
 70
3
  9
$PDSIZE
 40
0.06
  9
$HANDSEED
  5
334
  9
$TILEMODE
 70
1
  9
$MEASUREMENT
 70
0
  9
$INSUNITS
 70
1
  0
ENDSEC
  0
SECTION
  2
CLASSES
  0
CLASS
  1
ACDBDICTIONARYWDFLT
  2
AcDbDictionaryWithDefault
  3
AutoCAD 2000
 90
0
 91
1
280
0
281
0
  0
CLASS
  1
ACDBPLACEHOLDER
  2
AcDbPlaceHolder
  3
AutoCAD 2000
 90
0
 91
1
280
0
281
0
  0
CLASS
  1
LAYOUT
  2
AcDbLayout
  3
AutoCAD 2000
 90
0
 91
0
280
0
281
0
  0
ENDSEC
  0
SECTION
  2
TABLES
  0
TABLE
  2
VPORT
  5
8
100
AcDbSymbolTable
 70
2
  0
VPORT
  5
1F4
100
AcDbSymbolTableRecord
100
AcDbViewportTableRecord
  2
*ACTIVE
 70
0
 10
0.0
 20
0.0
 11
1.0
 21
1.0
 12
11.0
 22
8.5
 13
0.0
 23
0.0
 14
1.0
 24
1.0
 15
0.0
 25
0.0
 16
0.0
 26
0.0
 36
1.0
 17
0.0
 27
0.0
 37
0.0
 40
17.0
 41
1.2941176471
 42
50.0
 43
0.0
 44
0.0
 50
0.0
 51
0.0
 71
0
 72
100
 73
1
 74
1
 75
0
 76
0
 77
0
 78
0
  0
ENDTAB
  0
TABLE
  2
LTYPE
  5
5
100
AcDbSymbolTable
 70
6
  0
LTYPE
  5
14
100
AcDbSymbolTableRecord
100
AcDbLinetypeTableRecord
  2
BYBLOCK
 70
0
  3

 72
65
 73
0
 40
0.0
  0
LTYPE
  5
15
100
AcDbSymbolTableRecord
100
AcDbLinetypeTableRecord
  2
BYLAYER
 70
0
  3

 72
65
 73
0
 40
0.0
  0
LTYPE
  5
16
100
AcDbSymbolTableRecord
100
AcDbLinetypeTableRecord
  2
CONTINUOUS
 70
64
  3
Solid line
 72
65
 73
0
 40
0.0
  0
LTYPE
  5
1F5
100
AcDbSymbolTableRecord
100
AcDbLinetypeTableRecord
  2
CENTER
 70
64
  3
____ _ ____ _ ____ _ ____ _ ____ _ ____ _ ____
 72
65
 73
4
 40
0.6
 49
0.375
 74
0
 49
-0.075
 74
0
 49
0.075
 74
0
 49
-0.075
 74
0
  0
LTYPE
  5
1F6
100
AcDbSymbolTableRecord
100
AcDbLinetypeTableRecord
  2
HIDDEN
 70
64
  3
- - - - - - - - - - - - - - - - - - - -
 72
65
 73
2
 40
0.2
 49
0.1
 74
0
 49
-0.1
 74
0
  0
LTYPE
  5
1F7
100
AcDbSymbolTableRecord
100
AcDbLinetypeTableRecord
  2
PHANTOM
 70
64
  3
_____ _ _ _____ _ _ _____ _ _ _____
 72
65
 73
6
 40
0.8
 49
0.45
 74
0
 49
-0.05
 74
0
 49
0.1
 74
0
 49
-0.05
 74
0
 49
0.1
 74
0
 49
-0.05
 74
0
  0
LTYPE
  5
1F8
100
AcDbSymbolTableRecord
100
AcDbLinetypeTableRecord
  2
DOT
 70
64
  3
. . . . . . . . . . . . . . . . . . . .
 72
65
 73
2
 40
0.2
 49
0.1
 74
0
 49
-0.1
 74
0
  0
LTYPE
  5
1F9
100
AcDbSymbolTableRecord
100
AcDbLinetypeTableRecord
  2
DASHED
 70
64
  3
- - - - - - - - - - - - - - - - - - - -
 72
65
 73
2
 40
0.2
 49
0.1
 74
0
 49
-0.1
 74
0
  0
ENDTAB
  0
TABLE
  2
LAYER
  5
2
100
AcDbSymbolTable
 70
36
  0
LAYER
  5
10
100
AcDbSymbolTableRecord
100
AcDbLayerTableRecord
  2
0
 70
0
 62
7
  6
CONTINUOUS
370
-3
390
F
  0
LAYER
  5
1FA
100
AcDbSymbolTableRecord
100
AcDbLayerTableRecord
  2
DEFAULT_1
 70
0
 62
7
  6
CENTER
370
-3
390
F
  0
LAYER
  5
1FB
100
AcDbSymbolTableRecord
100
AcDbLayerTableRecord
  2
DEFAULT_2
 70
0
 62
8
  6
HIDDEN
370
-3
390
F
  0
LAYER
  5
1FC
100
AcDbSymbolTableRecord
100
AcDbLayerTableRecord
  2
DEFAULT_3
 70
0
 62
7
  6
PHANTOM
370
-3
390
F
  0
LAYER
  5
1FD
100
AcDbSymbolTableRecord
100
AcDbLayerTableRecord
  2
ALL_FEATURES
 70
0
 62
7
  6
CONTINUOUS
370
-3
390
F
  0
LAYER
  5
1FE
100
AcDbSymbolTableRecord
100
AcDbLayerTableRecord
  2
AXES_FEATURES
 70
0
 62
7
  6
CONTINUOUS
370
-3
390
F
  0
LAYER
  5
1FF
100
AcDbSymbolTableRecord
100
AcDbLayerTableRecord
  2
DEFAULT_COORDINATE_SYSTEM
 70
0
 62
7
  6
CONTINUOUS
370
-3
390
F
  0
LAYER
  5
200
100
AcDbSymbolTableRecord
100
AcDbLayerTableRecord
  2
DEFAULT_DATUM_AXES
 70
0
 62
7
  6
CONTINUOUS
370
-3
390
F
  0
LAYER
  5
201
100
AcDbSymbolTableRecord
100
AcDbLayerTableRecord
  2
DEFAULT_DATUM_PLANES
 70
0
 62
7
  6
CONTINUOUS
370
-3
390
F
  0
LAYER
  5
202
100
AcDbSymbolTableRecord
100
AcDbLayerTableRecord
  2
DIMENSIONS
 70
0
 62
7
  6
CONTINUOUS
370
-3
390
F
  0
ENDTAB
  0
TABLE
  2
STYLE
  5
3
100
AcDbSymbolTable
 70
1
  0
STYLE
  5
11
100
AcDbSymbolTableRecord
100
AcDbTextStyleTableRecord
  2
STANDARD
 70
0
 40
0.0
 41
0.8
 50
0.0
 71
0
 42
0.2
  3
txt
  4

  0
STYLE
  5
203
100
AcDbSymbolTableRecord
100
AcDbTextStyleTableRecord
  2
TEXTSTYLE_1
 70
0
 40
0.0
 41
0.8
 50
0.0
 71
0
 42
0.2
  3
gdt
  4

  0
ENDTAB
  0
TABLE
  2
VIEW
  5
6
100
AcDbSymbolTable
 70
0
  0
ENDTAB
  0
TABLE
  2
UCS
  5
7
100
AcDbSymbolTable
 70
0
  0
ENDTAB
  0
TABLE
  2
APPID
  5
9
100
AcDbSymbolTable
 70
1
  0
APPID
  5
204
100
AcDbSymbolTableRecord
100
AcDbRegAppTableRecord
  2
ACAD
 70
0
  0
ENDTAB
  0
TABLE
  2
BLOCK_RECORD
  5
1
100
AcDbSymbolTable
 70
0
  0
BLOCK_RECORD
  5
205
100
AcDbSymbolTableRecord
100
AcDbBlockTableRecord
  2
*Model_Space
  0
BLOCK_RECORD
  5
206
100
AcDbSymbolTableRecord
100
AcDbBlockTableRecord
  2
*Paper_Space
  0
BLOCK_RECORD
  5
207
100
AcDbSymbolTableRecord
100
AcDbBlockTableRecord
  2
_FILLED
  0
ENDTAB
  0
TABLE
  2
DIMSTYLE
  5
A
100
AcDbSymbolTable
 70
1
100
AcDbDimStyleTable
 71
0
  0
DIMSTYLE
105
208
100
AcDbSymbolTableRecord
100
AcDbDimStyleTableRecord
  2
STANDARD
 70
0
  3

  4

 40
1.0
 41
0.1
 42
0.0625
 43
0.38
 44
0.125
 45
0.0
 46
0.0
 47
0.001
 48
0.001
140
0.08
141
0.09
142
0.0
143
25.4
144
1.0
145
0.0
146
1.0
147
0.09
 71
1.0
 72
0.0
 73
1
 74
1
 75
0
 76
0
 77
0
 78
4
 79
1
170
1
171
2
172
0
173
0
174
0
175
0
176
0
177
0
178
0
270
2
179
3
271
3
272
3
273
2
274
2
275
0
280
0
281
0
282
0
283
1
284
4
285
0
286
0
287
3
288
0
340
11
278
46
341
207
342
207
343
207
344
207
  0
ENDTAB
  0
ENDSEC
  0
SECTION
  2
BLOCKS
  0
BLOCK
  5
20
100
AcDbEntity
  8
0
100
AcDbBlockBegin
  2
*Model_Space
 70
0
 10
0.0
 20
0.0
 30
0.0
  3
*Model_Space
  1

  0
ENDBLK
  5
21
100
AcDbEntity
  8
0
100
AcDbBlockEnd
  0
BLOCK
  5
1C
100
AcDbEntity
  8
0
100
AcDbBlockBegin
  2
*Paper_Space
 70
0
 10
0.0
 20
0.0
 30
0.0
  3
*Paper_Space
  1

  0
ENDBLK
  5
1D
100
AcDbEntity
  8
0
100
AcDbBlockEnd
  0
BLOCK
  5
209
100
AcDbEntity
  8
0
100
AcDbBlockBegin
  2
_FILLED
 70
64
 10
0.0
 20
0.0
  3
_FILLED
  1

  0
SOLID
  5
20A
100
AcDbEntity
  8
0
  6
BYBLOCK
 62
0
100
AcDbTrace
 10
0.0
 20
0.0
 11
-1.0
 21
0.2
 12
-1.0
 22
-0.2
 13
-1.0
 23
-0.2
  0
ENDBLK
  5
20B
100
AcDbEntity
  8
0
  6
BYBLOCK
 62
0
100
AcDbBlockEnd
  0
ENDSEC
  0
SECTION
  2
ENTITIES
  0
LINE
  5
20C
100
AcDbEntity
  8
0
100
AcDbLine
 62
7
  6
CONTINUOUS
 10
12.7097640734
 20
7.6551695021
 11
12.6392131786
 21
7.6551695021
  0
LINE
  5
20D
100
AcDbEntity
  8
0
100
AcDbLine
 62
7
  6
CONTINUOUS
 10
12.4910711001
 20
7.6551695021
 11
12.6084113877
 21
7.6551695021
  0
LINE
  5
20E
100
AcDbEntity
  8
0
100
AcDbLine
 62
7
  6
CONTINUOUS
 10
12.7097640734
 20
7.6843578974
 11
12.6717751424
 21
7.6843578974
  0
LINE
  5
20F
100
AcDbEntity
  8
0
100
AcDbLine
 62
7
  6
CONTINUOUS
 10
12.6084113877
 20
7.6880247823
 11
12.5236330371
 21
7.6880247823
  0
LINE
  5
210
100
AcDbEntity
  8
0
100
AcDbLine
 62
7
  6
CONTINUOUS
 10
12.6717751424
 20
7.8473142254
 11
12.7216447573
 21
7.8473142254
  0
LINE
  5
211
100
AcDbEntity
  8
0
100
AcDbLine
 62
7
  6
CONTINUOUS
 10
12.4910711001
 20
7.8801695021
 11
12.5236330371
 21
7.8801695021
  0
LINE
  5
212
100
AcDbEntity
  8
0
100
AcDbLine
 62
7
  6
CONTINUOUS
 10
12.6392131786
 20
7.8801695021
 11
12.7206180076
 21
7.8801695021
  0
LINE
  5
213
100
AcDbEntity
  8
0
100
AcDbLine
 62
9
  6
CONTINUOUS
 10
9.9246923427
 20
9.8525253248
 11
9.9246923427
 21
8.6828136795
  0
LINE
  5
214
100
AcDbEntity
  8
0
100
AcDbLine
 62
9
  6
CONTINUOUS
 10
10.0537853251
 20
9.8330011388
 11
10.3723607061
 21
10.1515765198
  0
LINE
  5
215
100
AcDbEntity
  8
0
100
AcDbLine
 62
9
  6
CONTINUOUS
 10
10.1524753514
 20
9.8155994245
 11
10.3897624204
 21
10.0528864935
  0
LINE
  5
216
100
AcDbEntity
  8
0
100
AcDbLine
 62
7
  6
CONTINUOUS
 10
10.1552144206
 20
9.7827325235
 11
10.4226293214
 21
10.0501474242
  0
LINE
  5
217
100
AcDbEntity
  8
0
100
AcDbLine
 62
9
  6
CONTINUOUS
 10
10.1715038663
 20
9.7638601532
 11
10.4415016917
 21
10.0338579785
  0
LINE
  5
218
100
AcDbEntity
  8
0
100
AcDbLine
 62
9
  6
CONTINUOUS
 10
10.9376923427
 20
10.4373811475
 11
10.3788564869
 21
10.1147371157
  0
LINE
  5
219
100
AcDbEntity
  8
0
100
AcDbLine
 62
9
  6
CONTINUOUS
 10
9.9560776967
 20
9.8706456674
 11
9.9246923427
 21
9.8525253248
  0
LINE
  5
21A
100
AcDbEntity
  8
0
100
AcDbLine
 62
9
  6
CONTINUOUS
 10
9.9246923427
 20
8.6828136795
 11
9.9560776967
 21
8.6646933369
  0
LINE
  5
21B
100
AcDbEntity
  8
0
100
AcDbLine
 62
9
  6
CONTINUOUS
 10
10.3788564869
 20
8.4206018885
 11
10.9376923427
 21
8.0979578568
  0
LINE
  5
21C
100
AcDbEntity
  8
0
100
AcDbLine
 62
9
  6
CONTINUOUS
 10
10.0537853251
 20
8.7023378655
 11
10.3723607061
 21
8.3837624845
  0
LINE
  5
21D
100
AcDbEntity
  8
0
100
AcDbLine
 62
9
  6
CONTINUOUS
 10
10.1524753514
 20
8.7197395798
 11
10.3897624204
 21
8.4824525108
  0
LINE
  5
21E
100
AcDbEntity
  8
0
100
AcDbLine
 62
7
  6
CONTINUOUS
 10
10.1552144373
 20
8.7526064641
 11
10.4226293047
 21
8.4851915967
  0
LINE
  5
21F
100
AcDbEntity
  8
0
100
AcDbLine
 62
9
  6
CONTINUOUS
 10
10.1715038663
 20
8.7714788511
 11
10.4415016917
 21
8.5014810258
  0
LINE
  5
220
100
AcDbEntity
  8
0
100
AcDbLine
 62
9
  6
CONTINUOUS
 10
10.3621823625
 20
9.5999403441
 11
10.3621823625
 21
8.9353986601
  0
LINE
  5
221
100
AcDbEntity
  8
0
100
AcDbLine
 62
7
  6
CONTINUOUS
 10
10.3897624204
 20
8.4824525108
 11
10.3723607061
 21
8.3837624845
  0
LINE
  5
222
100
AcDbEntity
  8
0
100
AcDbLine
 62
9
  6
CONTINUOUS
 10
10.6941024896
 20
9.775261824
 11
10.6810689559
 21
9.7622282903
  0
LINE
  5
223
100
AcDbEntity
  8
0
100
AcDbLine
 62
9
  6
CONTINUOUS
 10
10.4431329947
 20
9.5242923291
 11
10.4301000208
 21
9.5112593552
  0
LINE
  5
224
100
AcDbEntity
  8
0
100
AcDbLine
 62
9
  6
CONTINUOUS
 10
10.9376923427
 20
9.9322111861
 11
10.6679947913
 21
9.7765012322
  0
LINE
  5
225
100
AcDbEntity
  8
0
100
AcDbLine
 62
9
  6
CONTINUOUS
 10
10.4042538362
 20
9.6242303208
 11
10.3621823625
 21
9.5999403441
  0
LINE
  5
226
100
AcDbEntity
  8
0
100
AcDbLine
 62
7
  6
CONTINUOUS
 10
10.9376923427
 20
9.8450197713
 11
10.9006093283
 21
9.823609883
  0
LINE
  5
227
100
AcDbEntity
  8
0
100
AcDbLine
 62
7
  6
CONTINUOUS
 10
10.1524753514
 20
8.7197395798
 11
10.0537853251
 21
8.7023378655
  0
LINE
  5
228
100
AcDbEntity
  8
0
100
AcDbLine
 62
7
  6
CONTINUOUS
 10
11.8215993603
 20
8.7023378655
 11
11.7229093341
 21
8.7197395798
  0
LINE
  5
229
100
AcDbEntity
  8
0
100
AcDbLine
 62
9
  6
CONTINUOUS
 10
10.3621823625
 20
8.9353986601
 11
10.4042538362
 21
8.9111086835
  0
LINE
  5
22A
100
AcDbEntity
  8
0
100
AcDbLine
 62
9
  6
CONTINUOUS
 10
10.6679947913
 20
8.7588377721
 11
10.9376923427
 21
8.6031278181
  0
LINE
  5
22B
100
AcDbEntity
  8
0
100
AcDbLine
 62
7
  6
CONTINUOUS
 10
10.9012439928
 20
8.7113626976
 11
10.9376923427
 21
8.690319233
  0
LINE
  5
22C
100
AcDbEntity
  8
0
100
AcDbLine
 62
9
  6
CONTINUOUS
 10
10.4301000208
 20
9.0240796491
 11
10.4431329942
 21
9.0110466757
  0
LINE
  5
22D
100
AcDbEntity
  8
0
100
AcDbLine
 62
9
  6
CONTINUOUS
 10
10.6810695175
 20
8.7731101524
 11
10.6941024896
 21
8.7600771802
  0
LINE
  5
22E
100
AcDbEntity
  8
0
100
AcDbLine
 62
7
  6
CONTINUOUS
 10
10.3723607061
 20
10.1515765198
 11
10.3897624204
 21
10.0528864935
  0
LINE
  5
22F
100
AcDbEntity
  8
0
100
AcDbLine
 62
7
  6
CONTINUOUS
 10
10.9545575795
 20
8.9801695021
 11
10.9466915226
 21
9.2318833237
  0
LINE
  5
230
100
AcDbEntity
  8
0
100
AcDbLine
 62
7
  6
CONTINUOUS
 10
10.9676923427
 20
9.2001695021
 11
10.9751923427
 21
8.9601695021
  0
LINE
  5
231
100
AcDbEntity
  8
0
100
AcDbLine
 62
7
  6
CONTINUOUS
 10
10.6488872576
 20
11.5801695021
 11
10.6488872576
 21
11.3551695021
  0
LINE
  5
232
100
AcDbEntity
  8
0
100
AcDbLine
 62
7
  6
CONTINUOUS
 10
10.6814491862
 20
11.3551695021
 11
10.6814491862
 21
11.4522685866
  0
LINE
  5
233
100
AcDbEntity
  8
0
100
AcDbLine
 62
7
  6
CONTINUOUS
 10
10.6814491862
 20
11.48512387
 11
10.6814491862
 21
11.5801695021
  0
LINE
  5
234
100
AcDbEntity
  8
0
100
AcDbLine
 62
7
  6
CONTINUOUS
 10
10.7844152944
 20
11.5801695021
 11
10.7844152944
 21
11.48512387
  0
LINE
  5
235
100
AcDbEntity
  8
0
100
AcDbLine
 62
7
  6
CONTINUOUS
 10
10.7844152944
 20
11.4522685866
 11
10.7844152944
 21
11.3551695021
  0
LINE
  5
236
100
AcDbEntity
  8
0
100
AcDbLine
 62
7
  6
CONTINUOUS
 10
10.816977218
 20
11.3551695021
 11
10.816977218
 21
11.5801695021
  0
LINE
  5
237
100
AcDbEntity
  8
0
100
AcDbLine
 62
7
  6
CONTINUOUS
 10
10.9376923427
 20
8.690319233
 11
10.9376923427
 21
8.6031278181
  0
LINE
  5
238
100
AcDbEntity
  8
0
100
AcDbLine
 62
7
  6
CONTINUOUS
 10
10.9376923427
 20
8.0979578568
 11
10.9376923427
 21
8.0801695021
  0
LINE
  5
239
100
AcDbEntity
  8
0
100
AcDbLine
 62
7
  6
CONTINUOUS
 10
10.9376923427
 20
9.8450197713
 11
10.9376923427
 21
9.9322111861
  0
LINE
  5
23A
100
AcDbEntity
  8
0
100
AcDbLine
 62
7
  6
CONTINUOUS
 10
10.9376923427
 20
10.4373811475
 11
10.9376923427
 21
10.4551695021
  0
LINE
  5
23B
100
AcDbEntity
  8
0
100
AcDbLine
 62
7
  6
CONTINUOUS
 10
10.9076923427
 20
9.2001695021
 11
10.9001923427
 21
8.9601695021
  0
LINE
  5
23C
100
AcDbEntity
  8
0
100
AcDbLine
 62
7
  6
CONTINUOUS
 10
10.920827106
 20
8.9801695021
 11
10.9286931629
 21
9.2318833237
  0
LINE
  5
23D
100
AcDbEntity
  8
0
100
AcDbLine
 62
7
  6
CONTINUOUS
 10
10.4248889216
 20
8.9716023089
 11
10.3621823625
 21
8.9353986601
  0
LINE
  5
23E
100
AcDbEntity
  8
0
100
AcDbLine
 62
7
  6
CONTINUOUS
 10
9.9246923427
 20
8.6828136795
 11
9.9092871757
 21
8.6739195021
  0
LINE
  5
23F
100
AcDbEntity
  8
0
100
AcDbLine
 62
7
  6
CONTINUOUS
 10
11.4504957638
 20
9.5637366954
 11
11.513202323
 21
9.5999403441
  0
LINE
  5
240
100
AcDbEntity
  8
0
100
AcDbLine
 62
7
  6
CONTINUOUS
 10
11.9506923427
 20
9.8525253248
 11
11.9660975097
 21
9.8614195021
  0
LINE
  5
241
100
AcDbEntity
  8
0
100
AcDbLine
 62
7
  6
CONTINUOUS
 10
10.9286931629
 20
9.2318833237
 11
10.8289584572
 21
9.1858732449
  0
LINE
  5
242
100
AcDbEntity
  8
0
100
AcDbLine
 62
7
  6
CONTINUOUS
 10
10.8239758146
 20
9.1615490036
 11
10.9076923427
 21
9.2001695021
  0
LINE
  5
243
100
AcDbEntity
  8
0
100
AcDbLine
 62
7
  6
CONTINUOUS
 10
10.9751923427
 20
8.9601695021
 11
10.9001923427
 21
8.9601695021
  0
LINE
  5
244
100
AcDbEntity
  8
0
100
AcDbLine
 62
7
  6
CONTINUOUS
 10
10.920827106
 20
8.9801695021
 11
10.9545575795
 21
8.9801695021
  0
LINE
  5
245
100
AcDbEntity
  8
0
100
AcDbLine
 62
7
  6
CONTINUOUS
 10
11.0514088709
 20
9.1615490036
 11
10.9676923427
 21
9.2001695021
  0
LINE
  5
246
100
AcDbEntity
  8
0
100
AcDbLine
 62
7
  6
CONTINUOUS
 10
10.9466915226
 20
9.2318833237
 11
11.0464262283
 21
9.1858732449
  0
LINE
  5
247
100
AcDbEntity
  8
0
100
AcDbLine
 62
7
  6
CONTINUOUS
 10
10.4248889216
 20
9.5637366954
 11
10.3621823625
 21
9.5999403441
  0
LINE
  5
248
100
AcDbEntity
  8
0
100
AcDbLine
 62
7
  6
CONTINUOUS
 10
9.9246923427
 20
9.8525253248
 11
9.9092871757
 21
9.8614195021
  0
LINE
  5
249
100
AcDbEntity
  8
0
100
AcDbLine
 62
7
  6
CONTINUOUS
 10
11.4504957638
 20
8.9716023089
 11
11.513202323
 21
8.9353986601
  0
LINE
  5
24A
100
AcDbEntity
  8
0
100
AcDbLine
 62
7
  6
CONTINUOUS
 10
11.9506923427
 20
8.6828136795
 11
11.9660975097
 21
8.6739195021
  0
LINE
  5
24B
100
AcDbEntity
  8
0
100
AcDbLine
 62
7
  6
CONTINUOUS
 10
11.0660319792
 20
11.5473142254
 11
11.0660319792
 21
11.5801695021
  0
LINE
  5
24C
100
AcDbEntity
  8
0
100
AcDbLine
 62
7
  6
CONTINUOUS
 10
11.1295424239
 20
11.5473142254
 11
11.1295424239
 21
11.3551695021
  0
LINE
  5
24D
100
AcDbEntity
  8
0
100
AcDbLine
 62
7
  6
CONTINUOUS
 10
11.1621043341
 20
11.3551695021
 11
11.1621043341
 21
11.5473142254
  0
LINE
  5
24E
100
AcDbEntity
  8
0
100
AcDbLine
 62
7
  6
CONTINUOUS
 10
11.225614752
 20
11.5801695021
 11
11.225614752
 21
11.5473142254
  0
LINE
  5
24F
100
AcDbEntity
  8
0
100
AcDbLine
 62
7
  6
CONTINUOUS
 10
11.4856222651
 20
10.0528864935
 11
11.5030239794
 21
10.1515765198
  0
LINE
  5
250
100
AcDbEntity
  8
0
100
AcDbLine
 62
7
  6
CONTINUOUS
 10
11.7229093341
 20
9.8155994245
 11
11.8215993603
 21
9.8330011388
  0
LINE
  5
251
100
AcDbEntity
  8
0
100
AcDbLine
 62
7
  6
CONTINUOUS
 10
10.0537853251
 20
9.8330011388
 11
10.1524753514
 21
9.8155994245
  0
LINE
  5
252
100
AcDbEntity
  8
0
100
AcDbLine
 62
7
  6
CONTINUOUS
 10
11.5030239794
 20
8.3837624845
 11
11.4856222651
 21
8.4824525108
  0
LINE
  5
253
100
AcDbEntity
  8
0
100
AcDbLine
 62
9
  6
CONTINUOUS
 10
11.513202323
 20
8.9353986601
 11
11.513202323
 21
9.5999403441
  0
LINE
  5
254
100
AcDbEntity
  8
0
100
AcDbLine
 62
7
  6
CONTINUOUS
 10
12.0941929939
 20
10.8801695021
 11
12.0485769602
 21
10.6827444699
  0
LINE
  5
255
100
AcDbEntity
  8
0
100
AcDbLine
 62
7
  6
CONTINUOUS
 10
12.0705782624
 20
10.6551695021
 11
12.1166343259
 21
10.8357268679
  0
LINE
  5
256
100
AcDbEntity
  8
0
100
AcDbLine
 62
9
  6
CONTINUOUS
 10
11.1812821958
 20
8.7600771802
 11
11.1943151673
 21
8.7731101518
  0
LINE
  5
257
100
AcDbEntity
  8
0
100
AcDbLine
 62
9
  6
CONTINUOUS
 10
11.4322516903
 20
9.0110466748
 11
11.4452846646
 21
9.0240796491
  0
LINE
  5
258
100
AcDbEntity
  8
0
100
AcDbLine
 62
7
  6
CONTINUOUS
 10
10.9376923427
 20
8.690319233
 11
10.9741406927
 21
8.7113626976
  0
LINE
  5
259
100
AcDbEntity
  8
0
100
AcDbLine
 62
9
  6
CONTINUOUS
 10
10.9376923427
 20
8.6031278181
 11
11.2073898942
 21
8.7588377721
  0
LINE
  5
25A
100
AcDbEntity
  8
0
100
AcDbLine
 62
9
  6
CONTINUOUS
 10
11.4711308492
 20
8.9111086835
 11
11.513202323
 21
8.9353986601
  0
LINE
  5
25B
100
AcDbEntity
  8
0
100
AcDbLine
 62
7
  6
CONTINUOUS
 10
10.9747753572
 20
9.823609883
 11
10.9376923427
 21
9.8450197713
  0
LINE
  5
25C
100
AcDbEntity
  8
0
100
AcDbLine
 62
9
  6
CONTINUOUS
 10
11.513202323
 20
9.5999403441
 11
11.4711308492
 21
9.6242303208
  0
LINE
  5
25D
100
AcDbEntity
  8
0
100
AcDbLine
 62
9
  6
CONTINUOUS
 10
11.2073898942
 20
9.7765012322
 11
10.9376923427
 21
9.9322111861
  0
LINE
  5
25E
100
AcDbEntity
  8
0
100
AcDbLine
 62
9
  6
CONTINUOUS
 10
11.4452846646
 20
9.5112593552
 11
11.432251691
 21
9.5242923288
  0
LINE
  5
25F
100
AcDbEntity
  8
0
100
AcDbLine
 62
9
  6
CONTINUOUS
 10
11.19431573
 20
9.7622282899
 11
11.1812821958
 21
9.775261824
  0
LINE
  5
260
100
AcDbEntity
  8
0
100
AcDbLine
 62
9
  6
CONTINUOUS
 10
11.9506923427
 20
9.8525253248
 11
11.9506923427
 21
8.6828136795
  0
LINE
  5
261
100
AcDbEntity
  8
0
100
AcDbLine
 62
7
  6
CONTINUOUS
 10
12.2282542797
 20
10.8801695021
 11
12.1849850448
 21
10.6827444699
  0
LINE
  5
262
100
AcDbEntity
  8
0
100
AcDbLine
 62
7
  6
CONTINUOUS
 10
12.2080130698
 20
10.6551695021
 11
12.2624296191
 21
10.8801695021
  0
LINE
  5
263
100
AcDbEntity
  8
0
100
AcDbLine
 62
7
  6
CONTINUOUS
 10
12.3023253324
 20
10.6551695021
 11
12.320806423
 21
10.7183865803
  0
LINE
  5
264
100
AcDbEntity
  8
0
100
AcDbLine
 62
7
  6
CONTINUOUS
 10
12.3416343125
 20
10.8801695021
 11
12.2702034118
 21
10.6551695021
  0
LINE
  5
265
100
AcDbEntity
  8
0
100
AcDbLine
 62
7
  6
CONTINUOUS
 10
12.3307803514
 20
10.7512418638
 11
12.3683292391
 21
10.8567014473
  0
LINE
  5
266
100
AcDbEntity
  8
0
100
AcDbLine
 62
9
  6
CONTINUOUS
 10
11.7038808191
 20
8.7714788511
 11
11.4338829937
 21
8.5014810258
  0
LINE
  5
267
100
AcDbEntity
  8
0
100
AcDbLine
 62
7
  6
CONTINUOUS
 10
11.7201702648
 20
8.7526064808
 11
11.4527553641
 21
8.48519158
  0
LINE
  5
268
100
AcDbEntity
  8
0
100
AcDbLine
 62
9
  6
CONTINUOUS
 10
11.7229093341
 20
8.7197395798
 11
11.4856222651
 21
8.4824525108
  0
LINE
  5
269
100
AcDbEntity
  8
0
100
AcDbLine
 62
9
  6
CONTINUOUS
 10
11.8215993603
 20
8.7023378655
 11
11.5030239794
 21
8.3837624845
  0
LINE
  5
26A
100
AcDbEntity
  8
0
100
AcDbLine
 62
9
  6
CONTINUOUS
 10
10.9376923427
 20
8.0979578568
 11
11.4965281985
 21
8.4206018885
  0
LINE
  5
26B
100
AcDbEntity
  8
0
100
AcDbLine
 62
9
  6
CONTINUOUS
 10
11.9193069888
 20
8.6646933369
 11
11.9506923427
 21
8.6828136795
  0
LINE
  5
26C
100
AcDbEntity
  8
0
100
AcDbLine
 62
9
  6
CONTINUOUS
 10
11.9506923427
 20
9.8525253248
 11
11.9193069888
 21
9.8706456674
  0
LINE
  5
26D
100
AcDbEntity
  8
0
100
AcDbLine
 62
9
  6
CONTINUOUS
 10
11.4965281985
 20
10.1147371157
 11
10.9376923427
 21
10.4373811475
  0
LINE
  5
26E
100
AcDbEntity
  8
0
100
AcDbLine
 62
9
  6
CONTINUOUS
 10
11.4338829937
 20
10.0338579785
 11
11.7038808191
 21
9.7638601532
  0
LINE
  5
26F
100
AcDbEntity
  8
0
100
AcDbLine
 62
7
  6
CONTINUOUS
 10
11.4527553807
 20
10.0501474076
 11
11.7201702482
 21
9.7827325401
  0
LINE
  5
270
100
AcDbEntity
  8
0
100
AcDbLine
 62
9
  6
CONTINUOUS
 10
11.4856222651
 20
10.0528864935
 11
11.7229093341
 21
9.8155994245
  0
LINE
  5
271
100
AcDbEntity
  8
0
100
AcDbLine
 62
9
  6
CONTINUOUS
 10
11.5030239794
 20
10.1515765198
 11
11.8215993603
 21
9.8330011388
  0
LINE
  5
272
100
AcDbEntity
  8
0
100
AcDbLine
 62
7
  6
CONTINUOUS
 10
12.2327757801
 20
7.6809843658
 11
12.2327757801
 21
7.7180932338
  0
LINE
  5
273
100
AcDbEntity
  8
0
100
AcDbLine
 62
7
  6
CONTINUOUS
 10
12.2327757801
 20
7.8131388592
 11
12.2327757801
 21
7.8577281701
  0
LINE
  5
274
100
AcDbEntity
  8
0
100
AcDbLine
 62
7
  6
CONTINUOUS
 10
12.8448774757
 20
10.8801695021
 11
12.7976480129
 21
10.6994654598
  0
LINE
  5
275
100
AcDbEntity
  8
0
100
AcDbLine
 62
7
  6
CONTINUOUS
 10
12.8137823047
 20
10.6551695021
 11
12.8705456795
 21
10.8574348169
  0
LINE
  5
276
100
AcDbEntity
  8
0
100
AcDbLine
 62
7
  6
CONTINUOUS
 10
12.9047209921
 20
10.6551695021
 11
12.8721590819
 21
10.6551695021
  0
LINE
  5
277
100
AcDbEntity
  8
0
100
AcDbLine
 62
7
  6
CONTINUOUS
 10
12.8137823047
 20
10.6551695021
 11
12.7779935362
 21
10.6551695021
  0
LINE
  5
278
100
AcDbEntity
  8
0
100
AcDbLine
 62
7
  6
CONTINUOUS
 10
12.7194700422
 20
10.6551695021
 11
12.6869081321
 21
10.6551695021
  0
LINE
  5
279
100
AcDbEntity
  8
0
100
AcDbLine
 62
7
  6
CONTINUOUS
 10
12.6477457883
 20
10.6551695021
 11
12.6100502374
 21
10.6551695021
  0
LINE
  5
27A
100
AcDbEntity
  8
0
100
AcDbLine
 62
7
  6
CONTINUOUS
 10
12.5301121475
 20
10.6551695021
 11
12.4975502374
 21
10.6551695021
  0
LINE
  5
27B
100
AcDbEntity
  8
0
100
AcDbLine
 62
7
  6
CONTINUOUS
 10
12.4677751424
 20
10.6551695021
 11
12.4349198522
 21
10.6551695021
  0
LINE
  5
27C
100
AcDbEntity
  8
0
100
AcDbLine
 62
7
  6
CONTINUOUS
 10
12.3023253324
 20
10.6551695021
 11
12.2702034118
 21
10.6551695021
  0
LINE
  5
27D
100
AcDbEntity
  8
0
100
AcDbLine
 62
7
  6
CONTINUOUS
 10
12.2080130698
 20
10.6551695021
 11
12.1629837426
 21
10.6551695021
  0
LINE
  5
27E
100
AcDbEntity
  8
0
100
AcDbLine
 62
7
  6
CONTINUOUS
 10
12.0705782624
 20
10.6551695021
 11
12.0255489284
 21
10.6551695021
  0
LINE
  5
27F
100
AcDbEntity
  8
0
100
AcDbLine
 62
7
  6
CONTINUOUS
 10
12.320806423
 20
10.7183865803
 11
12.4162920716
 21
10.7183865803
  0
LINE
  5
280
100
AcDbEntity
  8
0
100
AcDbLine
 62
7
  6
CONTINUOUS
 10
12.4064648332
 20
10.7512418638
 11
12.3307803514
 21
10.7512418638
  0
LINE
  5
281
100
AcDbEntity
  8
0
100
AcDbLine
 62
7
  6
CONTINUOUS
 10
12.5682477417
 20
10.7747099253
 11
12.5301121475
 21
10.7747099253
  0
LINE
  5
282
100
AcDbEntity
  8
0
100
AcDbLine
 62
7
  6
CONTINUOUS
 10
11.9709856934
 20
10.8801695021
 11
12.0255489284
 21
10.6551695021
  0
LINE
  5
283
100
AcDbEntity
  8
0
100
AcDbLine
 62
7
  6
CONTINUOUS
 10
12.0485769602
 20
10.6827444699
 11
12.0050143754
 21
10.8801695021
  0
LINE
  5
284
100
AcDbEntity
  8
0
100
AcDbLine
 62
7
  6
CONTINUOUS
 10
12.4910711001
 20
7.8801695021
 11
12.4910711001
 21
7.6551695021
  0
LINE
  5
285
100
AcDbEntity
  8
0
100
AcDbLine
 62
7
  6
CONTINUOUS
 10
12.4975502374
 20
10.8801695021
 11
12.4975502374
 21
10.6551695021
  0
LINE
  5
286
100
AcDbEntity
  8
0
100
AcDbLine
 62
7
  6
CONTINUOUS
 10
12.5236330371
 20
7.6880247823
 11
12.5236330371
 21
7.8801695021
  0
LINE
  5
287
100
AcDbEntity
  8
0
100
AcDbLine
 62
7
  6
CONTINUOUS
 10
12.5301121475
 20
10.6551695021
 11
12.5301121475
 21
10.7684028851
  0
LINE
  5
288
100
AcDbEntity
  8
0
100
AcDbLine
 62
7
  6
CONTINUOUS
 10
12.5301121475
 20
10.7747099253
 11
12.5301121475
 21
10.8473142254
  0
LINE
  5
289
100
AcDbEntity
  8
0
100
AcDbLine
 62
7
  6
CONTINUOUS
 10
12.6084113877
 20
7.6880247823
 11
12.6084113877
 21
7.6551695021
  0
LINE
  5
28A
100
AcDbEntity
  8
0
100
AcDbLine
 62
7
  6
CONTINUOUS
 10
12.6392131786
 20
7.8801695021
 11
12.6392131786
 21
7.6551695021
  0
LINE
  5
28B
100
AcDbEntity
  8
0
100
AcDbLine
 62
7
  6
CONTINUOUS
 10
12.6717751424
 20
7.6843578974
 11
12.6717751424
 21
7.8473142254
  0
LINE
  5
28C
100
AcDbEntity
  8
0
100
AcDbLine
 62
7
  6
CONTINUOUS
 10
12.6869081321
 20
10.8801695021
 11
12.6869081321
 21
10.6551695021
  0
LINE
  5
28D
100
AcDbEntity
  8
0
100
AcDbLine
 62
7
  6
CONTINUOUS
 10
12.7194700422
 20
10.6551695021
 11
12.7194700422
 21
10.8574348169
  0
LINE
  5
28E
100
AcDbEntity
  8
0
100
AcDbLine
 62
7
  6
CONTINUOUS
 10
12.5301121475
 20
10.8473142254
 11
12.579395056
 21
10.8473142254
  0
LINE
  5
28F
100
AcDbEntity
  8
0
100
AcDbLine
 62
7
  6
CONTINUOUS
 10
11.9709856934
 20
10.8801695021
 11
12.0050143754
 21
10.8801695021
  0
LINE
  5
290
100
AcDbEntity
  8
0
100
AcDbLine
 62
7
  6
CONTINUOUS
 10
12.0941929939
 20
10.8801695021
 11
12.1392223345
 21
10.8801695021
  0
LINE
  5
291
100
AcDbEntity
  8
0
100
AcDbLine
 62
7
  6
CONTINUOUS
 10
12.2282542797
 20
10.8801695021
 11
12.2624296191
 21
10.8801695021
  0
LINE
  5
292
100
AcDbEntity
  8
0
100
AcDbLine
 62
7
  6
CONTINUOUS
 10
12.3416343125
 20
10.8801695021
 11
12.3963442417
 21
10.8801695021
  0
LINE
  5
293
100
AcDbEntity
  8
0
100
AcDbLine
 62
7
  6
CONTINUOUS
 10
12.4975502374
 20
10.8801695021
 11
12.5827686312
 21
10.8801695021
  0
LINE
  5
294
100
AcDbEntity
  8
0
100
AcDbLine
 62
7
  6
CONTINUOUS
 10
12.6869081321
 20
10.8801695021
 11
12.7467516484
 21
10.8801695021
  0
LINE
  5
295
100
AcDbEntity
  8
0
100
AcDbLine
 62
7
  6
CONTINUOUS
 10
12.8448774757
 20
10.8801695021
 11
12.9047209921
 21
10.8801695021
  0
LINE
  5
296
100
AcDbEntity
  8
0
100
AcDbLine
 62
7
  6
CONTINUOUS
 10
12.4162920716
 20
10.7183865803
 11
12.4349198522
 21
10.6551695021
  0
LINE
  5
297
100
AcDbEntity
  8
0
100
AcDbLine
 62
7
  6
CONTINUOUS
 10
12.1166343259
 20
10.8357268679
 11
12.1629837426
 21
10.6551695021
  0
LINE
  5
298
100
AcDbEntity
  8
0
100
AcDbLine
 62
7
  6
CONTINUOUS
 10
12.1849850448
 20
10.6827444699
 11
12.1392223345
 21
10.8801695021
  0
LINE
  5
299
100
AcDbEntity
  8
0
100
AcDbLine
 62
7
  6
CONTINUOUS
 10
12.8705456795
 20
10.8574348169
 11
12.8721590819
 21
10.6551695021
  0
LINE
  5
29A
100
AcDbEntity
  8
0
100
AcDbLine
 62
7
  6
CONTINUOUS
 10
12.9047209921
 20
10.6551695021
 11
12.9047209921
 21
10.8801695021
  0
LINE
  5
29B
100
AcDbEntity
  8
0
100
AcDbLine
 62
7
  6
CONTINUOUS
 10
11.1621043341
 20
11.3551695021
 11
11.1295424239
 21
11.3551695021
  0
LINE
  5
29C
100
AcDbEntity
  8
0
100
AcDbLine
 62
7
  6
CONTINUOUS
 10
10.816977218
 20
11.3551695021
 11
10.7844152944
 21
11.3551695021
  0
LINE
  5
29D
100
AcDbEntity
  8
0
100
AcDbLine
 62
7
  6
CONTINUOUS
 10
10.6814491862
 20
11.3551695021
 11
10.6488872576
 21
11.3551695021
  0
LINE
  5
29E
100
AcDbEntity
  8
0
100
AcDbLine
 62
7
  6
CONTINUOUS
 10
10.6814491862
 20
11.4522685866
 11
10.7844152944
 21
11.4522685866
  0
LINE
  5
29F
100
AcDbEntity
  8
0
100
AcDbLine
 62
7
  6
CONTINUOUS
 10
10.7844152944
 20
11.48512387
 11
10.6814491862
 21
11.48512387
  0
LINE
  5
2A0
100
AcDbEntity
  8
0
100
AcDbLine
 62
7
  6
CONTINUOUS
 10
12.6477457883
 20
10.6551695021
 11
12.5782216968
 21
10.7513885404
  0
LINE
  5
2A1
100
AcDbEntity
  8
0
100
AcDbLine
 62
7
  6
CONTINUOUS
 10
12.5301121475
 20
10.7684028851
 11
12.6100502374
 21
10.6551695021
  0
LINE
  5
2A2
100
AcDbEntity
  8
0
100
AcDbLine
 62
7
  6
CONTINUOUS
 10
12.3683292391
 20
10.8567014473
 11
12.4064648332
 21
10.7512418638
  0
LINE
  5
2A3
100
AcDbEntity
  8
0
100
AcDbLine
 62
7
  6
CONTINUOUS
 10
12.4677751424
 20
10.6551695021
 11
12.3963442417
 21
10.8801695021
  0
LINE
  5
2A4
100
AcDbEntity
  8
0
100
AcDbLine
 62
7
  6
CONTINUOUS
 10
12.7194700422
 20
10.8574348169
 11
12.7779935362
 21
10.6551695021
  0
LINE
  5
2A5
100
AcDbEntity
  8
0
100
AcDbLine
 62
7
  6
CONTINUOUS
 10
12.7976480129
 20
10.6994654598
 11
12.7467516484
 21
10.8801695021
  0
LINE
  5
2A6
100
AcDbEntity
  8
0
100
AcDbLine
 62
7
  6
CONTINUOUS
 10
11.0660319792
 20
11.5473142254
 11
11.1295424239
 21
11.5473142254
  0
LINE
  5
2A7
100
AcDbEntity
  8
0
100
AcDbLine
 62
7
  6
CONTINUOUS
 10
11.1621043341
 20
11.5473142254
 11
11.225614752
 21
11.5473142254
  0
LINE
  5
2A8
100
AcDbEntity
  8
0
100
AcDbLine
 62
7
  6
CONTINUOUS
 10
11.225614752
 20
11.5801695021
 11
11.0660319792
 21
11.5801695021
  0
LINE
  5
2A9
100
AcDbEntity
  8
0
100
AcDbLine
 62
7
  6
CONTINUOUS
 10
10.6488872576
 20
11.5801695021
 11
10.6814491862
 21
11.5801695021
  0
LINE
  5
2AA
100
AcDbEntity
  8
0
100
AcDbLine
 62
7
  6
CONTINUOUS
 10
10.7844152944
 20
11.5801695021
 11
10.816977218
 21
11.5801695021
  0
ARC
  5
2AB
100
AcDbEntity
  8
0
100
AcDbCircle
 62
7
  6
CONTINUOUS
 10
10.101538574
 20
8.4315157334
 40
0.275
100
AcDbArc
 50
100.0
 51
350.0
  0
ARC
  5
2AC
100
AcDbEntity
  8
0
100
AcDbCircle
 62
7
  6
CONTINUOUS
 10
10.6913533397
 20
8.5100922964
 40
0.25
100
AcDbArc
 50
89.3699285546
 51
181.9739483152
  0
ARC
  5
2AD
100
AcDbEntity
  8
0
100
AcDbCircle
 62
7
  6
CONTINUOUS
 10
10.4055193445
 20
8.4796741399
 40
0.016
100
AcDbArc
 50
45.0
 51
170.0
  0
ARC
  5
2AE
100
AcDbEntity
  8
0
100
AcDbCircle
 62
7
  6
CONTINUOUS
 10
10.4255111863
 20
8.5009299044
 40
0.016
100
AcDbArc
 50
259.6234510997
 51
1.9739483152
  0
ARC
  5
2AF
100
AcDbEntity
  8
0
100
AcDbCircle
 62
7
  6
CONTINUOUS
 10
9.9224373267
 20
9.653440823
 40
1.02
100
AcDbArc
 50
332.7161161373
 51
354.4712949163
  0
ARC
  5
2B0
100
AcDbEntity
  8
0
100
AcDbCircle
 62
7
  6
CONTINUOUS
 10
9.9224373267
 20
9.653440823
 40
1.0
100
AcDbArc
 50
331.8875681082
 51
354.4712949163
  0
ARC
  5
2B1
100
AcDbEntity
  8
0
100
AcDbCircle
 62
7
  6
CONTINUOUS
 10
10.101538574
 20
10.1038232709
 40
0.275
100
AcDbArc
 50
10.0
 51
260.0
  0
ARC
  5
2B2
100
AcDbEntity
  8
0
100
AcDbCircle
 62
7
  6
CONTINUOUS
 10
10.1801151369
 20
9.0213304992
 40
0.25
100
AcDbArc
 50
268.0260516848
 51
0.6300714454
  0
ARC
  5
2B3
100
AcDbEntity
  8
0
100
AcDbCircle
 62
7
  6
CONTINUOUS
 10
10.1801151369
 20
9.5140085051
 40
0.25
100
AcDbArc
 50
359.3699285546
 51
91.9739483152
  0
ARC
  5
2B4
100
AcDbEntity
  8
0
100
AcDbCircle
 62
7
  6
CONTINUOUS
 10
10.6913533397
 20
10.0252467079
 40
0.25
100
AcDbArc
 50
178.0260516848
 51
270.6300714454
  0
ARC
  5
2B5
100
AcDbEntity
  8
0
100
AcDbCircle
 62
7
  6
CONTINUOUS
 10
10.6944433842
 20
8.7910753059
 40
0.031
100
AcDbArc
 50
269.3699285546
 51
288.134107093
  0
ARC
  5
2B6
100
AcDbEntity
  8
0
100
AcDbCircle
 62
7
  6
CONTINUOUS
 10
10.4610981464
 20
9.0244205436
 40
0.031
100
AcDbArc
 50
161.8659037441
 51
180.6300714454
  0
ARC
  5
2B7
100
AcDbEntity
  8
0
100
AcDbCircle
 62
7
  6
CONTINUOUS
 10
10.6944433842
 20
9.7442636984
 40
0.031
100
AcDbArc
 50
71.8665630491
 51
90.6300714454
  0
ARC
  5
2B8
100
AcDbEntity
  8
0
100
AcDbCircle
 62
7
  6
CONTINUOUS
 10
10.4610981464
 20
9.5109184606
 40
0.031
100
AcDbArc
 50
179.3699285546
 51
198.1341172924
  0
ARC
  5
2B9
100
AcDbEntity
  8
0
100
AcDbCircle
 62
7
  6
CONTINUOUS
 10
10.1496969805
 20
8.7354965039
 40
0.016
100
AcDbArc
 50
280.0
 51
45.0
  0
ARC
  5
2BA
100
AcDbEntity
  8
0
100
AcDbCircle
 62
7
  6
CONTINUOUS
 10
10.170952745
 20
8.7554883457
 40
0.016
100
AcDbArc
 50
88.0260516848
 51
190.3765489003
  0
ARC
  5
2BB
100
AcDbEntity
  8
0
100
AcDbCircle
 62
7
  6
CONTINUOUS
 10
10.4055193445
 20
10.0556648643
 40
0.016
100
AcDbArc
 50
190.0
 51
315.0
  0
ARC
  5
2BC
100
AcDbEntity
  8
0
100
AcDbCircle
 62
7
  6
CONTINUOUS
 10
10.1496969805
 20
9.7998425004
 40
0.016
100
AcDbArc
 50
315.0
 51
80.0
  0
ARC
  5
2BD
100
AcDbEntity
  8
0
100
AcDbCircle
 62
7
  6
CONTINUOUS
 10
10.4255111863
 20
10.0344090999
 40
0.016
100
AcDbArc
 50
358.0260516848
 51
100.3765489003
  0
ARC
  5
2BE
100
AcDbEntity
  8
0
100
AcDbCircle
 62
7
  6
CONTINUOUS
 10
10.170952745
 20
9.7798506586
 40
0.016
100
AcDbArc
 50
169.6234510997
 51
271.9739483152
  0
ARC
  5
2BF
100
AcDbEntity
  8
0
100
AcDbCircle
 62
7
  6
CONTINUOUS
 10
10.8176923427
 20
9.1751695021
 40
0.015
100
AcDbArc
 50
151.8875681082
 51
294.7650408546
  0
CIRCLE
  5
2C0
100
AcDbEntity
  8
0
100
AcDbCircle
 62
7
  6
CONTINUOUS
 10
10.9376923427
 20
7.0976695021
 40
0.45
  0
ARC
  5
2C1
100
AcDbEntity
  8
0
100
AcDbCircle
 62
7
  6
CONTINUOUS
 10
10.9376923427
 20
7.0976695021
 40
0.45
100
AcDbArc
 50
0.0
 51
180.0
  0
CIRCLE
  5
2C2
100
AcDbEntity
  8
0
100
AcDbCircle
 62
9
  6
CONTINUOUS
 10
10.9376923427
 20
7.0976695021
 40
0.4492005033
  0
CIRCLE
  5
2C3
100
AcDbEntity
  8
0
100
AcDbCircle
 62
9
  6
CONTINUOUS
 10
10.9376923427
 20
7.0976695021
 40
0.4177005033
  0
CIRCLE
  5
2C4
100
AcDbEntity
  8
0
100
AcDbCircle
 62
9
  6
CONTINUOUS
 10
10.9376923427
 20
7.0976695021
 40
0.3875
  0
ARC
  5
2C5
100
AcDbEntity
  8
0
100
AcDbCircle
 62
7
  6
CONTINUOUS
 10
11.7738461115
 20
8.4315157334
 40
0.275
100
AcDbArc
 50
190.0
 51
80.0
  0
ARC
  5
2C6
100
AcDbEntity
  8
0
100
AcDbCircle
 62
7
  6
CONTINUOUS
 10
11.1840313457
 20
8.5100922964
 40
0.25
100
AcDbArc
 50
358.0260516848
 51
90.6300714454
  0
ARC
  5
2C7
100
AcDbEntity
  8
0
100
AcDbCircle
 62
7
  6
CONTINUOUS
 10
11.469865341
 20
8.4796741399
 40
0.016
100
AcDbArc
 50
10.0
 51
135.0
  0
ARC
  5
2C8
100
AcDbEntity
  8
0
100
AcDbCircle
 62
7
  6
CONTINUOUS
 10
11.4498734992
 20
8.5009299044
 40
0.016
100
AcDbArc
 50
178.0260516848
 51
280.3765489003
  0
CIRCLE
  5
2C9
100
AcDbEntity
  8
0
100
AcDbCircle
 62
7
  6
CONTINUOUS
 10
10.9376923427
 20
9.2676695021
 40
3.875
  0
CIRCLE
  5
2CA
100
AcDbEntity
  8
0
100
AcDbCircle
 62
9
  6
CONTINUOUS
 10
10.9376923427
 20
9.2676695021
 40
3.625
  0
CIRCLE
  5
2CB
100
AcDbEntity
  8
0
100
AcDbCircle
 62
9
  6
CONTINUOUS
 10
10.9376923427
 20
9.2676695021
 40
3.4090728059
  0
CIRCLE
  5
2CC
100
AcDbEntity
  8
0
100
AcDbCircle
 62
9
  6
CONTINUOUS
 10
10.9376923427
 20
9.2676695021
 40
3.1915680308
  0
CIRCLE
  5
2CD
100
AcDbEntity
  8
0
100
AcDbCircle
 62
9
  6
CONTINUOUS
 10
10.9376923427
 20
9.2676695021
 40
2.9717890928
  0
CIRCLE
  5
2CE
100
AcDbEntity
  8
0
100
AcDbCircle
 62
9
  6
CONTINUOUS
 10
10.9376923427
 20
9.2676695021
 40
2.7535781857
  0
ARC
  5
2CF
100
AcDbEntity
  8
0
100
AcDbCircle
 62
7
  6
CONTINUOUS
 10
10.9376923427
 20
9.2676695021
 40
1.1875
100
AcDbArc
 50
58.3159545686
 51
121.6840455013
  0
ARC
  5
2D0
100
AcDbEntity
  8
0
100
AcDbCircle
 62
7
  6
CONTINUOUS
 10
10.9376923427
 20
9.2676695021
 40
1.1875
100
AcDbArc
 50
148.3101698457
 51
211.6898300989
  0
ARC
  5
2D1
100
AcDbEntity
  8
0
100
AcDbCircle
 62
7
  6
CONTINUOUS
 10
10.9376923427
 20
9.2676695021
 40
1.1875
100
AcDbArc
 50
238.3159545686
 51
301.6840455013
  0
ARC
  5
2D2
100
AcDbEntity
  8
0
100
AcDbCircle
 62
7
  6
CONTINUOUS
 10
10.9376923427
 20
9.2676695021
 40
1.1875
100
AcDbArc
 50
328.3101698457
 51
31.6898300989
  0
CIRCLE
  5
2D3
100
AcDbEntity
  8
0
100
AcDbCircle
 62
7
  6
CONTINUOUS
 10
10.9376923427
 20
9.2676695021
 40
0.5575
  0
CIRCLE
  5
2D4
100
AcDbEntity
  8
0
100
AcDbCircle
 62
7
  6
CONTINUOUS
 10
10.9376923427
 20
9.2676695021
 40
0.5275
  0
CIRCLE
  5
2D5
100
AcDbEntity
  8
0
100
AcDbCircle
 62
7
  6
CONTINUOUS
 10
10.9376923427
 20
9.2676695021
 40
0.5132341523
  0
CIRCLE
  5
2D6
100
AcDbEntity
  8
0
100
AcDbCircle
 62
7
  6
CONTINUOUS
 10
10.9376923427
 20
9.2676695021
 40
0.4545099561
  0
CIRCLE
  5
2D7
100
AcDbEntity
  8
0
100
AcDbCircle
 62
7
  6
CONTINUOUS
 10
10.9376923427
 20
9.2676695021
 40
0.4275
  0
CIRCLE
  5
2D8
100
AcDbEntity
  8
0
100
AcDbCircle
 62
7
  6
CONTINUOUS
 10
10.9376923427
 20
9.2676695021
 40
0.4175
  0
CIRCLE
  5
2D9
100
AcDbEntity
  8
0
100
AcDbCircle
 62
9
  6
CONTINUOUS
 10
10.9376923427
 20
9.2676695021
 40
0.3951446566
  0
ARC
  5
2DA
100
AcDbEntity
  8
0
100
AcDbCircle
 62
7
  6
CONTINUOUS
 10
11.0576923427
 20
9.1751695021
 40
0.015
100
AcDbArc
 50
245.2349591454
 51
28.1124318918
  0
ARC
  5
2DB
100
AcDbEntity
  8
0
100
AcDbCircle
 62
7
  6
CONTINUOUS
 10
11.1809413012
 20
8.7910753059
 40
0.031
100
AcDbArc
 50
251.8659240382
 51
270.6300714454
  0
ARC
  5
2DC
100
AcDbEntity
  8
0
100
AcDbCircle
 62
7
  6
CONTINUOUS
 10
11.414286539
 20
9.0244205436
 40
0.031
100
AcDbArc
 50
359.3699285546
 51
18.1341253269
  0
ARC
  5
2DD
100
AcDbEntity
  8
0
100
AcDbCircle
 62
7
  6
CONTINUOUS
 10
11.1840313457
 20
10.0252467079
 40
0.25
100
AcDbArc
 50
269.3699285546
 51
1.9739483152
  0
ARC
  5
2DE
100
AcDbEntity
  8
0
100
AcDbCircle
 62
7
  6
CONTINUOUS
 10
11.414286539
 20
9.5109184606
 40
0.031
100
AcDbArc
 50
341.8659058325
 51
0.6300714454
  0
ARC
  5
2DF
100
AcDbEntity
  8
0
100
AcDbCircle
 62
7
  6
CONTINUOUS
 10
11.1809413012
 20
9.7442636984
 40
0.031
100
AcDbArc
 50
89.3699285546
 51
108.1334579213
  0
ARC
  5
2E0
100
AcDbEntity
  8
0
100
AcDbCircle
 62
7
  6
CONTINUOUS
 10
10.9376923427
 20
9.5551695021
 40
0.02
100
AcDbArc
 50
5.5287050837
 51
174.4712949163
  0
ARC
  5
2E1
100
AcDbEntity
  8
0
100
AcDbCircle
 62
7
  6
CONTINUOUS
 10
11.6952695485
 20
9.0213304992
 40
0.25
100
AcDbArc
 50
179.3699285546
 51
271.9739483152
  0
ARC
  5
2E2
100
AcDbEntity
  8
0
100
AcDbCircle
 62
7
  6
CONTINUOUS
 10
11.7256877049
 20
8.7354965039
 40
0.016
100
AcDbArc
 50
135.0
 51
260.0
  0
ARC
  5
2E3
100
AcDbEntity
  8
0
100
AcDbCircle
 62
7
  6
CONTINUOUS
 10
11.7044319404
 20
8.7554883457
 40
0.016
100
AcDbArc
 50
349.6234510997
 51
91.9739483152
  0
ARC
  5
2E4
100
AcDbEntity
  8
0
100
AcDbCircle
 62
7
  6
CONTINUOUS
 10
11.9529473587
 20
9.653440823
 40
1.02
100
AcDbArc
 50
185.5287050837
 51
207.2838838627
  0
ARC
  5
2E5
100
AcDbEntity
  8
0
100
AcDbCircle
 62
7
  6
CONTINUOUS
 10
11.9529473587
 20
9.653440823
 40
1.0
100
AcDbArc
 50
185.5287050837
 51
208.1124318918
  0
ARC
  5
2E6
100
AcDbEntity
  8
0
100
AcDbCircle
 62
7
  6
CONTINUOUS
 10
11.7738461115
 20
10.1038232709
 40
0.275
100
AcDbArc
 50
280.0
 51
170.0
  0
ARC
  5
2E7
100
AcDbEntity
  8
0
100
AcDbCircle
 62
7
  6
CONTINUOUS
 10
11.6952695485
 20
9.5140085051
 40
0.25
100
AcDbArc
 50
88.0260516848
 51
180.6300714454
  0
ARC
  5
2E8
100
AcDbEntity
  8
0
100
AcDbCircle
 62
7
  6
CONTINUOUS
 10
11.469865341
 20
10.0556648643
 40
0.016
100
AcDbArc
 50
225.0
 51
350.0
  0
ARC
  5
2E9
100
AcDbEntity
  8
0
100
AcDbCircle
 62
7
  6
CONTINUOUS
 10
11.7256877049
 20
9.7998425004
 40
0.016
100
AcDbArc
 50
100.0
 51
225.0
  0
ARC
  5
2EA
100
AcDbEntity
  8
0
100
AcDbCircle
 62
7
  6
CONTINUOUS
 10
11.4498734992
 20
10.0344090999
 40
0.016
100
AcDbArc
 50
79.6234510997
 51
181.9739483152
  0
ARC
  5
2EB
100
AcDbEntity
  8
0
100
AcDbCircle
 62
7
  6
CONTINUOUS
 10
11.7044319404
 20
9.7798506586
 40
0.016
100
AcDbArc
 50
268.0260516848
 51
10.3765489003
  0
SPLINE
  5
2EC
100
AcDbEntity
  8
0
100
AcDbSpline
 62
7
  6
CONTINUOUS
 70
0
 71
3
 72
8
 73
4
 74
0
 42
0.0000001
 43
0.0000001
 44
0.0000000001
 40
0.0
 40
0.0
 40
0.0
 40
0.0
 40
1.0
 40
1.0
 40
1.0
 40
1.0
 10
10.9514785336
 20
11.3506225661
 30
0.0
 10
10.981693645
 20
11.3506225661
 30
0.0
 10
11.00486836
 20
11.3610365167
 30
0.0
 10
11.0211493149
 20
11.3821577687
 30
0.0
  0
SPLINE
  5
2ED
100
AcDbEntity
  8
0
100
AcDbSpline
 62
7
  6
CONTINUOUS
 70
0
 71
3
 72
8
 73
4
 74
0
 42
0.0000001
 43
0.0000001
 44
0.0000000001
 40
0.0
 40
0.0
 40
0.0
 40
0.0
 40
1.0
 40
1.0
 40
1.0
 40
1.0
 10
11.0211493149
 20
11.3821577687
 30
0.0
 10
11.0374302702
 20
11.4032790213
 30
0.0
 10
11.0456441061
 20
11.4332007962
 30
0.0
 10
11.0456441061
 20
11.4722164365
 30
0.0
  0
SPLINE
  5
2EE
100
AcDbEntity
  8
0
100
AcDbSpline
 62
7
  6
CONTINUOUS
 70
0
 71
3
 72
8
 73
4
 74
0
 42
0.0000001
 43
0.0000001
 44
0.0000000001
 40
0.0
 40
0.0
 40
0.0
 40
0.0
 40
1.0
 40
1.0
 40
1.0
 40
1.0
 10
11.0456441061
 20
11.4722164365
 30
0.0
 10
11.0456441061
 20
11.5107920604
 30
0.0
 10
11.0378703134
 20
11.5388070496
 30
0.0
 10
11.0225729481
 20
11.5571053317
 30
0.0
  0
SPLINE
  5
2EF
100
AcDbEntity
  8
0
100
AcDbSpline
 62
7
  6
CONTINUOUS
 70
0
 71
3
 72
8
 73
4
 74
0
 42
0.0000001
 43
0.0000001
 44
0.0000000001
 40
0.0
 40
0.0
 40
0.0
 40
0.0
 40
1.0
 40
1.0
 40
1.0
 40
1.0
 10
11.0225729481
 20
11.5571053317
 30
0.0
 10
11.0072151588
 20
11.5754758912
 30
0.0
 10
10.9834537642
 20
11.5847164365
 30
0.0
 10
10.9514785336
 20
11.5847164365
 30
0.0
  0
SPLINE
  5
2F0
100
AcDbEntity
  8
0
100
AcDbSpline
 62
7
  6
CONTINUOUS
 70
0
 71
3
 72
8
 73
4
 74
0
 42
0.0000001
 43
0.0000001
 44
0.0000000001
 40
0.0
 40
0.0
 40
0.0
 40
0.0
 40
1.0
 40
1.0
 40
1.0
 40
1.0
 10
10.9514785336
 20
11.5847164365
 30
0.0
 10
10.9214100854
 20
11.5847164365
 30
0.0
 10
10.8982353704
 20
11.5748891848
 30
0.0
 10
10.8819113858
 20
11.5554175257
 30
0.0
  0
SPLINE
  5
2F1
100
AcDbEntity
  8
0
100
AcDbSpline
 62
7
  6
CONTINUOUS
 70
0
 71
3
 72
8
 73
4
 74
0
 42
0.0000001
 43
0.0000001
 44
0.0000000001
 40
0.0
 40
0.0
 40
0.0
 40
0.0
 40
1.0
 40
1.0
 40
1.0
 40
1.0
 10
10.8819113858
 20
11.5554175257
 30
0.0
 10
10.8655267702
 20
11.5358735445
 30
0.0
 10
10.8574596243
 20
11.5081518951
 30
0.0
 10
10.8574596243
 20
11.4722164365
 30
0.0
  0
SPLINE
  5
2F2
100
AcDbEntity
  8
0
100
AcDbSpline
 62
7
  6
CONTINUOUS
 70
0
 71
3
 72
8
 73
4
 74
0
 42
0.0000001
 43
0.0000001
 44
0.0000000001
 40
0.0
 40
0.0
 40
0.0
 40
0.0
 40
1.0
 40
1.0
 40
1.0
 40
1.0
 10
10.8574596243
 20
11.4722164365
 30
0.0
 10
10.8574596243
 20
11.4332007962
 30
0.0
 10
10.8655267702
 20
11.4032790213
 30
0.0
 10
10.8819085233
 20
11.3821223139
 30
0.0
  0
SPLINE
  5
2F3
100
AcDbEntity
  8
0
100
AcDbSpline
 62
7
  6
CONTINUOUS
 70
0
 71
3
 72
8
 73
4
 74
0
 42
0.0000001
 43
0.0000001
 44
0.0000000001
 40
0.0
 40
0.0
 40
0.0
 40
0.0
 40
1.0
 40
1.0
 40
1.0
 40
1.0
 10
10.8819085233
 20
11.3821223139
 30
0.0
 10
10.8982353704
 20
11.3610365167
 30
0.0
 10
10.9214100854
 20
11.3506225661
 30
0.0
 10
10.9514785336
 20
11.3506225661
 30
0.0
  0
SPLINE
  5
2F4
100
AcDbEntity
  8
0
100
AcDbSpline
 62
7
  6
CONTINUOUS
 70
0
 71
3
 72
8
 73
4
 74
0
 42
0.0000001
 43
0.0000001
 44
0.0000000001
 40
0.0
 40
0.0
 40
0.0
 40
0.0
 40
1.0
 40
1.0
 40
1.0
 40
1.0
 10
12.5782216968
 20
10.7513885404
 30
0.0
 10
12.6009563687
 20
10.7515352103
 30
0.0
 10
12.6182640734
 20
10.7572555507
 30
0.0
 10
12.6299613705
 20
10.7687335316
 30
0.0
  0
SPLINE
  5
2F5
100
AcDbEntity
  8
0
100
AcDbSpline
 62
7
  6
CONTINUOUS
 70
0
 71
3
 72
8
 73
4
 74
0
 42
0.0000001
 43
0.0000001
 44
0.0000000001
 40
0.0
 40
0.0
 40
0.0
 40
0.0
 40
1.0
 40
1.0
 40
1.0
 40
1.0
 10
12.6299613705
 20
10.7687335316
 30
0.0
 10
12.6417321148
 20
10.7802835825
 30
0.0
 10
12.6477457883
 20
10.7977379503
 30
0.0
 10
12.6477457883
 20
10.820912652
 30
0.0
  0
SPLINE
  5
2F6
100
AcDbEntity
  8
0
100
AcDbSpline
 62
7
  6
CONTINUOUS
 70
0
 71
3
 72
8
 73
4
 74
0
 42
0.0000001
 43
0.0000001
 44
0.0000000001
 40
0.0
 40
0.0
 40
0.0
 40
0.0
 40
1.0
 40
1.0
 40
1.0
 40
1.0
 10
12.6477457883
 20
10.820912652
 30
0.0
 10
12.6477457883
 20
10.8398337724
 30
0.0
 10
12.6420254411
 20
10.8545013117
 30
0.0
 10
12.6308447641
 20
10.8647320137
 30
0.0
  0
SPLINE
  5
2F7
100
AcDbEntity
  8
0
100
AcDbSpline
 62
7
  6
CONTINUOUS
 70
0
 71
3
 72
8
 73
4
 74
0
 42
0.0000001
 43
0.0000001
 44
0.0000000001
 40
0.0
 40
0.0
 40
0.0
 40
0.0
 40
1.0
 40
1.0
 40
1.0
 40
1.0
 10
12.6308447641
 20
10.8647320137
 30
0.0
 10
12.6195841493
 20
10.8750358614
 30
0.0
 10
12.6035965206
 20
10.8801695021
 30
0.0
 10
12.5827686312
 20
10.8801695021
 30
0.0
  0
SPLINE
  5
2F8
100
AcDbEntity
  8
0
100
AcDbSpline
 62
7
  6
CONTINUOUS
 70
0
 71
3
 72
8
 73
4
 74
0
 42
0.0000001
 43
0.0000001
 44
0.0000000001
 40
0.0
 40
0.0
 40
0.0
 40
0.0
 40
1.0
 40
1.0
 40
1.0
 40
1.0
 10
12.2327757801
 20
7.7180932338
 30
0.0
 10
12.2195750068
 20
7.7035723711
 30
0.0
 10
12.2081343259
 20
7.6935984461
 30
0.0
 10
12.1987282616
 20
7.6880568884
 30
0.0
  0
SPLINE
  5
2F9
100
AcDbEntity
  8
0
100
AcDbSpline
 62
7
  6
CONTINUOUS
 70
0
 71
3
 72
8
 73
4
 74
0
 42
0.0000001
 43
0.0000001
 44
0.0000000001
 40
0.0
 40
0.0
 40
0.0
 40
0.0
 40
1.0
 40
1.0
 40
1.0
 40
1.0
 10
12.1987282616
 20
7.6880568884
 30
0.0
 10
12.1892132054
 20
7.6824511184
 30
0.0
 10
12.1786525841
 20
7.6798109631
 30
0.0
 10
12.1670652266
 20
7.6798109631
 30
0.0
  0
SPLINE
  5
2FA
100
AcDbEntity
  8
0
100
AcDbSpline
 62
7
  6
CONTINUOUS
 70
0
 71
3
 72
8
 73
4
 74
0
 42
0.0000001
 43
0.0000001
 44
0.0000000001
 40
0.0
 40
0.0
 40
0.0
 40
0.0
 40
1.0
 40
1.0
 40
1.0
 40
1.0
 10
12.1670652266
 20
7.6798109631
 30
0.0
 10
12.1478507529
 20
7.6798109631
 30
0.0
 10
12.1330365437
 20
7.6874380826
 30
0.0
 10
12.1225722434
 20
7.7029515876
 30
0.0
  0
SPLINE
  5
2FB
100
AcDbEntity
  8
0
100
AcDbSpline
 62
7
  6
CONTINUOUS
 70
0
 71
3
 72
8
 73
4
 74
0
 42
0.0000001
 43
0.0000001
 44
0.0000000001
 40
0.0
 40
0.0
 40
0.0
 40
0.0
 40
1.0
 40
1.0
 40
1.0
 40
1.0
 10
12.1225722434
 20
7.7029515876
 30
0.0
 10
12.1120619643
 20
7.7185332569
 30
0.0
 10
12.1069283269
 20
7.7405345591
 30
0.0
 10
12.1069283269
 20
7.7691362547
 30
0.0
  0
SPLINE
  5
2FC
100
AcDbEntity
  8
0
100
AcDbSpline
 62
7
  6
CONTINUOUS
 70
0
 71
3
 72
8
 73
4
 74
0
 42
0.0000001
 43
0.0000001
 44
0.0000000001
 40
0.0
 40
0.0
 40
0.0
 40
0.0
 40
1.0
 40
1.0
 40
1.0
 40
1.0
 10
12.1069283269
 20
7.7691362547
 30
0.0
 10
12.1069283269
 20
7.7955378147
 30
0.0
 10
12.1120619643
 20
7.8159257012
 30
0.0
 10
12.1225746694
 20
7.8303347157
 30
0.0
  0
SPLINE
  5
2FD
100
AcDbEntity
  8
0
100
AcDbSpline
 62
7
  6
CONTINUOUS
 70
0
 71
3
 72
8
 73
4
 74
0
 42
0.0000001
 43
0.0000001
 44
0.0000000001
 40
0.0
 40
0.0
 40
0.0
 40
0.0
 40
1.0
 40
1.0
 40
1.0
 40
1.0
 10
12.1225746694
 20
7.8303347157
 30
0.0
 10
12.1330365437
 20
7.84467406
 30
0.0
 10
12.1478507529
 20
7.8518611597
 30
0.0
 10
12.1670652266
 20
7.8518611597
 30
0.0
  0
SPLINE
  5
2FE
100
AcDbEntity
  8
0
100
AcDbSpline
 62
7
  6
CONTINUOUS
 70
0
 71
3
 72
8
 73
4
 74
0
 42
0.0000001
 43
0.0000001
 44
0.0000000001
 40
0.0
 40
0.0
 40
0.0
 40
0.0
 40
1.0
 40
1.0
 40
1.0
 40
1.0
 10
12.1670652266
 20
7.8518611597
 30
0.0
 10
12.1814394127
 20
7.8518611597
 30
0.0
 10
12.1943468462
 20
7.8484876248
 30
0.0
 10
12.2057875184
 20
7.8417405627
 30
0.0
  0
SPLINE
  5
2FF
100
AcDbEntity
  8
0
100
AcDbSpline
 62
7
  6
CONTINUOUS
 70
0
 71
3
 72
8
 73
4
 74
0
 42
0.0000001
 43
0.0000001
 44
0.0000000001
 40
0.0
 40
0.0
 40
0.0
 40
0.0
 40
1.0
 40
1.0
 40
1.0
 40
1.0
 10
12.2057875184
 20
7.8417405627
 30
0.0
 10
12.2172281946
 20
7.8349934983
 30
0.0
 10
12.2261754002
 20
7.8254595997
 30
0.0
 10
12.2327757801
 20
7.8131388592
 30
0.0
  0
SPLINE
  5
300
100
AcDbEntity
  8
0
100
AcDbSpline
 62
7
  6
CONTINUOUS
 70
0
 71
3
 72
8
 73
4
 74
0
 42
0.0000001
 43
0.0000001
 44
0.0000000001
 40
0.0
 40
0.0
 40
0.0
 40
0.0
 40
1.0
 40
1.0
 40
1.0
 40
1.0
 10
12.2327757801
 20
7.8577281701
 30
0.0
 10
12.225148664
 20
7.8668220388
 30
0.0
 10
12.2159081186
 20
7.8735691088
 30
0.0
 10
12.2047607932
 20
7.8779693724
 30
0.0
  0
SPLINE
  5
301
100
AcDbEntity
  8
0
100
AcDbSpline
 62
7
  6
CONTINUOUS
 70
0
 71
3
 72
8
 73
4
 74
0
 42
0.0000001
 43
0.0000001
 44
0.0000000001
 40
0.0
 40
0.0
 40
0.0
 40
0.0
 40
1.0
 40
1.0
 40
1.0
 40
1.0
 10
12.2047607932
 20
7.8779693724
 30
0.0
 10
12.1936134632
 20
7.8823696377
 30
0.0
 10
12.1805593531
 20
7.8847164365
 30
0.0
 10
12.1654517974
 20
7.8847164365
 30
0.0
  0
SPLINE
  5
302
100
AcDbEntity
  8
0
100
AcDbSpline
 62
7
  6
CONTINUOUS
 70
0
 71
3
 72
8
 73
4
 74
0
 42
0.0000001
 43
0.0000001
 44
0.0000000001
 40
0.0
 40
0.0
 40
0.0
 40
0.0
 40
1.0
 40
1.0
 40
1.0
 40
1.0
 10
12.1654517974
 20
7.8847164365
 30
0.0
 10
12.1362634021
 20
7.8847164365
 30
0.0
 10
12.1138220701
 20
7.8748891848
 30
0.0
 10
12.0979811342
 20
7.8553813691
 30
0.0
  0
SPLINE
  5
303
100
AcDbEntity
  8
0
100
AcDbSpline
 62
7
  6
CONTINUOUS
 70
0
 71
3
 72
8
 73
4
 74
0
 42
0.0000001
 43
0.0000001
 44
0.0000000001
 40
0.0
 40
0.0
 40
0.0
 40
0.0
 40
1.0
 40
1.0
 40
1.0
 40
1.0
 10
12.0979811342
 20
7.8553813691
 30
0.0
 10
12.082140191
 20
7.8358735445
 30
0.0
 10
12.0743663974
 20
7.8081518951
 30
0.0
 10
12.0743663974
 20
7.7722164365
 30
0.0
  0
SPLINE
  5
304
100
AcDbEntity
  8
0
100
AcDbSpline
 62
7
  6
CONTINUOUS
 70
0
 71
3
 72
8
 73
4
 74
0
 42
0.0000001
 43
0.0000001
 44
0.0000000001
 40
0.0
 40
0.0
 40
0.0
 40
0.0
 40
1.0
 40
1.0
 40
1.0
 40
1.0
 10
12.0743663974
 20
7.7722164365
 30
0.0
 10
12.0743663974
 20
7.7332007962
 30
0.0
 10
12.082140191
 20
7.7032790213
 30
0.0
 10
12.097981131
 20
7.6821577683
 30
0.0
  0
SPLINE
  5
305
100
AcDbEntity
  8
0
100
AcDbSpline
 62
7
  6
CONTINUOUS
 70
0
 71
3
 72
8
 73
4
 74
0
 42
0.0000001
 43
0.0000001
 44
0.0000000001
 40
0.0
 40
0.0
 40
0.0
 40
0.0
 40
1.0
 40
1.0
 40
1.0
 40
1.0
 10
12.097981131
 20
7.6821577683
 30
0.0
 10
12.1138220701
 20
7.6610365167
 30
0.0
 10
12.1362634021
 20
7.6506225661
 30
0.0
 10
12.1654517974
 20
7.6506225661
 30
0.0
  0
SPLINE
  5
306
100
AcDbEntity
  8
0
100
AcDbSpline
 62
7
  6
CONTINUOUS
 70
0
 71
3
 72
8
 73
4
 74
0
 42
0.0000001
 43
0.0000001
 44
0.0000000001
 40
0.0
 40
0.0
 40
0.0
 40
0.0
 40
1.0
 40
1.0
 40
1.0
 40
1.0
 10
12.1654517974
 20
7.6506225661
 30
0.0
 10
12.1789459239
 20
7.6506225661
 30
0.0
 10
12.1917066808
 20
7.6534093978
 30
0.0
 10
12.2034133646
 20
7.6586042395
 30
0.0
  0
SPLINE
  5
307
100
AcDbEntity
  8
0
100
AcDbSpline
 62
7
  6
CONTINUOUS
 70
0
 71
3
 72
8
 73
4
 74
0
 42
0.0000001
 43
0.0000001
 44
0.0000000001
 40
0.0
 40
0.0
 40
0.0
 40
0.0
 40
1.0
 40
1.0
 40
1.0
 40
1.0
 10
12.2034133646
 20
7.6586042395
 30
0.0
 10
12.2151747356
 20
7.6638233486
 30
0.0
 10
12.2250019874
 20
7.6713037924
 30
0.0
 10
12.2327757801
 20
7.6809843658
 30
0.0
  0
SPLINE
  5
308
100
AcDbEntity
  8
0
100
AcDbSpline
 62
7
  6
CONTINUOUS
 70
0
 71
3
 72
8
 73
4
 74
0
 42
0.0000001
 43
0.0000001
 44
0.0000000001
 40
0.0
 40
0.0
 40
0.0
 40
0.0
 40
1.0
 40
1.0
 40
1.0
 40
1.0
 10
12.3526095431
 20
7.6506225661
 30
0.0
 10
12.3828246813
 20
7.6506225661
 30
0.0
 10
12.4059993963
 20
7.6610365167
 30
0.0
 10
12.4222803512
 20
7.6821577687
 30
0.0
  0
SPLINE
  5
309
100
AcDbEntity
  8
0
100
AcDbSpline
 62
7
  6
CONTINUOUS
 70
0
 71
3
 72
8
 73
4
 74
0
 42
0.0000001
 43
0.0000001
 44
0.0000000001
 40
0.0
 40
0.0
 40
0.0
 40
0.0
 40
1.0
 40
1.0
 40
1.0
 40
1.0
 10
12.4222803512
 20
7.6821577687
 30
0.0
 10
12.4385613065
 20
7.7032790213
 30
0.0
 10
12.4467751424
 20
7.7332007962
 30
0.0
 10
12.4467751424
 20
7.7722164365
 30
0.0
  0
SPLINE
  5
30A
100
AcDbEntity
  8
0
100
AcDbSpline
 62
7
  6
CONTINUOUS
 70
0
 71
3
 72
8
 73
4
 74
0
 42
0.0000001
 43
0.0000001
 44
0.0000000001
 40
0.0
 40
0.0
 40
0.0
 40
0.0
 40
1.0
 40
1.0
 40
1.0
 40
1.0
 10
12.4467751424
 20
7.7722164365
 30
0.0
 10
12.4467751424
 20
7.8107920604
 30
0.0
 10
12.4390013497
 20
7.8388070496
 30
0.0
 10
12.4237039733
 20
7.8571053449
 30
0.0
  0
SPLINE
  5
30B
100
AcDbEntity
  8
0
100
AcDbSpline
 62
7
  6
CONTINUOUS
 70
0
 71
3
 72
8
 73
4
 74
0
 42
0.0000001
 43
0.0000001
 44
0.0000000001
 40
0.0
 40
0.0
 40
0.0
 40
0.0
 40
1.0
 40
1.0
 40
1.0
 40
1.0
 10
12.4237039733
 20
7.8571053449
 30
0.0
 10
12.4083461951
 20
7.8754758912
 30
0.0
 10
12.3845847736
 20
7.8847164365
 30
0.0
 10
12.3526095431
 20
7.8847164365
 30
0.0
  0
SPLINE
  5
30C
100
AcDbEntity
  8
0
100
AcDbSpline
 62
7
  6
CONTINUOUS
 70
0
 71
3
 72
8
 73
4
 74
0
 42
0.0000001
 43
0.0000001
 44
0.0000000001
 40
0.0
 40
0.0
 40
0.0
 40
0.0
 40
1.0
 40
1.0
 40
1.0
 40
1.0
 10
12.3526095431
 20
7.8847164365
 30
0.0
 10
12.3225410949
 20
7.8847164365
 30
0.0
 10
12.2993664067
 20
7.8748891848
 30
0.0
 10
12.2830424126
 20
7.8554175224
 30
0.0
  0
SPLINE
  5
30D
100
AcDbEntity
  8
0
100
AcDbSpline
 62
7
  6
CONTINUOUS
 70
0
 71
3
 72
8
 73
4
 74
0
 42
0.0000001
 43
0.0000001
 44
0.0000000001
 40
0.0
 40
0.0
 40
0.0
 40
0.0
 40
1.0
 40
1.0
 40
1.0
 40
1.0
 10
12.2830424126
 20
7.8554175224
 30
0.0
 10
12.2666577931
 20
7.8358735445
 30
0.0
 10
12.2585906471
 20
7.8081518951
 30
0.0
 10
12.2585906471
 20
7.7722164365
 30
0.0
  0
SPLINE
  5
30E
100
AcDbEntity
  8
0
100
AcDbSpline
 62
7
  6
CONTINUOUS
 70
0
 71
3
 72
8
 73
4
 74
0
 42
0.0000001
 43
0.0000001
 44
0.0000000001
 40
0.0
 40
0.0
 40
0.0
 40
0.0
 40
1.0
 40
1.0
 40
1.0
 40
1.0
 10
12.2585906471
 20
7.7722164365
 30
0.0
 10
12.2585906471
 20
7.7332007962
 30
0.0
 10
12.2666577931
 20
7.7032790213
 30
0.0
 10
12.2830395504
 20
7.6821223171
 30
0.0
  0
SPLINE
  5
30F
100
AcDbEntity
  8
0
100
AcDbSpline
 62
7
  6
CONTINUOUS
 70
0
 71
3
 72
8
 73
4
 74
0
 42
0.0000001
 43
0.0000001
 44
0.0000000001
 40
0.0
 40
0.0
 40
0.0
 40
0.0
 40
1.0
 40
1.0
 40
1.0
 40
1.0
 10
12.2830395504
 20
7.6821223171
 30
0.0
 10
12.2993664067
 20
7.6610365167
 30
0.0
 10
12.3225410949
 20
7.6506225661
 30
0.0
 10
12.3526095431
 20
7.6506225661
 30
0.0
  0
SPLINE
  5
310
100
AcDbEntity
  8
0
100
AcDbSpline
 62
7
  6
CONTINUOUS
 70
0
 71
3
 72
8
 73
4
 74
0
 42
0.0000001
 43
0.0000001
 44
0.0000000001
 40
0.0
 40
0.0
 40
0.0
 40
0.0
 40
1.0
 40
1.0
 40
1.0
 40
1.0
 10
12.7097640734
 20
7.6551695021
 30
0.0
 10
12.7414459507
 20
7.6551695021
 30
0.0
 10
12.7665273945
 20
7.6655834527
 30
0.0
 10
12.7851502889
 20
7.6867090093
 30
0.0
  0
SPLINE
  5
311
100
AcDbEntity
  8
0
100
AcDbSpline
 62
7
  6
CONTINUOUS
 70
0
 71
3
 72
8
 73
4
 74
0
 42
0.0000001
 43
0.0000001
 44
0.0000000001
 40
0.0
 40
0.0
 40
0.0
 40
0.0
 40
1.0
 40
1.0
 40
1.0
 40
1.0
 10
12.7851502889
 20
7.6867090093
 30
0.0
 10
12.8036362927
 20
7.707679279
 30
0.0
 10
12.8130234878
 20
7.7361343014
 30
0.0
 10
12.8130234878
 20
7.7720697599
 30
0.0
  0
SPLINE
  5
312
100
AcDbEntity
  8
0
100
AcDbSpline
 62
7
  6
CONTINUOUS
 70
0
 71
3
 72
8
 73
4
 74
0
 42
0.0000001
 43
0.0000001
 44
0.0000000001
 40
0.0
 40
0.0
 40
0.0
 40
0.0
 40
1.0
 40
1.0
 40
1.0
 40
1.0
 10
12.8130234878
 20
7.7720697599
 30
0.0
 10
12.8130234878
 20
7.8091786312
 30
0.0
 10
12.8055430751
 20
7.8360202211
 30
0.0
 10
12.7904979062
 20
7.8535485663
 30
0.0
  0
SPLINE
  5
313
100
AcDbEntity
  8
0
100
AcDbSpline
 62
7
  6
CONTINUOUS
 70
0
 71
3
 72
8
 73
4
 74
0
 42
0.0000001
 43
0.0000001
 44
0.0000000001
 40
0.0
 40
0.0
 40
0.0
 40
0.0
 40
1.0
 40
1.0
 40
1.0
 40
1.0
 10
12.7904979062
 20
7.8535485663
 30
0.0
 10
12.7753279369
 20
7.87122231
 30
0.0
 10
12.7520065586
 20
7.8801695021
 30
0.0
 10
12.7206180076
 20
7.8801695021
 30
0.0
  0
SPLINE
  5
314
100
AcDbEntity
  8
0
100
AcDbSpline
 62
7
  6
CONTINUOUS
 70
0
 71
3
 72
8
 73
4
 74
0
 42
0.0000001
 43
0.0000001
 44
0.0000000001
 40
0.0
 40
0.0
 40
0.0
 40
0.0
 40
1.0
 40
1.0
 40
1.0
 40
1.0
 10
10.9970446521
 20
11.4030199257
 30
0.0
 10
10.9863872694
 20
11.3874380826
 30
0.0
 10
10.9711330102
 20
11.3798109631
 30
0.0
 10
10.9514785336
 20
11.3798109631
 30
0.0
  0
SPLINE
  5
315
100
AcDbEntity
  8
0
100
AcDbSpline
 62
7
  6
CONTINUOUS
 70
0
 71
3
 72
8
 73
4
 74
0
 42
0.0000001
 43
0.0000001
 44
0.0000000001
 40
0.0
 40
0.0
 40
0.0
 40
0.0
 40
1.0
 40
1.0
 40
1.0
 40
1.0
 10
11.0130821692
 20
11.4691362547
 30
0.0
 10
11.0130821692
 20
11.4405345591
 30
0.0
 10
11.0076551752
 20
11.4185332569
 30
0.0
 10
10.9970446521
 20
11.4030199257
 30
0.0
  0
SPLINE
  5
316
100
AcDbEntity
  8
0
100
AcDbSpline
 62
7
  6
CONTINUOUS
 70
0
 71
3
 72
8
 73
4
 74
0
 42
0.0000001
 43
0.0000001
 44
0.0000000001
 40
0.0
 40
0.0
 40
0.0
 40
0.0
 40
1.0
 40
1.0
 40
1.0
 40
1.0
 10
10.9987079965
 20
11.5323533329
 30
0.0
 10
11.0083885716
 20
11.5194458994
 30
0.0
 10
11.0130821692
 20
11.4983246567
 30
0.0
 10
11.0130821692
 20
11.4691362547
 30
0.0
  0
SPLINE
  5
317
100
AcDbEntity
  8
0
100
AcDbSpline
 62
7
  6
CONTINUOUS
 70
0
 71
3
 72
8
 73
4
 74
0
 42
0.0000001
 43
0.0000001
 44
0.0000000001
 40
0.0
 40
0.0
 40
0.0
 40
0.0
 40
1.0
 40
1.0
 40
1.0
 40
1.0
 10
10.9514785336
 20
11.5518611597
 30
0.0
 10
10.9731864826
 20
11.5518611597
 30
0.0
 10
10.9890274213
 20
11.5452607664
 30
0.0
 10
10.9987079965
 20
11.5323533329
 30
0.0
  0
SPLINE
  5
318
100
AcDbEntity
  8
0
100
AcDbSpline
 62
7
  6
CONTINUOUS
 70
0
 71
3
 72
8
 73
4
 74
0
 42
0.0000001
 43
0.0000001
 44
0.0000000001
 40
0.0
 40
0.0
 40
0.0
 40
0.0
 40
1.0
 40
1.0
 40
1.0
 40
1.0
 10
10.9059617087
 20
11.5303348593
 30
0.0
 10
10.9165697979
 20
11.54467406
 30
0.0
 10
10.9318240301
 20
11.5518611597
 30
0.0
 10
10.9514785336
 20
11.5518611597
 30
0.0
  0
SPLINE
  5
319
100
AcDbEntity
  8
0
100
AcDbSpline
 62
7
  6
CONTINUOUS
 70
0
 71
3
 72
8
 73
4
 74
0
 42
0.0000001
 43
0.0000001
 44
0.0000000001
 40
0.0
 40
0.0
 40
0.0
 40
0.0
 40
1.0
 40
1.0
 40
1.0
 40
1.0
 10
10.8900215344
 20
11.4691362547
 30
0.0
 10
10.8900215344
 20
11.4955378147
 30
0.0
 10
10.8953018652
 20
11.5159257012
 30
0.0
 10
10.9059617087
 20
11.5303348593
 30
0.0
  0
SPLINE
  5
31A
100
AcDbEntity
  8
0
100
AcDbSpline
 62
7
  6
CONTINUOUS
 70
0
 71
3
 72
8
 73
4
 74
0
 42
0.0000001
 43
0.0000001
 44
0.0000000001
 40
0.0
 40
0.0
 40
0.0
 40
0.0
 40
1.0
 40
1.0
 40
1.0
 40
1.0
 10
10.9059592586
 20
11.4029514177
 30
0.0
 10
10.8953018652
 20
11.4185332569
 30
0.0
 10
10.8900215344
 20
11.4405345591
 30
0.0
 10
10.8900215344
 20
11.4691362547
 30
0.0
  0
SPLINE
  5
31B
100
AcDbEntity
  8
0
100
AcDbSpline
 62
7
  6
CONTINUOUS
 70
0
 71
3
 72
8
 73
4
 74
0
 42
0.0000001
 43
0.0000001
 44
0.0000000001
 40
0.0
 40
0.0
 40
0.0
 40
0.0
 40
1.0
 40
1.0
 40
1.0
 40
1.0
 10
10.9514785336
 20
11.3798109631
 30
0.0
 10
10.9318240301
 20
11.3798109631
 30
0.0
 10
10.9165697979
 20
11.3874380826
 30
0.0
 10
10.9059592586
 20
11.4029514177
 30
0.0
  0
SPLINE
  5
31C
100
AcDbEntity
  8
0
100
AcDbSpline
 62
7
  6
CONTINUOUS
 70
0
 71
3
 72
8
 73
4
 74
0
 42
0.0000001
 43
0.0000001
 44
0.0000000001
 40
0.0
 40
0.0
 40
0.0
 40
0.0
 40
1.0
 40
1.0
 40
1.0
 40
1.0
 10
12.3981756707
 20
7.7030199195
 30
0.0
 10
12.3875182788
 20
7.6874380826
 30
0.0
 10
12.3722640465
 20
7.6798109631
 30
0.0
 10
12.3526095431
 20
7.6798109631
 30
0.0
  0
SPLINE
  5
31D
100
AcDbEntity
  8
0
100
AcDbSpline
 62
7
  6
CONTINUOUS
 70
0
 71
3
 72
8
 73
4
 74
0
 42
0.0000001
 43
0.0000001
 44
0.0000000001
 40
0.0
 40
0.0
 40
0.0
 40
0.0
 40
1.0
 40
1.0
 40
1.0
 40
1.0
 10
12.4142132054
 20
7.7691362547
 30
0.0
 10
12.4142132054
 20
7.7405345591
 30
0.0
 10
12.4087862115
 20
7.7185332569
 30
0.0
 10
12.3981756707
 20
7.7030199195
 30
0.0
  0
SPLINE
  5
31E
100
AcDbEntity
  8
0
100
AcDbSpline
 62
7
  6
CONTINUOUS
 70
0
 71
3
 72
8
 73
4
 74
0
 42
0.0000001
 43
0.0000001
 44
0.0000000001
 40
0.0
 40
0.0
 40
0.0
 40
0.0
 40
1.0
 40
1.0
 40
1.0
 40
1.0
 10
12.3998390145
 20
7.8323533393
 30
0.0
 10
12.4095195811
 20
7.8194458994
 30
0.0
 10
12.4142132054
 20
7.7983246567
 30
0.0
 10
12.4142132054
 20
7.7691362547
 30
0.0
  0
SPLINE
  5
31F
100
AcDbEntity
  8
0
100
AcDbSpline
 62
7
  6
CONTINUOUS
 70
0
 71
3
 72
8
 73
4
 74
0
 42
0.0000001
 43
0.0000001
 44
0.0000000001
 40
0.0
 40
0.0
 40
0.0
 40
0.0
 40
1.0
 40
1.0
 40
1.0
 40
1.0
 10
12.3526095431
 20
7.8518611597
 30
0.0
 10
12.3743175189
 20
7.8518611597
 30
0.0
 10
12.3901584576
 20
7.8452607664
 30
0.0
 10
12.3998390145
 20
7.8323533393
 30
0.0
  0
SPLINE
  5
320
100
AcDbEntity
  8
0
100
AcDbSpline
 62
7
  6
CONTINUOUS
 70
0
 71
3
 72
8
 73
4
 74
0
 42
0.0000001
 43
0.0000001
 44
0.0000000001
 40
0.0
 40
0.0
 40
0.0
 40
0.0
 40
1.0
 40
1.0
 40
1.0
 40
1.0
 10
12.3070927362
 20
7.8303348657
 30
0.0
 10
12.3177008073
 20
7.84467406
 30
0.0
 10
12.3329550664
 20
7.8518611597
 30
0.0
 10
12.3526095431
 20
7.8518611597
 30
0.0
  0
SPLINE
  5
321
100
AcDbEntity
  8
0
100
AcDbSpline
 62
7
  6
CONTINUOUS
 70
0
 71
3
 72
8
 73
4
 74
0
 42
0.0000001
 43
0.0000001
 44
0.0000000001
 40
0.0
 40
0.0
 40
0.0
 40
0.0
 40
1.0
 40
1.0
 40
1.0
 40
1.0
 10
12.2911525707
 20
7.7691362547
 30
0.0
 10
12.2911525707
 20
7.7955378147
 30
0.0
 10
12.2964329015
 20
7.8159257012
 30
0.0
 10
12.3070927362
 20
7.8303348657
 30
0.0
  0
SPLINE
  5
322
100
AcDbEntity
  8
0
100
AcDbSpline
 62
7
  6
CONTINUOUS
 70
0
 71
3
 72
8
 73
4
 74
0
 42
0.0000001
 43
0.0000001
 44
0.0000000001
 40
0.0
 40
0.0
 40
0.0
 40
0.0
 40
1.0
 40
1.0
 40
1.0
 40
1.0
 10
12.3070902858
 20
7.7029514114
 30
0.0
 10
12.2964329015
 20
7.7185332569
 30
0.0
 10
12.2911525707
 20
7.7405345591
 30
0.0
 10
12.2911525707
 20
7.7691362547
 30
0.0
  0
SPLINE
  5
323
100
AcDbEntity
  8
0
100
AcDbSpline
 62
7
  6
CONTINUOUS
 70
0
 71
3
 72
8
 73
4
 74
0
 42
0.0000001
 43
0.0000001
 44
0.0000000001
 40
0.0
 40
0.0
 40
0.0
 40
0.0
 40
1.0
 40
1.0
 40
1.0
 40
1.0
 10
12.3526095431
 20
7.6798109631
 30
0.0
 10
12.3329550664
 20
7.6798109631
 30
0.0
 10
12.3177008073
 20
7.6874380826
 30
0.0
 10
12.3070902858
 20
7.7029514114
 30
0.0
  0
SPLINE
  5
324
100
AcDbEntity
  8
0
100
AcDbSpline
 62
7
  6
CONTINUOUS
 70
0
 71
3
 72
8
 73
4
 74
0
 42
0.0000001
 43
0.0000001
 44
0.0000000001
 40
0.0
 40
0.0
 40
0.0
 40
0.0
 40
1.0
 40
1.0
 40
1.0
 40
1.0
 10
12.60421965
 20
10.7842021968
 30
0.0
 10
12.5968494239
 20
10.7777901071
 30
0.0
 10
12.5848220768
 20
10.7747099253
 30
0.0
 10
12.5682477417
 20
10.7747099253
 30
0.0
  0
SPLINE
  5
325
100
AcDbEntity
  8
0
100
AcDbSpline
 62
7
  6
CONTINUOUS
 70
0
 71
3
 72
8
 73
4
 74
0
 42
0.0000001
 43
0.0000001
 44
0.0000000001
 40
0.0
 40
0.0
 40
0.0
 40
0.0
 40
1.0
 40
1.0
 40
1.0
 40
1.0
 10
12.6151838782
 20
10.8153389948
 30
0.0
 10
12.6151838782
 20
10.8009648087
 30
0.0
 10
12.6115169766
 20
10.790550864
 30
0.0
 10
12.60421965
 20
10.7842021968
 30
0.0
  0
SPLINE
  5
326
100
AcDbEntity
  8
0
100
AcDbSpline
 62
7
  6
CONTINUOUS
 70
0
 71
3
 72
8
 73
4
 74
0
 42
0.0000001
 43
0.0000001
 44
0.0000000001
 40
0.0
 40
0.0
 40
0.0
 40
0.0
 40
1.0
 40
1.0
 40
1.0
 40
1.0
 10
12.6057966415
 20
10.8389537396
 30
0.0
 10
12.6119570198
 20
10.8333800691
 30
0.0
 10
12.6151838782
 20
10.8256062629
 30
0.0
 10
12.6151838782
 20
10.8153389948
 30
0.0
  0
SPLINE
  5
327
100
AcDbEntity
  8
0
100
AcDbSpline
 62
7
  6
CONTINUOUS
 70
0
 71
3
 72
8
 73
4
 74
0
 42
0.0000001
 43
0.0000001
 44
0.0000000001
 40
0.0
 40
0.0
 40
0.0
 40
0.0
 40
1.0
 40
1.0
 40
1.0
 40
1.0
 10
12.579395056
 20
10.8473142254
 30
0.0
 10
12.5908357503
 20
10.8473142254
 30
0.0
 10
12.5996362927
 20
10.8445273834
 30
0.0
 10
12.6057966415
 20
10.8389537396
 30
0.0
  0
SPLINE
  5
328
100
AcDbEntity
  8
0
100
AcDbSpline
 62
7
  6
CONTINUOUS
 70
0
 71
3
 72
8
 73
4
 74
0
 42
0.0000001
 43
0.0000001
 44
0.0000000001
 40
0.0
 40
0.0
 40
0.0
 40
0.0
 40
1.0
 40
1.0
 40
1.0
 40
1.0
 10
12.7613504755
 20
7.7072753556
 30
0.0
 10
12.7486330371
 20
7.6919850169
 30
0.0
 10
12.7314719956
 20
7.6843578974
 30
0.0
 10
12.7097640734
 20
7.6843578974
 30
0.0
  0
SPLINE
  5
329
100
AcDbEntity
  8
0
100
AcDbSpline
 62
7
  6
CONTINUOUS
 70
0
 71
3
 72
8
 73
4
 74
0
 42
0.0000001
 43
0.0000001
 44
0.0000000001
 40
0.0
 40
0.0
 40
0.0
 40
0.0
 40
1.0
 40
1.0
 40
1.0
 40
1.0
 10
12.7804615776
 20
7.7689895781
 30
0.0
 10
12.7804615776
 20
7.7430280412
 30
0.0
 10
12.7740078609
 20
7.7224934916
 30
0.0
 10
12.7613504755
 20
7.7072753556
 30
0.0
  0
SPLINE
  5
32A
100
AcDbEntity
  8
0
100
AcDbSpline
 62
7
  6
CONTINUOUS
 70
0
 71
3
 72
8
 73
4
 74
0
 42
0.0000001
 43
0.0000001
 44
0.0000000001
 40
0.0
 40
0.0
 40
0.0
 40
0.0
 40
1.0
 40
1.0
 40
1.0
 40
1.0
 10
12.7654654291
 20
7.8273399408
 30
0.0
 10
12.7754746001
 20
7.8140189188
 30
0.0
 10
12.7804615776
 20
7.794511092
 30
0.0
 10
12.7804615776
 20
7.7689895781
 30
0.0
  0
SPLINE
  5
32B
100
AcDbEntity
  8
0
100
AcDbSpline
 62
7
  6
CONTINUOUS
 70
0
 71
3
 72
8
 73
4
 74
0
 42
0.0000001
 43
0.0000001
 44
0.0000000001
 40
0.0
 40
0.0
 40
0.0
 40
0.0
 40
1.0
 40
1.0
 40
1.0
 40
1.0
 10
12.7216447573
 20
7.8473142254
 30
0.0
 10
12.7408592443
 20
7.8473142254
 30
0.0
 10
12.7555267434
 20
7.8405671554
 30
0.0
 10
12.7654654291
 20
7.8273399408
 30
0.0
  0
LINE
  5
32C
100
AcDbEntity
  8
0
100
AcDbLine
 62
7
  6
CONTINUOUS
 10
11.513202323
 20
8.9353986601
 11
11.9506923427
 21
8.6828136795
  0
LINE
  5
32D
100
AcDbEntity
  8
0
100
AcDbLine
 62
7
  6
CONTINUOUS
 10
11.513202323
 20
9.5999403441
 11
11.9506923427
 21
9.8525253248
  0
LINE
  5
32E
100
AcDbEntity
  8
0
100
AcDbLine
 62
7
  6
CONTINUOUS
 10
10.9376923427
 20
9.9322111861
 11
10.9376923427
 21
10.4373811475
  0
LINE
  5
32F
100
AcDbEntity
  8
0
100
AcDbLine
 62
7
  6
CONTINUOUS
 10
10.3621823625
 20
9.5999403441
 11
9.9246923427
 21
9.8525253248
  0
LINE
  5
330
100
AcDbEntity
  8
0
100
AcDbLine
 62
7
  6
CONTINUOUS
 10
10.3621823625
 20
8.9353986601
 11
9.9246923427
 21
8.6828136795
  0
LINE
  5
331
100
AcDbEntity
  8
0
100
AcDbLine
 62
7
  6
CONTINUOUS
 10
10.9376923427
 20
8.6031278181
 11
10.9376923427
 21
8.0979578568
  0
ENDSEC
  0
SECTION
  2
OBJECTS
  0
DICTIONARY
  5
C
100
AcDbDictionary
280
0
281
1
  3
ACAD_GROUP
350
D
  3
ACAD_MLINESTYLE
350
17
  3
ACAD_LAYOUT
350
1A
  3
ACAD_PLOTSETTINGS
350
19
  3
ACAD_PLOTSTYLENAME
350
E
  0
DICTIONARY
  5
D
102
{ACAD_REACTORS
330
C
102
}
100
AcDbDictionary
280
0
281
1
  0
ACDBDICTIONARYWDFLT
  5
E
102
{ACAD_REACTORS
330
C
102
}
100
AcDbDictionary
281
1
  3
Normal
350
F
100
AcDbDictionaryWithDefault
340
F
  0
DICTIONARY
  5
17
102
{ACAD_REACTORS
330
C
102
}
100
AcDbDictionary
280
0
281
1
  3
Standard
350
18
  0
DICTIONARY
  5
19
102
{ACAD_REACTORS
330
C
102
}
100
AcDbDictionary
281
1
  0
DICTIONARY
  5
1A
102
{ACAD_REACTORS
330
C
102
}
100
AcDbDictionary
281
1
  3
Model
350
332
  3
Layout1
350
333
  0
ACDBPLACEHOLDER
  5
F
102
{ACAD_REACTORS
330
E
102
}
  0
MLINESTYLE
  5
18
102
{ACAD_REACTORS
330
17
102
}
100
AcDbMlineStyle
  2
STANDARD
 70
0
  3

 62
256
 51
90.0
 52
90.0
 71
2
 49
0.5
 62
256
  6
BYLAYER
 49
-0.5
 62
256
  6
BYLAYER
  0
LAYOUT
  5
332
102
{ACAD_REACTORS
330
1A
102
}
100
AcDbPlotSettings
  1

  2
none_device
  4
ANSI_C_(22.00_x_17.00_Inches)
  6

 40
0.0
 41
0.0
 42
0.0
 43
0.0
 44
558.8
 45
431.8
 46
0.0
 47
0.0
 48
0.0
 49
0.0
140
0.0
141
0.0
142
1.0
143
1.0
 70
1024
 72
0
 73
0
 74
0
  7

 75
0
147
1.0
148
0.0
149
0.0
100
AcDbLayout
  1
Model
 70
0
 71
0
 10
0.0
 20
0.0
 11
22.0
 21
17.0
 12
0.0
 22
0.0
 32
0.0
 14
0.0
 24
0.0
 34
0.0
 15
0.0
 25
0.0
 35
0.0
146
0.0
 13
0.0
 23
0.0
 33
0.0
 16
1.0
 26
0.0
 36
0.0
 17
0.0
 27
1.0
 37
0.0
 76
0
330
205
345
0
346
0
  0
LAYOUT
  5
333
102
{ACAD_REACTORS
330
1A
102
}
100
AcDbPlotSettings
  1

  2
none_device
  4
ANSI_C_(22.00_x_17.00_Inches)
  6

 40
0.0
 41
0.0
 42
0.0
 43
0.0
 44
558.8
 45
431.8
 46
0.0
 47
0.0
 48
0.0
 49
0.0
140
0.0
141
0.0
142
1.0
143
1.0
 70
0
 72
0
 73
0
 74
0
  7

 75
0
147
1.0
148
0.0
149
0.0
100
AcDbLayout
  1
Layout1
 70
0
 71
1
 10
0.0
 20
0.0
 11
22.0
 21
17.0
 12
0.0
 22
0.0
 32
0.0
 14
0.0
 24
0.0
 34
0.0
 15
0.0
 25
0.0
 35
0.0
146
0.0
 13
0.0
 23
0.0
 33
0.0
 16
1.0
 26
0.0
 36
0.0
 17
0.0
 27
1.0
 37
0.0
 76
0
330
206
345
0
346
0
  0
ENDSEC
  0
EOF
