999
DXF file: E:\BT Custom\CADOUTPUT\_TOP.dxf
999
Pro/ENGINEER 2018400 by Parametric Technology Corporation
  0
SECTION
  2
HEADER
  9
$ACADVER
  1
AC1018
  9
$DWGCODEPAGE
  3
ANSI_1252
  9
$EXTMAX
 10
22.0
 20
17.0
 30
0.0
  9
$EXTMIN
 10
0.0
 20
0.0
 30
0.0
  9
$LIMMIN
 10
0.0
 20
0.0
  9
$LIMMAX
 10
22.0
 20
17.0
  9
$VIEWCTR
 10
11.0
 20
8.5
  9
$VIEWSIZE
 40
17.0
  9
$CLAYER
  8
0
  9
$LTSCALE
 40
1.21
  9
$CELTYPE
  6
BYLAYER
  9
$DIMSCALE
 40
1.0
  9
$DIMASZ
 40
0.1
  9
$DIMEXO
 40
0.0625
  9
$DIMDLI
 40
0.836
  9
$DIMEXE
 40
0.125
  9
$DIMCEN
 40
0.198
  9
$DIMLFAC
 40
1.0
  9
$DIMBLK
  1
_FILLED
  9
$DIMALT
 70
1
  9
$DIMALTD
 70
2
  9
$DIMALTTD
 70
2
  9
$DIMALTF
 40
25.4
  9
$DIMTXT
 40
0.08
  9
$DIMTOL
 70
1
  9
$DIMLIM
 70
0
  9
$DIMTFAC
 40
1.0
  9
$DIMTP
 40
0.001
  9
$DIMTM
 40
0.001
  9
$DIMGAP
 40
0.09
  9
$DIMDSEP
 70
46
  9
$AUNITS
 70
0
  9
$PDMODE
 70
3
  9
$PDSIZE
 40
0.06
  9
$HANDSEED
  5
2AD
  9
$TILEMODE
 70
1
  9
$MEASUREMENT
 70
0
  9
$INSUNITS
 70
1
  0
ENDSEC
  0
SECTION
  2
CLASSES
  0
CLASS
  1
ACDBDICTIONARYWDFLT
  2
AcDbDictionaryWithDefault
  3
AutoCAD 2000
 90
0
 91
1
280
0
281
0
  0
CLASS
  1
ACDBPLACEHOLDER
  2
AcDbPlaceHolder
  3
AutoCAD 2000
 90
0
 91
1
280
0
281
0
  0
CLASS
  1
LAYOUT
  2
AcDbLayout
  3
AutoCAD 2000
 90
0
 91
0
280
0
281
0
  0
ENDSEC
  0
SECTION
  2
TABLES
  0
TABLE
  2
VPORT
  5
8
100
AcDbSymbolTable
 70
2
  0
VPORT
  5
1F4
100
AcDbSymbolTableRecord
100
AcDbViewportTableRecord
  2
*ACTIVE
 70
0
 10
0.0
 20
0.0
 11
1.0
 21
1.0
 12
11.0
 22
8.5
 13
0.0
 23
0.0
 14
1.0
 24
1.0
 15
0.0
 25
0.0
 16
0.0
 26
0.0
 36
1.0
 17
0.0
 27
0.0
 37
0.0
 40
17.0
 41
1.2941176471
 42
50.0
 43
0.0
 44
0.0
 50
0.0
 51
0.0
 71
0
 72
100
 73
1
 74
1
 75
0
 76
0
 77
0
 78
0
  0
ENDTAB
  0
TABLE
  2
LTYPE
  5
5
100
AcDbSymbolTable
 70
6
  0
LTYPE
  5
14
100
AcDbSymbolTableRecord
100
AcDbLinetypeTableRecord
  2
BYBLOCK
 70
0
  3

 72
65
 73
0
 40
0.0
  0
LTYPE
  5
15
100
AcDbSymbolTableRecord
100
AcDbLinetypeTableRecord
  2
BYLAYER
 70
0
  3

 72
65
 73
0
 40
0.0
  0
LTYPE
  5
16
100
AcDbSymbolTableRecord
100
AcDbLinetypeTableRecord
  2
CONTINUOUS
 70
64
  3
Solid line
 72
65
 73
0
 40
0.0
  0
LTYPE
  5
1F5
100
AcDbSymbolTableRecord
100
AcDbLinetypeTableRecord
  2
CENTER
 70
64
  3
____ _ ____ _ ____ _ ____ _ ____ _ ____ _ ____
 72
65
 73
4
 40
0.6
 49
0.375
 74
0
 49
-0.075
 74
0
 49
0.075
 74
0
 49
-0.075
 74
0
  0
LTYPE
  5
1F6
100
AcDbSymbolTableRecord
100
AcDbLinetypeTableRecord
  2
HIDDEN
 70
64
  3
- - - - - - - - - - - - - - - - - - - -
 72
65
 73
2
 40
0.2
 49
0.1
 74
0
 49
-0.1
 74
0
  0
LTYPE
  5
1F7
100
AcDbSymbolTableRecord
100
AcDbLinetypeTableRecord
  2
PHANTOM
 70
64
  3
_____ _ _ _____ _ _ _____ _ _ _____
 72
65
 73
6
 40
0.8
 49
0.45
 74
0
 49
-0.05
 74
0
 49
0.1
 74
0
 49
-0.05
 74
0
 49
0.1
 74
0
 49
-0.05
 74
0
  0
LTYPE
  5
1F8
100
AcDbSymbolTableRecord
100
AcDbLinetypeTableRecord
  2
DOT
 70
64
  3
. . . . . . . . . . . . . . . . . . . .
 72
65
 73
2
 40
0.2
 49
0.1
 74
0
 49
-0.1
 74
0
  0
LTYPE
  5
1F9
100
AcDbSymbolTableRecord
100
AcDbLinetypeTableRecord
  2
DASHED
 70
64
  3
- - - - - - - - - - - - - - - - - - - -
 72
65
 73
2
 40
0.2
 49
0.1
 74
0
 49
-0.1
 74
0
  0
ENDTAB
  0
TABLE
  2
LAYER
  5
2
100
AcDbSymbolTable
 70
36
  0
LAYER
  5
10
100
AcDbSymbolTableRecord
100
AcDbLayerTableRecord
  2
0
 70
0
 62
7
  6
CONTINUOUS
370
-3
390
F
  0
LAYER
  5
1FA
100
AcDbSymbolTableRecord
100
AcDbLayerTableRecord
  2
DEFAULT_1
 70
0
 62
7
  6
CENTER
370
-3
390
F
  0
LAYER
  5
1FB
100
AcDbSymbolTableRecord
100
AcDbLayerTableRecord
  2
DEFAULT_2
 70
0
 62
8
  6
HIDDEN
370
-3
390
F
  0
LAYER
  5
1FC
100
AcDbSymbolTableRecord
100
AcDbLayerTableRecord
  2
DEFAULT_3
 70
0
 62
7
  6
PHANTOM
370
-3
390
F
  0
LAYER
  5
1FD
100
AcDbSymbolTableRecord
100
AcDbLayerTableRecord
  2
ALL_FEATURES
 70
0
 62
7
  6
CONTINUOUS
370
-3
390
F
  0
LAYER
  5
1FE
100
AcDbSymbolTableRecord
100
AcDbLayerTableRecord
  2
AXES_FEATURES
 70
0
 62
7
  6
CONTINUOUS
370
-3
390
F
  0
LAYER
  5
1FF
100
AcDbSymbolTableRecord
100
AcDbLayerTableRecord
  2
DEFAULT_COORDINATE_SYSTEM
 70
0
 62
7
  6
CONTINUOUS
370
-3
390
F
  0
LAYER
  5
200
100
AcDbSymbolTableRecord
100
AcDbLayerTableRecord
  2
DEFAULT_DATUM_AXES
 70
0
 62
7
  6
CONTINUOUS
370
-3
390
F
  0
LAYER
  5
201
100
AcDbSymbolTableRecord
100
AcDbLayerTableRecord
  2
DEFAULT_DATUM_PLANES
 70
0
 62
7
  6
CONTINUOUS
370
-3
390
F
  0
LAYER
  5
202
100
AcDbSymbolTableRecord
100
AcDbLayerTableRecord
  2
DIMENSIONS
 70
0
 62
7
  6
CONTINUOUS
370
-3
390
F
  0
ENDTAB
  0
TABLE
  2
STYLE
  5
3
100
AcDbSymbolTable
 70
1
  0
STYLE
  5
11
100
AcDbSymbolTableRecord
100
AcDbTextStyleTableRecord
  2
STANDARD
 70
0
 40
0.0
 41
0.8
 50
0.0
 71
0
 42
0.2
  3
txt
  4

  0
STYLE
  5
203
100
AcDbSymbolTableRecord
100
AcDbTextStyleTableRecord
  2
TEXTSTYLE_1
 70
0
 40
0.0
 41
0.8
 50
0.0
 71
0
 42
0.2
  3
gdt
  4

  0
ENDTAB
  0
TABLE
  2
VIEW
  5
6
100
AcDbSymbolTable
 70
0
  0
ENDTAB
  0
TABLE
  2
UCS
  5
7
100
AcDbSymbolTable
 70
0
  0
ENDTAB
  0
TABLE
  2
APPID
  5
9
100
AcDbSymbolTable
 70
1
  0
APPID
  5
204
100
AcDbSymbolTableRecord
100
AcDbRegAppTableRecord
  2
ACAD
 70
0
  0
ENDTAB
  0
TABLE
  2
BLOCK_RECORD
  5
1
100
AcDbSymbolTable
 70
0
  0
BLOCK_RECORD
  5
205
100
AcDbSymbolTableRecord
100
AcDbBlockTableRecord
  2
*Model_Space
  0
BLOCK_RECORD
  5
206
100
AcDbSymbolTableRecord
100
AcDbBlockTableRecord
  2
*Paper_Space
  0
BLOCK_RECORD
  5
207
100
AcDbSymbolTableRecord
100
AcDbBlockTableRecord
  2
_FILLED
  0
ENDTAB
  0
TABLE
  2
DIMSTYLE
  5
A
100
AcDbSymbolTable
 70
1
100
AcDbDimStyleTable
 71
0
  0
DIMSTYLE
105
208
100
AcDbSymbolTableRecord
100
AcDbDimStyleTableRecord
  2
STANDARD
 70
0
  3

  4

 40
1.0
 41
0.1
 42
0.0625
 43
0.38
 44
0.125
 45
0.0
 46
0.0
 47
0.001
 48
0.001
140
0.08
141
0.09
142
0.0
143
25.4
144
1.0
145
0.0
146
1.0
147
0.09
 71
1.0
 72
0.0
 73
1
 74
1
 75
0
 76
0
 77
0
 78
4
 79
1
170
1
171
2
172
0
173
0
174
0
175
0
176
0
177
0
178
0
270
2
179
3
271
3
272
3
273
2
274
2
275
0
280
0
281
0
282
0
283
1
284
4
285
0
286
0
287
3
288
0
340
11
278
46
341
207
342
207
343
207
344
207
  0
ENDTAB
  0
ENDSEC
  0
SECTION
  2
BLOCKS
  0
BLOCK
  5
20
100
AcDbEntity
  8
0
100
AcDbBlockBegin
  2
*Model_Space
 70
0
 10
0.0
 20
0.0
 30
0.0
  3
*Model_Space
  1

  0
ENDBLK
  5
21
100
AcDbEntity
  8
0
100
AcDbBlockEnd
  0
BLOCK
  5
1C
100
AcDbEntity
  8
0
100
AcDbBlockBegin
  2
*Paper_Space
 70
0
 10
0.0
 20
0.0
 30
0.0
  3
*Paper_Space
  1

  0
ENDBLK
  5
1D
100
AcDbEntity
  8
0
100
AcDbBlockEnd
  0
BLOCK
  5
209
100
AcDbEntity
  8
0
100
AcDbBlockBegin
  2
_FILLED
 70
64
 10
0.0
 20
0.0
  3
_FILLED
  1

  0
SOLID
  5
20A
100
AcDbEntity
  8
0
  6
BYBLOCK
 62
0
100
AcDbTrace
 10
0.0
 20
0.0
 11
-1.0
 21
0.2
 12
-1.0
 22
-0.2
 13
-1.0
 23
-0.2
  0
ENDBLK
  5
20B
100
AcDbEntity
  8
0
  6
BYBLOCK
 62
0
100
AcDbBlockEnd
  0
ENDSEC
  0
SECTION
  2
ENTITIES
  0
LINE
  5
20C
100
AcDbEntity
  8
0
100
AcDbLine
 62
9
  6
CONTINUOUS
 10
11.4424629948
 20
5.7255225672
 11
10.6521736817
 21
5.7255225672
  0
LINE
  5
20D
100
AcDbEntity
  8
0
100
AcDbLine
 62
7
  6
CONTINUOUS
 10
10.5928083859
 20
5.7493318604
 11
11.5018282907
 21
5.7493318604
  0
LINE
  5
20E
100
AcDbEntity
  8
0
100
AcDbLine
 62
7
  6
CONTINUOUS
 10
10.534084186
 20
5.7684125084
 11
11.5605524905
 21
5.7684125084
  0
LINE
  5
20F
100
AcDbEntity
  8
0
100
AcDbLine
 62
7
  6
CONTINUOUS
 10
10.5198183383
 20
5.7880477633
 11
11.5748183383
 21
5.7880477633
  0
LINE
  5
210
100
AcDbEntity
  8
0
100
AcDbLine
 62
7
  6
CONTINUOUS
 10
10.5928083822
 20
5.7493318604
 11
10.534084186
 21
5.7684125084
  0
LINE
  5
211
100
AcDbEntity
  8
0
100
AcDbLine
 62
7
  6
CONTINUOUS
 10
10.5198183383
 20
5.8593318604
 11
11.5748183383
 21
5.8593318604
  0
LINE
  5
212
100
AcDbEntity
  8
0
100
AcDbLine
 62
7
  6
CONTINUOUS
 10
10.5466651258
 20
5.8748318604
 11
11.5479715508
 21
5.8748318604
  0
LINE
  5
213
100
AcDbEntity
  8
0
100
AcDbLine
 62
7
  6
CONTINUOUS
 10
10.5198183383
 20
5.8903318604
 11
11.5748183383
 21
5.8903318604
  0
LINE
  5
214
100
AcDbEntity
  8
0
100
AcDbLine
 62
7
  6
CONTINUOUS
 10
10.4898183383
 20
5.9703318604
 11
11.6048183383
 21
5.9703318604
  0
LINE
  5
215
100
AcDbEntity
  8
0
100
AcDbLine
 62
7
  6
CONTINUOUS
 10
11.4072399157
 20
5.9793318604
 11
11.3957680462
 21
5.9793318604
  0
LINE
  5
216
100
AcDbEntity
  8
0
100
AcDbLine
 62
7
  6
CONTINUOUS
 10
10.6988687598
 20
5.9793318604
 11
10.6873967609
 21
5.9793318604
  0
LINE
  5
217
100
AcDbEntity
  8
0
100
AcDbLine
 62
7
  6
CONTINUOUS
 10
10.5466651258
 20
5.8748318604
 11
10.5198183383
 21
5.8903318604
  0
LINE
  5
218
100
AcDbEntity
  8
0
100
AcDbLine
 62
7
  6
CONTINUOUS
 10
10.534084186
 20
5.7684125084
 11
10.5198183383
 21
5.7880477633
  0
LINE
  5
219
100
AcDbEntity
  8
0
100
AcDbLine
 62
7
  6
CONTINUOUS
 10
9.8598183383
 20
8.5363318604
 11
9.8598183383
 21
8.3847108189
  0
LINE
  5
21A
100
AcDbEntity
  8
0
100
AcDbLine
 62
7
  6
CONTINUOUS
 10
11.4072399157
 20
6.3713318604
 11
11.3957680427
 21
6.3713318604
  0
LINE
  5
21B
100
AcDbEntity
  8
0
100
AcDbLine
 62
7
  6
CONTINUOUS
 10
10.6988687738
 20
6.3713318604
 11
10.6873967609
 21
6.3713318604
  0
LINE
  5
21C
100
AcDbEntity
  8
0
100
AcDbLine
 62
7
  6
CONTINUOUS
 10
11.5748183383
 20
5.8593318604
 11
11.5479715508
 21
5.8748318604
  0
LINE
  5
21D
100
AcDbEntity
  8
0
100
AcDbLine
 62
7
  6
CONTINUOUS
 10
10.4638199787
 20
6.2951218141
 11
10.4342334527
 21
6.3361587031
  0
LINE
  5
21E
100
AcDbEntity
  8
0
100
AcDbLine
 62
7
  6
CONTINUOUS
 10
11.6048183383
 20
6.3803318604
 11
10.4898183383
 21
6.3803318604
  0
LINE
  5
21F
100
AcDbEntity
  8
0
100
AcDbLine
 62
7
  6
CONTINUOUS
 10
10.5198183383
 20
6.4593318604
 11
11.5748183383
 21
6.4593318604
  0
LINE
  5
220
100
AcDbEntity
  8
0
100
AcDbLine
 62
7
  6
CONTINUOUS
 10
10.6768183398
 20
6.5103318604
 11
11.4178183367
 21
6.5103318604
  0
LINE
  5
221
100
AcDbEntity
  8
0
100
AcDbLine
 62
7
  6
CONTINUOUS
 10
10.7038183383
 20
6.8693318604
 11
11.3908183383
 21
6.8693318604
  0
LINE
  5
222
100
AcDbEntity
  8
0
100
AcDbLine
 62
7
  6
CONTINUOUS
 10
10.6173183383
 20
6.8893318604
 11
11.4773183383
 21
6.8893318604
  0
LINE
  5
223
100
AcDbEntity
  8
0
100
AcDbLine
 62
7
  6
CONTINUOUS
 10
11.5748183383
 20
6.4593318604
 11
11.4178183383
 21
6.5103318604
  0
LINE
  5
224
100
AcDbEntity
  8
0
100
AcDbLine
 62
7
  6
CONTINUOUS
 10
10.5473183383
 20
7.0093318604
 11
10.4718083581
 21
7.4021400106
  0
LINE
  5
225
100
AcDbEntity
  8
0
100
AcDbLine
 62
7
  6
CONTINUOUS
 10
10.5198183383
 20
5.7880477633
 11
10.5198183383
 21
5.8593318604
  0
LINE
  5
226
100
AcDbEntity
  8
0
100
AcDbLine
 62
7
  6
CONTINUOUS
 10
10.6173183383
 20
6.8893318604
 11
10.6173183383
 21
7.0093318604
  0
LINE
  5
227
100
AcDbEntity
  8
0
100
AcDbLine
 62
7
  6
CONTINUOUS
 10
10.7038183383
 20
6.5103318604
 11
10.7038183383
 21
6.8693318604
  0
LINE
  5
228
100
AcDbEntity
  8
0
100
AcDbLine
 62
7
  6
CONTINUOUS
 10
11.5473183383
 20
7.0093318604
 11
10.5473183383
 21
7.0093318604
  0
LINE
  5
229
100
AcDbEntity
  8
0
100
AcDbLine
 62
7
  6
CONTINUOUS
 10
11.6308166979
 20
6.0555419067
 11
11.6604032238
 21
6.0145050177
  0
LINE
  5
22A
100
AcDbEntity
  8
0
100
AcDbLine
 62
7
  6
CONTINUOUS
 10
10.8473183383
 20
6.8893318604
 11
10.8473183383
 21
6.8693318604
  0
LINE
  5
22B
100
AcDbEntity
  8
0
100
AcDbLine
 62
7
  6
CONTINUOUS
 10
11.0473183383
 20
5.701216705
 11
11.0473183383
 21
5.7022343602
  0
LINE
  5
22C
100
AcDbEntity
  8
0
100
AcDbLine
 62
7
  6
CONTINUOUS
 10
11.0473183383
 20
7.0093318604
 11
11.0473183383
 21
7.4021400106
  0
LINE
  5
22D
100
AcDbEntity
  8
0
100
AcDbLine
 62
7
  6
CONTINUOUS
 10
11.0473183383
 20
8.2145637337
 11
11.0473183383
 21
8.2295846177
  0
LINE
  5
22E
100
AcDbEntity
  8
0
100
AcDbLine
 62
9
  6
CONTINUOUS
 10
11.6228283185
 20
7.4021400106
 11
10.4718083581
 21
7.4021400106
  0
LINE
  5
22F
100
AcDbEntity
  8
0
100
AcDbLine
 62
7
  6
CONTINUOUS
 10
10.0343183383
 20
8.2145637337
 11
9.8598183193
 21
8.3847108373
  0
LINE
  5
230
100
AcDbEntity
  8
0
100
AcDbLine
 62
7
  6
CONTINUOUS
 10
11.2473183383
 20
6.8893318604
 11
11.2473183383
 21
6.8693318604
  0
LINE
  5
231
100
AcDbEntity
  8
0
100
AcDbLine
 62
7
  6
CONTINUOUS
 10
12.0603183383
 20
8.2145637337
 11
12.2348183572
 21
8.3847108373
  0
LINE
  5
232
100
AcDbEntity
  8
0
100
AcDbLine
 62
7
  6
CONTINUOUS
 10
11.3908183383
 20
6.5103318604
 11
11.3908183383
 21
6.8693318604
  0
LINE
  5
233
100
AcDbEntity
  8
0
100
AcDbLine
 62
7
  6
CONTINUOUS
 10
11.4773183383
 20
6.8893318604
 11
11.4773183383
 21
7.0093318604
  0
LINE
  5
234
100
AcDbEntity
  8
0
100
AcDbLine
 62
7
  6
CONTINUOUS
 10
11.5748183383
 20
5.7880477633
 11
11.5748183383
 21
5.8593318604
  0
LINE
  5
235
100
AcDbEntity
  8
0
100
AcDbLine
 62
7
  6
CONTINUOUS
 10
11.5473183383
 20
7.0093318604
 11
11.6228283185
 21
7.4021400106
  0
LINE
  5
236
100
AcDbEntity
  8
0
100
AcDbLine
 62
7
  6
CONTINUOUS
 10
10.4638199787
 20
6.0555419067
 11
10.4342334527
 21
6.0145050177
  0
LINE
  5
237
100
AcDbEntity
  8
0
100
AcDbLine
 62
7
  6
CONTINUOUS
 10
10.5198183383
 20
6.4593318604
 11
10.6768183383
 21
6.5103318604
  0
LINE
  5
238
100
AcDbEntity
  8
0
100
AcDbLine
 62
9
  6
CONTINUOUS
 10
12.0603183383
 20
8.2145637337
 11
10.0343183383
 21
8.2145637337
  0
LINE
  5
239
100
AcDbEntity
  8
0
100
AcDbLine
 62
7
  6
CONTINUOUS
 10
11.6308166979
 20
6.2951218141
 11
11.6604032238
 21
6.3361587031
  0
LINE
  5
23A
100
AcDbEntity
  8
0
100
AcDbLine
 62
7
  6
CONTINUOUS
 10
10.5198183383
 20
5.8593318604
 11
10.5466651258
 21
5.8748318604
  0
LINE
  5
23B
100
AcDbEntity
  8
0
100
AcDbLine
 62
7
  6
CONTINUOUS
 10
13.800896524
 20
8.5363318604
 11
8.2937401526
 21
8.5363318604
  0
LINE
  5
23C
100
AcDbEntity
  8
0
100
AcDbLine
 62
7
  6
CONTINUOUS
 10
12.2348183383
 20
8.5363318604
 11
12.2348183383
 21
8.3847108189
  0
LINE
  5
23D
100
AcDbEntity
  8
0
100
AcDbLine
 62
7
  6
CONTINUOUS
 10
11.5605524905
 20
5.7684125084
 11
11.5748183383
 21
5.7880477633
  0
LINE
  5
23E
100
AcDbEntity
  8
0
100
AcDbLine
 62
9
  6
CONTINUOUS
 10
14.0191074311
 20
8.6643318604
 11
8.0755292454
 21
8.6643318604
  0
LINE
  5
23F
100
AcDbEntity
  8
0
100
AcDbLine
 62
7
  6
CONTINUOUS
 10
7.8541822079
 20
8.7923220252
 11
14.2404544687
 21
8.7923220252
  0
LINE
  5
240
100
AcDbEntity
  8
0
100
AcDbLine
 62
9
  6
CONTINUOUS
 10
14.4563911441
 20
8.9163296653
 11
7.6382455324
 21
8.9163296653
  0
LINE
  5
241
100
AcDbEntity
  8
0
100
AcDbLine
 62
7
  6
CONTINUOUS
 10
11.5479715508
 20
5.8748318604
 11
11.5748183383
 21
5.8903318604
  0
LINE
  5
242
100
AcDbEntity
  8
0
100
AcDbLine
 62
7
  6
CONTINUOUS
 10
14.6723183383
 20
9.0403318604
 11
7.4223183383
 21
9.0403318604
  0
LINE
  5
243
100
AcDbEntity
  8
0
100
AcDbLine
 62
7
  6
CONTINUOUS
 10
11.5018282944
 20
5.7493318604
 11
11.5605524905
 21
5.7684125084
  0
LINE
  5
244
100
AcDbEntity
  8
0
100
AcDbLine
 62
7
  6
CONTINUOUS
 10
14.9223183383
 20
9.2903318604
 11
7.1723183383
 21
9.2903318604
  0
ARC
  5
245
100
AcDbEntity
  8
0
100
AcDbCircle
 62
7
  6
CONTINUOUS
 10
8.9585149593
 20
7.1112378118
 40
1.541
100
AcDbArc
 50
10.8813003471
 51
45.7236108955
  0
ARC
  5
246
100
AcDbEntity
  8
0
100
AcDbCircle
 62
7
  6
CONTINUOUS
 10
10.3170390474
 20
6.4076240945
 40
1.36
100
AcDbArc
 50
337.6438963444
 51
341.2440132164
  0
ARC
  5
247
100
AcDbEntity
  8
0
100
AcDbCircle
 62
7
  6
CONTINUOUS
 10
10.3190195575
 20
5.9372500449
 40
1.36
100
AcDbArc
 50
19.0137742001
 51
22.5744557109
  0
ARC
  5
248
100
AcDbEntity
  8
0
100
AcDbCircle
 62
7
  6
CONTINUOUS
 10
9.5671794494
 20
6.1753318604
 40
0.9451388889
100
AcDbArc
 50
9.1276188939
 51
12.5269812287
  0
ARC
  5
249
100
AcDbEntity
  8
0
100
AcDbCircle
 62
7
  6
CONTINUOUS
 10
9.5671794494
 20
6.1753318604
 40
0.9451388889
100
AcDbArc
 50
347.4730187713
 51
350.873253273
  0
ARC
  5
24A
100
AcDbEntity
  8
0
100
AcDbCircle
 62
7
  6
CONTINUOUS
 10
10.2111645704
 20
6.175331863
 40
0.2750000008
100
AcDbArc
 50
35.7906249419
 51
324.2093797306
  0
ARC
  5
24B
100
AcDbEntity
  8
0
100
AcDbCircle
 62
7
  6
CONTINUOUS
 10
10.9875045739
 20
5.9181639624
 40
0.2424640313
100
AcDbArc
 50
264.708720942
 51
267.3386524532
  0
ARC
  5
24C
100
AcDbEntity
  8
0
100
AcDbCircle
 62
7
  6
CONTINUOUS
 10
10.9679219647
 20
5.8194948699
 40
0.1427510783
100
AcDbArc
 50
273.3669093936
 51
273.6816525069
  0
ARC
  5
24D
100
AcDbEntity
  8
0
100
AcDbCircle
 62
9
  6
CONTINUOUS
 10
10.6873798117
 20
6.2728147028
 40
0.0985171259
100
AcDbArc
 50
81.0526168069
 51
89.9901426494
  0
ARC
  5
24E
100
AcDbEntity
  8
0
100
AcDbCircle
 62
9
  6
CONTINUOUS
 10
10.6873798119
 20
6.0778490137
 40
0.0985171216
100
AcDbArc
 50
270.0098572262
 51
278.9473465764
  0
ARC
  5
24F
100
AcDbEntity
  8
0
100
AcDbCircle
 62
7
  6
CONTINUOUS
 10
10.6598183383
 20
5.7545322074
 40
0.03
100
AcDbArc
 50
189.9861146934
 51
255.2369687319
  0
ARC
  5
250
100
AcDbEntity
  8
0
100
AcDbCircle
 62
7
  6
CONTINUOUS
 10
7.8541822079
 20
9.0423330026
 40
0.2500109774
100
AcDbArc
 50
210.2644101313
 51
270.0
  0
ARC
  5
251
100
AcDbEntity
  8
0
100
AcDbCircle
 62
7
  6
CONTINUOUS
 10
7.4223183383
 20
9.2903318604
 40
0.25
100
AcDbArc
 50
180.0
 51
270.0
  0
ARC
  5
252
100
AcDbEntity
  8
0
100
AcDbCircle
 62
7
  6
CONTINUOUS
 10
7.4223183383
 20
8.7903318604
 40
0.25
100
AcDbArc
 50
30.2644101313
 51
90.0
  0
ARC
  5
253
100
AcDbEntity
  8
0
100
AcDbCircle
 62
7
  6
CONTINUOUS
 10
8.2937401526
 20
8.7863318604
 40
0.25
100
AcDbArc
 50
209.2092119338
 51
270.0
  0
ARC
  5
254
100
AcDbEntity
  8
0
100
AcDbCircle
 62
7
  6
CONTINUOUS
 10
7.8573183383
 20
8.5423318604
 40
0.25
100
AcDbArc
 50
29.2092119338
 51
89.9405177291
  0
ARC
  5
255
100
AcDbEntity
  8
0
100
AcDbCircle
 62
7
  6
CONTINUOUS
 10
11.0473183383
 20
7.2250018759
 40
1.5506700155
100
AcDbArc
 50
273.4257610296
 51
284.7630312681
  0
ARC
  5
256
100
AcDbEntity
  8
0
100
AcDbCircle
 62
7
  6
CONTINUOUS
 10
11.0473183383
 20
7.2250018759
 40
1.5506700155
100
AcDbArc
 50
255.2369687319
 51
266.5742389704
  0
ARC
  5
257
100
AcDbEntity
  8
0
100
AcDbCircle
 62
7
  6
CONTINUOUS
 10
11.0473183383
 20
7.2250018759
 40
1.5506700155
100
AcDbArc
 50
267.3749745646
 51
272.6250254354
  0
ARC
  5
258
100
AcDbEntity
  8
0
100
AcDbCircle
 62
7
  6
CONTINUOUS
 10
11.0473183383
 20
7.2250018759
 40
1.5496700155
100
AcDbArc
 50
267.3597634951
 51
267.3732794519
  0
ARC
  5
259
100
AcDbEntity
  8
0
100
AcDbCircle
 62
7
  6
CONTINUOUS
 10
11.0473183383
 20
7.2250018759
 40
1.5496700155
100
AcDbArc
 50
272.6267205481
 51
272.6376176099
  0
ARC
  5
25A
100
AcDbEntity
  8
0
100
AcDbCircle
 62
7
  6
CONTINUOUS
 10
13.1361217173
 20
7.1112378118
 40
1.541
100
AcDbArc
 50
134.2763891045
 51
169.1186996529
  0
ARC
  5
25B
100
AcDbEntity
  8
0
100
AcDbCircle
 62
7
  6
CONTINUOUS
 10
11.7775976292
 20
6.4076240945
 40
1.36
100
AcDbArc
 50
198.7559867836
 51
202.3561036556
  0
ARC
  5
25C
100
AcDbEntity
  8
0
100
AcDbCircle
 62
7
  6
CONTINUOUS
 10
11.7756171191
 20
5.9372500449
 40
1.36
100
AcDbArc
 50
157.4255442891
 51
160.9862257999
  0
ARC
  5
25D
100
AcDbEntity
  8
0
100
AcDbCircle
 62
7
  6
CONTINUOUS
 10
12.5274572272
 20
6.1753318604
 40
0.9451388889
100
AcDbArc
 50
167.4730187713
 51
170.867409227
  0
ARC
  5
25E
100
AcDbEntity
  8
0
100
AcDbCircle
 62
7
  6
CONTINUOUS
 10
12.5274572272
 20
6.1753318604
 40
0.9451388889
100
AcDbArc
 50
189.1342143409
 51
192.5269812287
  0
ARC
  5
25F
100
AcDbEntity
  8
0
100
AcDbCircle
 62
7
  6
CONTINUOUS
 10
11.8834721057
 20
6.1753318604
 40
0.275
100
AcDbArc
 50
215.7906204957
 51
144.2093797439
  0
ARC
  5
260
100
AcDbEntity
  8
0
100
AcDbCircle
 62
7
  6
CONTINUOUS
 10
11.1065576877
 20
5.9264222592
 40
0.2507401644
100
AcDbArc
 50
272.7047666477
 51
275.2377538537
  0
ARC
  5
261
100
AcDbEntity
  8
0
100
AcDbCircle
 62
7
  6
CONTINUOUS
 10
11.6867779841
 20
6.085341239
 40
0.1060093786
100
AcDbArc
 50
270.0003952591
 51
272.0035856385
  0
ARC
  5
262
100
AcDbEntity
  8
0
100
AcDbCircle
 62
7
  6
CONTINUOUS
 10
11.686777983
 20
6.2653227611
 40
0.1060090993
100
AcDbArc
 50
87.9975068519
 51
89.9996041556
  0
ARC
  5
263
100
AcDbEntity
  8
0
100
AcDbCircle
 62
9
  6
CONTINUOUS
 10
11.4072591175
 20
6.2727882321
 40
0.0985436302
100
AcDbArc
 50
90.0111644538
 51
98.8956659111
  0
ARC
  5
264
100
AcDbEntity
  8
0
100
AcDbCircle
 62
9
  6
CONTINUOUS
 10
11.4072591175
 20
6.0778754883
 40
0.0985436298
100
AcDbArc
 50
261.1043381268
 51
269.9888355594
  0
ARC
  5
265
100
AcDbEntity
  8
0
100
AcDbCircle
 62
7
  6
CONTINUOUS
 10
11.4348183383
 20
5.7545322074
 40
0.03
100
AcDbArc
 50
284.7630312681
 51
350.0138853066
  0
ARC
  5
266
100
AcDbEntity
  8
0
100
AcDbCircle
 62
7
  6
CONTINUOUS
 10
14.2404544687
 20
9.0423330026
 40
0.2500109774
100
AcDbArc
 50
270.0
 51
329.7355898687
  0
ARC
  5
267
100
AcDbEntity
  8
0
100
AcDbCircle
 62
7
  6
CONTINUOUS
 10
14.6723183383
 20
9.2903318604
 40
0.25
100
AcDbArc
 50
270.0
 51
360.0
  0
ARC
  5
268
100
AcDbEntity
  8
0
100
AcDbCircle
 62
7
  6
CONTINUOUS
 10
14.6723183383
 20
8.7903318604
 40
0.25
100
AcDbArc
 50
90.0
 51
149.7355898687
  0
ARC
  5
269
100
AcDbEntity
  8
0
100
AcDbCircle
 62
7
  6
CONTINUOUS
 10
13.800896524
 20
8.7863318604
 40
0.25
100
AcDbArc
 50
270.0
 51
330.7907880662
  0
ARC
  5
26A
100
AcDbEntity
  8
0
100
AcDbCircle
 62
7
  6
CONTINUOUS
 10
14.2373183383
 20
8.5423318604
 40
0.25
100
AcDbArc
 50
90.0594822709
 51
150.7907880662
  0
SPLINE
  5
26B
100
AcDbEntity
  8
0
100
AcDbSpline
 62
7
  6
CONTINUOUS
 70
0
 71
3
 72
20
 73
16
 74
0
 42
0.0000001
 43
0.0000001
 44
0.0000000001
 40
0.0
 40
0.0
 40
0.0
 40
0.0
 40
0.1344069444
 40
0.2654658119
 40
0.3933046777
 40
0.4561417308
 40
0.5183083519
 40
0.579867592
 40
0.6408894166
 40
0.7014481464
 40
0.7616199332
 40
0.8214834278
 40
0.8811179831
 40
0.9405935634
 40
1.0
 40
1.0
 40
1.0
 40
1.0
 10
10.5677609944
 20
6.059781357
 30
0.0
 10
10.5710061322
 20
6.0538261281
 30
0.0
 10
10.578013213
 20
6.0423756126
 30
0.0
 10
10.5901738842
 20
6.026642878
 30
0.0
 10
10.6015674666
 20
6.0150154935
 30
0.0
 10
10.611328764
 20
6.0067887464
 30
0.0
 10
10.618914288
 20
6.0012017839
 30
0.0
 10
10.6267838187
 20
5.9961908475
 30
0.0
 10
10.6349140943
 20
5.9917818119
 30
0.0
 10
10.6432779957
 20
5.9879998996
 30
0.0
 10
10.651844719
 20
5.9848683971
 30
0.0
 10
10.6605797302
 20
5.98240845
 30
0.0
 10
10.6694447313
 20
5.9806380222
 30
0.0
 10
10.6783978312
 20
5.9795698553
 30
0.0
 10
10.6843991845
 20
5.9793318604
 30
0.0
 10
10.6873967609
 20
5.9793318604
 30
0.0
  0
SPLINE
  5
26C
100
AcDbEntity
  8
0
100
AcDbSpline
 62
7
  6
CONTINUOUS
 70
0
 71
3
 72
20
 73
16
 74
0
 42
0.0000001
 43
0.0000001
 44
0.0000000001
 40
0.0
 40
0.0
 40
0.0
 40
0.0
 40
0.0594071999
 40
0.1188836268
 40
0.1785190635
 40
0.2383833869
 40
0.2985559457
 40
0.3591153361
 40
0.4201376809
 40
0.481697252
 40
0.5438639998
 40
0.6067009325
 40
0.7345388407
 40
0.8655957716
 40
1.0
 40
1.0
 40
1.0
 40
1.0
 10
10.6873967609
 20
6.3713318604
 30
0.0
 10
10.6843998305
 20
6.3713318604
 30
0.0
 10
10.6783997673
 20
6.3710939711
 30
0.0
 10
10.669448564
 20
6.3700262575
 30
0.0
 10
10.6605853905
 20
6.3682565798
 30
0.0
 10
10.6518521146
 20
6.3657976657
 30
0.0
 10
10.6432870188
 20
6.3626674544
 30
0.0
 10
10.6349246162
 20
6.3588870829
 30
0.0
 10
10.6267956991
 20
6.354479818
 30
0.0
 10
10.6189273783
 20
6.3494708604
 30
0.0
 10
10.6113429049
 20
6.343886074
 30
0.0
 10
10.6015828161
 20
6.3356624942
 30
0.0
 10
10.5901903043
 20
6.3240394946
 30
0.0
 10
10.5780301554
 20
6.3083124643
 30
0.0
 10
10.5710229009
 20
6.2968659321
 30
0.0
 10
10.5677775508
 20
6.2909127389
 30
0.0
  0
SPLINE
  5
26D
100
AcDbEntity
  8
0
100
AcDbSpline
 62
7
  6
CONTINUOUS
 70
0
 71
3
 72
24
 73
20
 74
0
 42
0.0000001
 43
0.0000001
 44
0.0000000001
 40
0.0
 40
0.0
 40
0.0
 40
0.0
 40
0.0642280328
 40
0.1341576971
 40
0.208443499
 40
0.2857991206
 40
0.444785503
 40
0.5241184354
 40
0.6017320554
 40
0.6764107607
 40
0.7468751346
 40
0.8117863059
 40
0.8697155284
 40
0.9191416224
 40
0.9584576349
 40
0.9738006642
 40
0.9859848054
 40
0.9947907934
 40
1.0
 40
1.0
 40
1.0
 40
1.0
 10
10.523812156
 20
6.2904120218
 30
0.0
 10
10.5248929678
 20
6.2900248066
 30
0.0
 10
10.5271769604
 20
6.2892879346
 30
0.0
 10
10.5307897642
 20
6.2883677333
 30
0.0
 10
10.5346826547
 20
6.2876239379
 30
0.0
 10
10.540193604
 20
6.286924541
 30
0.0
 10
10.545850334
 20
6.2867312093
 30
0.0
 10
10.5514905423
 20
6.287062674
 30
0.0
 10
10.5556042129
 20
6.287556167
 30
0.0
 10
10.5595224768
 20
6.2882783982
 30
0.0
 10
10.5631695347
 20
6.289181226
 30
0.0
 10
10.5664670059
 20
6.2902210051
 30
0.0
 10
10.5693443958
 20
6.2913231844
 30
0.0
 10
10.5717309609
 20
6.2924122917
 30
0.0
 10
10.5733758
 20
6.2932846459
 30
0.0
 10
10.574402032
 20
6.2938969226
 30
0.0
 10
10.5749496482
 20
6.2942462621
 30
0.0
 10
10.575337032
 20
6.2945095368
 30
0.0
 10
10.5755399404
 20
6.294656554
 30
0.0
 10
10.5756141997
 20
6.2947127318
 30
0.0
  0
SPLINE
  5
26E
100
AcDbEntity
  8
0
100
AcDbSpline
 62
7
  6
CONTINUOUS
 70
0
 71
3
 72
26
 73
22
 74
0
 42
0.0000001
 43
0.0000001
 44
0.0000000001
 40
0.0
 40
0.0
 40
0.0
 40
0.0
 40
0.1415119039
 40
0.2115293182
 40
0.2806339616
 40
0.3485701624
 40
0.4151224779
 40
0.480125822
 40
0.5434738542
 40
0.6051258989
 40
0.665111576
 40
0.7235315847
 40
0.7805546693
 40
0.8086253977
 40
0.8364372083
 40
0.8640258713
 40
0.8914294731
 40
0.918687385
 40
0.9458406763
 40
0.9729307787
 40
1.0
 40
1.0
 40
1.0
 40
1.0
 10
10.5511371818
 20
6.1753318604
 30
0.0
 10
10.5511371818
 20
6.1881552557
 30
0.0
 10
10.5497754039
 20
6.2073625658
 30
0.0
 10
10.5452234988
 20
6.232398138
 30
0.0
 10
10.5404992004
 20
6.2505765622
 30
0.0
 10
10.534493086
 20
6.2680402394
 30
0.0
 10
10.5272533513
 20
6.2846269448
 30
0.0
 10
10.5188371682
 20
6.3001795596
 30
0.0
 10
10.5093093146
 20
6.3145498967
 30
0.0
 10
10.4987421818
 20
6.3275973309
 30
0.0
 10
10.4872155664
 20
6.3391884443
 30
0.0
 10
10.4748212842
 20
6.3491949018
 30
0.0
 10
10.4637922028
 20
6.3561507641
 30
0.0
 10
10.4546626201
 20
6.3607816488
 30
0.0
 10
10.4477083969
 20
6.3637705184
 30
0.0
 10
10.4406315941
 20
6.3662807672
 30
0.0
 10
10.4334517659
 20
6.3683018751
 30
0.0
 10
10.4261903714
 20
6.3698255215
 30
0.0
 10
10.4188696046
 20
6.3708443884
 30
0.0
 10
10.411513317
 20
6.3713541371
 30
0.0
 10
10.4066008894
 20
6.3713527187
 30
0.0
 10
10.4041494553
 20
6.3712669562
 30
0.0
  0
SPLINE
  5
26F
100
AcDbEntity
  8
0
100
AcDbSpline
 62
7
  6
CONTINUOUS
 70
0
 71
3
 72
42
 73
38
 74
0
 42
0.0000001
 43
0.0000001
 44
0.0000000001
 40
0.0
 40
0.0
 40
0.0
 40
0.0
 40
0.0008621106
 40
0.0009050158
 40
0.0009303509
 40
0.0011841216
 40
0.0024907561
 40
0.004836524
 40
0.0081904488
 40
0.0125223393
 40
0.017802828
 40
0.0240020418
 40
0.0310879975
 40
0.0390289677
 40
0.04779387
 40
0.0573523165
 40
0.0787297568
 40
0.102920837
 40
0.1296886272
 40
0.1588051503
 40
0.1900496353
 40
0.2232061359
 40
0.2580648401
 40
0.2944246518
 40
0.3320928662
 40
0.3708800018
 40
0.4106003342
 40
0.4510740655
 40
0.492127383
 40
0.5335872677
 40
0.5752817575
 40
0.6170411462
 40
0.7000687899
 40
0.7813112483
 40
0.8593726094
 40
0.9327831084
 40
1.0
 40
1.0
 40
1.0
 40
1.0
 10
10.5756383195
 20
6.0559344376
 30
0.0
 10
10.5756502078
 20
6.0559245555
 30
0.0
 10
10.5756550741
 20
6.0559202678
 30
0.0
 10
10.5756767338
 20
6.0559029964
 30
0.0
 10
10.5756704295
 20
6.0559080212
 30
0.0
 10
10.575652316
 20
6.0559220173
 30
0.0
 10
10.5755912425
 20
6.0559686818
 30
0.0
 10
10.5754935161
 20
6.0560405675
 30
0.0
 10
10.5753456279
 20
6.0561464189
 30
0.0
 10
10.5751549688
 20
6.0562781528
 30
0.0
 10
10.5749189076
 20
6.056435729
 30
0.0
 10
10.5746390397
 20
6.0566158758
 30
0.0
 10
10.5743157148
 20
6.0568167987
 30
0.0
 10
10.5739498126
 20
6.057036196
 30
0.0
 10
10.5735420586
 20
6.057271924
 30
0.0
 10
10.5729200247
 20
6.0576182209
 30
0.0
 10
10.5720440742
 20
6.0580767814
 30
0.0
 10
10.5708760431
 20
6.0586413739
 30
0.0
 10
10.5695636722
 20
6.0592246527
 30
0.0
 10
10.5681155019
 20
6.0598117581
 30
0.0
 10
10.5665416097
 20
6.0603913542
 30
0.0
 10
10.5648522704
 20
6.0609528437
 30
0.0
 10
10.5630576291
 20
6.0614853151
 30
0.0
 10
10.5611680576
 20
6.0619785315
 30
0.0
 10
10.5591949005
 20
6.0624262747
 30
0.0
 10
10.5571492281
 20
6.0628219866
 30
0.0
 10
10.5550421087
 20
6.0631591755
 30
0.0
 10
10.552884666
 20
6.0634315583
 30
0.0
 10
10.5506885103
 20
6.0636370859
 30
0.0
 10
10.5484650517
 20
6.0637734813
 30
0.0
 10
10.5462256619
 20
6.0638387192
 30
0.0
 10
10.543239926
 20
6.0638271861
 30
0.0
 10
10.5395478051
 20
6.0636329445
 30
0.0
 10
10.5352287026
 20
6.0631288088
 30
0.0
 10
10.5311217549
 20
6.0623728062
 30
0.0
 10
10.5273152725
 20
6.0614194265
 30
0.0
 10
10.5249126115
 20
6.0606468332
 30
0.0
 10
10.5237782278
 20
6.0602394468
 30
0.0
  0
SPLINE
  5
270
100
AcDbEntity
  8
0
100
AcDbSpline
 62
7
  6
CONTINUOUS
 70
0
 71
3
 72
26
 73
22
 74
0
 42
0.0000001
 43
0.0000001
 44
0.0000000001
 40
0.0
 40
0.0
 40
0.0
 40
0.0
 40
0.0270684273
 40
0.0541580119
 40
0.0813110359
 40
0.10856892
 40
0.1359726783
 40
0.163561721
 40
0.191374014
 40
0.2194453992
 40
0.2764700099
 40
0.334891684
 40
0.3948789438
 40
0.4565323072
 40
0.5198812417
 40
0.5848849848
 40
0.6514371534
 40
0.7193726693
 40
0.7884761388
 40
0.8584919725
 40
1.0
 40
1.0
 40
1.0
 40
1.0
 10
10.4041969295
 20
5.9793951246
 30
0.0
 10
10.4066479021
 20
5.979310477
 30
0.0
 10
10.4115593527
 20
5.9793111868
 30
0.0
 10
10.4189139906
 20
5.9798240222
 30
0.0
 10
10.4262329903
 20
5.9808456618
 30
0.0
 10
10.4334925047
 20
5.9823718922
 30
0.0
 10
10.4406703668
 20
5.984395334
 30
0.0
 10
10.4477451456
 20
5.9869076369
 30
0.0
 10
10.4546972807
 20
5.9898983592
 30
0.0
 10
10.4638240632
 20
5.99453134
 30
0.0
 10
10.4748495547
 20
6.0014892437
 30
0.0
 10
10.4872396118
 20
6.0114971623
 30
0.0
 10
10.4987621592
 20
6.0230888555
 30
0.0
 10
10.5093254574
 20
6.0361360477
 30
0.0
 10
10.5188497699
 20
6.0505053913
 30
0.0
 10
10.52726276
 20
6.066056331
 30
0.0
 10
10.5344996981
 20
6.0826407578
 30
0.0
 10
10.540503457
 20
6.1001016361
 30
0.0
 10
10.5452258788
 20
6.1182768312
 30
0.0
 10
10.5497759512
 20
6.1433076063
 30
0.0
 10
10.5511371818
 20
6.1625110535
 30
0.0
 10
10.5511371818
 20
6.1753318604
 30
0.0
  0
SPLINE
  5
271
100
AcDbEntity
  8
0
100
AcDbSpline
 62
7
  6
CONTINUOUS
 70
0
 71
3
 72
20
 73
16
 74
0
 42
0.0000001
 43
0.0000001
 44
0.0000000001
 40
0.0
 40
0.0
 40
0.0
 40
0.0
 40
0.0594113423
 40
0.1188905609
 40
0.1785294144
 40
0.2383968274
 40
0.2985718806
 40
0.3591334868
 40
0.4201571636
 40
0.4817175454
 40
0.5438844432
 40
0.6067204047
 40
0.7345546154
 40
0.8656046806
 40
1.0
 40
1.0
 40
1.0
 40
1.0
 10
11.4072399157
 20
5.9793318604
 30
0.0
 10
11.4102348391
 20
5.9793318604
 30
0.0
 10
11.4162308124
 20
5.9795694296
 30
0.0
 10
11.4251759875
 20
5.9806357075
 30
0.0
 10
11.4340332966
 20
5.9824029645
 30
0.0
 10
11.4427609802
 20
5.9848586244
 30
0.0
 10
11.4513208274
 20
5.9879846648
 30
0.0
 10
11.4596783644
 20
5.9917600483
 30
0.0
 10
11.4678028153
 20
5.9961616489
 30
0.0
 10
11.4756671889
 20
6.0011641622
 30
0.0
 10
11.4832482072
 20
6.0067418854
 30
0.0
 10
11.4930042826
 20
6.0149552162
 30
0.0
 10
11.5043932789
 20
6.0265639398
 30
0.0
 10
11.5165516735
 20
6.0422724683
 30
0.0
 10
11.5235594772
 20
6.0537060705
 30
0.0
 10
11.5268054905
 20
6.0596526798
 30
0.0
  0
SPLINE
  5
272
100
AcDbEntity
  8
0
100
AcDbSpline
 62
7
  6
CONTINUOUS
 70
0
 71
3
 72
20
 73
16
 74
0
 42
0.0000001
 43
0.0000001
 44
0.0000000001
 40
0.0
 40
0.0
 40
0.0
 40
0.0
 40
0.1343992246
 40
0.2654521635
 40
0.3932878466
 40
0.4561240574
 40
0.518290804
 40
0.5798507253
 40
0.6408737117
 40
0.7014343438
 40
0.7616082937
 40
0.8214744487
 40
0.8811119483
 40
0.9405900284
 40
1.0
 40
1.0
 40
1.0
 40
1.0
 10
11.5268293327
 20
6.2909673521
 30
0.0
 10
11.5235836141
 20
6.2969168846
 30
0.0
 10
11.5165760622
 20
6.3083562243
 30
0.0
 10
11.5044169079
 20
6.3240729674
 30
0.0
 10
11.4930263604
 20
6.3356880089
 30
0.0
 10
11.4832685298
 20
6.3439058947
 30
0.0
 10
11.4756859902
 20
6.3494867463
 30
0.0
 10
11.4678198754
 20
6.3544921173
 30
0.0
 10
11.4596934578
 20
6.3588962496
 30
0.0
 10
11.4513337626
 20
6.3626738509
 30
0.0
 10
11.4427715777
 20
6.3658017498
 30
0.0
 10
11.4340414
 20
6.3682588794
 30
0.0
 10
11.4251814655
 20
6.3700272183
 30
0.0
 10
11.4162335748
 20
6.3710941421
 30
0.0
 10
11.4102357549
 20
6.3713318604
 30
0.0
 10
11.4072399157
 20
6.3713318604
 30
0.0
  0
SPLINE
  5
273
100
AcDbEntity
  8
0
100
AcDbSpline
 62
7
  6
CONTINUOUS
 70
0
 71
3
 72
13
 73
9
 74
0
 42
0.0000001
 43
0.0000001
 44
0.0000000001
 40
0.0
 40
0.0
 40
0.0
 40
0.0
 40
0.2211801975
 40
0.3417778254
 40
0.467423662
 40
0.5969296909
 40
0.7293323943
 40
1.0
 40
1.0
 40
1.0
 40
1.0
 10
11.5710076074
 20
6.0601859115
 30
0.0
 10
11.5694730228
 20
6.0607420719
 30
0.0
 10
11.5670607959
 20
6.0614930552
 30
0.0
 10
11.5637078536
 20
6.0623062335
 30
0.0
 10
11.5609867852
 20
6.0628448101
 30
0.0
 10
11.5581587446
 20
6.0632780767
 30
0.0
 10
11.5542505995
 20
6.0637024198
 30
0.0
 10
11.5512739055
 20
6.0638318604
 30
0.0
 10
11.5492764427
 20
6.0638318604
 30
0.0
  0
SPLINE
  5
274
100
AcDbEntity
  8
0
100
AcDbSpline
 62
7
  6
CONTINUOUS
 70
0
 71
3
 72
14
 73
10
 74
0
 42
0.0000001
 43
0.0000001
 44
0.0000000001
 40
0.0
 40
0.0
 40
0.0
 40
0.0
 40
0.2708771341
 40
0.4032498051
 40
0.5326558636
 40
0.6582341809
 40
0.7788080296
 40
0.8931411007
 40
1.0
 40
1.0
 40
1.0
 40
1.0
 10
11.5492764427
 20
6.2868318604
 30
0.0
 10
11.5512776712
 20
6.2868318604
 30
0.0
 10
11.5542590061
 20
6.2869619333
 30
0.0
 10
11.5581719766
 20
6.2873875029
 30
0.0
 10
11.5610017478
 20
6.2878210414
 30
0.0
 10
11.5637240661
 20
6.2883615216
 30
0.0
 10
11.5663126974
 20
6.2889909779
 30
0.0
 10
11.5687390201
 20
6.2896925934
 30
0.0
 10
11.5702876786
 20
6.2902162062
 30
0.0
 10
11.5710297123
 20
6.2904857375
 30
0.0
  0
SPLINE
  5
275
100
AcDbEntity
  8
0
100
AcDbSpline
 62
7
  6
CONTINUOUS
 70
0
 71
3
 72
47
 73
43
 74
0
 42
0.0000001
 43
0.0000001
 44
0.0000000001
 40
0.0
 40
0.0
 40
0.0
 40
0.0
 40
0.0135073046
 40
0.0270339822
 40
0.0406019413
 40
0.0542306614
 40
0.0679394064
 40
0.0817470438
 40
0.0956716738
 40
0.1097299883
 40
0.1382965984
 40
0.1675657769
 40
0.1976138486
 40
0.2284843631
 40
0.2601870707
 40
0.2926983581
 40
0.3259638121
 40
0.3599012931
 40
0.3944052073
 40
0.4293507886
 40
0.4645988765
 40
0.5000006268
 40
0.5354023672
 40
0.5706504241
 40
0.6055959565
 40
0.6400998022
 40
0.6740372019
 40
0.7073025582
 40
0.7398137401
 40
0.7715163334
 40
0.8023867239
 40
0.8324346752
 40
0.8617037344
 40
0.8902702377
 40
0.9043285034
 40
0.9182530893
 40
0.9320606886
 40
0.9457694008
 40
0.9593980899
 40
0.9729660306
 40
0.9864927105
 40
1.0
 40
1.0
 40
1.0
 40
1.0
 10
11.6867787154
 20
6.3713318604
 30
0.0
 10
11.6843638673
 20
6.3713318604
 30
0.0
 10
11.6795290876
 20
6.371166424
 30
0.0
 10
11.6723029801
 20
6.3704236704
 30
0.0
 10
11.6651221367
 20
6.369189342
 30
0.0
 10
11.6580086835
 20
6.3674691459
 30
0.0
 10
11.6509835222
 20
6.3652703041
 30
0.0
 10
11.6440664956
 20
6.3626018574
 30
0.0
 10
11.6372757108
 20
6.3594742093
 30
0.0
 10
11.6283672215
 20
6.354682629
 30
0.0
 10
11.617619143
 20
6.3475749805
 30
0.0
 10
11.605555202
 20
6.3374612551
 30
0.0
 10
11.5943460497
 20
6.3258313053
 30
0.0
 10
11.5840776698
 20
6.3128082632
 30
0.0
 10
11.5748251588
 20
6.2985201306
 30
0.0
 10
11.5666567589
 20
6.2831017903
 30
0.0
 10
11.5596336048
 20
6.2666954958
 30
0.0
 10
11.5538095111
 20
6.2494512079
 30
0.0
 10
11.5492301599
 20
6.2315262925
 30
0.0
 10
11.5459322256
 20
6.2130846481
 30
0.0
 10
11.5439425495
 20
6.1942954461
 30
0.0
 10
11.543277506
 20
6.1753315255
 30
0.0
 10
11.5439425978
 20
6.1563676122
 30
0.0
 10
11.5459323197
 20
6.1375784312
 30
0.0
 10
11.5492302956
 20
6.1191368212
 30
0.0
 10
11.5538096816
 20
6.1012119515
 30
0.0
 10
11.5596338017
 20
6.0839677193
 30
0.0
 10
11.5666569731
 20
6.0675614877
 30
0.0
 10
11.574825379
 20
6.0521432148
 30
0.0
 10
11.5840778868
 20
6.0378551536
 30
0.0
 10
11.5943462523
 20
6.0248321821
 30
0.0
 10
11.6055553803
 20
6.0132022994
 30
0.0
 10
11.6176192888
 20
6.0030886321
 30
0.0
 10
11.628367335
 20
5.9959810244
 30
0.0
 10
11.6372757966
 20
5.991189468
 30
0.0
 10
11.644066563
 20
5.9880618361
 30
0.0
 10
11.6509835709
 20
5.9853933983
 30
0.0
 10
11.6580087164
 20
5.9831945674
 30
0.0
 10
11.665122155
 20
5.9814743735
 30
0.0
 10
11.6723029906
 20
5.9802400491
 30
0.0
 10
11.6795290926
 20
5.9794972971
 30
0.0
 10
11.68436387
 20
5.9793318604
 30
0.0
 10
11.6867787154
 20
5.9793318604
 30
0.0
  0
SPLINE
  5
276
100
AcDbEntity
  8
0
100
AcDbSpline
 62
7
  6
CONTINUOUS
 70
0
 71
3
 72
38
 73
34
 74
0
 42
0.0000001
 43
0.0000001
 44
0.0000000001
 40
0.0
 40
0.0
 40
0.0
 40
0.0
 40
0.0039174237
 40
0.0068815907
 40
0.0089084586
 40
0.0100136327
 40
0.010225363
 40
0.0102468356
 40
0.010281316
 40
0.0109740525
 40
0.012541479
 40
0.0149653826
 40
0.018227793
 40
0.0223110457
 40
0.0271977956
 40
0.0328710299
 40
0.0465093891
 40
0.0630840325
 40
0.0824492596
 40
0.1044634278
 40
0.1289890304
 40
0.1558872744
 40
0.1850187959
 40
0.2162473481
 40
0.2844655712
 40
0.3595411053
 40
0.4405178405
 40
0.5264668246
 40
0.6164347114
 40
0.709476225
 40
0.8047879568
 40
0.9018060325
 40
1.0
 40
1.0
 40
1.0
 40
1.0
 10
11.5192103196
 20
6.2945461141
 30
0.0
 10
11.5191789932
 20
6.2945739509
 30
0.0
 10
11.5191239963
 20
6.2946223715
 30
0.0
 10
11.5190508719
 20
6.2946852208
 30
0.0
 10
11.519002803
 20
6.2947257696
 30
0.0
 10
11.5189723556
 20
6.2947507008
 30
0.0
 10
11.5189634781
 20
6.2947579239
 30
0.0
 10
11.5189603132
 20
6.2947604272
 30
0.0
 10
11.5189706086
 20
6.2947522301
 30
0.0
 10
11.5189827674
 20
6.2947429805
 30
0.0
 10
11.5190283708
 20
6.2947080131
 30
0.0
 10
11.5190876481
 20
6.2946640024
 30
0.0
 10
11.5191733297
 20
6.2946014441
 30
0.0
 10
11.5192794402
 20
6.2945258721
 30
0.0
 10
11.5194081751
 20
6.2944362524
 30
0.0
 10
11.5196222376
 20
6.2942908366
 30
0.0
 10
11.519943796
 20
6.2940809543
 30
0.0
 10
11.5203943324
 20
6.2938010736
 30
0.0
 10
11.5209281166
 20
6.2934856114
 30
0.0
 10
11.5215430102
 20
6.2931405626
 30
0.0
 10
11.5222369023
 20
6.292772024
 30
0.0
 10
11.5230070502
 20
6.2923852143
 30
0.0
 10
11.5238504593
 20
6.2919850081
 30
0.0
 10
11.5251061639
 20
6.2914233431
 30
0.0
 10
11.526837098
 20
6.2907217722
 30
0.0
 10
11.5290996753
 20
6.289921447
 30
0.0
 10
11.5315775295
 20
6.2891683411
 30
0.0
 10
11.5342420354
 20
6.2884915111
 30
0.0
 10
11.5370604495
 20
6.2879079951
 30
0.0
 10
11.5400012798
 20
6.2874361958
 30
0.0
 10
11.5430356559
 20
6.2870915341
 30
0.0
 10
11.5461373634
 20
6.2868798352
 30
0.0
 10
11.5482259932
 20
6.2868318604
 30
0.0
 10
11.5492764427
 20
6.2868318604
 30
0.0
  0
SPLINE
  5
277
100
AcDbEntity
  8
0
100
AcDbSpline
 62
7
  6
CONTINUOUS
 70
0
 71
3
 72
32
 73
28
 74
0
 42
0.0000001
 43
0.0000001
 44
0.0000000001
 40
0.0
 40
0.0
 40
0.0
 40
0.0
 40
0.0951075675
 40
0.1890801021
 40
0.2814508366
 40
0.3717433557
 40
0.459351947
 40
0.5434508464
 40
0.62317323
 40
0.6976549681
 40
0.7660512898
 40
0.7976968537
 40
0.8274897739
 40
0.855313739
 40
0.8810482738
 40
0.9045695598
 40
0.9257508072
 40
0.9444650724
 40
0.9605904277
 40
0.9740024092
 40
0.9845724997
 40
0.9887507185
 40
0.9921690928
 40
0.9948131773
 40
0.9966688218
 40
0.9979566307
 40
1.0
 40
1.0
 40
1.0
 40
1.0
 10
11.5492764427
 20
6.0638318604
 30
0.0
 10
11.548267393
 20
6.0638318604
 30
0.0
 10
11.5462610612
 20
6.06378752
 30
0.0
 10
11.5432805214
 20
6.0635919829
 30
0.0
 10
11.5403618956
 20
6.0632738164
 30
0.0
 10
11.5375267273
 20
6.062838467
 30
0.0
 10
11.5347996107
 20
6.0622958229
 30
0.0
 10
11.5322071258
 20
6.0616640275
 30
0.0
 10
11.5297779854
 20
6.060959936
 30
0.0
 10
11.5275405556
 20
6.0602016401
 30
0.0
 10
11.5258134936
 20
6.0595322606
 30
0.0
 10
11.5245462637
 20
6.0589920079
 30
0.0
 10
11.5236834937
 20
6.0586012941
 30
0.0
 10
11.5228860719
 20
6.0582188461
 30
0.0
 10
11.52215644
 20
6.0578493768
 30
0.0
 10
11.5214970757
 20
6.0574975307
 30
0.0
 10
11.5209104329
 20
6.0571679786
 30
0.0
 10
11.5203988341
 20
6.0568652895
 30
0.0
 10
11.5199640304
 20
6.0565951705
 30
0.0
 10
11.5196071755
 20
6.0563628616
 30
0.0
 10
11.5193606456
 20
6.0561951022
 30
0.0
 10
11.519202492
 20
6.0560833249
 30
0.0
 10
11.5191159756
 20
6.0560208515
 30
0.0
 10
11.5190446189
 20
6.0559677165
 30
0.0
 10
11.5190045222
 20
6.0559377995
 30
0.0
 10
11.5189359816
 20
6.0558837703
 30
0.0
 10
11.5189948626
 20
6.0559314603
 30
0.0
 10
11.5190114699
 20
6.0559453953
 30
0.0
  0
SPLINE
  5
278
100
AcDbEntity
  8
0
100
AcDbSpline
 62
7
  6
CONTINUOUS
 70
0
 71
3
 72
18
 73
14
 74
0
 42
0.0000001
 43
0.0000001
 44
0.0000000001
 40
0.0
 40
0.0
 40
0.0
 40
0.0
 40
0.0522541661
 40
0.1043309351
 40
0.1566109368
 40
0.2094761527
 40
0.263299013
 40
0.318432874
 40
0.4338504322
 40
0.5581096066
 40
0.6930287961
 40
0.8399884542
 40
1.0
 40
1.0
 40
1.0
 40
1.0
 10
11.0672252994
 20
5.701711593
 30
0.0
 10
11.0676978182
 20
5.7007902472
 30
0.0
 10
11.0687195897
 20
5.6989895768
 30
0.0
 10
11.0704807603
 20
5.6964298704
 30
0.0
 10
11.0724650493
 20
5.6940229766
 30
0.0
 10
11.0746722677
 20
5.6917702998
 30
0.0
 10
11.0771024412
 20
5.6896726537
 30
0.0
 10
11.0806932185
 20
5.6870438664
 30
0.0
 10
11.0857942187
 20
5.6841510403
 30
0.0
 10
11.0926979028
 20
5.6813753711
 30
0.0
 10
11.1004717737
 20
5.6792364094
 30
0.0
 10
11.1091089447
 20
5.6777322096
 30
0.0
 10
11.1151728132
 20
5.6771758482
 30
0.0
 10
11.1183380739
 20
5.6769897743
 30
0.0
  0
SPLINE
  5
279
100
AcDbEntity
  8
0
100
AcDbSpline
 62
7
  6
CONTINUOUS
 70
0
 71
3
 72
8
 73
4
 74
0
 42
0.0000001
 43
0.0000001
 44
0.0000000001
 40
0.0
 40
0.0
 40
0.0
 40
0.0
 40
1.0
 40
1.0
 40
1.0
 40
1.0
 10
11.1183380739
 20
5.6769897743
 30
0.0
 10
11.1183612785
 20
5.6769884158
 30
0.0
 10
11.1183844832
 20
5.6769870573
 30
0.0
 10
11.1184076878
 20
5.6769856988
 30
0.0
  0
SPLINE
  5
27A
100
AcDbEntity
  8
0
100
AcDbSpline
 62
7
  6
CONTINUOUS
 70
0
 71
3
 72
8
 73
4
 74
0
 42
0.0000001
 43
0.0000001
 44
0.0000000001
 40
0.0
 40
0.0
 40
0.0
 40
0.0
 40
1.0
 40
1.0
 40
1.0
 40
1.0
 10
11.1184076878
 20
5.6769856988
 30
0.0
 10
11.1184355801
 20
5.6769840808
 30
0.0
 10
11.1184634723
 20
5.6769824628
 30
0.0
 10
11.1184913646
 20
5.6769808448
 30
0.0
  0
SPLINE
  5
27B
100
AcDbEntity
  8
0
100
AcDbSpline
 62
7
  6
CONTINUOUS
 70
0
 71
3
 72
9
 73
5
 74
0
 42
0.0000001
 43
0.0000001
 44
0.0000000001
 40
0.0
 40
0.0
 40
0.0
 40
0.0
 40
0.4803606487
 40
1.0
 40
1.0
 40
1.0
 40
1.0
 10
11.1184913646
 20
5.6769808448
 30
0.0
 10
11.1219277622
 20
5.6767825027
 30
0.0
 10
11.1290972767
 20
5.6766234511
 30
0.0
 10
11.136261999
 20
5.6768803086
 30
0.0
 10
11.1399789212
 20
5.6771028116
 30
0.0
  0
SPLINE
  5
27C
100
AcDbEntity
  8
0
100
AcDbSpline
 62
7
  6
CONTINUOUS
 70
0
 71
3
 72
9
 73
5
 74
0
 42
0.0000001
 43
0.0000001
 44
0.0000000001
 40
0.0
 40
0.0
 40
0.0
 40
0.0
 40
0.5197523161
 40
1.0
 40
1.0
 40
1.0
 40
1.0
 10
10.9546577554
 20
5.6771028116
 30
0.0
 10
10.9583942416
 20
5.6768791374
 30
0.0
 10
10.965595183
 20
5.6766218762
 30
0.0
 10
10.9728008667
 20
5.676785246
 30
0.0
 10
10.976253638
 20
5.676987138
 30
0.0
  0
SPLINE
  5
27D
100
AcDbEntity
  8
0
100
AcDbSpline
 62
7
  6
CONTINUOUS
 70
0
 71
3
 72
8
 73
4
 74
0
 42
0.0000001
 43
0.0000001
 44
0.0000000001
 40
0.0
 40
0.0
 40
0.0
 40
0.0
 40
1.0
 40
1.0
 40
1.0
 40
1.0
 10
10.976253638
 20
5.676987138
 30
0.0
 10
10.9762709962
 20
5.6769881562
 30
0.0
 10
10.9762883545
 20
5.6769891743
 30
0.0
 10
10.9763057127
 20
5.6769901924
 30
0.0
  0
SPLINE
  5
27E
100
AcDbEntity
  8
0
100
AcDbSpline
 62
7
  6
CONTINUOUS
 70
0
 71
3
 72
18
 73
14
 74
0
 42
0.0000001
 43
0.0000001
 44
0.0000000001
 40
0.0
 40
0.0
 40
0.0
 40
0.0
 40
0.1595354688
 40
0.3061660626
 40
0.4409076462
 40
0.5651397011
 40
0.6806710067
 40
0.7359077659
 40
0.7898593421
 40
0.8428741578
 40
0.8953189066
 40
0.9475694211
 40
1.0
 40
1.0
 40
1.0
 40
1.0
 10
10.9770884037
 20
5.6770383968
 30
0.0
 10
10.9802012022
 20
5.6772387339
 30
0.0
 10
10.9861655474
 20
5.6778200903
 30
0.0
 10
10.9946601118
 20
5.6793505768
 30
0.0
 10
11.0023079676
 20
5.6815032353
 30
0.0
 10
11.0091024207
 20
5.6842799136
 30
0.0
 10
11.0141238598
 20
5.6871617816
 30
0.0
 10
11.0176609795
 20
5.6897749108
 30
0.0
 10
11.0200567115
 20
5.6918583994
 30
0.0
 10
11.0222339314
 20
5.6940937626
 30
0.0
 10
11.0241926809
 20
5.6964802092
 30
0.0
 10
11.0259327911
 20
5.6990163778
 30
0.0
 10
11.02694357
 20
5.7007994342
 30
0.0
 10
11.0274113772
 20
5.701711593
 30
0.0
  0
SPLINE
  5
27F
100
AcDbEntity
  8
0
100
AcDbSpline
 62
7
  6
CONTINUOUS
 70
0
 71
3
 72
11
 73
7
 74
0
 42
0.0000001
 43
0.0000001
 44
0.0000000001
 40
0.0
 40
0.0
 40
0.0
 40
0.0
 40
0.476528234
 40
0.6032303211
 40
0.7327904236
 40
1.0
 40
1.0
 40
1.0
 40
1.0
 10
11.4415303689
 20
5.9703318604
 30
0.0
 10
11.4330364379
 20
5.9703318604
 30
0.0
 10
11.4222526326
 20
5.9716677889
 30
0.0
 10
11.409563157
 20
5.9747517115
 30
0.0
 10
11.4006026697
 20
5.9773672137
 30
0.0
 10
11.3939490525
 20
5.9797947424
 30
0.0
 10
11.3895415237
 20
5.981600005
 30
0.0
  0
SPLINE
  5
280
100
AcDbEntity
  8
0
100
AcDbSpline
 62
7
  6
CONTINUOUS
 70
0
 71
3
 72
39
 73
35
 74
0
 42
0.0000001
 43
0.0000001
 44
0.0000000001
 40
0.0
 40
0.0
 40
0.0
 40
0.0
 40
0.0280091886
 40
0.0568638485
 40
0.0864472881
 40
0.1166465146
 40
0.14735716
 40
0.1784860624
 40
0.2099520963
 40
0.2416860189
 40
0.2736297601
 40
0.3057350158
 40
0.3379622257
 40
0.3702792638
 40
0.4026603745
 40
0.435084895
 40
0.4675361162
 40
0.5000000002
 40
0.532463884
 40
0.5649151051
 40
0.5973396255
 40
0.6297207363
 40
0.6620377745
 40
0.6942649843
 40
0.72637024
 40
0.7583139812
 40
0.7900479038
 40
0.8215139376
 40
0.85264284
 40
0.8833534854
 40
0.9135527119
 40
0.9431361516
 40
0.9719908114
 40
1.0
 40
1.0
 40
1.0
 40
1.0
 10
11.3895415237
 20
5.981600005
 30
0.0
 10
11.3852039969
 20
5.9833765958
 30
0.0
 10
11.3765335577
 20
5.9873223626
 30
0.0
 10
11.3638102147
 20
5.9942294053
 30
0.0
 10
11.3512644769
 20
6.0021632577
 30
0.0
 10
11.3390021464
 20
6.01106693
 30
0.0
 10
11.3271239013
 20
6.0208879675
 30
0.0
 10
11.3157287932
 20
6.0315783009
 30
0.0
 10
11.30491589
 20
6.0430939294
 30
0.0
 10
11.2947865473
 20
6.0553934057
 30
0.0
 10
11.2854462166
 20
6.0684354335
 30
0.0
 10
11.2770054645
 20
6.0821755242
 30
0.0
 10
11.2695795798
 20
6.0965617945
 30
0.0
 10
11.2632862221
 20
6.1115303948
 30
0.0
 10
11.2582406554
 20
6.127001109
 30
0.0
 10
11.2545482036
 20
6.1428742108
 30
0.0
 10
11.2522947906
 20
6.1590299638
 30
0.0
 10
11.2515370351
 20
6.1753318604
 30
0.0
 10
11.2522947906
 20
6.1916337571
 30
0.0
 10
11.2545482036
 20
6.20778951
 30
0.0
 10
11.2582406554
 20
6.2236626118
 30
0.0
 10
11.2632862221
 20
6.239133326
 30
0.0
 10
11.2695795798
 20
6.2541019263
 30
0.0
 10
11.2770054645
 20
6.2684881966
 30
0.0
 10
11.2854462166
 20
6.2822282873
 30
0.0
 10
11.2947865473
 20
6.2952703151
 30
0.0
 10
11.30491589
 20
6.3075697914
 30
0.0
 10
11.3157287932
 20
6.3190854199
 30
0.0
 10
11.3271239013
 20
6.3297757533
 30
0.0
 10
11.3390021464
 20
6.3395967907
 30
0.0
 10
11.3512644769
 20
6.3485004631
 30
0.0
 10
11.3638102147
 20
6.3564343155
 30
0.0
 10
11.3765335576
 20
6.3633413581
 30
0.0
 10
11.3852039968
 20
6.367287125
 30
0.0
 10
11.3895415236
 20
6.3690637158
 30
0.0
  0
SPLINE
  5
281
100
AcDbEntity
  8
0
100
AcDbSpline
 62
7
  6
CONTINUOUS
 70
0
 71
3
 72
11
 73
7
 74
0
 42
0.0000001
 43
0.0000001
 44
0.0000000001
 40
0.0
 40
0.0
 40
0.0
 40
0.0
 40
0.2672095758
 40
0.396769678
 40
0.5234717646
 40
1.0
 40
1.0
 40
1.0
 40
1.0
 10
11.3895415236
 20
6.3690637158
 30
0.0
 10
11.3939490525
 20
6.3708689784
 30
0.0
 10
11.4006026697
 20
6.373296507
 30
0.0
 10
11.4095631569
 20
6.3759120092
 30
0.0
 10
11.4222526324
 20
6.3789959319
 30
0.0
 10
11.4330364378
 20
6.3803318604
 30
0.0
 10
11.4415303687
 20
6.3803318604
 30
0.0
  0
SPLINE
  5
282
100
AcDbEntity
  8
0
100
AcDbSpline
 62
7
  6
CONTINUOUS
 70
0
 71
3
 72
11
 73
7
 74
0
 42
0.0000001
 43
0.0000001
 44
0.0000000001
 40
0.0
 40
0.0
 40
0.0
 40
0.0
 40
0.4765282199
 40
0.6032303081
 40
0.7327904116
 40
1.0
 40
1.0
 40
1.0
 40
1.0
 10
10.6531063077
 20
6.3803318604
 30
0.0
 10
10.6616002566
 20
6.3803318604
 30
0.0
 10
10.6723840848
 20
6.3789959263
 30
0.0
 10
10.685073586
 20
6.3759119917
 30
0.0
 10
10.6940340914
 20
6.3732964794
 30
0.0
 10
10.7006877217
 20
6.3708689417
 30
0.0
 10
10.7050952591
 20
6.3690636723
 30
0.0
  0
SPLINE
  5
283
100
AcDbEntity
  8
0
100
AcDbSpline
 62
7
  6
CONTINUOUS
 70
0
 71
3
 72
39
 73
35
 74
0
 42
0.0000001
 43
0.0000001
 44
0.0000000001
 40
0.0
 40
0.0
 40
0.0
 40
0.0
 40
0.0280091941
 40
0.0568638561
 40
0.0864473012
 40
0.1166465285
 40
0.1473571751
 40
0.1784860778
 40
0.2099521081
 40
0.2416860303
 40
0.2736297694
 40
0.3057350232
 40
0.3379622316
 40
0.3702792686
 40
0.4026603793
 40
0.4350848995
 40
0.4675361186
 40
0.4999999999
 40
0.5324638812
 40
0.5649151003
 40
0.5973396203
 40
0.6297207309
 40
0.6620377679
 40
0.6942649763
 40
0.7263702301
 40
0.7583139693
 40
0.7900478915
 40
0.8215139218
 40
0.8526428246
 40
0.8833534712
 40
0.9135526987
 40
0.9431361437
 40
0.9719908059
 40
1.0
 40
1.0
 40
1.0
 40
1.0
 10
10.7050952591
 20
6.3690636723
 30
0.0
 10
10.7094327836
 20
6.3672870792
 30
0.0
 10
10.7181032177
 20
6.3633413087
 30
0.0
 10
10.7308265532
 20
6.3564342617
 30
0.0
 10
10.7433722828
 20
6.3485004064
 30
0.0
 10
10.7556346051
 20
6.3395967326
 30
0.0
 10
10.7675128413
 20
6.3297756949
 30
0.0
 10
10.7789079403
 20
6.3190853628
 30
0.0
 10
10.7897208344
 20
6.3075697367
 30
0.0
 10
10.7998501683
 20
6.2952702639
 30
0.0
 10
10.809190491
 20
6.2822282403
 30
0.0
 10
10.8176312355
 20
6.2684881548
 30
0.0
 10
10.8250571135
 20
6.2541018902
 30
0.0
 10
10.8313504654
 20
6.2391332961
 30
0.0
 10
10.8363960274
 20
6.2236625885
 30
0.0
 10
10.8400884757
 20
6.207789494
 30
0.0
 10
10.8423418864
 20
6.1916337491
 30
0.0
 10
10.8430996412
 20
6.1753318612
 30
0.0
 10
10.8423418866
 20
6.1590299733
 30
0.0
 10
10.840088476
 20
6.1428742284
 30
0.0
 10
10.8363960278
 20
6.1270011339
 30
0.0
 10
10.831350466
 20
6.1115304263
 30
0.0
 10
10.8250571142
 20
6.0965618322
 30
0.0
 10
10.8176312363
 20
6.0821755676
 30
0.0
 10
10.809190492
 20
6.068435482
 30
0.0
 10
10.7998501694
 20
6.0553934582
 30
0.0
 10
10.7897208356
 20
6.0430939854
 30
0.0
 10
10.7789079415
 20
6.0315783592
 30
0.0
 10
10.7675128425
 20
6.020888027
 30
0.0
 10
10.7556346063
 20
6.0110669892
 30
0.0
 10
10.7433722841
 20
6.0021633153
 30
0.0
 10
10.7308265545
 20
5.9942294599
 30
0.0
 10
10.7181032191
 20
5.9873224128
 30
0.0
 10
10.709432785
 20
5.9833766422
 30
0.0
 10
10.7050952604
 20
5.9816000491
 30
0.0
  0
SPLINE
  5
284
100
AcDbEntity
  8
0
100
AcDbSpline
 62
7
  6
CONTINUOUS
 70
0
 71
3
 72
11
 73
7
 74
0
 42
0.0000001
 43
0.0000001
 44
0.0000000001
 40
0.0
 40
0.0
 40
0.0
 40
0.0
 40
0.2672095885
 40
0.3967696889
 40
0.5234717771
 40
1.0
 40
1.0
 40
1.0
 40
1.0
 10
10.7050952604
 20
5.9816000491
 30
0.0
 10
10.700687723
 20
5.9797947796
 30
0.0
 10
10.6940340926
 20
5.9773672418
 30
0.0
 10
10.6850735871
 20
5.9747517293
 30
0.0
 10
10.6723840855
 20
5.9716677946
 30
0.0
 10
10.661600257
 20
5.9703318604
 30
0.0
 10
10.6531063078
 20
5.9703318604
 30
0.0
  0
SPLINE
  5
285
100
AcDbEntity
  8
0
100
AcDbSpline
 62
7
  6
CONTINUOUS
 70
0
 71
3
 72
33
 73
29
 74
0
 42
0.0000001
 43
0.0000001
 44
0.0000000001
 40
0.0
 40
0.0
 40
0.0
 40
0.0
 40
0.0104221551
 40
0.01662717
 40
0.0235806303
 40
0.0398722551
 40
0.0594726849
 40
0.0823937273
 40
0.1085611852
 40
0.1378373062
 40
0.1700414632
 40
0.2422990822
 40
0.3231698548
 40
0.4100435721
 40
0.5
 40
0.5899564279
 40
0.6768301452
 40
0.7577009178
 40
0.8299585368
 40
0.8621626938
 40
0.8914388147
 40
0.9176062727
 40
0.9405273151
 40
0.9601277449
 40
0.9764193697
 40
0.98337283
 40
0.9895778449
 40
1.0
 40
1.0
 40
1.0
 40
1.0
 10
11.0274113772
 20
5.701711593
 30
0.0
 10
11.0274764937
 20
5.7018385612
 30
0.0
 10
11.0276230805
 20
5.7020190666
 30
0.0
 10
11.0278662874
 20
5.7022311433
 30
0.0
 10
11.0281952598
 20
5.7024655887
 30
0.0
 10
11.0287121459
 20
5.7027466172
 30
0.0
 10
11.029455693
 20
5.7030578461
 30
0.0
 10
11.0303482682
 20
5.7033561808
 30
0.0
 10
11.0313836716
 20
5.7036389628
 30
0.0
 10
11.0325544437
 20
5.7039037055
 30
0.0
 10
11.034354236
 20
5.7042422507
 30
0.0
 10
11.0368686391
 20
5.7045935631
 30
0.0
 10
11.0401413854
 20
5.7048972307
 30
0.0
 10
11.0436655081
 20
5.7050844905
 30
0.0
 10
11.0473183383
 20
5.7051478169
 30
0.0
 10
11.0509711685
 20
5.7050844905
 30
0.0
 10
11.0544952912
 20
5.7048972307
 30
0.0
 10
11.0577680375
 20
5.7045935631
 30
0.0
 10
11.0602824406
 20
5.7042422507
 30
0.0
 10
11.0620822329
 20
5.7039037055
 30
0.0
 10
11.0632530049
 20
5.7036389628
 30
0.0
 10
11.0642884084
 20
5.7033561808
 30
0.0
 10
11.0651809836
 20
5.7030578461
 30
0.0
 10
11.0659245307
 20
5.7027466172
 30
0.0
 10
11.0664414167
 20
5.7024655887
 30
0.0
 10
11.0667703892
 20
5.7022311433
 30
0.0
 10
11.067013596
 20
5.7020190666
 30
0.0
 10
11.0671601828
 20
5.7018385612
 30
0.0
 10
11.0672252994
 20
5.701711593
 30
0.0
  0
SPLINE
  5
286
100
AcDbEntity
  8
0
100
AcDbSpline
 62
7
  6
CONTINUOUS
 70
0
 71
3
 72
8
 73
4
 74
0
 42
0.0000001
 43
0.0000001
 44
0.0000000001
 40
0.0
 40
0.0
 40
0.0
 40
0.0
 40
1.0
 40
1.0
 40
1.0
 40
1.0
 10
11.1183900037
 20
5.6759614313
 30
0.0
 10
11.1183726544
 20
5.6759606338
 30
0.0
 10
11.118355305
 20
5.6759598363
 30
0.0
 10
11.1183379557
 20
5.6759590389
 30
0.0
  0
SPLINE
  5
287
100
AcDbEntity
  8
0
100
AcDbSpline
 62
7
  6
CONTINUOUS
 70
0
 71
3
 72
8
 73
4
 74
0
 42
0.0000001
 43
0.0000001
 44
0.0000000001
 40
0.0
 40
0.0
 40
0.0
 40
0.0
 40
1.0
 40
1.0
 40
1.0
 40
1.0
 10
10.9762987209
 20
5.6759590389
 30
0.0
 10
10.976281262
 20
5.6759598414
 30
0.0
 10
10.9762638031
 20
5.6759606439
 30
0.0
 10
10.9762463443
 20
5.6759614464
 30
0.0
  0
SPLINE
  5
288
100
AcDbEntity
  8
0
100
AcDbSpline
 62
9
  6
CONTINUOUS
 70
0
 71
3
 72
13
 73
9
 74
0
 42
0.0000001
 43
0.0000001
 44
0.0000000001
 40
0.0
 40
0.0
 40
0.0
 40
0.0
 40
0.2339644138
 40
0.3561623429
 40
0.481263385
 40
0.6087849504
 40
0.7381795517
 40
1.0
 40
1.0
 40
1.0
 40
1.0
 10
10.4638199642
 20
6.0555419275
 30
0.0
 10
10.4696060754
 20
6.0635673908
 30
0.0
 10
10.4772463669
 20
6.0766663848
 30
0.0
 10
10.4852742947
 20
6.0953802934
 30
0.0
 10
10.4903591008
 20
6.1104115538
 30
0.0
 10
10.4943650677
 20
6.1260775506
 30
0.0
 10
10.4982317743
 20
6.1476838155
 30
0.0
 10
10.499388416
 20
6.1642601024
 30
0.0
 10
10.499388416
 20
6.1753318604
 30
0.0
  0
SPLINE
  5
289
100
AcDbEntity
  8
0
100
AcDbSpline
 62
9
  6
CONTINUOUS
 70
0
 71
3
 72
13
 73
9
 74
0
 42
0.0000001
 43
0.0000001
 44
0.0000000001
 40
0.0
 40
0.0
 40
0.0
 40
0.0
 40
0.2361851077
 40
0.3588110277
 40
0.4839302851
 40
0.611114357
 40
0.7398880147
 40
1.0
 40
1.0
 40
1.0
 40
1.0
 10
10.7903985865
 20
6.3064701228
 30
0.0
 10
10.7962157601
 20
6.2973320914
 30
0.0
 10
10.8038801497
 20
6.282667805
 30
0.0
 10
10.8119294278
 20
6.2619720082
 30
0.0
 10
10.8170043814
 20
6.2455254819
 30
0.0
 10
10.8209950377
 20
6.2284948426
 30
0.0
 10
10.8248392707
 20
6.2051275712
 30
0.0
 10
10.82598969
 20
6.1872617571
 30
0.0
 10
10.82598969
 20
6.1753318604
 30
0.0
  0
SPLINE
  5
28A
100
AcDbEntity
  8
0
100
AcDbSpline
 62
9
  6
CONTINUOUS
 70
0
 71
3
 72
15
 73
11
 74
0
 42
0.0000001
 43
0.0000001
 44
0.0000000001
 40
0.0
 40
0.0
 40
0.0
 40
0.0
 40
0.2339202787
 40
0.2946307012
 40
0.3561204022
 40
0.4811978432
 40
0.6086953605
 40
0.738065597
 40
0.8687087827
 40
1.0
 40
1.0
 40
1.0
 40
1.0
 10
10.4342334501
 20
6.0145050215
 30
0.0
 10
10.4420018092
 20
6.0252797428
 30
0.0
 10
10.4504922027
 20
6.0398370096
 30
0.0
 10
10.4588567827
 20
6.0582465233
 30
0.0
 10
10.4641435976
 20
6.0712597033
 30
0.0
 10
10.4698639909
 20
6.0881716192
 30
0.0
 10
10.4752423826
 20
6.1092031187
 30
0.0
 10
10.47912187
 20
6.13088307
 30
0.0
 10
10.4814648158
 20
6.1529972199
 30
0.0
 10
10.4819867016
 20
6.1678764971
 30
0.0
 10
10.4819867016
 20
6.1753318604
 30
0.0
  0
SPLINE
  5
28B
100
AcDbEntity
  8
0
100
AcDbSpline
 62
7
  6
CONTINUOUS
 70
0
 71
3
 72
23
 73
19
 74
0
 42
0.0000001
 43
0.0000001
 44
0.0000000001
 40
0.0
 40
0.0
 40
0.0
 40
0.0
 40
0.0868281675
 40
0.1696172102
 40
0.2484375756
 40
0.3233815022
 40
0.394566348
 40
0.4621384177
 40
0.5262773045
 40
0.5872005586
 40
0.6451684549
 40
0.7004882619
 40
0.7535171444
 40
0.8046626458
 40
0.854379127
 40
0.903159818
 40
0.9515248083
 40
1.0
 40
1.0
 40
1.0
 40
1.0
 10
10.9762987209
 20
5.67696009
 30
0.0
 10
10.9785984267
 20
5.6768545862
 30
0.0
 10
10.9830944847
 20
5.6767181547
 30
0.0
 10
10.9896827953
 20
5.6767480433
 30
0.0
 10
10.9959505955
 20
5.6770173966
 30
0.0
 10
11.0018950395
 20
5.6775261703
 30
0.0
 10
11.0075137365
 20
5.6782742457
 30
0.0
 10
11.0128046089
 20
5.6792614614
 30
0.0
 10
11.0177659017
 20
5.6804876347
 30
0.0
 10
11.0223961351
 20
5.6819525856
 30
0.0
 10
11.0266940457
 20
5.6836561433
 30
0.0
 10
11.030658505
 20
5.6855981314
 30
0.0
 10
11.0342884338
 20
5.6877782902
 30
0.0
 10
11.0375827422
 20
5.6901961692
 30
0.0
 10
11.0405403275
 20
5.6928508678
 30
0.0
 10
11.0431603301
 20
5.695741105
 30
0.0
 10
11.0454418948
 20
5.6988643239
 30
0.0
 10
11.0467319833
 20
5.7010906573
 30
0.0
 10
11.0473183383
 20
5.7022343602
 30
0.0
  0
SPLINE
  5
28C
100
AcDbEntity
  8
0
100
AcDbSpline
 62
7
  6
CONTINUOUS
 70
0
 71
3
 72
23
 73
19
 74
0
 42
0.0000001
 43
0.0000001
 44
0.0000000001
 40
0.0
 40
0.0
 40
0.0
 40
0.0
 40
0.0484751917
 40
0.0968401825
 40
0.1456208741
 40
0.1953373556
 40
0.2464828573
 40
0.2995117401
 40
0.3548315474
 40
0.4127994439
 40
0.4737226983
 40
0.5378615853
 40
0.605433655
 40
0.6766185006
 40
0.7515624266
 40
0.8303827914
 40
0.9131718333
 40
1.0
 40
1.0
 40
1.0
 40
1.0
 10
11.0473183383
 20
5.7022343602
 30
0.0
 10
11.0479046933
 20
5.7010906573
 30
0.0
 10
11.0491947817
 20
5.6988643239
 30
0.0
 10
11.0514763464
 20
5.6957411049
 30
0.0
 10
11.0540963491
 20
5.6928508677
 30
0.0
 10
11.0570539345
 20
5.6901961691
 30
0.0
 10
11.0603482429
 20
5.6877782901
 30
0.0
 10
11.0639781718
 20
5.6855981314
 30
0.0
 10
11.067942631
 20
5.6836561432
 30
0.0
 10
11.0722405417
 20
5.6819525856
 30
0.0
 10
11.0768707751
 20
5.6804876346
 30
0.0
 10
11.0818320679
 20
5.6792614614
 30
0.0
 10
11.0871229403
 20
5.6782742457
 30
0.0
 10
11.0927416373
 20
5.6775261702
 30
0.0
 10
11.0986860812
 20
5.6770173966
 30
0.0
 10
11.1049538814
 20
5.6767480433
 30
0.0
 10
11.1115421919
 20
5.6767181547
 30
0.0
 10
11.1160382499
 20
5.6768545862
 30
0.0
 10
11.1183379557
 20
5.67696009
 30
0.0
  0
SPLINE
  5
28D
100
AcDbEntity
  8
0
100
AcDbSpline
 62
9
  6
CONTINUOUS
 70
0
 71
3
 72
21
 73
17
 74
0
 42
0.0000001
 43
0.0000001
 44
0.0000000001
 40
0.0
 40
0.0
 40
0.0
 40
0.0
 40
0.1169630859
 40
0.1780520702
 40
0.2405923456
 40
0.304342784
 40
0.3690292751
 40
0.4343532555
 40
0.5
 40
0.5656467445
 40
0.6309707249
 40
0.695657216
 40
0.7594076544
 40
0.8219479298
 40
0.8830369141
 40
1.0
 40
1.0
 40
1.0
 40
1.0
 10
11.6308167123
 20
6.0555419275
 30
0.0
 10
11.6250306012
 20
6.0635673907
 30
0.0
 10
11.6173903037
 20
6.0766664191
 30
0.0
 10
11.6093623922
 20
6.0953802321
 30
0.0
 10
11.6042775389
 20
6.1104117953
 30
0.0
 10
11.6002717399
 20
6.1260766247
 30
0.0
 10
11.5973820523
 20
6.1422246113
 30
0.0
 10
11.5956370016
 20
6.1586967266
 30
0.0
 10
11.5950534111
 20
6.1753318604
 30
0.0
 10
11.5956370016
 20
6.1919669942
 30
0.0
 10
11.5973820523
 20
6.2084391095
 30
0.0
 10
11.6002717399
 20
6.2245870961
 30
0.0
 10
11.6042775389
 20
6.2402519255
 30
0.0
 10
11.6093623922
 20
6.2552834887
 30
0.0
 10
11.6173903037
 20
6.2739973017
 30
0.0
 10
11.6250306012
 20
6.2870963301
 30
0.0
 10
11.6308167123
 20
6.2951217933
 30
0.0
  0
SPLINE
  5
28E
100
AcDbEntity
  8
0
100
AcDbSpline
 62
9
  6
CONTINUOUS
 70
0
 71
3
 72
15
 73
11
 74
0
 42
0.0000001
 43
0.0000001
 44
0.0000000001
 40
0.0
 40
0.0
 40
0.0
 40
0.0
 40
0.2339202787
 40
0.2946307012
 40
0.3561204022
 40
0.4811978432
 40
0.6086953605
 40
0.738065597
 40
0.8687087827
 40
1.0
 40
1.0
 40
1.0
 40
1.0
 10
10.4342334501
 20
6.3361586993
 30
0.0
 10
10.4420018092
 20
6.325383978
 30
0.0
 10
10.4504922027
 20
6.3108267112
 30
0.0
 10
10.4588567827
 20
6.2924171976
 30
0.0
 10
10.4641435976
 20
6.2794040175
 30
0.0
 10
10.4698639909
 20
6.2624921016
 30
0.0
 10
10.4752423826
 20
6.2414606021
 30
0.0
 10
10.47912187
 20
6.2197806509
 30
0.0
 10
10.4814648158
 20
6.1976665009
 30
0.0
 10
10.4819867016
 20
6.1827872238
 30
0.0
 10
10.4819867016
 20
6.1753318604
 30
0.0
  0
SPLINE
  5
28F
100
AcDbEntity
  8
0
100
AcDbSpline
 62
7
  6
CONTINUOUS
 70
0
 71
3
 72
23
 73
19
 74
0
 42
0.0000001
 43
0.0000001
 44
0.0000000001
 40
0.0
 40
0.0
 40
0.0
 40
0.0
 40
0.0868379214
 40
0.1696363312
 40
0.2484655571
 40
0.3234176935
 40
0.3946099281
 40
0.4621883656
 40
0.5263323687
 40
0.5872592268
 40
0.6452289277
 40
0.7005484354
 40
0.7535746074
 40
0.8047147004
 40
0.8544228373
 40
0.9031920895
 40
0.9515424899
 40
1.0
 40
1.0
 40
1.0
 40
1.0
 10
11.1183379557
 20
5.6759590389
 30
0.0
 10
11.1160382635
 20
5.6758536039
 30
0.0
 10
11.1115422351
 20
5.6757172611
 30
0.0
 10
11.1049539724
 20
5.6757471277
 30
0.0
 10
11.098686216
 20
5.6760163005
 30
0.0
 10
11.0927418107
 20
5.676524735
 30
0.0
 10
11.0871231466
 20
5.6772723126
 30
0.0
 10
11.0818323008
 20
5.6782588714
 30
0.0
 10
11.0768710276
 20
5.6794842288
 30
0.0
 10
11.0722408065
 20
5.6809482047
 30
0.0
 10
11.0679429
 20
5.6826506285
 30
0.0
 10
11.0639784361
 20
5.6845913243
 30
0.0
 10
11.0603484927
 20
5.6867700337
 30
0.0
 10
11.0570541592
 20
5.6891863089
 30
0.0
 10
11.0540965384
 20
5.6918392528
 30
0.0
 10
11.0514764916
 20
5.694727589
 30
0.0
 10
11.049194878
 20
5.6978487647
 30
0.0
 10
11.0479047194
 20
5.7000737151
 30
0.0
 10
11.0473183383
 20
5.701216705
 30
0.0
  0
SPLINE
  5
290
100
AcDbEntity
  8
0
100
AcDbSpline
 62
7
  6
CONTINUOUS
 70
0
 71
3
 72
23
 73
19
 74
0
 42
0.0000001
 43
0.0000001
 44
0.0000000001
 40
0.0
 40
0.0
 40
0.0
 40
0.0
 40
0.0484575101
 40
0.0968079106
 40
0.145577163
 40
0.1952852999
 40
0.246425393
 40
0.2994515651
 40
0.3547710728
 40
0.4127407739
 40
0.4736676321
 40
0.5378116353
 40
0.6053900728
 40
0.6765823073
 40
0.7515344436
 40
0.8303636693
 40
0.9131620789
 40
1.0
 40
1.0
 40
1.0
 40
1.0
 10
11.0473183383
 20
5.701216705
 30
0.0
 10
11.0467319572
 20
5.7000737151
 30
0.0
 10
11.0454417986
 20
5.6978487647
 30
0.0
 10
11.043160185
 20
5.694727589
 30
0.0
 10
11.0405401382
 20
5.6918392528
 30
0.0
 10
11.0375825174
 20
5.6891863089
 30
0.0
 10
11.0342881839
 20
5.6867700337
 30
0.0
 10
11.0306582405
 20
5.6845913242
 30
0.0
 10
11.0266937765
 20
5.6826506284
 30
0.0
 10
11.02239587
 20
5.6809482047
 30
0.0
 10
11.0177656489
 20
5.6794842287
 30
0.0
 10
11.0128043757
 20
5.6782588714
 30
0.0
 10
11.0075135299
 20
5.6772723126
 30
0.0
 10
11.0018948658
 20
5.676524735
 30
0.0
 10
10.9959504606
 20
5.6760163005
 30
0.0
 10
10.9896827042
 20
5.6757471277
 30
0.0
 10
10.9830944415
 20
5.6757172611
 30
0.0
 10
10.9785984131
 20
5.6758536039
 30
0.0
 10
10.9762987209
 20
5.6759590389
 30
0.0
  0
SPLINE
  5
291
100
AcDbEntity
  8
0
100
AcDbSpline
 62
9
  6
CONTINUOUS
 70
0
 71
3
 72
13
 73
9
 74
0
 42
0.0000001
 43
0.0000001
 44
0.0000000001
 40
0.0
 40
0.0
 40
0.0
 40
0.0
 40
0.2339644138
 40
0.3561623429
 40
0.481263385
 40
0.6087849504
 40
0.7381795517
 40
1.0
 40
1.0
 40
1.0
 40
1.0
 10
10.4638199642
 20
6.2951217933
 30
0.0
 10
10.4696060754
 20
6.28709633
 30
0.0
 10
10.4772463669
 20
6.273997336
 30
0.0
 10
10.4852742947
 20
6.2552834275
 30
0.0
 10
10.4903591008
 20
6.240252167
 30
0.0
 10
10.4943650677
 20
6.2245861702
 30
0.0
 10
10.4982317743
 20
6.2029799053
 30
0.0
 10
10.499388416
 20
6.1864036184
 30
0.0
 10
10.499388416
 20
6.1753318604
 30
0.0
  0
SPLINE
  5
292
100
AcDbEntity
  8
0
100
AcDbSpline
 62
9
  6
CONTINUOUS
 70
0
 71
3
 72
23
 73
19
 74
0
 42
0.0000001
 43
0.0000001
 44
0.0000000001
 40
0.0
 40
0.0
 40
0.0
 40
0.0
 40
0.1169601393
 40
0.14731535
 40
0.178060204
 40
0.240598909
 40
0.3043477388
 40
0.3690325921
 40
0.4343549174
 40
0.5
 40
0.5656450826
 40
0.6309674079
 40
0.6956522612
 40
0.759401091
 40
0.821939796
 40
0.85268465
 40
0.8830398607
 40
1.0
 40
1.0
 40
1.0
 40
1.0
 10
11.6604032265
 20
6.0145050215
 30
0.0
 10
11.6526348674
 20
6.0252797427
 30
0.0
 10
11.6441444743
 20
6.0398370099
 30
0.0
 10
11.6357798934
 20
6.0582465229
 30
0.0
 10
11.6304930809
 20
6.0712597041
 30
0.0
 10
11.6247726778
 20
6.0881716095
 30
0.0
 10
11.6193943128
 20
6.1092031534
 30
0.0
 10
11.6155147729
 20
6.1308829191
 30
0.0
 10
11.6131718864
 20
6.1529979728
 30
0.0
 10
11.6123883761
 20
6.1753318604
 30
0.0
 10
11.6131718864
 20
6.197665748
 30
0.0
 10
11.6155147729
 20
6.2197808017
 30
0.0
 10
11.6193943128
 20
6.2414605674
 30
0.0
 10
11.6247726778
 20
6.2624921113
 30
0.0
 10
11.6304930809
 20
6.2794040167
 30
0.0
 10
11.6357798934
 20
6.2924171979
 30
0.0
 10
11.6441444743
 20
6.3108267109
 30
0.0
 10
11.6526348674
 20
6.3253839781
 30
0.0
 10
11.6604032265
 20
6.3361586993
 30
0.0
  0
LINE
  5
293
100
AcDbEntity
  8
0
100
AcDbLine
 62
7
  6
CONTINUOUS
 10
11.0473183383
 20
7.4021400106
 11
11.0473183383
 21
8.2145637337
  0
SPLINE
  5
294
100
AcDbEntity
  8
0
100
AcDbSpline
 62
9
  6
CONTINUOUS
 70
0
 71
3
 72
36
 73
32
 74
0
 42
0.0000001
 43
0.0000001
 44
0.0000000001
 40
0.0
 40
0.0
 40
0.0
 40
0.0
 40
0.0750123874
 40
0.1122539655
 40
0.1491673557
 40
0.2215755513
 40
0.2569206691
 40
0.2915780021
 40
0.3254839641
 40
0.3585891965
 40
0.3908604874
 40
0.4222826602
 40
0.4528603563
 40
0.4826195823
 40
0.5116088554
 40
0.5398997285
 40
0.5675864047
 40
0.5947841905
 40
0.6216266097
 40
0.6482611257
 40
0.6748436473
 40
0.7015322319
 40
0.7284805725
 40
0.7558319109
 40
0.7837139281
 40
0.8122349383
 40
0.8414814806
 40
0.8715172047
 40
0.9023828247
 40
0.9340968677
 40
1.0
 40
1.0
 40
1.0
 40
1.0
 10
10.8037284852
 20
6.1753318604
 30
0.0
 10
10.8037284852
 20
6.165739192
 30
0.0
 10
10.8029466761
 20
6.1513674484
 30
0.0
 10
10.8003356047
 20
6.1324637259
 30
0.0
 10
10.796733991
 20
6.1140626013
 30
0.0
 10
10.7916359687
 20
6.0962256908
 30
0.0
 10
10.7850492148
 20
6.0792369592
 30
0.0
 10
10.7794723297
 20
6.0671654394
 30
0.0
 10
10.7732531809
 20
6.0557369031
 30
0.0
 10
10.7664279992
 20
6.0450186396
 30
0.0
 10
10.7590368344
 20
6.035074619
 30
0.0
 10
10.7511229038
 20
6.0259641499
 30
0.0
 10
10.7427324728
 20
6.0177418572
 30
0.0
 10
10.7339146141
 20
6.0104573585
 30
0.0
 10
10.7247210242
 20
6.004155047
 30
0.0
 10
10.7152058779
 20
5.9988738179
 30
0.0
 10
10.7054256743
 20
5.9946467867
 30
0.0
 10
10.6954390618
 20
5.9915009574
 30
0.0
 10
10.6853065919
 20
5.9894568098
 30
0.0
 10
10.6750903264
 20
5.9885278731
 30
0.0
 10
10.6648532734
 20
5.9887203667
 30
0.0
 10
10.654658689
 20
5.9900330144
 30
0.0
 10
10.6445693365
 20
5.9924570638
 30
0.0
 10
10.6346468163
 20
5.9959765377
 30
0.0
 10
10.6249510584
 20
6.0005686626
 30
0.0
 10
10.615540003
 20
6.0062042668
 30
0.0
 10
10.6064693166
 20
6.012848274
 30
0.0
 10
10.5977925143
 20
6.0204596383
 30
0.0
 10
10.5895597494
 20
6.02899312
 30
0.0
 10
10.5791099108
 20
6.0416882039
 30
0.0
 10
10.5722858596
 20
6.0522083812
 30
0.0
 10
10.5681737736
 20
6.0595648749
 30
0.0
  0
SPLINE
  5
295
100
AcDbEntity
  8
0
100
AcDbSpline
 62
9
  6
CONTINUOUS
 70
0
 71
3
 72
13
 73
9
 74
0
 42
0.0000001
 43
0.0000001
 44
0.0000000001
 40
0.0
 40
0.0
 40
0.0
 40
0.0
 40
0.2601119987
 40
0.3888856612
 40
0.5160697357
 40
0.6411889928
 40
0.7638149092
 40
1.0
 40
1.0
 40
1.0
 40
1.0
 10
10.82598969
 20
6.1753318604
 30
0.0
 10
10.82598969
 20
6.1634019556
 30
0.0
 10
10.8248392691
 20
6.1455361292
 30
0.0
 10
10.8209950308
 20
6.1221688425
 30
0.0
 10
10.8170043692
 20
6.1051381927
 30
0.0
 10
10.8119294088
 20
6.0886916571
 30
0.0
 10
10.8038801202
 20
6.0679958503
 30
0.0
 10
10.7962157207
 20
6.0533315581
 30
0.0
 10
10.7903985395
 20
6.0441935242
 30
0.0
  0
SPLINE
  5
296
100
AcDbEntity
  8
0
100
AcDbSpline
 62
9
  6
CONTINUOUS
 70
0
 71
3
 72
36
 73
32
 74
0
 42
0.0000001
 43
0.0000001
 44
0.0000000001
 40
0.0
 40
0.0
 40
0.0
 40
0.0
 40
0.0659001686
 40
0.0976127505
 40
0.1284769747
 40
0.1585114057
 40
0.1877567931
 40
0.2162768183
 40
0.2441580468
 40
0.2715088127
 40
0.2984568079
 40
0.3251452759
 40
0.3517279008
 40
0.378362722
 40
0.4052056222
 40
0.4324040329
 40
0.4600914427
 40
0.4883831226
 40
0.5173732418
 40
0.5471333225
 40
0.5777118561
 40
0.6091348279
 40
0.641406863
 40
0.6745127741
 40
0.7084193428
 40
0.7430772085
 40
0.7784227863
 40
0.8508317093
 40
0.8877453795
 40
0.9249871973
 40
1.0
 40
1.0
 40
1.0
 40
1.0
 10
10.5681869022
 20
6.291122329
 30
0.0
 10
10.5722995475
 20
6.2984773993
 30
0.0
 10
10.579124312
 20
6.308995394
 30
0.0
 10
10.5895748095
 20
6.3216874797
 30
0.0
 10
10.5978079075
 20
6.3302187487
 30
0.0
 10
10.6064848948
 20
6.3378279307
 30
0.0
 10
10.6155556232
 20
6.3444698045
 30
0.0
 10
10.6249665838
 20
6.3501033419
 30
0.0
 10
10.634662117
 20
6.3546934831
 30
0.0
 10
10.6445842904
 20
6.3582110724
 30
0.0
 10
10.654673183
 20
6.360633351
 30
0.0
 10
10.6648672046
 20
6.3619443552
 30
0.0
 10
10.6751036032
 20
6.3621353445
 30
0.0
 10
10.685319135
 20
6.3612050531
 30
0.0
 10
10.6954508052
 20
6.3591597083
 30
0.0
 10
10.705436566
 20
6.3560128454
 30
0.0
 10
10.7152158796
 20
6.3517849477
 30
0.0
 10
10.7247301114
 20
6.3465030201
 30
0.0
 10
10.7339227754
 20
6.3402001777
 30
0.0
 10
10.7427397097
 20
6.3329153131
 30
0.0
 10
10.7511292298
 20
6.3246928153
 30
0.0
 10
10.7590422745
 20
6.3155822964
 30
0.0
 10
10.7664325896
 20
6.3056383745
 30
0.0
 10
10.7732569682
 20
6.2949203495
 30
0.0
 10
10.7794753703
 20
6.2834921819
 30
0.0
 10
10.7850515742
 20
6.2714211499
 30
0.0
 10
10.791637505
 20
6.254433234
 30
0.0
 10
10.7967348857
 20
6.2365973041
 30
0.0
 10
10.8003360418
 20
6.218197267
 30
0.0
 10
10.8029467766
 20
6.1992947281
 30
0.0
 10
10.8037284852
 20
6.1849239098
 30
0.0
 10
10.8037284852
 20
6.1753318604
 30
0.0
  0
SPLINE
  5
297
100
AcDbEntity
  8
0
100
AcDbSpline
 62
7
  6
CONTINUOUS
 70
0
 71
3
 72
24
 73
20
 74
0
 42
0.0000001
 43
0.0000001
 44
0.0000000001
 40
0.0
 40
0.0
 40
0.0
 40
0.0
 40
0.0255923034
 40
0.0513485346
 40
0.0773174274
 40
0.1035448675
 40
0.1569172844
 40
0.2117804653
 40
0.2683530722
 40
0.3267795579
 40
0.3871313079
 40
0.4494111149
 40
0.5135591501
 40
0.5794601748
 40
0.6469507473
 40
0.7158268025
 40
0.7858506179
 40
0.8567583278
 40
1.0
 40
1.0
 40
1.0
 40
1.0
 10
10.4115720366
 20
6.3635235047
 30
0.0
 10
10.4136190298
 20
6.3632401799
 30
0.0
 10
10.4177089378
 20
6.3625386536
 30
0.0
 10
10.4237861501
 20
6.3610916676
 30
0.0
 10
10.4298097721
 20
6.3592504322
 30
0.0
 10
10.4377966817
 20
6.3562585613
 30
0.0
 10
10.4475998387
 20
6.3515268622
 30
0.0
 10
10.4588638302
 20
6.3443899409
 30
0.0
 10
10.469608009
 20
6.3358233387
 30
0.0
 10
10.4797421261
 20
6.3259024003
 30
0.0
 10
10.4891831299
 20
6.3147124131
 30
0.0
 10
10.4978532332
 20
6.302348689
 30
0.0
 10
10.5056810369
 20
6.2889158186
 30
0.0
 10
10.5126018606
 20
6.2745270959
 30
0.0
 10
10.5185583941
 20
6.2593035312
 30
0.0
 10
10.5235010954
 20
6.2433736376
 30
0.0
 10
10.5273890305
 20
6.2268697579
 30
0.0
 10
10.5311344453
 20
6.2042194346
 30
0.0
 10
10.5322553169
 20
6.1868982293
 30
0.0
 10
10.5322553169
 20
6.1753318604
 30
0.0
  0
SPLINE
  5
298
100
AcDbEntity
  8
0
100
AcDbSpline
 62
7
  6
CONTINUOUS
 70
0
 71
3
 72
24
 73
20
 74
0
 42
0.0000001
 43
0.0000001
 44
0.0000000001
 40
0.0
 40
0.0
 40
0.0
 40
0.0
 40
0.0255924328
 40
0.0513482927
 40
0.0773163816
 40
0.1035426592
 40
0.1569119365
 40
0.2117714012
 40
0.2683402311
 40
0.3267633097
 40
0.3871123568
 40
0.4493903979
 40
0.5135377425
 40
0.5794392024
 40
0.6469313116
 40
0.7158099164
 40
0.7858371527
 40
0.8567489743
 40
1.0
 40
1.0
 40
1.0
 40
1.0
 10
10.4114997711
 20
5.9871302418
 30
0.0
 10
10.4135476051
 20
5.9874120958
 30
0.0
 10
10.4176392494
 20
5.9881107768
 30
0.0
 10
10.4237192407
 20
5.9895538476
 30
0.0
 10
10.429745746
 20
5.9913914943
 30
0.0
 10
10.4377365953
 20
5.9943789924
 30
0.0
 10
10.4475449239
 20
5.9991060873
 30
0.0
 10
10.4588152699
 20
6.0062389248
 30
0.0
 10
10.4695658175
 20
6.0148028018
 30
0.0
 10
10.4797061959
 20
6.0247223355
 30
0.0
 10
10.4891532424
 20
6.0359121819
 30
0.0
 10
10.4978290643
 20
6.0482769569
 30
0.0
 10
10.5056621646
 20
6.0617119824
 30
0.0
 10
10.5125877734
 20
6.0761038627
 30
0.0
 10
10.5185484998
 20
6.0913314719
 30
0.0
 10
10.5234947315
 20
6.1072661685
 30
0.0
 10
10.5273854758
 20
6.1237754732
 30
0.0
 10
10.531133628
 20
6.146433733
 30
0.0
 10
10.5322553169
 20
6.1637612583
 30
0.0
 10
10.5322553169
 20
6.1753318604
 30
0.0
  0
SPLINE
  5
299
100
AcDbEntity
  8
0
100
AcDbSpline
 62
9
  6
CONTINUOUS
 70
0
 71
3
 72
22
 73
18
 74
0
 42
0.0000001
 43
0.0000001
 44
0.0000000001
 40
0.0
 40
0.0
 40
0.0
 40
0.0
 40
0.0514751059
 40
0.104011789
 40
0.1578817345
 40
0.2132981833
 40
0.2704121614
 40
0.3293124316
 40
0.39002814
 40
0.4525331778
 40
0.516751503
 40
0.5825629196
 40
0.6498090587
 40
0.7182991995
 40
0.7878160763
 40
0.8581209121
 40
1.0
 40
1.0
 40
1.0
 40
1.0
 10
10.4208213136
 20
6.3534619173
 30
0.0
 10
10.4245124019
 20
6.3525388389
 30
0.0
 10
10.4318646622
 20
6.3502203159
 30
0.0
 10
10.4425353254
 20
6.3454378195
 30
0.0
 10
10.4528643776
 20
6.3393599768
 30
0.0
 10
10.4627718342
 20
6.3320362462
 30
0.0
 10
10.4721843723
 20
6.3235242094
 30
0.0
 10
10.4810319684
 20
6.3138899125
 30
0.0
 10
10.4892491301
 20
6.3032072238
 30
0.0
 10
10.4967749445
 20
6.2915574932
 30
0.0
 10
10.5035535371
 20
6.279029061
 30
0.0
 10
10.5095344576
 20
6.2657167577
 30
0.0
 10
10.514673095
 20
6.2517211255
 30
0.0
 10
10.5189310008
 20
6.2371482802
 30
0.0
 10
10.5222764141
 20
6.2221070072
 30
0.0
 10
10.525495472
 20
6.2015259797
 30
0.0
 10
10.5264590485
 20
6.1858187941
 30
0.0
 10
10.5264590485
 20
6.1753318604
 30
0.0
  0
SPLINE
  5
29A
100
AcDbEntity
  8
0
100
AcDbSpline
 62
9
  6
CONTINUOUS
 70
0
 71
3
 72
22
 73
18
 74
0
 42
0.0000001
 43
0.0000001
 44
0.0000000001
 40
0.0
 40
0.0
 40
0.0
 40
0.0
 40
0.0514737282
 40
0.1040080719
 40
0.1578751306
 40
0.2132885292
 40
0.2703996256
 40
0.3292974507
 40
0.3900113501
 40
0.4525153476
 40
0.5167334712
 40
0.5825455392
 40
0.649793148
 40
0.7182855017
 40
0.7878052246
 40
0.8581134071
 40
1.0
 40
1.0
 40
1.0
 40
1.0
 10
10.4207689565
 20
5.9971887257
 30
0.0
 10
10.4244613689
 20
5.9981098977
 30
0.0
 10
10.431816434
 20
6.0004248995
 30
0.0
 10
10.4424916011
 20
6.0052031534
 30
0.0
 10
10.4528252813
 20
6.0112777097
 30
0.0
 10
10.462737403
 20
6.0185991027
 30
0.0
 10
10.4721545639
 20
6.0271097287
 30
0.0
 10
10.4810066646
 20
6.0367435098
 30
0.0
 10
10.4892281412
 20
6.0474265352
 30
0.0
 10
10.4967580137
 20
6.0590774027
 30
0.0
 10
10.5035403454
 20
6.0716077101
 30
0.0
 10
10.5095246291
 20
6.0849225564
 30
0.0
 10
10.5146662027
 20
6.0989213205
 30
0.0
 10
10.5189265734
 20
6.1134977999
 30
0.0
 10
10.5222739435
 20
6.1285431181
 30
0.0
 10
10.5254949037
 20
6.1491300031
 30
0.0
 10
10.5264590485
 20
6.1648418236
 30
0.0
 10
10.5264590485
 20
6.1753318604
 30
0.0
  0
SPLINE
  5
29B
100
AcDbEntity
  8
0
100
AcDbSpline
 62
7
  6
CONTINUOUS
 70
0
 71
3
 72
23
 73
19
 74
0
 42
0.0000001
 43
0.0000001
 44
0.0000000001
 40
0.0
 40
0.0
 40
0.0
 40
0.0
 40
0.0640019077
 40
0.1258145274
 40
0.1857516265
 40
0.2442347415
 40
0.3017454003
 40
0.3588085555
 40
0.4159572059
 40
0.4737014682
 40
0.5325059971
 40
0.592777298
 40
0.6548561663
 40
0.7190178688
 40
0.7854782364
 40
0.8543970228
 40
0.9258834343
 40
1.0
 40
1.0
 40
1.0
 40
1.0
 10
11.4415303687
 20
6.3803318604
 30
0.0
 10
11.4445169
 20
6.3803318604
 30
0.0
 10
11.4503919657
 20
6.3800749683
 30
0.0
 10
11.4589891606
 20
6.3788696164
 30
0.0
 10
11.4671714669
 20
6.3768596158
 30
0.0
 10
11.4749062777
 20
6.3740614335
 30
0.0
 10
11.4821704944
 20
6.3704971176
 30
0.0
 10
11.488949261
 20
6.3661946741
 30
0.0
 10
11.495236627
 20
6.3611855293
 30
0.0
 10
11.5010345602
 20
6.3555024817
 30
0.0
 10
11.5063519375
 20
6.349178024
 30
0.0
 10
11.5112030982
 20
6.3422430238
 30
0.0
 10
11.5156059109
 20
6.3347257919
 30
0.0
 10
11.5195806257
 20
6.326652133
 30
0.0
 10
11.5231488047
 20
6.3180455852
 30
0.0
 10
11.5263324865
 20
6.3089277874
 30
0.0
 10
11.5291537458
 20
6.2993195841
 30
0.0
 10
11.530778088
 20
6.2927199821
 30
0.0
 10
11.5315404007
 20
6.2893465279
 30
0.0
  0
SPLINE
  5
29C
100
AcDbEntity
  8
0
100
AcDbSpline
 62
7
  6
CONTINUOUS
 70
0
 71
3
 72
23
 73
19
 74
0
 42
0.0000001
 43
0.0000001
 44
0.0000000001
 40
0.0
 40
0.0
 40
0.0
 40
0.0
 40
0.0741025934
 40
0.1455764885
 40
0.2144845101
 40
0.2809361238
 40
0.345091273
 40
0.4071659506
 40
0.4674355154
 40
0.5262407585
 40
0.5839880927
 40
0.6411419422
 40
0.6982120439
 40
0.7557309051
 40
0.8142229168
 40
0.8741690276
 40
0.9359902744
 40
1.0
 40
1.0
 40
1.0
 40
1.0
 10
11.531520145
 20
6.0612276264
 30
0.0
 10
11.5307573326
 20
6.0578572779
 30
0.0
 10
11.5291320387
 20
6.0512637693
 30
0.0
 10
11.526309533
 20
6.0416645825
 30
0.0
 10
11.5231248327
 20
6.0325554268
 30
0.0
 10
11.5195558983
 20
6.0239571187
 30
0.0
 10
11.5155807294
 20
6.0158912715
 30
0.0
 10
11.5111778067
 20
6.0083813975
 30
0.0
 10
11.5063269233
 20
6.0014532737
 30
0.0
 10
11.5010102578
 20
5.9951351757
 30
0.0
 10
11.495213516
 20
5.9894579287
 30
0.0
 10
11.4889278588
 20
5.9844539753
 30
0.0
 10
11.4821513484
 20
5.9801560549
 30
0.0
 10
11.4748899486
 20
5.9765955317
 30
0.0
 10
11.4671585075
 20
5.9738003561
 30
0.0
 10
11.4589800983
 20
5.9717925278
 30
0.0
 10
11.4503872832
 20
5.9705884807
 30
0.0
 10
11.4445153068
 20
5.9703318604
 30
0.0
 10
11.4415303689
 20
5.9703318604
 30
0.0
  0
SPLINE
  5
29D
100
AcDbEntity
  8
0
100
AcDbSpline
 62
9
  6
CONTINUOUS
 70
0
 71
3
 72
19
 73
15
 74
0
 42
0.0000001
 43
0.0000001
 44
0.0000000001
 40
0.0
 40
0.0
 40
0.0
 40
0.0
 40
0.0565395484
 40
0.1132670514
 40
0.1703429872
 40
0.2279412054
 40
0.286218745
 40
0.3453169963
 40
0.4053628237
 40
0.4664652409
 40
0.5921165961
 40
0.7228376946
 40
0.8588247453
 40
1.0
 40
1.0
 40
1.0
 40
1.0
 10
11.4229094258
 20
6.3620097963
 30
0.0
 10
11.4253929741
 20
6.3620097963
 30
0.0
 10
11.4303705931
 20
6.3618107246
 30
0.0
 10
11.437807018
 20
6.3609170833
 30
0.0
 10
11.4451957709
 20
6.3594306828
 30
0.0
 10
11.4525120195
 20
6.3573567742
 30
0.0
 10
11.4597327453
 20
6.3547024473
 30
0.0
 10
11.4668345971
 20
6.3514763048
 30
0.0
 10
11.4737951912
 20
6.3476888849
 30
0.0
 10
11.4829410582
 20
6.3418547583
 30
0.0
 10
11.4939111404
 20
6.3331755704
 30
0.0
 10
11.5060277652
 20
6.3208632968
 30
0.0
 10
11.517077237
 20
6.3067150519
 30
0.0
 10
11.5235280737
 20
6.2963608422
 30
0.0
 10
11.5265487971
 20
6.2909450629
 30
0.0
  0
SPLINE
  5
29E
100
AcDbEntity
  8
0
100
AcDbSpline
 62
9
  6
CONTINUOUS
 70
0
 71
3
 72
19
 73
15
 74
0
 42
0.0000001
 43
0.0000001
 44
0.0000000001
 40
0.0
 40
0.0
 40
0.0
 40
0.0
 40
0.1411700894
 40
0.2771528844
 40
0.4078711954
 40
0.5335216035
 40
0.5946242756
 40
0.654670847
 40
0.713770308
 40
0.7720494775
 40
0.8296496843
 40
0.8867278987
 40
0.943457879
 40
1.0
 40
1.0
 40
1.0
 40
1.0
 10
11.5265261349
 20
6.0596780389
 30
0.0
 10
11.5235052738
 20
6.0542651005
 30
0.0
 10
11.5170544946
 20
6.0439164208
 30
0.0
 10
11.5060061362
 20
6.0297760346
 30
0.0
 10
11.4938915484
 20
6.017470816
 30
0.0
 10
11.4829239089
 20
6.0087967667
 30
0.0
 10
11.4737803491
 20
6.0029661394
 30
0.0
 10
11.4668215913
 20
5.9991809954
 30
0.0
 10
11.4597217053
 20
5.9959568047
 30
0.0
 10
11.4525030542
 20
5.9933040938
 30
0.0
 10
11.4451889686
 20
5.9912314532
 30
0.0
 10
11.4378024457
 20
5.989745965
 30
0.0
 10
11.4303682952
 20
5.9888528736
 30
0.0
 10
11.4253922112
 20
5.9886539245
 30
0.0
 10
11.4229094258
 20
5.9886539245
 30
0.0
  0
SPLINE
  5
29F
100
AcDbEntity
  8
0
100
AcDbSpline
 62
9
  6
CONTINUOUS
 70
0
 71
3
 72
47
 73
43
 74
0
 42
0.0000001
 43
0.0000001
 44
0.0000000001
 40
0.0
 40
0.0
 40
0.0
 40
0.0
 40
0.0128545217
 40
0.0257423981
 40
0.0386902448
 40
0.0517282007
 40
0.064884911
 40
0.0781860592
 40
0.0916553172
 40
0.1053141073
 40
0.1332601447
 40
0.1621529119
 40
0.1920625135
 40
0.2230150469
 40
0.2549959478
 40
0.2879543046
 40
0.3218076028
 40
0.3564465637
 40
0.3917399147
 40
0.4275390245
 40
0.4636823901
 40
0.5
 40
0.5363176099
 40
0.5724609755
 40
0.6082600853
 40
0.6435534364
 40
0.6781923974
 40
0.7120456956
 40
0.7450040525
 40
0.7769849533
 40
0.8079374865
 40
0.837847088
 40
0.8667398553
 40
0.8946858927
 40
0.9083446828
 40
0.9218139407
 40
0.935115089
 40
0.9482717992
 40
0.9613097551
 40
0.9742576018
 40
0.9871454783
 40
1.0
 40
1.0
 40
1.0
 40
1.0
 10
11.4229094258
 20
5.9886539245
 30
0.0
 10
11.4207493238
 20
5.9886539245
 30
0.0
 10
11.4164220244
 20
5.9888044381
 30
0.0
 10
11.4099506921
 20
5.9894801542
 30
0.0
 10
11.4035105717
 20
5.9906048711
 30
0.0
 10
11.3971181014
 20
5.992175382
 30
0.0
 10
11.3907884795
 20
5.9941878221
 30
0.0
 10
11.3845370784
 20
5.9966371339
 30
0.0
 10
11.3783788647
 20
5.9995174012
 30
0.0
 10
11.3702519125
 20
6.0039554542
 30
0.0
 10
11.3603922763
 20
6.0105768648
 30
0.0
 10
11.3492687291
 20
6.0200422451
 30
0.0
 10
11.3388620593
 20
6.0309961917
 30
0.0
 10
11.3292706713
 20
6.0433311886
 30
0.0
 10
11.3205835349
 20
6.0569283926
 30
0.0
 10
11.3128819293
 20
6.0716573039
 30
0.0
 10
11.3062380235
 20
6.0873770362
 30
0.0
 10
11.3007143227
 20
6.1039373728
 30
0.0
 10
11.2963629337
 20
6.121180107
 30
0.0
 10
11.293225006
 20
6.1389404876
 30
0.0
 10
11.291330265
 20
6.1570487741
 30
0.0
 10
11.2906966806
 20
6.1753318604
 30
0.0
 10
11.291330265
 20
6.1936149467
 30
0.0
 10
11.293225006
 20
6.2117232332
 30
0.0
 10
11.2963629338
 20
6.2294836139
 30
0.0
 10
11.3007143228
 20
6.246726348
 30
0.0
 10
11.3062380235
 20
6.2632866847
 30
0.0
 10
11.3128819294
 20
6.279006417
 30
0.0
 10
11.320583535
 20
6.2937353283
 30
0.0
 10
11.3292706713
 20
6.3073325323
 30
0.0
 10
11.3388620593
 20
6.3196675291
 30
0.0
 10
11.3492687291
 20
6.3306214757
 30
0.0
 10
11.3603922763
 20
6.340086856
 30
0.0
 10
11.3702519125
 20
6.3467082666
 30
0.0
 10
11.3783788647
 20
6.3511463196
 30
0.0
 10
11.3845370784
 20
6.3540265869
 30
0.0
 10
11.3907884795
 20
6.3564758987
 30
0.0
 10
11.3971181014
 20
6.3584883388
 30
0.0
 10
11.4035105717
 20
6.3600588497
 30
0.0
 10
11.4099506921
 20
6.3611835667
 30
0.0
 10
11.4164220244
 20
6.3618592828
 30
0.0
 10
11.4207493238
 20
6.3620097963
 30
0.0
 10
11.4229094258
 20
6.3620097963
 30
0.0
  0
SPLINE
  5
2A0
100
AcDbEntity
  8
0
100
AcDbSpline
 62
9
  6
CONTINUOUS
 70
0
 71
3
 72
21
 73
17
 74
0
 42
0.0000001
 43
0.0000001
 44
0.0000000001
 40
0.0
 40
0.0
 40
0.0
 40
0.0
 40
0.1180368149
 40
0.1793338281
 40
0.2418845614
 40
0.3054738357
 40
0.3698626173
 40
0.4347941615
 40
0.5000000039
 40
0.5652058461
 40
0.6301373898
 40
0.6945261708
 40
0.7581154442
 40
0.8206661764
 40
0.8819631883
 40
1.0
 40
1.0
 40
1.0
 40
1.0
 10
11.3044477596
 20
6.0438649983
 30
0.0
 10
11.2985973231
 20
6.0530138429
 30
0.0
 10
11.2908883678
 20
6.0677035969
 30
0.0
 10
11.2827922971
 20
6.0884438845
 30
0.0
 10
11.2776869524
 20
6.104932212
 30
0.0
 10
11.2736723032
 20
6.1220085914
 30
0.0
 10
11.2707803599
 20
6.1395327213
 30
0.0
 10
11.269035558
 20
6.1573569008
 30
0.0
 10
11.2684523263
 20
6.1753318699
 30
0.0
 10
11.2690355592
 20
6.193306839
 30
0.0
 10
11.2707803623
 20
6.2111310182
 30
0.0
 10
11.2736723068
 20
6.2286551477
 30
0.0
 10
11.2776869572
 20
6.2457315266
 30
0.0
 10
11.2827923031
 20
6.2622198535
 30
0.0
 10
11.2908883752
 20
6.28296014
 30
0.0
 10
11.2985973315
 20
6.2976498929
 30
0.0
 10
11.3044477688
 20
6.3067987367
 30
0.0
  0
SPLINE
  5
2A1
100
AcDbEntity
  8
0
100
AcDbSpline
 62
7
  6
CONTINUOUS
 70
0
 71
3
 72
23
 73
19
 74
0
 42
0.0000001
 43
0.0000001
 44
0.0000000001
 40
0.0
 40
0.0
 40
0.0
 40
0.0
 40
0.0640024679
 40
0.1258156698
 40
0.1857534055
 40
0.2442371329
 40
0.3017483581
 40
0.3588119972
 40
0.415961008
 40
0.4737054816
 40
0.5325100667
 40
0.592781248
 40
0.6548598218
 40
0.7190210741
 40
0.7854808314
 40
0.8543988626
 40
0.9258844048
 40
1.0
 40
1.0
 40
1.0
 40
1.0
 10
10.6531063078
 20
5.9703318604
 30
0.0
 10
10.6501198866
 20
5.9703318604
 30
0.0
 10
10.644245036
 20
5.9705887332
 30
0.0
 10
10.6356481455
 20
5.9717939954
 30
0.0
 10
10.6274661109
 20
5.9738038439
 30
0.0
 10
10.6197315347
 20
5.9766018174
 30
0.0
 10
10.6124675143
 20
5.9801658689
 30
0.0
 10
10.6056889049
 20
5.9844679976
 30
0.0
 10
10.5994016577
 20
5.9894767809
 30
0.0
 10
10.5936038073
 20
5.9951594249
 30
0.0
 10
10.5882864793
 20
6.0014834403
 30
0.0
 10
10.5834353375
 20
6.0084179621
 30
0.0
 10
10.5790325172
 20
6.0159346822
 30
0.0
 10
10.5750577707
 20
6.0240077976
 30
0.0
 10
10.571489539
 20
6.0326137719
 30
0.0
 10
10.5683057865
 20
6.0417309681
 30
0.0
 10
10.5654844404
 20
6.0513385438
 30
0.0
 10
10.5638600319
 20
6.0579377219
 30
0.0
 10
10.5630976844
 20
6.06131096
 30
0.0
  0
SPLINE
  5
2A2
100
AcDbEntity
  8
0
100
AcDbSpline
 62
7
  6
CONTINUOUS
 70
0
 71
3
 72
23
 73
19
 74
0
 42
0.0000001
 43
0.0000001
 44
0.0000000001
 40
0.0
 40
0.0
 40
0.0
 40
0.0
 40
0.0741122348
 40
0.1455947665
 40
0.2145102086
 40
0.2809678603
 40
0.3451275359
 40
0.4072051015
 40
0.4674758649
 40
0.5262806212
 40
0.5840258335
 40
0.6411760946
 40
0.6982414043
 40
0.7557546025
 40
0.814240469
 40
0.8741803755
 40
0.9359956474
 40
1.0
 40
1.0
 40
1.0
 40
1.0
 10
10.5631025549
 20
6.2893743075
 30
0.0
 10
10.5638650226
 20
6.2927467986
 30
0.0
 10
10.5654896601
 20
6.2993445108
 30
0.0
 10
10.5683113061
 20
6.3089499175
 30
0.0
 10
10.5714953037
 20
6.3180650347
 30
0.0
 10
10.5750637173
 20
6.3266690269
 30
0.0
 10
10.5790385731
 20
6.3347402629
 30
0.0
 10
10.5834414201
 20
6.342255213
 30
0.0
 10
10.5882924953
 20
6.3491880805
 30
0.0
 10
10.5936096522
 20
6.355510566
 30
0.0
 10
10.5994072162
 20
6.3611918146
 30
0.0
 10
10.6056940525
 20
6.3661993489
 30
0.0
 10
10.6124721193
 20
6.3705003895
 30
0.0
 10
10.6197354622
 20
6.3740635285
 30
0.0
 10
10.627469228
 20
6.3768607789
 30
0.0
 10
10.6356503251
 20
6.3788701045
 30
0.0
 10
10.6442461621
 20
6.3800750531
 30
0.0
 10
10.6501202696
 20
6.3803318604
 30
0.0
 10
10.6531063077
 20
6.3803318604
 30
0.0
  0
SPLINE
  5
2A3
100
AcDbEntity
  8
0
100
AcDbSpline
 62
7
  6
CONTINUOUS
 70
0
 71
3
 72
11
 73
7
 74
0
 42
0.0000001
 43
0.0000001
 44
0.0000000001
 40
0.0
 40
0.0
 40
0.0
 40
0.0
 40
0.2457379679
 40
0.4940204658
 40
0.745302798
 40
1.0
 40
1.0
 40
1.0
 40
1.0
 10
11.4144586409
 20
5.9736464087
 30
0.0
 10
11.4167977325
 20
5.9742486132
 30
0.0
 10
11.4214607068
 20
5.975618322
 30
0.0
 10
11.4283427492
 20
5.9781432174
 30
0.0
 10
11.4351282555
 20
5.9811417936
 30
0.0
 10
11.4395452922
 20
5.9834353821
 30
0.0
 10
11.4417310601
 20
5.9846558616
 30
0.0
  0
SPLINE
  5
2A4
100
AcDbEntity
  8
0
100
AcDbSpline
 62
7
  6
CONTINUOUS
 70
0
 71
3
 72
11
 73
7
 74
0
 42
0.0000001
 43
0.0000001
 44
0.0000000001
 40
0.0
 40
0.0
 40
0.0
 40
0.0
 40
0.2546928479
 40
0.5059740879
 40
0.7542582403
 40
1.0
 40
1.0
 40
1.0
 40
1.0
 10
11.4417119084
 20
6.3660185508
 30
0.0
 10
11.4395275868
 20
6.3672377157
 30
0.0
 10
11.4351135232
 20
6.3695288752
 30
0.0
 10
11.4283327535
 20
6.3725244189
 30
0.0
 10
11.4214556126
 20
6.3750469578
 30
0.0
 10
11.4167960251
 20
6.3764155473
 30
0.0
 10
11.4144586362
 20
6.3770173133
 30
0.0
  0
SPLINE
  5
2A5
100
AcDbEntity
  8
0
100
AcDbSpline
 62
7
  6
CONTINUOUS
 70
0
 71
3
 72
41
 73
37
 74
0
 42
0.0000001
 43
0.0000001
 44
0.0000000001
 40
0.0
 40
0.0
 40
0.0
 40
0.0
 40
0.0127958335
 40
0.025672724
 40
0.0517558174
 40
0.0784384214
 40
0.1058659856
 40
0.1341482116
 40
0.1633576593
 40
0.1935302777
 40
0.2246676312
 40
0.2567399105
 40
0.2896895202
 40
0.3234347213
 40
0.3578733871
 40
0.3928865794
 40
0.4283421114
 40
0.4640979305
 40
0.5000054771
 40
0.5359129437
 40
0.5716685241
 40
0.6071236642
 40
0.6421363197
 40
0.6765743162
 40
0.7103187311
 40
0.7432674573
 40
0.7753387792
 40
0.8064751287
 40
0.8366467277
 40
0.8658551753
 40
0.8941364579
 40
0.9215631747
 40
0.948245066
 40
0.9743276165
 40
0.987204309
 40
1.0
 40
1.0
 40
1.0
 40
1.0
 10
11.6831765599
 20
5.9871247539
 30
0.0
 10
11.6811281704
 20
5.9874058102
 30
0.0
 10
11.6770353597
 20
5.9881030832
 30
0.0
 10
11.6688934118
 20
5.990031898
 30
0.0
 10
11.6588223479
 20
5.9934540223
 30
0.0
 10
11.6471216507
 20
5.9990895873
 30
0.0
 10
11.6358463953
 20
6.0062208437
 30
0.0
 10
11.6250923877
 20
6.0147836452
 30
0.0
 10
11.6149482642
 20
6.0247029929
 30
0.0
 10
11.605497771
 20
6.0358933904
 30
0.0
 10
11.5968187131
 20
6.0482594309
 30
0.0
 10
11.5889826967
 20
6.0616963642
 30
0.0
 10
11.5820545203
 20
6.0760907521
 30
0.0
 10
11.576091651
 20
6.0913212808
 30
0.0
 10
11.5711436721
 20
6.1072596571
 30
0.0
 10
11.5672518342
 20
6.1237716421
 30
0.0
 10
11.564448631
 20
6.1407181359
 30
0.0
 10
11.5627575112
 20
6.1579563517
 30
0.0
 10
11.5621926215
 20
6.1753410136
 30
0.0
 10
11.5627586996
 20
6.1927255984
 30
0.0
 10
11.5644509979
 20
6.2099635833
 30
0.0
 10
11.5672553598
 20
6.2269096947
 30
0.0
 10
11.5711483269
 20
6.2434211489
 30
0.0
 10
11.5760973961
 20
6.2593588504
 30
0.0
 10
11.5820613079
 20
6.2745885661
 30
0.0
 10
11.5889904704
 20
6.2889820097
 30
0.0
 10
11.5968274086
 20
6.302417875
 30
0.0
 10
11.6055073164
 20
6.3147827326
 30
0.0
 10
11.614958581
 20
6.325971842
 30
0.0
 10
11.6251033908
 20
6.3358898064
 30
0.0
 10
11.6358579939
 20
6.34445114
 30
0.0
 10
11.6471337483
 20
6.3515808554
 30
0.0
 10
11.6588348427
 20
6.3572148182
 30
0.0
 10
11.6689061317
 20
6.3606355551
 30
0.0
 10
11.6770481984
 20
6.3625632497
 30
0.0
 10
11.6811410492
 20
6.3632599603
 30
0.0
 10
11.683189454
 20
6.3635407352
 30
0.0
  0
SPLINE
  5
2A6
100
AcDbEntity
  8
0
100
AcDbSpline
 62
7
  6
CONTINUOUS
 70
0
 71
3
 72
11
 73
7
 74
0
 42
0.0000001
 43
0.0000001
 44
0.0000000001
 40
0.0
 40
0.0
 40
0.0
 40
0.0
 40
0.2457610055
 40
0.4940535537
 40
0.7453292522
 40
1.0
 40
1.0
 40
1.0
 40
1.0
 10
10.6801780594
 20
5.9736464026
 30
0.0
 10
10.6778493196
 20
5.9742459414
 30
0.0
 10
10.6732069375
 20
5.9756088479
 30
0.0
 10
10.6663546982
 20
5.978119428
 30
0.0
 10
10.6595979959
 20
5.9810995855
 30
0.0
 10
10.6551990421
 20
5.9833784223
 30
0.0
 10
10.6530220713
 20
5.9845909182
 30
0.0
  0
SPLINE
  5
2A7
100
AcDbEntity
  8
0
100
AcDbSpline
 62
7
  6
CONTINUOUS
 70
0
 71
3
 72
11
 73
7
 74
0
 42
0.0000001
 43
0.0000001
 44
0.0000000001
 40
0.0
 40
0.0
 40
0.0
 40
0.0
 40
0.2546684679
 40
0.5059435946
 40
0.7542370091
 40
1.0
 40
1.0
 40
1.0
 40
1.0
 10
10.6530321066
 20
6.3660783913
 30
0.0
 10
10.6552083176
 20
6.3672901995
 30
0.0
 10
10.6596057098
 20
6.3695677658
 30
0.0
 10
10.6663599253
 20
6.372546337
 30
0.0
 10
10.673209592
 20
6.3750556842
 30
0.0
 10
10.6778501967
 20
6.3764180048
 30
0.0
 10
10.6801780431
 20
6.377017314
 30
0.0
  0
SPLINE
  5
2A8
100
AcDbEntity
  8
0
100
AcDbSpline
 62
9
  6
CONTINUOUS
 70
0
 71
3
 72
39
 73
35
 74
0
 42
0.0000001
 43
0.0000001
 44
0.0000000001
 40
0.0
 40
0.0
 40
0.0
 40
0.0
 40
0.0257338254
 40
0.0519971161
 40
0.0789261754
 40
0.1066282035
 40
0.1351791956
 40
0.1646239219
 40
0.1949772262
 40
0.2262262362
 40
0.2583330373
 40
0.2912375688
 40
0.3248605898
 40
0.3591066249
 40
0.3938668366
 40
0.4290218158
 40
0.4644442965
 40
0.5000018108
 40
0.5355593006
 40
0.5709817087
 40
0.6061365683
 40
0.6408966158
 40
0.6751424455
 40
0.7087652241
 40
0.7416694816
 40
0.7737759835
 40
0.8050246764
 40
0.8353776543
 40
0.8648220545
 40
0.8933727311
 40
0.9210744653
 40
0.9480032637
 40
0.9742663377
 40
1.0
 40
1.0
 40
1.0
 40
1.0
 10
11.6739655955
 20
5.9971643308
 30
0.0
 10
11.6702706762
 20
5.9980819441
 30
0.0
 10
11.6629102953
 20
6.0003903967
 30
0.0
 10
11.6522265978
 20
6.005160774
 30
0.0
 10
11.6418841653
 20
6.0112292875
 30
0.0
 10
11.6319632346
 20
6.0185464259
 30
0.0
 10
11.6225373584
 20
6.0270545581
 30
0.0
 10
11.613676777
 20
6.0366875396
 30
0.0
 10
11.6054471922
 20
6.0473713774
 30
0.0
 10
11.5979097119
 20
6.0590245674
 30
0.0
 10
11.5911203894
 20
6.0715585842
 30
0.0
 10
11.5851298376
 20
6.0848784171
 30
0.0
 10
11.5799828217
 20
6.0988831996
 30
0.0
 10
11.575717889
 20
6.1134669125
 30
0.0
 10
11.5723670401
 20
6.1285191524
 30
0.0
 10
11.5699554543
 20
6.1439259508
 30
0.0
 10
11.5685012729
 20
6.1595706322
 30
0.0
 10
11.5680154428
 20
6.1753347015
 30
0.0
 10
11.5685016226
 20
6.1910987494
 30
0.0
 10
11.5699561511
 20
6.2067433664
 30
0.0
 10
11.5723680787
 20
6.222150058
 30
0.0
 10
11.5757192617
 20
6.2372021496
 30
0.0
 10
11.579984518
 20
6.2517856737
 30
0.0
 10
11.5851318449
 20
6.2657902284
 30
0.0
 10
11.5911226927
 20
6.2791097962
 30
0.0
 10
11.597912294
 20
6.2916435125
 30
0.0
 10
11.6054500339
 20
6.3032963692
 30
0.0
 10
11.6136798571
 20
6.3139798428
 30
0.0
 10
11.6225406541
 20
6.3236124323
 30
0.0
 10
11.6319667215
 20
6.3321201471
 30
0.0
 10
11.6418878173
 20
6.3394368458
 30
0.0
 10
11.6522303876
 20
6.3455049005
 30
0.0
 10
11.662914194
 20
6.3502748028
 30
0.0
 10
11.6702746199
 20
6.3525829254
 30
0.0
 10
11.6739695554
 20
6.3535003734
 30
0.0
  0
ELLIPSE
  5
2A9
100
AcDbEntity
  8
0
100
AcDbEllipse
 62
7
  6
CONTINUOUS
 10
11.0473183383
 20
7.22683309
 30
0.0
 11
1.0411369379
 21
0.9898582626
 31
0.0
 40
0.5769821704
 41
0.021858488
 42
1.0690560392
  0
ELLIPSE
  5
2AA
100
AcDbEntity
  8
0
100
AcDbEllipse
 62
7
  6
CONTINUOUS
 10
11.0473183383
 20
7.22683309
 30
0.0
 11
-1.0411369379
 21
0.9898582626
 31
0.0
 40
0.5769821704
 41
-1.0690560392
 42
-0.021858488
  0
ENDSEC
  0
SECTION
  2
OBJECTS
  0
DICTIONARY
  5
C
100
AcDbDictionary
280
0
281
1
  3
ACAD_GROUP
350
D
  3
ACAD_MLINESTYLE
350
17
  3
ACAD_LAYOUT
350
1A
  3
ACAD_PLOTSETTINGS
350
19
  3
ACAD_PLOTSTYLENAME
350
E
  0
DICTIONARY
  5
D
102
{ACAD_REACTORS
330
C
102
}
100
AcDbDictionary
280
0
281
1
  0
ACDBDICTIONARYWDFLT
  5
E
102
{ACAD_REACTORS
330
C
102
}
100
AcDbDictionary
281
1
  3
Normal
350
F
100
AcDbDictionaryWithDefault
340
F
  0
DICTIONARY
  5
17
102
{ACAD_REACTORS
330
C
102
}
100
AcDbDictionary
280
0
281
1
  3
Standard
350
18
  0
DICTIONARY
  5
19
102
{ACAD_REACTORS
330
C
102
}
100
AcDbDictionary
281
1
  0
DICTIONARY
  5
1A
102
{ACAD_REACTORS
330
C
102
}
100
AcDbDictionary
281
1
  3
Model
350
2AB
  3
Layout1
350
2AC
  0
ACDBPLACEHOLDER
  5
F
102
{ACAD_REACTORS
330
E
102
}
  0
MLINESTYLE
  5
18
102
{ACAD_REACTORS
330
17
102
}
100
AcDbMlineStyle
  2
STANDARD
 70
0
  3

 62
256
 51
90.0
 52
90.0
 71
2
 49
0.5
 62
256
  6
BYLAYER
 49
-0.5
 62
256
  6
BYLAYER
  0
LAYOUT
  5
2AB
102
{ACAD_REACTORS
330
1A
102
}
100
AcDbPlotSettings
  1

  2
none_device
  4
ANSI_C_(22.00_x_17.00_Inches)
  6

 40
0.0
 41
0.0
 42
0.0
 43
0.0
 44
558.8
 45
431.8
 46
0.0
 47
0.0
 48
0.0
 49
0.0
140
0.0
141
0.0
142
1.0
143
1.0
 70
1024
 72
0
 73
0
 74
0
  7

 75
0
147
1.0
148
0.0
149
0.0
100
AcDbLayout
  1
Model
 70
0
 71
0
 10
0.0
 20
0.0
 11
22.0
 21
17.0
 12
0.0
 22
0.0
 32
0.0
 14
0.0
 24
0.0
 34
0.0
 15
0.0
 25
0.0
 35
0.0
146
0.0
 13
0.0
 23
0.0
 33
0.0
 16
1.0
 26
0.0
 36
0.0
 17
0.0
 27
1.0
 37
0.0
 76
0
330
205
345
0
346
0
  0
LAYOUT
  5
2AC
102
{ACAD_REACTORS
330
1A
102
}
100
AcDbPlotSettings
  1

  2
none_device
  4
ANSI_C_(22.00_x_17.00_Inches)
  6

 40
0.0
 41
0.0
 42
0.0
 43
0.0
 44
558.8
 45
431.8
 46
0.0
 47
0.0
 48
0.0
 49
0.0
140
0.0
141
0.0
142
1.0
143
1.0
 70
0
 72
0
 73
0
 74
0
  7

 75
0
147
1.0
148
0.0
149
0.0
100
AcDbLayout
  1
Layout1
 70
0
 71
1
 10
0.0
 20
0.0
 11
22.0
 21
17.0
 12
0.0
 22
0.0
 32
0.0
 14
0.0
 24
0.0
 34
0.0
 15
0.0
 25
0.0
 35
0.0
146
0.0
 13
0.0
 23
0.0
 33
0.0
 16
1.0
 26
0.0
 36
0.0
 17
0.0
 27
1.0
 37
0.0
 76
0
330
206
345
0
346
0
  0
ENDSEC
  0
EOF
