999
DXF file: E:\BT Custom\CADOUTPUT\_RIGHT.dxf
999
Pro/ENGINEER 2018400 by Parametric Technology Corporation
  0
SECTION
  2
HEADER
  9
$ACADVER
  1
AC1018
  9
$DWGCODEPAGE
  3
ANSI_1252
  9
$EXTMAX
 10
22.0
 20
17.0
 30
0.0
  9
$EXTMIN
 10
0.0
 20
0.0
 30
0.0
  9
$LIMMIN
 10
0.0
 20
0.0
  9
$LIMMAX
 10
22.0
 20
17.0
  9
$VIEWCTR
 10
11.0
 20
8.5
  9
$VIEWSIZE
 40
17.0
  9
$CLAYER
  8
0
  9
$LTSCALE
 40
1.21
  9
$CELTYPE
  6
BYLAYER
  9
$DIMSCALE
 40
1.0
  9
$DIMASZ
 40
0.1
  9
$DIMEXO
 40
0.0625
  9
$DIMDLI
 40
0.836
  9
$DIMEXE
 40
0.125
  9
$DIMCEN
 40
0.198
  9
$DIMLFAC
 40
1.0
  9
$DIMBLK
  1
_FILLED
  9
$DIMALT
 70
1
  9
$DIMALTD
 70
2
  9
$DIMALTTD
 70
2
  9
$DIMALTF
 40
25.4
  9
$DIMTXT
 40
0.08
  9
$DIMTOL
 70
1
  9
$DIMLIM
 70
0
  9
$DIMTFAC
 40
1.0
  9
$DIMTP
 40
0.001
  9
$DIMTM
 40
0.001
  9
$DIMGAP
 40
0.09
  9
$DIMDSEP
 70
46
  9
$AUNITS
 70
0
  9
$PDMODE
 70
3
  9
$PDSIZE
 40
0.06
  9
$HANDSEED
  5
2A9
  9
$TILEMODE
 70
1
  9
$MEASUREMENT
 70
0
  9
$INSUNITS
 70
1
  0
ENDSEC
  0
SECTION
  2
CLASSES
  0
CLASS
  1
ACDBDICTIONARYWDFLT
  2
AcDbDictionaryWithDefault
  3
AutoCAD 2000
 90
0
 91
1
280
0
281
0
  0
CLASS
  1
ACDBPLACEHOLDER
  2
AcDbPlaceHolder
  3
AutoCAD 2000
 90
0
 91
1
280
0
281
0
  0
CLASS
  1
LAYOUT
  2
AcDbLayout
  3
AutoCAD 2000
 90
0
 91
0
280
0
281
0
  0
ENDSEC
  0
SECTION
  2
TABLES
  0
TABLE
  2
VPORT
  5
8
100
AcDbSymbolTable
 70
2
  0
VPORT
  5
1F4
100
AcDbSymbolTableRecord
100
AcDbViewportTableRecord
  2
*ACTIVE
 70
0
 10
0.0
 20
0.0
 11
1.0
 21
1.0
 12
11.0
 22
8.5
 13
0.0
 23
0.0
 14
1.0
 24
1.0
 15
0.0
 25
0.0
 16
0.0
 26
0.0
 36
1.0
 17
0.0
 27
0.0
 37
0.0
 40
17.0
 41
1.2941176471
 42
50.0
 43
0.0
 44
0.0
 50
0.0
 51
0.0
 71
0
 72
100
 73
1
 74
1
 75
0
 76
0
 77
0
 78
0
  0
ENDTAB
  0
TABLE
  2
LTYPE
  5
5
100
AcDbSymbolTable
 70
6
  0
LTYPE
  5
14
100
AcDbSymbolTableRecord
100
AcDbLinetypeTableRecord
  2
BYBLOCK
 70
0
  3

 72
65
 73
0
 40
0.0
  0
LTYPE
  5
15
100
AcDbSymbolTableRecord
100
AcDbLinetypeTableRecord
  2
BYLAYER
 70
0
  3

 72
65
 73
0
 40
0.0
  0
LTYPE
  5
16
100
AcDbSymbolTableRecord
100
AcDbLinetypeTableRecord
  2
CONTINUOUS
 70
64
  3
Solid line
 72
65
 73
0
 40
0.0
  0
LTYPE
  5
1F5
100
AcDbSymbolTableRecord
100
AcDbLinetypeTableRecord
  2
CENTER
 70
64
  3
____ _ ____ _ ____ _ ____ _ ____ _ ____ _ ____
 72
65
 73
4
 40
0.6
 49
0.375
 74
0
 49
-0.075
 74
0
 49
0.075
 74
0
 49
-0.075
 74
0
  0
LTYPE
  5
1F6
100
AcDbSymbolTableRecord
100
AcDbLinetypeTableRecord
  2
HIDDEN
 70
64
  3
- - - - - - - - - - - - - - - - - - - -
 72
65
 73
2
 40
0.2
 49
0.1
 74
0
 49
-0.1
 74
0
  0
LTYPE
  5
1F7
100
AcDbSymbolTableRecord
100
AcDbLinetypeTableRecord
  2
PHANTOM
 70
64
  3
_____ _ _ _____ _ _ _____ _ _ _____
 72
65
 73
6
 40
0.8
 49
0.45
 74
0
 49
-0.05
 74
0
 49
0.1
 74
0
 49
-0.05
 74
0
 49
0.1
 74
0
 49
-0.05
 74
0
  0
LTYPE
  5
1F8
100
AcDbSymbolTableRecord
100
AcDbLinetypeTableRecord
  2
DOT
 70
64
  3
. . . . . . . . . . . . . . . . . . . .
 72
65
 73
2
 40
0.2
 49
0.1
 74
0
 49
-0.1
 74
0
  0
LTYPE
  5
1F9
100
AcDbSymbolTableRecord
100
AcDbLinetypeTableRecord
  2
DASHED
 70
64
  3
- - - - - - - - - - - - - - - - - - - -
 72
65
 73
2
 40
0.2
 49
0.1
 74
0
 49
-0.1
 74
0
  0
ENDTAB
  0
TABLE
  2
LAYER
  5
2
100
AcDbSymbolTable
 70
36
  0
LAYER
  5
10
100
AcDbSymbolTableRecord
100
AcDbLayerTableRecord
  2
0
 70
0
 62
7
  6
CONTINUOUS
370
-3
390
F
  0
LAYER
  5
1FA
100
AcDbSymbolTableRecord
100
AcDbLayerTableRecord
  2
DEFAULT_1
 70
0
 62
7
  6
CENTER
370
-3
390
F
  0
LAYER
  5
1FB
100
AcDbSymbolTableRecord
100
AcDbLayerTableRecord
  2
DEFAULT_2
 70
0
 62
8
  6
HIDDEN
370
-3
390
F
  0
LAYER
  5
1FC
100
AcDbSymbolTableRecord
100
AcDbLayerTableRecord
  2
DEFAULT_3
 70
0
 62
7
  6
PHANTOM
370
-3
390
F
  0
LAYER
  5
1FD
100
AcDbSymbolTableRecord
100
AcDbLayerTableRecord
  2
ALL_FEATURES
 70
0
 62
7
  6
CONTINUOUS
370
-3
390
F
  0
LAYER
  5
1FE
100
AcDbSymbolTableRecord
100
AcDbLayerTableRecord
  2
AXES_FEATURES
 70
0
 62
7
  6
CONTINUOUS
370
-3
390
F
  0
LAYER
  5
1FF
100
AcDbSymbolTableRecord
100
AcDbLayerTableRecord
  2
DEFAULT_COORDINATE_SYSTEM
 70
0
 62
7
  6
CONTINUOUS
370
-3
390
F
  0
LAYER
  5
200
100
AcDbSymbolTableRecord
100
AcDbLayerTableRecord
  2
DEFAULT_DATUM_AXES
 70
0
 62
7
  6
CONTINUOUS
370
-3
390
F
  0
LAYER
  5
201
100
AcDbSymbolTableRecord
100
AcDbLayerTableRecord
  2
DEFAULT_DATUM_PLANES
 70
0
 62
7
  6
CONTINUOUS
370
-3
390
F
  0
LAYER
  5
202
100
AcDbSymbolTableRecord
100
AcDbLayerTableRecord
  2
DIMENSIONS
 70
0
 62
7
  6
CONTINUOUS
370
-3
390
F
  0
ENDTAB
  0
TABLE
  2
STYLE
  5
3
100
AcDbSymbolTable
 70
1
  0
STYLE
  5
11
100
AcDbSymbolTableRecord
100
AcDbTextStyleTableRecord
  2
STANDARD
 70
0
 40
0.0
 41
0.8
 50
0.0
 71
0
 42
0.2
  3
txt
  4

  0
STYLE
  5
203
100
AcDbSymbolTableRecord
100
AcDbTextStyleTableRecord
  2
TEXTSTYLE_1
 70
0
 40
0.0
 41
0.8
 50
0.0
 71
0
 42
0.2
  3
gdt
  4

  0
ENDTAB
  0
TABLE
  2
VIEW
  5
6
100
AcDbSymbolTable
 70
0
  0
ENDTAB
  0
TABLE
  2
UCS
  5
7
100
AcDbSymbolTable
 70
0
  0
ENDTAB
  0
TABLE
  2
APPID
  5
9
100
AcDbSymbolTable
 70
1
  0
APPID
  5
204
100
AcDbSymbolTableRecord
100
AcDbRegAppTableRecord
  2
ACAD
 70
0
  0
ENDTAB
  0
TABLE
  2
BLOCK_RECORD
  5
1
100
AcDbSymbolTable
 70
0
  0
BLOCK_RECORD
  5
205
100
AcDbSymbolTableRecord
100
AcDbBlockTableRecord
  2
*Model_Space
  0
BLOCK_RECORD
  5
206
100
AcDbSymbolTableRecord
100
AcDbBlockTableRecord
  2
*Paper_Space
  0
BLOCK_RECORD
  5
207
100
AcDbSymbolTableRecord
100
AcDbBlockTableRecord
  2
_FILLED
  0
ENDTAB
  0
TABLE
  2
DIMSTYLE
  5
A
100
AcDbSymbolTable
 70
1
100
AcDbDimStyleTable
 71
0
  0
DIMSTYLE
105
208
100
AcDbSymbolTableRecord
100
AcDbDimStyleTableRecord
  2
STANDARD
 70
0
  3

  4

 40
1.0
 41
0.1
 42
0.0625
 43
0.38
 44
0.125
 45
0.0
 46
0.0
 47
0.001
 48
0.001
140
0.08
141
0.09
142
0.0
143
25.4
144
1.0
145
0.0
146
1.0
147
0.09
 71
1.0
 72
0.0
 73
1
 74
1
 75
0
 76
0
 77
0
 78
4
 79
1
170
1
171
2
172
0
173
0
174
0
175
0
176
0
177
0
178
0
270
2
179
3
271
3
272
3
273
2
274
2
275
0
280
0
281
0
282
0
283
1
284
4
285
0
286
0
287
3
288
0
340
11
278
46
341
207
342
207
343
207
344
207
  0
ENDTAB
  0
ENDSEC
  0
SECTION
  2
BLOCKS
  0
BLOCK
  5
20
100
AcDbEntity
  8
0
100
AcDbBlockBegin
  2
*Model_Space
 70
0
 10
0.0
 20
0.0
 30
0.0
  3
*Model_Space
  1

  0
ENDBLK
  5
21
100
AcDbEntity
  8
0
100
AcDbBlockEnd
  0
BLOCK
  5
1C
100
AcDbEntity
  8
0
100
AcDbBlockBegin
  2
*Paper_Space
 70
0
 10
0.0
 20
0.0
 30
0.0
  3
*Paper_Space
  1

  0
ENDBLK
  5
1D
100
AcDbEntity
  8
0
100
AcDbBlockEnd
  0
BLOCK
  5
209
100
AcDbEntity
  8
0
100
AcDbBlockBegin
  2
_FILLED
 70
64
 10
0.0
 20
0.0
  3
_FILLED
  1

  0
SOLID
  5
20A
100
AcDbEntity
  8
0
  6
BYBLOCK
 62
0
100
AcDbTrace
 10
0.0
 20
0.0
 11
-1.0
 21
0.2
 12
-1.0
 22
-0.2
 13
-1.0
 23
-0.2
  0
ENDBLK
  5
20B
100
AcDbEntity
  8
0
  6
BYBLOCK
 62
0
100
AcDbBlockEnd
  0
ENDSEC
  0
SECTION
  2
ENTITIES
  0
LINE
  5
20C
100
AcDbEntity
  8
0
100
AcDbLine
 62
7
  6
CONTINUOUS
 10
9.4440998541
 20
5.6536419428
 11
9.0740998541
 21
5.7923919428
  0
LINE
  5
20D
100
AcDbEntity
  8
0
100
AcDbLine
 62
9
  6
CONTINUOUS
 10
9.4471851044
 20
5.6536419428
 11
9.0771851044
 21
5.7923919428
  0
LINE
  5
20E
100
AcDbEntity
  8
0
100
AcDbLine
 62
9
  6
CONTINUOUS
 10
9.8320820104
 20
5.7923919428
 11
9.6153410285
 21
5.7923919428
  0
LINE
  5
20F
100
AcDbEntity
  8
0
100
AcDbLine
 62
9
  6
CONTINUOUS
 10
9.6078925755
 20
5.7923919428
 11
9.3013745393
 21
5.7923919428
  0
LINE
  5
210
100
AcDbEntity
  8
0
100
AcDbLine
 62
9
  6
CONTINUOUS
 10
9.2939260863
 20
5.7923919428
 11
9.0771851044
 21
5.7923919428
  0
LINE
  5
211
100
AcDbEntity
  8
0
100
AcDbLine
 62
9
  6
CONTINUOUS
 10
9.8546335574
 20
5.8204818181
 11
9.0546335574
 21
5.8204818181
  0
LINE
  5
212
100
AcDbEntity
  8
0
100
AcDbLine
 62
7
  6
CONTINUOUS
 10
8.9946335648
 20
5.879691804
 11
9.9146335499
 21
5.879691804
  0
LINE
  5
213
100
AcDbEntity
  8
0
100
AcDbLine
 62
9
  6
CONTINUOUS
 10
8.9646335574
 20
5.909691804
 11
9.9446335574
 21
5.909691804
  0
LINE
  5
214
100
AcDbEntity
  8
0
100
AcDbLine
 62
7
  6
CONTINUOUS
 10
9.249597844
 20
5.979691804
 11
9.221981429
 21
5.9996194347
  0
LINE
  5
215
100
AcDbEntity
  8
0
100
AcDbLine
 62
7
  6
CONTINUOUS
 10
9.2703532161
 20
5.9996194347
 11
9.2427243428
 21
6.0196194347
  0
LINE
  5
216
100
AcDbEntity
  8
0
100
AcDbLine
 62
9
  6
CONTINUOUS
 10
9.4471851044
 20
5.6536419428
 11
9.2939260863
 21
5.7923919428
  0
LINE
  5
217
100
AcDbEntity
  8
0
100
AcDbLine
 62
9
  6
CONTINUOUS
 10
9.4546335574
 20
5.6536419428
 11
9.3013745393
 21
5.7923919428
  0
LINE
  5
218
100
AcDbEntity
  8
0
100
AcDbLine
 62
7
  6
CONTINUOUS
 10
8.9596335574
 20
5.979691804
 11
8.9413334209
 21
5.9996194347
  0
LINE
  5
219
100
AcDbEntity
  8
0
100
AcDbLine
 62
7
  6
CONTINUOUS
 10
8.9613696711
 20
5.9996194347
 11
8.9430394576
 21
6.0196194347
  0
LINE
  5
21A
100
AcDbEntity
  8
0
100
AcDbLine
 62
7
  6
CONTINUOUS
 10
9.9496335574
 20
5.979691804
 11
8.9596335574
 21
5.979691804
  0
LINE
  5
21B
100
AcDbEntity
  8
0
100
AcDbLine
 62
7
  6
CONTINUOUS
 10
9.9478974436
 20
5.9996194347
 11
9.6872856857
 21
5.9996194347
  0
LINE
  5
21C
100
AcDbEntity
  8
0
100
AcDbLine
 62
7
  6
CONTINUOUS
 10
9.6389138986
 20
5.9996194347
 11
9.2703532161
 21
5.9996194347
  0
LINE
  5
21D
100
AcDbEntity
  8
0
100
AcDbLine
 62
7
  6
CONTINUOUS
 10
9.221981429
 20
5.9996194347
 11
8.9613696711
 21
5.9996194347
  0
LINE
  5
21E
100
AcDbEntity
  8
0
100
AcDbLine
 62
7
  6
CONTINUOUS
 10
9.6596692708
 20
5.979691804
 11
9.6389138986
 21
5.9996194347
  0
LINE
  5
21F
100
AcDbEntity
  8
0
100
AcDbLine
 62
7
  6
CONTINUOUS
 10
9.6872856857
 20
5.9996194347
 11
9.6665427719
 21
6.0196194347
  0
LINE
  5
220
100
AcDbEntity
  8
0
100
AcDbLine
 62
7
  6
CONTINUOUS
 10
10.4496335574
 20
6.389891804
 11
10.3596335574
 21
6.389891804
  0
LINE
  5
221
100
AcDbEntity
  8
0
100
AcDbLine
 62
7
  6
CONTINUOUS
 10
10.3526385879
 20
6.3906913007
 11
10.2166385879
 21
6.4221913007
  0
LINE
  5
222
100
AcDbEntity
  8
0
100
AcDbLine
 62
7
  6
CONTINUOUS
 10
11.6296335574
 20
6.603891804
 11
11.2766335574
 21
6.603891804
  0
LINE
  5
223
100
AcDbEntity
  8
0
100
AcDbLine
 62
7
  6
CONTINUOUS
 10
10.6856335574
 20
6.662891804
 11
11.2646335574
 21
6.662891804
  0
LINE
  5
224
100
AcDbEntity
  8
0
100
AcDbLine
 62
7
  6
CONTINUOUS
 10
10.6856335574
 20
7.016891804
 11
11.2646335574
 21
7.016891804
  0
LINE
  5
225
100
AcDbEntity
  8
0
100
AcDbLine
 62
7
  6
CONTINUOUS
 10
8.9646335574
 20
5.909691804
 11
8.9646335574
 21
5.979691804
  0
LINE
  5
226
100
AcDbEntity
  8
0
100
AcDbLine
 62
7
  6
CONTINUOUS
 10
11.6296335574
 20
7.075891804
 11
11.2766335574
 21
7.075891804
  0
LINE
  5
227
100
AcDbEntity
  8
0
100
AcDbLine
 62
7
  6
CONTINUOUS
 10
10.4496335574
 20
7.289891804
 11
10.3596335574
 21
7.289891804
  0
LINE
  5
228
100
AcDbEntity
  8
0
100
AcDbLine
 62
7
  6
CONTINUOUS
 10
9.0546335574
 20
5.8204818181
 11
9.0546335574
 21
5.879691804
  0
LINE
  5
229
100
AcDbEntity
  8
0
100
AcDbLine
 62
9
  6
CONTINUOUS
 10
9.0634203539
 20
5.8204818181
 11
9.0634203539
 21
5.879691804
  0
LINE
  5
22A
100
AcDbEntity
  8
0
100
AcDbLine
 62
7
  6
CONTINUOUS
 10
9.1426335574
 20
9.499891804
 11
9.1426335574
 21
8.519891804
  0
LINE
  5
22B
100
AcDbEntity
  8
0
100
AcDbLine
 62
7
  6
CONTINUOUS
 10
9.2721335574
 20
8.491891804
 11
9.2721335574
 21
8.5237324011
  0
LINE
  5
22C
100
AcDbEntity
  8
0
100
AcDbLine
 62
9
  6
CONTINUOUS
 10
9.2801613359
 20
5.8204818181
 11
9.2801613359
 21
5.879691804
  0
LINE
  5
22D
100
AcDbEntity
  8
0
100
AcDbLine
 62
9
  6
CONTINUOUS
 10
9.3013745393
 20
5.7923919428
 11
9.3013745393
 21
5.879691804
  0
LINE
  5
22E
100
AcDbEntity
  8
0
100
AcDbLine
 62
7
  6
CONTINUOUS
 10
9.1395725221
 20
8.3235916676
 11
8.9413334209
 21
5.9996194347
  0
LINE
  5
22F
100
AcDbEntity
  8
0
100
AcDbLine
 62
7
  6
CONTINUOUS
 10
8.9596335574
 20
5.979691804
 11
8.9613696711
 21
5.9996194347
  0
LINE
  5
230
100
AcDbEntity
  8
0
100
AcDbLine
 62
7
  6
CONTINUOUS
 10
10.3526385879
 20
7.2890923074
 11
10.2166385879
 21
7.2575923074
  0
LINE
  5
231
100
AcDbEntity
  8
0
100
AcDbLine
 62
7
  6
CONTINUOUS
 10
10.6856335574
 20
7.064891804
 11
10.4716475165
 21
7.2807180636
  0
LINE
  5
232
100
AcDbEntity
  8
0
100
AcDbLine
 62
7
  6
CONTINUOUS
 10
9.5851361112
 20
8.3235916676
 11
9.6665427719
 21
6.0196194347
  0
LINE
  5
233
100
AcDbEntity
  8
0
100
AcDbLine
 62
9
  6
CONTINUOUS
 10
9.6078925755
 20
5.7923919428
 11
9.6078925755
 21
5.879691804
  0
LINE
  5
234
100
AcDbEntity
  8
0
100
AcDbLine
 62
7
  6
CONTINUOUS
 10
9.3241310036
 20
8.3235916676
 11
9.2427243428
 21
6.0196194347
  0
LINE
  5
235
100
AcDbEntity
  8
0
100
AcDbLine
 62
7
  6
CONTINUOUS
 10
11.4178863146
 20
7.822391804
 11
11.7246335574
 21
7.822391804
  0
LINE
  5
236
100
AcDbEntity
  8
0
100
AcDbLine
 62
7
  6
CONTINUOUS
 10
9.7696945926
 20
8.3235916676
 11
9.749766962
 21
8.341891804
  0
LINE
  5
237
100
AcDbEntity
  8
0
100
AcDbLine
 62
7
  6
CONTINUOUS
 10
9.5851361112
 20
8.3235916676
 11
9.5768818163
 21
8.341891804
  0
LINE
  5
238
100
AcDbEntity
  8
0
100
AcDbLine
 62
7
  6
CONTINUOUS
 10
9.9496335574
 20
5.979691804
 11
9.9478974436
 21
5.9996194347
  0
LINE
  5
239
100
AcDbEntity
  8
0
100
AcDbLine
 62
7
  6
CONTINUOUS
 10
9.7696945926
 20
8.3235916676
 11
9.9679336939
 21
5.9996194347
  0
LINE
  5
23A
100
AcDbEntity
  8
0
100
AcDbLine
 62
9
  6
CONTINUOUS
 10
9.6291057789
 20
5.8204818181
 11
9.6291057789
 21
5.879691804
  0
LINE
  5
23B
100
AcDbEntity
  8
0
100
AcDbLine
 62
7
  6
CONTINUOUS
 10
9.6371335574
 20
8.491891804
 11
9.6371335574
 21
8.5237324011
  0
LINE
  5
23C
100
AcDbEntity
  8
0
100
AcDbLine
 62
7
  6
CONTINUOUS
 10
9.7676335574
 20
9.499891804
 11
9.7676335574
 21
8.519891804
  0
LINE
  5
23D
100
AcDbEntity
  8
0
100
AcDbLine
 62
9
  6
CONTINUOUS
 10
9.8458467608
 20
5.8204818181
 11
9.8458467608
 21
5.879691804
  0
LINE
  5
23E
100
AcDbEntity
  8
0
100
AcDbLine
 62
7
  6
CONTINUOUS
 10
9.8546335574
 20
5.8204818181
 11
9.8546335574
 21
5.879691804
  0
LINE
  5
23F
100
AcDbEntity
  8
0
100
AcDbLine
 62
7
  6
CONTINUOUS
 10
9.3241310036
 20
8.3235916676
 11
9.3323852985
 21
8.341891804
  0
LINE
  5
240
100
AcDbEntity
  8
0
100
AcDbLine
 62
7
  6
CONTINUOUS
 10
9.9446335574
 20
5.909691804
 11
9.9446335574
 21
5.979691804
  0
LINE
  5
241
100
AcDbEntity
  8
0
100
AcDbLine
 62
7
  6
CONTINUOUS
 10
10.0776335574
 20
8.579891804
 11
10.0776335574
 21
9.439891804
  0
LINE
  5
242
100
AcDbEntity
  8
0
100
AcDbLine
 62
7
  6
CONTINUOUS
 10
9.1395725221
 20
8.3235916676
 11
9.1595001528
 21
8.341891804
  0
LINE
  5
243
100
AcDbEntity
  8
0
100
AcDbLine
 62
7
  6
CONTINUOUS
 10
9.1395725221
 20
8.3235916676
 11
9.7696945926
 21
8.3235916676
  0
LINE
  5
244
100
AcDbEntity
  8
0
100
AcDbLine
 62
7
  6
CONTINUOUS
 10
9.1595001528
 20
8.341891804
 11
9.749766962
 21
8.341891804
  0
LINE
  5
245
100
AcDbEntity
  8
0
100
AcDbLine
 62
7
  6
CONTINUOUS
 10
9.1746335574
 20
8.441891804
 11
9.7346335574
 21
8.441891804
  0
LINE
  5
246
100
AcDbEntity
  8
0
100
AcDbLine
 62
7
  6
CONTINUOUS
 10
10.1976335574
 20
8.4325415349
 11
10.5904417076
 21
8.34535012
  0
LINE
  5
247
100
AcDbEntity
  8
0
100
AcDbLine
 62
7
  6
CONTINUOUS
 10
10.1926335574
 20
6.4523918119
 11
10.1926335574
 21
7.2273917962
  0
LINE
  5
248
100
AcDbEntity
  8
0
100
AcDbLine
 62
7
  6
CONTINUOUS
 10
10.1976335574
 20
8.4325415349
 11
10.1976335574
 21
9.5872420732
  0
LINE
  5
249
100
AcDbEntity
  8
0
100
AcDbLine
 62
9
  6
CONTINUOUS
 10
10.2166385879
 20
6.4221913007
 11
10.2166385879
 21
7.2575923074
  0
LINE
  5
24A
100
AcDbEntity
  8
0
100
AcDbLine
 62
9
  6
CONTINUOUS
 10
10.3526385879
 20
6.3906913007
 11
10.3526385879
 21
7.2890923074
  0
LINE
  5
24B
100
AcDbEntity
  8
0
100
AcDbLine
 62
9
  6
CONTINUOUS
 10
10.3596335574
 20
6.389891804
 11
10.3596335574
 21
7.289891804
  0
LINE
  5
24C
100
AcDbEntity
  8
0
100
AcDbLine
 62
9
  6
CONTINUOUS
 10
10.4496335574
 20
6.389891804
 11
10.4496335574
 21
7.289891804
  0
LINE
  5
24D
100
AcDbEntity
  8
0
100
AcDbLine
 62
9
  6
CONTINUOUS
 10
9.2721335574
 20
8.491891804
 11
9.6371335574
 21
8.491891804
  0
LINE
  5
24E
100
AcDbEntity
  8
0
100
AcDbLine
 62
7
  6
CONTINUOUS
 10
9.1426335574
 20
8.519891804
 11
9.2621335574
 21
8.519891804
  0
LINE
  5
24F
100
AcDbEntity
  8
0
100
AcDbLine
 62
7
  6
CONTINUOUS
 10
9.6471335574
 20
8.519891804
 11
9.7676335574
 21
8.519891804
  0
LINE
  5
250
100
AcDbEntity
  8
0
100
AcDbLine
 62
7
  6
CONTINUOUS
 10
10.1976335574
 20
8.579891804
 11
10.0776335574
 21
8.579891804
  0
LINE
  5
251
100
AcDbEntity
  8
0
100
AcDbLine
 62
7
  6
CONTINUOUS
 10
9.7676335574
 20
8.697391804
 11
10.0776335574
 21
8.697391804
  0
LINE
  5
252
100
AcDbEntity
  8
0
100
AcDbLine
 62
7
  6
CONTINUOUS
 10
10.1976335574
 20
8.7212166695
 11
10.5904417076
 21
8.677620962
  0
LINE
  5
253
100
AcDbEntity
  8
0
100
AcDbLine
 62
9
  6
CONTINUOUS
 10
10.4716475165
 20
6.3990655445
 11
10.4716475165
 21
7.2807180636
  0
LINE
  5
254
100
AcDbEntity
  8
0
100
AcDbLine
 62
9
  6
CONTINUOUS
 10
10.5904417076
 20
8.34535012
 11
10.5904417076
 21
9.6744334881
  0
LINE
  5
255
100
AcDbEntity
  8
0
100
AcDbLine
 62
7
  6
CONTINUOUS
 10
10.6856335574
 20
6.614891804
 11
10.6856335574
 21
7.064891804
  0
LINE
  5
256
100
AcDbEntity
  8
0
100
AcDbLine
 62
7
  6
CONTINUOUS
 10
11.4028654306
 20
10.1796034494
 11
11.4178863146
 21
10.197391804
  0
LINE
  5
257
100
AcDbEntity
  8
0
100
AcDbLine
 62
7
  6
CONTINUOUS
 10
11.4028654306
 20
9.5947476267
 11
11.4178863146
 21
9.603641804
  0
LINE
  5
258
100
AcDbEntity
  8
0
100
AcDbLine
 62
7
  6
CONTINUOUS
 10
11.4028654306
 20
8.4250359814
 11
11.4178863146
 21
8.416141804
  0
LINE
  5
259
100
AcDbEntity
  8
0
100
AcDbLine
 62
7
  6
CONTINUOUS
 10
11.4028654306
 20
7.8401801587
 11
11.4178863146
 21
7.822391804
  0
LINE
  5
25A
100
AcDbEntity
  8
0
100
AcDbLine
 62
7
  6
CONTINUOUS
 10
9.7676335574
 20
9.322391804
 11
10.0776335574
 21
9.322391804
  0
LINE
  5
25B
100
AcDbEntity
  8
0
100
AcDbLine
 62
7
  6
CONTINUOUS
 10
11.2646335574
 20
6.615891804
 11
11.2646335574
 21
7.063891804
  0
LINE
  5
25C
100
AcDbEntity
  8
0
100
AcDbLine
 62
9
  6
CONTINUOUS
 10
11.2766335574
 20
6.603891804
 11
11.2766335574
 21
7.075891804
  0
LINE
  5
25D
100
AcDbEntity
  8
0
100
AcDbLine
 62
7
  6
CONTINUOUS
 10
10.1976335574
 20
9.2985669386
 11
10.5904417076
 21
9.342162646
  0
LINE
  5
25E
100
AcDbEntity
  8
0
100
AcDbLine
 62
7
  6
CONTINUOUS
 10
10.1976335574
 20
9.439891804
 11
10.0776335574
 21
9.439891804
  0
LINE
  5
25F
100
AcDbEntity
  8
0
100
AcDbLine
 62
7
  6
CONTINUOUS
 10
9.1426335574
 20
9.499891804
 11
9.7676335574
 21
9.499891804
  0
LINE
  5
260
100
AcDbEntity
  8
0
100
AcDbLine
 62
9
  6
CONTINUOUS
 10
11.4028654306
 20
7.8401801587
 11
11.4028654306
 21
10.1796034494
  0
LINE
  5
261
100
AcDbEntity
  8
0
100
AcDbLine
 62
7
  6
CONTINUOUS
 10
10.1976335574
 20
9.5872420732
 11
10.5904417076
 21
9.6744334881
  0
LINE
  5
262
100
AcDbEntity
  8
0
100
AcDbLine
 62
7
  6
CONTINUOUS
 10
11.6296335574
 20
6.5598918119
 11
11.6296335574
 21
7.1198917962
  0
LINE
  5
263
100
AcDbEntity
  8
0
100
AcDbLine
 62
7
  6
CONTINUOUS
 10
11.7246335574
 20
11.7634699897
 11
11.7246335574
 21
6.2563136183
  0
LINE
  5
264
100
AcDbEntity
  8
0
100
AcDbLine
 62
9
  6
CONTINUOUS
 10
11.8526335574
 20
6.0381027112
 11
11.8526335574
 21
11.9816808969
  0
LINE
  5
265
100
AcDbEntity
  8
0
100
AcDbLine
 62
7
  6
CONTINUOUS
 10
9.221981429
 20
5.9996194347
 11
9.2427243428
 21
6.0196194347
  0
LINE
  5
266
100
AcDbEntity
  8
0
100
AcDbLine
 62
7
  6
CONTINUOUS
 10
11.9806237222
 20
12.2030279345
 11
11.9806237222
 21
5.8167556736
  0
LINE
  5
267
100
AcDbEntity
  8
0
100
AcDbLine
 62
9
  6
CONTINUOUS
 10
12.1046313622
 20
5.6008189982
 11
12.1046313622
 21
12.4189646099
  0
LINE
  5
268
100
AcDbEntity
  8
0
100
AcDbLine
 62
7
  6
CONTINUOUS
 10
9.249597844
 20
5.979691804
 11
9.2703532161
 21
5.9996194347
  0
LINE
  5
269
100
AcDbEntity
  8
0
100
AcDbLine
 62
7
  6
CONTINUOUS
 10
11.4178863146
 20
10.197391804
 11
11.7246335574
 21
10.197391804
  0
LINE
  5
26A
100
AcDbEntity
  8
0
100
AcDbLine
 62
7
  6
CONTINUOUS
 10
12.2286335574
 20
12.634891804
 11
12.2286335574
 21
5.384891804
  0
LINE
  5
26B
100
AcDbEntity
  8
0
100
AcDbLine
 62
7
  6
CONTINUOUS
 10
9.9478974436
 20
5.9996194347
 11
9.9662276571
 21
6.0196194347
  0
LINE
  5
26C
100
AcDbEntity
  8
0
100
AcDbLine
 62
7
  6
CONTINUOUS
 10
9.9496335574
 20
5.979691804
 11
9.9679336939
 21
5.9996194347
  0
LINE
  5
26D
100
AcDbEntity
  8
0
100
AcDbLine
 62
7
  6
CONTINUOUS
 10
10.6856335574
 20
6.614891804
 11
10.4716475165
 21
6.3990655445
  0
LINE
  5
26E
100
AcDbEntity
  8
0
100
AcDbLine
 62
9
  6
CONTINUOUS
 10
9.4546335574
 20
5.6536419428
 11
9.6078925755
 21
5.7923919428
  0
LINE
  5
26F
100
AcDbEntity
  8
0
100
AcDbLine
 62
9
  6
CONTINUOUS
 10
9.4620820104
 20
5.6536419428
 11
9.6153410285
 21
5.7923919428
  0
LINE
  5
270
100
AcDbEntity
  8
0
100
AcDbLine
 62
7
  6
CONTINUOUS
 10
12.4786335574
 20
5.134891804
 11
12.4786335574
 21
12.884891804
  0
LINE
  5
271
100
AcDbEntity
  8
0
100
AcDbLine
 62
7
  6
CONTINUOUS
 10
9.6389138986
 20
5.9996194347
 11
9.6665427719
 21
6.0196194347
  0
LINE
  5
272
100
AcDbEntity
  8
0
100
AcDbLine
 62
7
  6
CONTINUOUS
 10
9.6596692708
 20
5.979691804
 11
9.6872856857
 21
5.9996194347
  0
LINE
  5
273
100
AcDbEntity
  8
0
100
AcDbLine
 62
9
  6
CONTINUOUS
 10
9.4620820104
 20
5.6536419428
 11
9.8320820104
 21
5.7923919428
  0
LINE
  5
274
100
AcDbEntity
  8
0
100
AcDbLine
 62
7
  6
CONTINUOUS
 10
9.4651672606
 20
5.6536419428
 11
9.8351672606
 21
5.7923919428
  0
ARC
  5
275
100
AcDbEntity
  8
0
100
AcDbCircle
 62
7
  6
CONTINUOUS
 10
10.5603429775
 20
9.009891804
 40
1.5
100
AcDbArc
 50
160.9334198993
 51
199.0665801007
  0
ARC
  5
276
100
AcDbEntity
  8
0
100
AcDbCircle
 62
7
  6
CONTINUOUS
 10
12.2306346996
 20
12.2030279345
 40
0.2500109774
100
AcDbArc
 50
120.2644101313
 51
180.0
  0
ARC
  5
277
100
AcDbEntity
  8
0
100
AcDbCircle
 62
7
  6
CONTINUOUS
 10
12.2306346996
 20
5.8167556736
 40
0.2500109774
100
AcDbArc
 50
180.0
 51
239.7355898687
  0
ARC
  5
278
100
AcDbEntity
  8
0
100
AcDbCircle
 62
7
  6
CONTINUOUS
 10
11.9746335574
 20
11.7634699897
 40
0.25
100
AcDbArc
 50
119.2092119338
 51
180.0
  0
ARC
  5
279
100
AcDbEntity
  8
0
100
AcDbCircle
 62
7
  6
CONTINUOUS
 10
11.7306335574
 20
12.199891804
 40
0.25
100
AcDbArc
 50
299.2092119338
 51
359.8335160759
  0
ARC
  5
27A
100
AcDbEntity
  8
0
100
AcDbCircle
 62
7
  6
CONTINUOUS
 10
11.9786335574
 20
12.634891804
 40
0.25
100
AcDbArc
 50
300.2644101313
 51
360.0
  0
ARC
  5
27B
100
AcDbEntity
  8
0
100
AcDbCircle
 62
7
  6
CONTINUOUS
 10
12.4786335574
 20
12.634891804
 40
0.25
100
AcDbArc
 50
90.0
 51
180.0
  0
ARC
  5
27C
100
AcDbEntity
  8
0
100
AcDbCircle
 62
7
  6
CONTINUOUS
 10
11.9746335574
 20
6.2563136183
 40
0.25
100
AcDbArc
 50
180.0
 51
240.7907880662
  0
ARC
  5
27D
100
AcDbEntity
  8
0
100
AcDbCircle
 62
7
  6
CONTINUOUS
 10
11.7306335574
 20
5.819891804
 40
0.25
100
AcDbArc
 50
0.1664839241
 51
60.7907880662
  0
ARC
  5
27E
100
AcDbEntity
  8
0
100
AcDbCircle
 62
7
  6
CONTINUOUS
 10
11.9786335574
 20
5.384891804
 40
0.25
100
AcDbArc
 50
0.0
 51
59.7355898687
  0
ARC
  5
27F
100
AcDbEntity
  8
0
100
AcDbCircle
 62
7
  6
CONTINUOUS
 10
12.4786335574
 20
5.384891804
 40
0.25
100
AcDbArc
 50
180.0
 51
270.0
  0
ARC
  5
280
100
AcDbEntity
  8
0
100
AcDbCircle
 62
7
  6
CONTINUOUS
 10
11.7246335574
 20
6.559891804
 40
0.095
100
AcDbArc
 50
180.0
 51
270.0
  0
ARC
  5
281
100
AcDbEntity
  8
0
100
AcDbCircle
 62
7
  6
CONTINUOUS
 10
11.7246335574
 20
7.119891804
 40
0.095
100
AcDbArc
 50
90.0
 51
180.0
  0
ARC
  5
282
100
AcDbEntity
  8
0
100
AcDbCircle
 62
7
  6
CONTINUOUS
 10
9.6871335574
 20
8.491891804
 40
0.05
100
AcDbArc
 50
180.0
 51
270.0
  0
ARC
  5
283
100
AcDbEntity
  8
0
100
AcDbCircle
 62
7
  6
CONTINUOUS
 10
9.2221335574
 20
8.491891804
 40
0.05
100
AcDbArc
 50
270.0
 51
360.0
  0
ARC
  5
284
100
AcDbEntity
  8
0
100
AcDbCircle
 62
7
  6
CONTINUOUS
 10
9.1746335574
 20
8.391891804
 40
0.05
100
AcDbArc
 50
90.0
 51
270.0
  0
ARC
  5
285
100
AcDbEntity
  8
0
100
AcDbCircle
 62
7
  6
CONTINUOUS
 10
9.7346335574
 20
8.391891804
 40
0.05
100
AcDbArc
 50
270.0
 51
90.0
  0
ARC
  5
286
100
AcDbEntity
  8
0
100
AcDbCircle
 62
7
  6
CONTINUOUS
 10
10.4496335574
 20
7.258891804
 40
0.031
100
AcDbArc
 50
44.7546926505
 51
90.0
  0
ARC
  5
287
100
AcDbEntity
  8
0
100
AcDbCircle
 62
7
  6
CONTINUOUS
 10
10.3596335574
 20
7.258891804
 40
0.031
100
AcDbArc
 50
90.0
 51
103.0407610339
  0
ARC
  5
288
100
AcDbEntity
  8
0
100
AcDbCircle
 62
7
  6
CONTINUOUS
 10
10.4496335574
 20
6.420891804
 40
0.031
100
AcDbArc
 50
270.0
 51
315.2453073495
  0
ARC
  5
289
100
AcDbEntity
  8
0
100
AcDbCircle
 62
7
  6
CONTINUOUS
 10
10.3596335574
 20
6.420891804
 40
0.031
100
AcDbArc
 50
256.9592389661
 51
270.0
  0
ARC
  5
28A
100
AcDbEntity
  8
0
100
AcDbCircle
 62
7
  6
CONTINUOUS
 10
10.2236335574
 20
7.227391804
 40
0.031
100
AcDbArc
 50
103.0407610339
 51
180.0
  0
ARC
  5
28B
100
AcDbEntity
  8
0
100
AcDbCircle
 62
7
  6
CONTINUOUS
 10
10.2236335574
 20
6.452391804
 40
0.031
100
AcDbArc
 50
180.0
 51
256.9592389661
  0
ARC
  5
28C
100
AcDbEntity
  8
0
100
AcDbCircle
 62
7
  6
CONTINUOUS
 10
9.4546335585
 20
5.6817318243
 40
0.0300000054
100
AcDbArc
 50
249.444333103
 51
290.5560391203
  0
ARC
  5
28D
100
AcDbEntity
  8
0
100
AcDbCircle
 62
7
  6
CONTINUOUS
 10
8.9946335574
 20
5.909691804
 40
0.03
100
AcDbArc
 50
180.0
 51
270.0
  0
ARC
  5
28E
100
AcDbEntity
  8
0
100
AcDbCircle
 62
7
  6
CONTINUOUS
 10
9.9146335574
 20
5.909691804
 40
0.03
100
AcDbArc
 50
270.0
 51
360.0
  0
ARC
  5
28F
100
AcDbEntity
  8
0
100
AcDbCircle
 62
7
  6
CONTINUOUS
 10
9.0846335574
 20
5.8204818181
 40
0.03
100
AcDbArc
 50
180.0
 51
249.4439547804
  0
ARC
  5
290
100
AcDbEntity
  8
0
100
AcDbCircle
 62
7
  6
CONTINUOUS
 10
9.8246335574
 20
5.8204818181
 40
0.03
100
AcDbArc
 50
290.5560452196
 51
359.9999999717
  0
ARC
  5
291
100
AcDbEntity
  8
0
100
AcDbCircle
 62
7
  6
CONTINUOUS
 10
11.2766335574
 20
7.063891804
 40
0.012
100
AcDbArc
 50
90.0
 51
180.0
  0
ARC
  5
292
100
AcDbEntity
  8
0
100
AcDbCircle
 62
7
  6
CONTINUOUS
 10
11.2766335574
 20
6.615891804
 40
0.012
100
AcDbArc
 50
180.0
 51
270.0
  0
SPLINE
  5
293
100
AcDbEntity
  8
0
100
AcDbSpline
 62
7
  6
CONTINUOUS
 70
0
 71
3
 72
29
 73
25
 74
0
 42
0.0000001
 43
0.0000001
 44
0.0000000001
 40
0.0
 40
0.0
 40
0.0
 40
0.0
 40
0.0401842761
 40
0.0879213331
 40
0.1508866843
 40
0.1872398818
 40
0.2263915416
 40
0.2680044351
 40
0.311731143
 40
0.3572045056
 40
0.4040294339
 40
0.4517793705
 40
0.5
 40
0.5482206295
 40
0.5959705661
 40
0.6427954944
 40
0.688268857
 40
0.7319955649
 40
0.7736084584
 40
0.8127601182
 40
0.8491133157
 40
0.9120786669
 40
0.9598157239
 40
1.0
 40
1.0
 40
1.0
 40
1.0
 10
9.2621335574
 20
8.519891804
 30
0.0
 10
9.2670621005
 20
8.5218279834
 30
0.0
 10
9.2778925259
 20
8.5259452725
 30
0.0
 10
9.2966551994
 20
8.5325314657
 30
0.0
 10
9.3151566936
 20
8.5383137131
 30
0.0
 10
9.33274851
 20
8.5431638515
 30
0.0
 10
9.3477335019
 20
8.5468636881
 30
0.0
 10
9.363773748
 20
8.550314233
 30
0.0
 10
9.3807404402
 20
8.5533771995
 30
0.0
 10
9.3984873733
 20
8.5559221116
 30
0.0
 10
9.4168474249
 20
8.5578336432
 30
0.0
 10
9.4356318029
 20
8.559020228
 30
0.0
 10
9.4546335574
 20
8.5594226064
 30
0.0
 10
9.4736353118
 20
8.559020228
 30
0.0
 10
9.4924196898
 20
8.5578336432
 30
0.0
 10
9.5107797414
 20
8.5559221116
 30
0.0
 10
9.5285266746
 20
8.5533771995
 30
0.0
 10
9.5454933667
 20
8.550314233
 30
0.0
 10
9.5615336129
 20
8.5468636881
 30
0.0
 10
9.5765186048
 20
8.5431638515
 30
0.0
 10
9.5941104211
 20
8.5383137131
 30
0.0
 10
9.6126119154
 20
8.5325314657
 30
0.0
 10
9.6313745888
 20
8.5259452725
 30
0.0
 10
9.6422050142
 20
8.5218279834
 30
0.0
 10
9.6471335574
 20
8.519891804
 30
0.0
  0
SPLINE
  5
294
100
AcDbEntity
  8
0
100
AcDbSpline
 62
7
  6
CONTINUOUS
 70
0
 71
3
 72
30
 73
26
 74
0
 42
0.0000001
 43
0.0000001
 44
0.0000000001
 40
0.0
 40
0.0
 40
0.0
 40
0.0
 40
0.031250804
 40
0.0625016092
 40
0.0937524205
 40
0.1250032356
 40
0.1562540554
 40
0.18750488
 40
0.2187557096
 40
0.2500065444
 40
0.3125046448
 40
0.3750028581
 40
0.437501188
 40
0.4999996367
 40
0.5624982055
 40
0.6249968942
 40
0.6562478027
 40
0.6874987168
 40
0.7187496364
 40
0.7500005612
 40
0.8124995968
 40
0.87499874
 40
0.9062496986
 40
0.9375006303
 40
1.0
 40
1.0
 40
1.0
 40
1.0
 10
10.5904417076
 20
9.6744334881
 30
0.0
 10
10.6003447463
 20
9.6766316603
 30
0.0
 10
10.6201022843
 20
9.6812500456
 30
0.0
 10
10.6495760077
 20
9.6888371808
 30
0.0
 10
10.6788739493
 20
9.6970775812
 30
0.0
 10
10.707982305
 20
9.7059642778
 30
0.0
 10
10.7368878758
 20
9.7154899186
 30
0.0
 10
10.7655777012
 20
9.7256466911
 30
0.0
 10
10.7940394178
 20
9.7364264958
 30
0.0
 10
10.8316661502
 20
9.7516180544
 30
0.0
 10
10.8780729632
 20
9.7721231013
 30
0.0
 10
10.9326603152
 20
9.7990758329
 30
0.0
 10
10.9860675531
 20
9.8282977029
 30
0.0
 10
11.0382181807
 20
9.8597065009
 30
0.0
 10
11.0890425526
 20
9.8932174403
 30
0.0
 10
11.1302403797
 20
9.9228246355
 30
0.0
 10
11.162473642
 20
9.9474732266
 30
0.0
 10
11.1862817271
 20
9.9664317041
 30
0.0
 10
11.2097157624
 20
9.9858505534
 30
0.0
 10
11.2404536522
 20
10.0123406715
 30
0.0
 10
11.2779148154
 20
10.0465515536
 30
0.0
 10
11.3140575272
 20
10.0821516063
 30
0.0
 10
11.3421619313
 20
10.1114208614
 30
0.0
 10
11.3697219838
 20
10.1412027353
 30
0.0
 10
11.3897765818
 20
10.1641030912
 30
0.0
 10
11.4028654306
 20
10.1796034494
 30
0.0
  0
SPLINE
  5
295
100
AcDbEntity
  8
0
100
AcDbSpline
 62
7
  6
CONTINUOUS
 70
0
 71
3
 72
30
 73
26
 74
0
 42
0.0000001
 43
0.0000001
 44
0.0000000001
 40
0.0
 40
0.0
 40
0.0
 40
0.0
 40
0.031250804
 40
0.0625016092
 40
0.0937524205
 40
0.1250032356
 40
0.1562540554
 40
0.18750488
 40
0.2187557096
 40
0.2500065444
 40
0.3125046448
 40
0.3750028581
 40
0.437501188
 40
0.4999996367
 40
0.5624982055
 40
0.6249968942
 40
0.6562478027
 40
0.6874987168
 40
0.7187496364
 40
0.7500005612
 40
0.8124995968
 40
0.87499874
 40
0.9062496986
 40
0.9375006303
 40
1.0
 40
1.0
 40
1.0
 40
1.0
 10
10.5904417076
 20
8.34535012
 30
0.0
 10
10.6003447463
 20
8.3431519478
 30
0.0
 10
10.6201022843
 20
8.3385335625
 30
0.0
 10
10.6495760077
 20
8.3309464273
 30
0.0
 10
10.6788739493
 20
8.3227060269
 30
0.0
 10
10.707982305
 20
8.3138193303
 30
0.0
 10
10.7368878758
 20
8.3042936895
 30
0.0
 10
10.7655777012
 20
8.294136917
 30
0.0
 10
10.7940394178
 20
8.2833571122
 30
0.0
 10
10.8316661502
 20
8.2681655537
 30
0.0
 10
10.8780729632
 20
8.2476605068
 30
0.0
 10
10.9326603152
 20
8.2207077752
 30
0.0
 10
10.9860675531
 20
8.1914859052
 30
0.0
 10
11.0382181807
 20
8.1600771072
 30
0.0
 10
11.0890425526
 20
8.1265661678
 30
0.0
 10
11.1302403797
 20
8.0969589726
 30
0.0
 10
11.162473642
 20
8.0723103815
 30
0.0
 10
11.1862817271
 20
8.053351904
 30
0.0
 10
11.2097157624
 20
8.0339330547
 30
0.0
 10
11.2404536522
 20
8.0074429365
 30
0.0
 10
11.2779148154
 20
7.9732320545
 30
0.0
 10
11.3140575272
 20
7.9376320018
 30
0.0
 10
11.3421619313
 20
7.9083627467
 30
0.0
 10
11.3697219838
 20
7.8785808728
 30
0.0
 10
11.3897765818
 20
7.8556805169
 30
0.0
 10
11.4028654306
 20
7.8401801587
 30
0.0
  0
SPLINE
  5
296
100
AcDbEntity
  8
0
100
AcDbSpline
 62
9
  6
CONTINUOUS
 70
0
 71
3
 72
11
 73
7
 74
0
 42
0.0000001
 43
0.0000001
 44
0.0000000001
 40
0.0
 40
0.0
 40
0.0
 40
0.0
 40
0.2534292289
 40
0.5045432774
 40
0.7533750468
 40
1.0
 40
1.0
 40
1.0
 40
1.0
 10
9.6078925755
 20
5.7923919428
 30
0.0
 10
9.6085178944
 20
5.7923067869
 30
0.0
 10
9.6097688441
 20
5.7921783841
 30
0.0
 10
9.6116451901
 20
5.7921134177
 30
0.0
 10
9.6135046499
 20
5.7921772122
 30
0.0
 10
9.614732921
 20
5.7923060284
 30
0.0
 10
9.6153410285
 20
5.7923919428
 30
0.0
  0
SPLINE
  5
297
100
AcDbEntity
  8
0
100
AcDbSpline
 62
9
  6
CONTINUOUS
 70
0
 71
3
 72
20
 73
16
 74
0
 42
0.0000001
 43
0.0000001
 44
0.0000000001
 40
0.0
 40
0.0
 40
0.0
 40
0.0
 40
0.052604646
 40
0.1065153688
 40
0.1618482015
 40
0.2186782074
 40
0.3368591314
 40
0.3982567169
 40
0.4610897252
 40
0.5252661254
 40
0.5906696474
 40
0.7245361224
 40
0.7927298352
 40
0.8615076481
 40
1.0
 40
1.0
 40
1.0
 40
1.0
 10
9.6153410285
 20
5.7923919428
 30
0.0
 10
9.6158482117
 20
5.7926609173
 30
0.0
 10
9.6168494441
 20
5.7932554535
 30
0.0
 10
9.6182816363
 20
5.7942929109
 30
0.0
 10
9.6196538119
 20
5.7954804249
 30
0.0
 10
9.6214150985
 20
5.7972771807
 30
0.0
 10
9.6229988196
 20
5.7993281648
 30
0.0
 10
9.6243911957
 20
5.8015791494
 30
0.0
 10
9.6253546094
 20
5.8033974396
 30
0.0
 10
9.626217868
 20
5.805313185
 30
0.0
 10
9.6272366359
 20
5.8080032232
 30
0.0
 10
9.6280249124
 20
5.8108216708
 30
0.0
 10
9.6285816319
 20
5.8137256933
 30
0.0
 10
9.6289849878
 20
5.8167058859
 30
0.0
 10
9.6291057789
 20
5.8189704037
 30
0.0
 10
9.6291057789
 20
5.8204818181
 30
0.0
  0
SPLINE
  5
298
100
AcDbEntity
  8
0
100
AcDbSpline
 62
9
  6
CONTINUOUS
 70
0
 71
3
 72
13
 73
9
 74
0
 42
0.0000001
 43
0.0000001
 44
0.0000000001
 40
0.0
 40
0.0
 40
0.0
 40
0.0
 40
0.1165092971
 40
0.2338987403
 40
0.3530079217
 40
0.474648568
 40
0.7282414447
 40
1.0
 40
1.0
 40
1.0
 40
1.0
 10
9.4440998541
 20
5.6536419428
 30
0.0
 10
9.4442140332
 20
5.6535991256
 30
0.0
 10
9.4444474188
 20
5.6535238423
 30
0.0
 10
9.4448085242
 20
5.6534433678
 30
0.0
 10
9.4451807837
 20
5.653395245
 30
0.0
 10
9.4456983172
 20
5.6533739401
 30
0.0
 10
9.4463760178
 20
5.6534321714
 30
0.0
 10
9.4469128474
 20
5.6535596111
 30
0.0
 10
9.4471851044
 20
5.6536419428
 30
0.0
  0
SPLINE
  5
299
100
AcDbEntity
  8
0
100
AcDbSpline
 62
9
  6
CONTINUOUS
 70
0
 71
3
 72
11
 73
7
 74
0
 42
0.0000001
 43
0.0000001
 44
0.0000000001
 40
0.0
 40
0.0
 40
0.0
 40
0.0
 40
0.2466249517
 40
0.4954567103
 40
0.7465707618
 40
1.0
 40
1.0
 40
1.0
 40
1.0
 10
9.4471851044
 20
5.6536419428
 30
0.0
 10
9.4477932119
 20
5.6535560284
 30
0.0
 10
9.4490214829
 20
5.6534272122
 30
0.0
 10
9.4508809427
 20
5.6533634177
 30
0.0
 10
9.4527572887
 20
5.6534283841
 30
0.0
 10
9.4540082384
 20
5.6535567869
 30
0.0
 10
9.4546335574
 20
5.6536419428
 30
0.0
  0
SPLINE
  5
29A
100
AcDbEntity
  8
0
100
AcDbSpline
 62
9
  6
CONTINUOUS
 70
0
 71
3
 72
13
 73
9
 74
0
 42
0.0000001
 43
0.0000001
 44
0.0000000001
 40
0.0
 40
0.0
 40
0.0
 40
0.0
 40
0.2717585557
 40
0.5253514323
 40
0.6469920785
 40
0.7661012597
 40
0.8834907029
 40
1.0
 40
1.0
 40
1.0
 40
1.0
 10
9.4620820104
 20
5.6536419428
 30
0.0
 10
9.4623542673
 20
5.6535596111
 30
0.0
 10
9.462891097
 20
5.6534321714
 30
0.0
 10
9.4635687976
 20
5.6533739401
 30
0.0
 10
9.464086331
 20
5.653395245
 30
0.0
 10
9.4644585905
 20
5.6534433678
 30
0.0
 10
9.464819696
 20
5.6535238423
 30
0.0
 10
9.4650530816
 20
5.6535991256
 30
0.0
 10
9.4651672606
 20
5.6536419428
 30
0.0
  0
SPLINE
  5
29B
100
AcDbEntity
  8
0
100
AcDbSpline
 62
9
  6
CONTINUOUS
 70
0
 71
3
 72
11
 73
7
 74
0
 42
0.0000001
 43
0.0000001
 44
0.0000000001
 40
0.0
 40
0.0
 40
0.0
 40
0.0
 40
0.2534292383
 40
0.50454329
 40
0.7533750486
 40
1.0
 40
1.0
 40
1.0
 40
1.0
 10
9.4546335574
 20
5.6536419428
 30
0.0
 10
9.4552588764
 20
5.6535567869
 30
0.0
 10
9.4565098261
 20
5.6534283841
 30
0.0
 10
9.458386172
 20
5.6533634177
 30
0.0
 10
9.4602456318
 20
5.6534272122
 30
0.0
 10
9.4614739029
 20
5.6535560284
 30
0.0
 10
9.4620820104
 20
5.6536419428
 30
0.0
  0
SPLINE
  5
29C
100
AcDbEntity
  8
0
100
AcDbSpline
 62
9
  6
CONTINUOUS
 70
0
 71
3
 72
13
 73
9
 74
0
 42
0.0000001
 43
0.0000001
 44
0.0000000001
 40
0.0
 40
0.0
 40
0.0
 40
0.0
 40
0.1165092971
 40
0.2338987403
 40
0.3530079215
 40
0.4746485677
 40
0.7282414443
 40
1.0
 40
1.0
 40
1.0
 40
1.0
 10
9.0740998541
 20
5.7923919428
 30
0.0
 10
9.0742140332
 20
5.7923491256
 30
0.0
 10
9.0744474188
 20
5.7922738423
 30
0.0
 10
9.0748085242
 20
5.7921933678
 30
0.0
 10
9.0751807837
 20
5.792145245
 30
0.0
 10
9.0756983172
 20
5.7921239401
 30
0.0
 10
9.0763760178
 20
5.7921821714
 30
0.0
 10
9.0769128474
 20
5.7923096111
 30
0.0
 10
9.0771851044
 20
5.7923919428
 30
0.0
  0
SPLINE
  5
29D
100
AcDbEntity
  8
0
100
AcDbSpline
 62
9
  6
CONTINUOUS
 70
0
 71
3
 72
20
 73
16
 74
0
 42
0.0000001
 43
0.0000001
 44
0.0000000001
 40
0.0
 40
0.0
 40
0.0
 40
0.0
 40
0.0526046458
 40
0.1065153687
 40
0.1618482012
 40
0.2186782072
 40
0.3368591315
 40
0.398256717
 40
0.4610897254
 40
0.5252661258
 40
0.5906696479
 40
0.7245361232
 40
0.7927298361
 40
0.8615076492
 40
1.0
 40
1.0
 40
1.0
 40
1.0
 10
9.0771851044
 20
5.7923919428
 30
0.0
 10
9.0766779211
 20
5.7926609173
 30
0.0
 10
9.0756766887
 20
5.7932554535
 30
0.0
 10
9.0742444965
 20
5.7942929109
 30
0.0
 10
9.0728723209
 20
5.7954804249
 30
0.0
 10
9.0711110343
 20
5.7972771807
 30
0.0
 10
9.0695273132
 20
5.7993281647
 30
0.0
 10
9.0681349372
 20
5.8015791494
 30
0.0
 10
9.0671715234
 20
5.8033974396
 30
0.0
 10
9.0663082648
 20
5.805313185
 30
0.0
 10
9.0652894969
 20
5.8080032232
 30
0.0
 10
9.0645012205
 20
5.8108216709
 30
0.0
 10
9.0639445009
 20
5.8137256933
 30
0.0
 10
9.063541145
 20
5.8167058859
 30
0.0
 10
9.0634203539
 20
5.8189704037
 30
0.0
 10
9.0634203539
 20
5.8204818181
 30
0.0
  0
SPLINE
  5
29E
100
AcDbEntity
  8
0
100
AcDbSpline
 62
9
  6
CONTINUOUS
 70
0
 71
3
 72
20
 73
16
 74
0
 42
0.0000001
 43
0.0000001
 44
0.0000000001
 40
0.0
 40
0.0
 40
0.0
 40
0.0
 40
0.0526046458
 40
0.1065153687
 40
0.1618482012
 40
0.2186782072
 40
0.3368591315
 40
0.398256717
 40
0.4610897254
 40
0.5252661258
 40
0.5906696479
 40
0.7245361232
 40
0.7927298361
 40
0.8615076492
 40
1.0
 40
1.0
 40
1.0
 40
1.0
 10
9.2939260863
 20
5.7923919428
 30
0.0
 10
9.293418903
 20
5.7926609173
 30
0.0
 10
9.2924176706
 20
5.7932554535
 30
0.0
 10
9.2909854784
 20
5.7942929109
 30
0.0
 10
9.2896133029
 20
5.7954804249
 30
0.0
 10
9.2878520162
 20
5.7972771807
 30
0.0
 10
9.2862682951
 20
5.7993281648
 30
0.0
 10
9.2848759191
 20
5.8015791494
 30
0.0
 10
9.2839125053
 20
5.8033974397
 30
0.0
 10
9.2830492467
 20
5.805313185
 30
0.0
 10
9.2820304789
 20
5.8080032232
 30
0.0
 10
9.2812422024
 20
5.8108216709
 30
0.0
 10
9.2806854828
 20
5.8137256933
 30
0.0
 10
9.2802821269
 20
5.8167058859
 30
0.0
 10
9.2801613359
 20
5.8189704038
 30
0.0
 10
9.2801613359
 20
5.8204818181
 30
0.0
  0
SPLINE
  5
29F
100
AcDbEntity
  8
0
100
AcDbSpline
 62
9
  6
CONTINUOUS
 70
0
 71
3
 72
11
 73
7
 74
0
 42
0.0000001
 43
0.0000001
 44
0.0000000001
 40
0.0
 40
0.0
 40
0.0
 40
0.0
 40
0.2466249517
 40
0.4954567103
 40
0.7465707618
 40
1.0
 40
1.0
 40
1.0
 40
1.0
 10
9.2939260863
 20
5.7923919428
 30
0.0
 10
9.2945341938
 20
5.7923060284
 30
0.0
 10
9.2957624648
 20
5.7921772122
 30
0.0
 10
9.2976219246
 20
5.7921134177
 30
0.0
 10
9.2994982706
 20
5.7921783841
 30
0.0
 10
9.3007492203
 20
5.7923067869
 30
0.0
 10
9.3013745393
 20
5.7923919428
 30
0.0
  0
SPLINE
  5
2A0
100
AcDbEntity
  8
0
100
AcDbSpline
 62
9
  6
CONTINUOUS
 70
0
 71
3
 72
20
 73
16
 74
0
 42
0.0000001
 43
0.0000001
 44
0.0000000001
 40
0.0
 40
0.0
 40
0.0
 40
0.0
 40
0.0526046458
 40
0.1065153687
 40
0.1618482012
 40
0.2186782072
 40
0.3368591315
 40
0.398256717
 40
0.4610897254
 40
0.5252661258
 40
0.5906696479
 40
0.7245361232
 40
0.7927298361
 40
0.8615076492
 40
1.0
 40
1.0
 40
1.0
 40
1.0
 10
9.8320820104
 20
5.7923919428
 30
0.0
 10
9.8325891936
 20
5.7926609173
 30
0.0
 10
9.833590426
 20
5.7932554535
 30
0.0
 10
9.8350226182
 20
5.7942929109
 30
0.0
 10
9.8363947938
 20
5.7954804249
 30
0.0
 10
9.8381560805
 20
5.7972771807
 30
0.0
 10
9.8397398016
 20
5.7993281648
 30
0.0
 10
9.8411321776
 20
5.8015791494
 30
0.0
 10
9.8420955913
 20
5.8033974397
 30
0.0
 10
9.84295885
 20
5.805313185
 30
0.0
 10
9.8439776178
 20
5.8080032232
 30
0.0
 10
9.8447658943
 20
5.8108216709
 30
0.0
 10
9.8453226138
 20
5.8137256933
 30
0.0
 10
9.8457259697
 20
5.8167058859
 30
0.0
 10
9.8458467608
 20
5.8189704038
 30
0.0
 10
9.8458467608
 20
5.8204818181
 30
0.0
  0
SPLINE
  5
2A1
100
AcDbEntity
  8
0
100
AcDbSpline
 62
9
  6
CONTINUOUS
 70
0
 71
3
 72
13
 73
9
 74
0
 42
0.0000001
 43
0.0000001
 44
0.0000000001
 40
0.0
 40
0.0
 40
0.0
 40
0.0
 40
0.2717585557
 40
0.5253514323
 40
0.6469920785
 40
0.7661012597
 40
0.8834907029
 40
1.0
 40
1.0
 40
1.0
 40
1.0
 10
9.8320820104
 20
5.7923919428
 30
0.0
 10
9.8323542673
 20
5.7923096111
 30
0.0
 10
9.832891097
 20
5.7921821714
 30
0.0
 10
9.8335687976
 20
5.7921239401
 30
0.0
 10
9.834086331
 20
5.792145245
 30
0.0
 10
9.8344585905
 20
5.7921933678
 30
0.0
 10
9.834819696
 20
5.7922738423
 30
0.0
 10
9.8350530816
 20
5.7923491256
 30
0.0
 10
9.8351672606
 20
5.7923919428
 30
0.0
  0
SPLINE
  5
2A2
100
AcDbEntity
  8
0
100
AcDbSpline
 62
7
  6
CONTINUOUS
 70
0
 71
3
 72
23
 73
19
 74
0
 42
0.0000001
 43
0.0000001
 44
0.0000000001
 40
0.0
 40
0.0
 40
0.0
 40
0.0
 40
0.0694889288
 40
0.1383679862
 40
0.2065464319
 40
0.2739395763
 40
0.3404692494
 40
0.4060641476
 40
0.4706600606
 40
0.5341999905
 40
0.5966341743
 40
0.6579200267
 40
0.7180220164
 40
0.7769114927
 40
0.8345664785
 40
0.890971443
 40
0.9461170547
 40
1.0
 40
1.0
 40
1.0
 40
1.0
 10
10.5904417076
 20
9.342162646
 30
0.0
 10
10.6101701623
 20
9.3443522033
 30
0.0
 10
10.6494050905
 20
9.3491665021
 30
0.0
 10
10.7077870168
 20
9.3577214086
 30
0.0
 10
10.765360709
 20
9.3675530361
 30
0.0
 10
10.8220242376
 20
9.378629573
 30
0.0
 10
10.8776822953
 20
9.3909163532
 30
0.0
 10
10.9322458208
 20
9.4043762184
 30
0.0
 10
10.9856323314
 20
9.4189699704
 30
0.0
 10
11.0377659222
 20
9.4346567862
 30
0.0
 10
11.0885772209
 20
9.4513946188
 30
0.0
 10
11.1380032399
 20
9.4691405689
 30
0.0
 10
11.1859871523
 20
9.4878512207
 30
0.0
 10
11.232478033
 20
9.507482957
 30
0.0
 10
11.2774304654
 20
9.5279921838
 30
0.0
 10
11.3208044394
 20
9.5493357082
 30
0.0
 10
11.3625640726
 20
9.5714703953
 30
0.0
 10
11.3896213238
 20
9.5869055161
 30
0.0
 10
11.4028654306
 20
9.5947476267
 30
0.0
  0
SPLINE
  5
2A3
100
AcDbEntity
  8
0
100
AcDbSpline
 62
7
  6
CONTINUOUS
 70
0
 71
3
 72
23
 73
19
 74
0
 42
0.0000001
 43
0.0000001
 44
0.0000000001
 40
0.0
 40
0.0
 40
0.0
 40
0.0
 40
0.0694889288
 40
0.1383679862
 40
0.2065464319
 40
0.2739395763
 40
0.3404692494
 40
0.4060641476
 40
0.4706600606
 40
0.5341999905
 40
0.5966341743
 40
0.6579200267
 40
0.7180220164
 40
0.7769114927
 40
0.8345664785
 40
0.890971443
 40
0.9461170547
 40
1.0
 40
1.0
 40
1.0
 40
1.0
 10
10.5904417076
 20
8.677620962
 30
0.0
 10
10.6101701623
 20
8.6754314048
 30
0.0
 10
10.6494050905
 20
8.670617106
 30
0.0
 10
10.7077870168
 20
8.6620621995
 30
0.0
 10
10.765360709
 20
8.652230572
 30
0.0
 10
10.8220242376
 20
8.6411540351
 30
0.0
 10
10.8776822953
 20
8.6288672549
 30
0.0
 10
10.9322458208
 20
8.6154073897
 30
0.0
 10
10.9856323314
 20
8.6008136377
 30
0.0
 10
11.0377659222
 20
8.5851268219
 30
0.0
 10
11.0885772209
 20
8.5683889893
 30
0.0
 10
11.1380032399
 20
8.5506430392
 30
0.0
 10
11.1859871523
 20
8.5319323874
 30
0.0
 10
11.232478033
 20
8.5123006511
 30
0.0
 10
11.2774304654
 20
8.4917914242
 30
0.0
 10
11.3208044394
 20
8.4704478999
 30
0.0
 10
11.3625640726
 20
8.4483132128
 30
0.0
 10
11.3896213238
 20
8.432878092
 30
0.0
 10
11.4028654306
 20
8.4250359814
 30
0.0
  0
ELLIPSE
  5
2A4
100
AcDbEntity
  8
0
100
AcDbEllipse
 62
7
  6
CONTINUOUS
 10
10.415134787
 20
9.009891804
 30
0.0
 11
1.1162095399
 21
1.1492470711
 31
0.0
 40
0.2678505055
 41
-0.7926884546
 42
0.2545090966
  0
ELLIPSE
  5
2A5
100
AcDbEntity
  8
0
100
AcDbEllipse
 62
7
  6
CONTINUOUS
 10
10.415134787
 20
9.009891804
 30
0.0
 11
1.1162095399
 21
-1.1492470711
 31
0.0
 40
0.2678505055
 41
-0.2545090966
 42
0.7926884546
  0
ELLIPSE
  5
2A6
100
AcDbEntity
  8
0
100
AcDbEllipse
 62
7
  6
CONTINUOUS
 10
10.415134787
 20
9.009891804
 30
0.0
 11
0.0
 21
1.1875
 31
0.0
 40
0.9750549296
 41
-2.0943951024
 42
-1.0471975512
  0
ENDSEC
  0
SECTION
  2
OBJECTS
  0
DICTIONARY
  5
C
100
AcDbDictionary
280
0
281
1
  3
ACAD_GROUP
350
D
  3
ACAD_MLINESTYLE
350
17
  3
ACAD_LAYOUT
350
1A
  3
ACAD_PLOTSETTINGS
350
19
  3
ACAD_PLOTSTYLENAME
350
E
  0
DICTIONARY
  5
D
102
{ACAD_REACTORS
330
C
102
}
100
AcDbDictionary
280
0
281
1
  0
ACDBDICTIONARYWDFLT
  5
E
102
{ACAD_REACTORS
330
C
102
}
100
AcDbDictionary
281
1
  3
Normal
350
F
100
AcDbDictionaryWithDefault
340
F
  0
DICTIONARY
  5
17
102
{ACAD_REACTORS
330
C
102
}
100
AcDbDictionary
280
0
281
1
  3
Standard
350
18
  0
DICTIONARY
  5
19
102
{ACAD_REACTORS
330
C
102
}
100
AcDbDictionary
281
1
  0
DICTIONARY
  5
1A
102
{ACAD_REACTORS
330
C
102
}
100
AcDbDictionary
281
1
  3
Model
350
2A7
  3
Layout1
350
2A8
  0
ACDBPLACEHOLDER
  5
F
102
{ACAD_REACTORS
330
E
102
}
  0
MLINESTYLE
  5
18
102
{ACAD_REACTORS
330
17
102
}
100
AcDbMlineStyle
  2
STANDARD
 70
0
  3

 62
256
 51
90.0
 52
90.0
 71
2
 49
0.5
 62
256
  6
BYLAYER
 49
-0.5
 62
256
  6
BYLAYER
  0
LAYOUT
  5
2A7
102
{ACAD_REACTORS
330
1A
102
}
100
AcDbPlotSettings
  1

  2
none_device
  4
ANSI_C_(22.00_x_17.00_Inches)
  6

 40
0.0
 41
0.0
 42
0.0
 43
0.0
 44
558.8
 45
431.8
 46
0.0
 47
0.0
 48
0.0
 49
0.0
140
0.0
141
0.0
142
1.0
143
1.0
 70
1024
 72
0
 73
0
 74
0
  7

 75
0
147
1.0
148
0.0
149
0.0
100
AcDbLayout
  1
Model
 70
0
 71
0
 10
0.0
 20
0.0
 11
22.0
 21
17.0
 12
0.0
 22
0.0
 32
0.0
 14
0.0
 24
0.0
 34
0.0
 15
0.0
 25
0.0
 35
0.0
146
0.0
 13
0.0
 23
0.0
 33
0.0
 16
1.0
 26
0.0
 36
0.0
 17
0.0
 27
1.0
 37
0.0
 76
0
330
205
345
0
346
0
  0
LAYOUT
  5
2A8
102
{ACAD_REACTORS
330
1A
102
}
100
AcDbPlotSettings
  1

  2
none_device
  4
ANSI_C_(22.00_x_17.00_Inches)
  6

 40
0.0
 41
0.0
 42
0.0
 43
0.0
 44
558.8
 45
431.8
 46
0.0
 47
0.0
 48
0.0
 49
0.0
140
0.0
141
0.0
142
1.0
143
1.0
 70
0
 72
0
 73
0
 74
0
  7

 75
0
147
1.0
148
0.0
149
0.0
100
AcDbLayout
  1
Layout1
 70
0
 71
1
 10
0.0
 20
0.0
 11
22.0
 21
17.0
 12
0.0
 22
0.0
 32
0.0
 14
0.0
 24
0.0
 34
0.0
 15
0.0
 25
0.0
 35
0.0
146
0.0
 13
0.0
 23
0.0
 33
0.0
 16
1.0
 26
0.0
 36
0.0
 17
0.0
 27
1.0
 37
0.0
 76
0
330
206
345
0
346
0
  0
ENDSEC
  0
EOF
