999
DXF file: E:\BT Custom\CADOUTPUT\_FRONT.dxf
999
Pro/ENGINEER 2018400 by Parametric Technology Corporation
  0
SECTION
  2
HEADER
  9
$ACADVER
  1
AC1018
  9
$DWGCODEPAGE
  3
ANSI_1252
  9
$EXTMAX
 10
22.0
 20
17.0
 30
0.0
  9
$EXTMIN
 10
0.0
 20
0.0
 30
0.0
  9
$LIMMIN
 10
0.0
 20
0.0
  9
$LIMMAX
 10
22.0
 20
17.0
  9
$VIEWCTR
 10
11.0
 20
8.5
  9
$VIEWSIZE
 40
17.0
  9
$CLAYER
  8
0
  9
$LTSCALE
 40
1.21
  9
$CELTYPE
  6
BYLAYER
  9
$DIMSCALE
 40
1.0
  9
$DIMASZ
 40
0.1
  9
$DIMEXO
 40
0.0625
  9
$DIMDLI
 40
0.836
  9
$DIMEXE
 40
0.125
  9
$DIMCEN
 40
0.198
  9
$DIMLFAC
 40
1.0
  9
$DIMBLK
  1
_FILLED
  9
$DIMALT
 70
1
  9
$DIMALTD
 70
2
  9
$DIMALTTD
 70
2
  9
$DIMALTF
 40
25.4
  9
$DIMTXT
 40
0.08
  9
$DIMTOL
 70
1
  9
$DIMLIM
 70
0
  9
$DIMTFAC
 40
1.0
  9
$DIMTP
 40
0.001
  9
$DIMTM
 40
0.001
  9
$DIMGAP
 40
0.09
  9
$DIMDSEP
 70
46
  9
$AUNITS
 70
0
  9
$PDMODE
 70
3
  9
$PDSIZE
 40
0.06
  9
$HANDSEED
  5
4BE
  9
$TILEMODE
 70
1
  9
$MEASUREMENT
 70
0
  9
$INSUNITS
 70
1
  0
ENDSEC
  0
SECTION
  2
CLASSES
  0
CLASS
  1
ACDBDICTIONARYWDFLT
  2
AcDbDictionaryWithDefault
  3
AutoCAD 2000
 90
0
 91
1
280
0
281
0
  0
CLASS
  1
ACDBPLACEHOLDER
  2
AcDbPlaceHolder
  3
AutoCAD 2000
 90
0
 91
1
280
0
281
0
  0
CLASS
  1
LAYOUT
  2
AcDbLayout
  3
AutoCAD 2000
 90
0
 91
0
280
0
281
0
  0
ENDSEC
  0
SECTION
  2
TABLES
  0
TABLE
  2
VPORT
  5
8
100
AcDbSymbolTable
 70
2
  0
VPORT
  5
1F4
100
AcDbSymbolTableRecord
100
AcDbViewportTableRecord
  2
*ACTIVE
 70
0
 10
0.0
 20
0.0
 11
1.0
 21
1.0
 12
11.0
 22
8.5
 13
0.0
 23
0.0
 14
1.0
 24
1.0
 15
0.0
 25
0.0
 16
0.0
 26
0.0
 36
1.0
 17
0.0
 27
0.0
 37
0.0
 40
17.0
 41
1.2941176471
 42
50.0
 43
0.0
 44
0.0
 50
0.0
 51
0.0
 71
0
 72
100
 73
1
 74
1
 75
0
 76
0
 77
0
 78
0
  0
ENDTAB
  0
TABLE
  2
LTYPE
  5
5
100
AcDbSymbolTable
 70
6
  0
LTYPE
  5
14
100
AcDbSymbolTableRecord
100
AcDbLinetypeTableRecord
  2
BYBLOCK
 70
0
  3

 72
65
 73
0
 40
0.0
  0
LTYPE
  5
15
100
AcDbSymbolTableRecord
100
AcDbLinetypeTableRecord
  2
BYLAYER
 70
0
  3

 72
65
 73
0
 40
0.0
  0
LTYPE
  5
16
100
AcDbSymbolTableRecord
100
AcDbLinetypeTableRecord
  2
CONTINUOUS
 70
64
  3
Solid line
 72
65
 73
0
 40
0.0
  0
LTYPE
  5
1F5
100
AcDbSymbolTableRecord
100
AcDbLinetypeTableRecord
  2
CENTER
 70
64
  3
____ _ ____ _ ____ _ ____ _ ____ _ ____ _ ____
 72
65
 73
4
 40
0.6
 49
0.375
 74
0
 49
-0.075
 74
0
 49
0.075
 74
0
 49
-0.075
 74
0
  0
LTYPE
  5
1F6
100
AcDbSymbolTableRecord
100
AcDbLinetypeTableRecord
  2
HIDDEN
 70
64
  3
- - - - - - - - - - - - - - - - - - - -
 72
65
 73
2
 40
0.2
 49
0.1
 74
0
 49
-0.1
 74
0
  0
LTYPE
  5
1F7
100
AcDbSymbolTableRecord
100
AcDbLinetypeTableRecord
  2
PHANTOM
 70
64
  3
_____ _ _ _____ _ _ _____ _ _ _____
 72
65
 73
6
 40
0.8
 49
0.45
 74
0
 49
-0.05
 74
0
 49
0.1
 74
0
 49
-0.05
 74
0
 49
0.1
 74
0
 49
-0.05
 74
0
  0
LTYPE
  5
1F8
100
AcDbSymbolTableRecord
100
AcDbLinetypeTableRecord
  2
DOT
 70
64
  3
. . . . . . . . . . . . . . . . . . . .
 72
65
 73
2
 40
0.2
 49
0.1
 74
0
 49
-0.1
 74
0
  0
LTYPE
  5
1F9
100
AcDbSymbolTableRecord
100
AcDbLinetypeTableRecord
  2
DASHED
 70
64
  3
- - - - - - - - - - - - - - - - - - - -
 72
65
 73
2
 40
0.2
 49
0.1
 74
0
 49
-0.1
 74
0
  0
ENDTAB
  0
TABLE
  2
LAYER
  5
2
100
AcDbSymbolTable
 70
36
  0
LAYER
  5
10
100
AcDbSymbolTableRecord
100
AcDbLayerTableRecord
  2
0
 70
0
 62
7
  6
CONTINUOUS
370
-3
390
F
  0
LAYER
  5
1FA
100
AcDbSymbolTableRecord
100
AcDbLayerTableRecord
  2
DEFAULT_1
 70
0
 62
7
  6
CENTER
370
-3
390
F
  0
LAYER
  5
1FB
100
AcDbSymbolTableRecord
100
AcDbLayerTableRecord
  2
DEFAULT_2
 70
0
 62
8
  6
HIDDEN
370
-3
390
F
  0
LAYER
  5
1FC
100
AcDbSymbolTableRecord
100
AcDbLayerTableRecord
  2
DEFAULT_3
 70
0
 62
7
  6
PHANTOM
370
-3
390
F
  0
LAYER
  5
1FD
100
AcDbSymbolTableRecord
100
AcDbLayerTableRecord
  2
ALL_FEATURES
 70
0
 62
7
  6
CONTINUOUS
370
-3
390
F
  0
LAYER
  5
1FE
100
AcDbSymbolTableRecord
100
AcDbLayerTableRecord
  2
AXES_FEATURES
 70
0
 62
7
  6
CONTINUOUS
370
-3
390
F
  0
LAYER
  5
1FF
100
AcDbSymbolTableRecord
100
AcDbLayerTableRecord
  2
DEFAULT_COORDINATE_SYSTEM
 70
0
 62
7
  6
CONTINUOUS
370
-3
390
F
  0
LAYER
  5
200
100
AcDbSymbolTableRecord
100
AcDbLayerTableRecord
  2
DEFAULT_DATUM_AXES
 70
0
 62
7
  6
CONTINUOUS
370
-3
390
F
  0
LAYER
  5
201
100
AcDbSymbolTableRecord
100
AcDbLayerTableRecord
  2
DEFAULT_DATUM_PLANES
 70
0
 62
7
  6
CONTINUOUS
370
-3
390
F
  0
LAYER
  5
202
100
AcDbSymbolTableRecord
100
AcDbLayerTableRecord
  2
DIMENSIONS
 70
0
 62
7
  6
CONTINUOUS
370
-3
390
F
  0
ENDTAB
  0
TABLE
  2
STYLE
  5
3
100
AcDbSymbolTable
 70
1
  0
STYLE
  5
11
100
AcDbSymbolTableRecord
100
AcDbTextStyleTableRecord
  2
STANDARD
 70
0
 40
0.0
 41
0.8
 50
0.0
 71
0
 42
0.2
  3
txt
  4

  0
STYLE
  5
203
100
AcDbSymbolTableRecord
100
AcDbTextStyleTableRecord
  2
TEXTSTYLE_1
 70
0
 40
0.0
 41
0.8
 50
0.0
 71
0
 42
0.2
  3
gdt
  4

  0
ENDTAB
  0
TABLE
  2
VIEW
  5
6
100
AcDbSymbolTable
 70
0
  0
ENDTAB
  0
TABLE
  2
UCS
  5
7
100
AcDbSymbolTable
 70
0
  0
ENDTAB
  0
TABLE
  2
APPID
  5
9
100
AcDbSymbolTable
 70
1
  0
APPID
  5
204
100
AcDbSymbolTableRecord
100
AcDbRegAppTableRecord
  2
ACAD
 70
0
  0
ENDTAB
  0
TABLE
  2
BLOCK_RECORD
  5
1
100
AcDbSymbolTable
 70
0
  0
BLOCK_RECORD
  5
205
100
AcDbSymbolTableRecord
100
AcDbBlockTableRecord
  2
*Model_Space
  0
BLOCK_RECORD
  5
206
100
AcDbSymbolTableRecord
100
AcDbBlockTableRecord
  2
*Paper_Space
  0
BLOCK_RECORD
  5
207
100
AcDbSymbolTableRecord
100
AcDbBlockTableRecord
  2
_FILLED
  0
ENDTAB
  0
TABLE
  2
DIMSTYLE
  5
A
100
AcDbSymbolTable
 70
1
100
AcDbDimStyleTable
 71
0
  0
DIMSTYLE
105
208
100
AcDbSymbolTableRecord
100
AcDbDimStyleTableRecord
  2
STANDARD
 70
0
  3

  4

 40
1.0
 41
0.1
 42
0.0625
 43
0.38
 44
0.125
 45
0.0
 46
0.0
 47
0.001
 48
0.001
140
0.08
141
0.09
142
0.0
143
25.4
144
1.0
145
0.0
146
1.0
147
0.09
 71
1.0
 72
0.0
 73
1
 74
1
 75
0
 76
0
 77
0
 78
4
 79
1
170
1
171
2
172
0
173
0
174
0
175
0
176
0
177
0
178
0
270
2
179
3
271
3
272
3
273
2
274
2
275
0
280
0
281
0
282
0
283
1
284
4
285
0
286
0
287
3
288
0
340
11
278
46
341
207
342
207
343
207
344
207
  0
ENDTAB
  0
ENDSEC
  0
SECTION
  2
BLOCKS
  0
BLOCK
  5
20
100
AcDbEntity
  8
0
100
AcDbBlockBegin
  2
*Model_Space
 70
0
 10
0.0
 20
0.0
 30
0.0
  3
*Model_Space
  1

  0
ENDBLK
  5
21
100
AcDbEntity
  8
0
100
AcDbBlockEnd
  0
BLOCK
  5
1C
100
AcDbEntity
  8
0
100
AcDbBlockBegin
  2
*Paper_Space
 70
0
 10
0.0
 20
0.0
 30
0.0
  3
*Paper_Space
  1

  0
ENDBLK
  5
1D
100
AcDbEntity
  8
0
100
AcDbBlockEnd
  0
BLOCK
  5
209
100
AcDbEntity
  8
0
100
AcDbBlockBegin
  2
_FILLED
 70
64
 10
0.0
 20
0.0
  3
_FILLED
  1

  0
SOLID
  5
20A
100
AcDbEntity
  8
0
  6
BYBLOCK
 62
0
100
AcDbTrace
 10
0.0
 20
0.0
 11
-1.0
 21
0.2
 12
-1.0
 22
-0.2
 13
-1.0
 23
-0.2
  0
ENDBLK
  5
20B
100
AcDbEntity
  8
0
  6
BYBLOCK
 62
0
100
AcDbBlockEnd
  0
ENDSEC
  0
SECTION
  2
ENTITIES
  0
LINE
  5
20C
100
AcDbEntity
  8
0
100
AcDbLine
 62
7
  6
CONTINUOUS
 10
10.8929951596
 20
11.5466588678
 11
10.9092486885
 21
11.5514461013
  0
LINE
  5
20D
100
AcDbEntity
  8
0
100
AcDbLine
 62
7
  6
CONTINUOUS
 10
10.8808050188
 20
11.5370844009
 11
10.8929951596
 21
11.5466588678
  0
LINE
  5
20E
100
AcDbEntity
  8
0
100
AcDbLine
 62
7
  6
CONTINUOUS
 10
10.8889317716
 20
11.5753822687
 11
10.872678266
 21
11.5658078017
  0
LINE
  5
20F
100
AcDbEntity
  8
0
100
AcDbLine
 62
7
  6
CONTINUOUS
 10
10.9580092519
 20
11.3886801398
 11
10.941755723
 21
11.3838929063
  0
LINE
  5
210
100
AcDbEntity
  8
0
100
AcDbLine
 62
7
  6
CONTINUOUS
 10
12.7168073007
 20
7.6551695021
 11
12.7368875299
 21
7.659956736
  0
LINE
  5
211
100
AcDbEntity
  8
0
100
AcDbLine
 62
7
  6
CONTINUOUS
 10
12.3473313725
 20
7.6551695021
 11
12.3674116017
 21
7.659956736
  0
LINE
  5
212
100
AcDbEntity
  8
0
100
AcDbLine
 62
7
  6
CONTINUOUS
 10
12.1625934084
 20
7.6551695021
 11
12.1826736262
 21
7.659956736
  0
LINE
  5
213
100
AcDbEntity
  8
0
100
AcDbLine
 62
7
  6
CONTINUOUS
 10
10.872678266
 20
11.5658078017
 11
10.8564247371
 21
11.5466588678
  0
LINE
  5
214
100
AcDbEntity
  8
0
100
AcDbLine
 62
7
  6
CONTINUOUS
 10
10.9701993927
 20
11.3982546101
 11
10.9580092519
 21
11.3886801398
  0
LINE
  5
215
100
AcDbEntity
  8
0
100
AcDbLine
 62
7
  6
CONTINUOUS
 10
10.9620726167
 20
11.359956736
 11
10.9783261456
 21
11.3695312042
  0
LINE
  5
216
100
AcDbEntity
  8
0
100
AcDbLine
 62
7
  6
CONTINUOUS
 10
12.3152030379
 20
7.8801695021
 11
12.2951228317
 21
7.8753822687
  0
LINE
  5
217
100
AcDbEntity
  8
0
100
AcDbLine
 62
7
  6
CONTINUOUS
 10
12.1264490291
 20
7.8801695021
 11
12.1063688143
 21
7.8753822687
  0
LINE
  5
218
100
AcDbEntity
  8
0
100
AcDbLine
 62
7
  6
CONTINUOUS
 10
12.1264490291
 20
7.6551695021
 11
12.1625934084
 21
7.6551695021
  0
LINE
  5
219
100
AcDbEntity
  8
0
100
AcDbLine
 62
7
  6
CONTINUOUS
 10
12.3152030379
 20
7.6551695021
 11
12.3473313725
 21
7.6551695021
  0
LINE
  5
21A
100
AcDbEntity
  8
0
100
AcDbLine
 62
7
  6
CONTINUOUS
 10
12.4437163992
 20
7.6551695021
 11
12.5882939623
 21
7.6551695021
  0
LINE
  5
21B
100
AcDbEntity
  8
0
100
AcDbLine
 62
7
  6
CONTINUOUS
 10
12.6204222739
 20
7.6551695021
 11
12.7168073007
 21
7.6551695021
  0
LINE
  5
21C
100
AcDbEntity
  8
0
100
AcDbLine
 62
7
  6
CONTINUOUS
 10
12.7168073007
 20
7.6838929063
 11
12.6445185306
 21
7.6838929063
  0
LINE
  5
21D
100
AcDbEntity
  8
0
100
AcDbLine
 62
7
  6
CONTINUOUS
 10
12.5882939623
 20
7.6838929063
 11
12.4678126789
 21
7.6838929063
  0
LINE
  5
21E
100
AcDbEntity
  8
0
100
AcDbLine
 62
7
  6
CONTINUOUS
 10
12.3473313725
 20
7.6838929063
 11
12.3152030379
 21
7.6838929063
  0
LINE
  5
21F
100
AcDbEntity
  8
0
100
AcDbLine
 62
7
  6
CONTINUOUS
 10
12.1625934084
 20
7.6838929063
 11
12.1264490291
 21
7.6838929063
  0
LINE
  5
220
100
AcDbEntity
  8
0
100
AcDbLine
 62
7
  6
CONTINUOUS
 10
12.2188180112
 20
7.7126163105
 11
12.1947217545
 21
7.7126163105
  0
LINE
  5
221
100
AcDbEntity
  8
0
100
AcDbLine
 62
7
  6
CONTINUOUS
 10
9.522890228
 20
8.7181786475
 11
9.7544182461
 21
8.3171603568
  0
LINE
  5
222
100
AcDbEntity
  8
0
100
AcDbLine
 62
7
  6
CONTINUOUS
 10
10.9783261456
 20
11.3695312042
 11
10.9945796744
 21
11.3886801398
  0
LINE
  5
223
100
AcDbEntity
  8
0
100
AcDbLine
 62
7
  6
CONTINUOUS
 10
12.1947217545
 20
7.8227226871
 11
12.2188180112
 21
7.8227226871
  0
LINE
  5
224
100
AcDbEntity
  8
0
100
AcDbLine
 62
7
  6
CONTINUOUS
 10
12.1264490291
 20
7.8514461013
 11
12.1625934084
 21
7.8514461013
  0
LINE
  5
225
100
AcDbEntity
  8
0
100
AcDbLine
 62
7
  6
CONTINUOUS
 10
12.3152030379
 20
7.8514461013
 11
12.3473313725
 21
7.8514461013
  0
LINE
  5
226
100
AcDbEntity
  8
0
100
AcDbLine
 62
7
  6
CONTINUOUS
 10
12.6445185306
 20
7.8514461013
 11
12.7168073007
 21
7.8514461013
  0
LINE
  5
227
100
AcDbEntity
  8
0
100
AcDbLine
 62
7
  6
CONTINUOUS
 10
12.7168073007
 20
7.8801695021
 11
12.6204222739
 21
7.8801695021
  0
LINE
  5
228
100
AcDbEntity
  8
0
100
AcDbLine
 62
7
  6
CONTINUOUS
 10
12.4678126789
 20
7.8801695021
 11
12.4437163992
 21
7.8801695021
  0
LINE
  5
229
100
AcDbEntity
  8
0
100
AcDbLine
 62
7
  6
CONTINUOUS
 10
12.3473313725
 20
7.8801695021
 11
12.3152030379
 21
7.8801695021
  0
LINE
  5
22A
100
AcDbEntity
  8
0
100
AcDbLine
 62
7
  6
CONTINUOUS
 10
12.1625934084
 20
7.8801695021
 11
12.1264490291
 21
7.8801695021
  0
LINE
  5
22B
100
AcDbEntity
  8
0
100
AcDbLine
 62
7
  6
CONTINUOUS
 10
12.1063688143
 20
7.659956736
 11
12.1264490291
 21
7.6551695021
  0
LINE
  5
22C
100
AcDbEntity
  8
0
100
AcDbLine
 62
7
  6
CONTINUOUS
 10
12.2951228317
 20
7.659956736
 11
12.3152030379
 21
7.6551695021
  0
LINE
  5
22D
100
AcDbEntity
  8
0
100
AcDbLine
 62
7
  6
CONTINUOUS
 10
10.8564247371
 20
11.5466588678
 11
10.8482979843
 21
11.527509934
  0
LINE
  5
22E
100
AcDbEntity
  8
0
100
AcDbLine
 62
7
  6
CONTINUOUS
 10
10.872678266
 20
11.5227226871
 11
10.8808050188
 21
11.5370844009
  0
LINE
  5
22F
100
AcDbEntity
  8
0
100
AcDbLine
 62
7
  6
CONTINUOUS
 10
10.9783261456
 20
11.4126163105
 11
10.9701993927
 21
11.3982546101
  0
LINE
  5
230
100
AcDbEntity
  8
0
100
AcDbLine
 62
7
  6
CONTINUOUS
 10
12.5691777796
 20
10.7892120528
 11
12.5555758379
 21
10.7844248193
  0
LINE
  5
231
100
AcDbEntity
  8
0
100
AcDbLine
 62
7
  6
CONTINUOUS
 10
12.1826736262
 20
7.8753822687
 11
12.1625934084
 21
7.8801695021
  0
LINE
  5
232
100
AcDbEntity
  8
0
100
AcDbLine
 62
7
  6
CONTINUOUS
 10
12.3674116017
 20
7.8753822687
 11
12.3473313725
 21
7.8801695021
  0
LINE
  5
233
100
AcDbEntity
  8
0
100
AcDbLine
 62
7
  6
CONTINUOUS
 10
12.7368875299
 20
7.8753822687
 11
12.7168073007
 21
7.8801695021
  0
LINE
  5
234
100
AcDbEntity
  8
0
100
AcDbLine
 62
7
  6
CONTINUOUS
 10
12.1264490291
 20
7.6838929063
 11
12.1103848561
 21
7.6886801398
  0
LINE
  5
235
100
AcDbEntity
  8
0
100
AcDbLine
 62
7
  6
CONTINUOUS
 10
12.3152030379
 20
7.6838929063
 11
12.2991388591
 21
7.6886801398
  0
LINE
  5
236
100
AcDbEntity
  8
0
100
AcDbLine
 62
7
  6
CONTINUOUS
 10
12.1625934084
 20
7.8514461013
 11
12.1786575872
 21
7.8466588678
  0
LINE
  5
237
100
AcDbEntity
  8
0
100
AcDbLine
 62
7
  6
CONTINUOUS
 10
12.3473313725
 20
7.8514461013
 11
12.3633955513
 21
7.8466588678
  0
LINE
  5
238
100
AcDbEntity
  8
0
100
AcDbLine
 62
7
  6
CONTINUOUS
 10
10.1627556842
 20
8.2868671901
 11
10.1605383007
 21
8.3079641854
  0
LINE
  5
239
100
AcDbEntity
  8
0
100
AcDbLine
 62
7
  6
CONTINUOUS
 10
9.977987026
 20
10.0448235442
 11
9.9757696424
 21
10.0659205395
  0
LINE
  5
23A
100
AcDbEntity
  8
0
100
AcDbLine
 62
7
  6
CONTINUOUS
 10
10.1289982476
 20
8.3145095677
 11
10.1275184894
 21
8.3356710969
  0
LINE
  5
23B
100
AcDbEntity
  8
0
100
AcDbLine
 62
7
  6
CONTINUOUS
 10
10.0056939375
 20
10.0778433555
 11
10.0042141792
 21
10.0990048846
  0
LINE
  5
23C
100
AcDbEntity
  8
0
100
AcDbLine
 62
7
  6
CONTINUOUS
 10
10.0962260802
 20
8.3433132239
 11
10.0954857501
 21
8.3645135048
  0
LINE
  5
23D
100
AcDbEntity
  8
0
100
AcDbLine
 62
7
  6
CONTINUOUS
 10
10.0345363454
 20
10.1098760948
 11
10.0337960153
 21
10.1310763757
  0
LINE
  5
23E
100
AcDbEntity
  8
0
100
AcDbLine
 62
7
  6
CONTINUOUS
 10
10.0644791099
 20
8.3732430658
 11
10.0644791099
 21
8.3944562693
  0
LINE
  5
23F
100
AcDbEntity
  8
0
100
AcDbLine
 62
7
  6
CONTINUOUS
 10
10.0644791099
 20
10.140882735
 11
10.0644791099
 21
10.1620959384
  0
LINE
  5
240
100
AcDbEntity
  8
0
100
AcDbLine
 62
7
  6
CONTINUOUS
 10
10.0337960153
 20
8.4042626286
 11
10.0345363454
 21
8.4254629095
  0
LINE
  5
241
100
AcDbEntity
  8
0
100
AcDbLine
 62
7
  6
CONTINUOUS
 10
10.0954857501
 20
10.1708254994
 11
10.0962260802
 21
10.1920257804
  0
LINE
  5
242
100
AcDbEntity
  8
0
100
AcDbLine
 62
7
  6
CONTINUOUS
 10
10.0042141792
 20
8.4363341196
 11
10.0043221895
 21
8.4378787394
  0
LINE
  5
243
100
AcDbEntity
  8
0
100
AcDbLine
 62
7
  6
CONTINUOUS
 10
10.1275184894
 20
10.1996679074
 11
10.1289982476
 21
10.2208294365
  0
LINE
  5
244
100
AcDbEntity
  8
0
100
AcDbLine
 62
7
  6
CONTINUOUS
 10
10.1605383007
 20
10.2273748189
 11
10.1627556842
 21
10.2484718142
  0
LINE
  5
245
100
AcDbEntity
  8
0
100
AcDbLine
 62
7
  6
CONTINUOUS
 10
10.1945049544
 20
10.2539124773
 11
10.1974572618
 21
10.2749192353
  0
LINE
  5
246
100
AcDbEntity
  8
0
100
AcDbLine
 62
7
  6
CONTINUOUS
 10
10.2293770676
 20
10.2792485505
 11
10.2330607017
 21
10.3001394777
  0
LINE
  5
247
100
AcDbEntity
  8
0
100
AcDbLine
 62
7
  6
CONTINUOUS
 10
10.2651121538
 20
10.3033521705
 11
10.2695226268
 21
10.3241018145
  0
LINE
  5
248
100
AcDbEntity
  8
0
100
AcDbLine
 62
7
  6
CONTINUOUS
 10
10.3016666753
 20
10.3261939707
 11
10.3067986137
 21
10.3467770513
  0
LINE
  5
249
100
AcDbEntity
  8
0
100
AcDbLine
 62
7
  6
CONTINUOUS
 10
10.3389960962
 20
10.3477461219
 11
10.3448432475
 21
10.3681375618
  0
LINE
  5
24A
100
AcDbEntity
  8
0
100
AcDbLine
 62
7
  6
CONTINUOUS
 10
10.3770549362
 20
10.367982366
 11
10.3836101765
 21
10.3881573214
  0
LINE
  5
24B
100
AcDbEntity
  8
0
100
AcDbLine
 62
7
  6
CONTINUOUS
 10
10.4157968265
 20
10.3868780485
 11
10.4230521694
 21
10.4068119392
  0
LINE
  5
24C
100
AcDbEntity
  8
0
100
AcDbLine
 62
7
  6
CONTINUOUS
 10
10.4551745661
 20
10.4044101477
 11
10.463121172
 21
10.4240786875
  0
LINE
  5
24D
100
AcDbEntity
  8
0
100
AcDbLine
 62
7
  6
CONTINUOUS
 10
10.9945796744
 20
11.3886801398
 11
11.0027064272
 21
11.407829077
  0
LINE
  5
24E
100
AcDbEntity
  8
0
100
AcDbLine
 62
7
  6
CONTINUOUS
 10
10.4951401793
 20
10.4205573036
 11
10.5037683665
 21
10.4399365292
  0
LINE
  5
24F
100
AcDbEntity
  8
0
100
AcDbLine
 62
7
  6
CONTINUOUS
 10
10.5356449742
 20
10.4352998433
 11
10.5449442305
 21
10.4543661442
  0
LINE
  5
250
100
AcDbEntity
  8
0
100
AcDbLine
 62
7
  6
CONTINUOUS
 10
9.7467830439
 20
8.8878866143
 11
9.7567420396
 21
8.9066167612
  0
LINE
  5
251
100
AcDbEntity
  8
0
100
AcDbLine
 62
7
  6
CONTINUOUS
 10
10.5766396018
 20
10.4486198052
 11
10.5865985976
 21
10.4673499521
  0
LINE
  5
252
100
AcDbEntity
  8
0
100
AcDbLine
 62
7
  6
CONTINUOUS
 10
9.734254282
 20
8.9296801029
 11
9.7448608837
 21
8.948051276
  0
LINE
  5
253
100
AcDbEntity
  8
0
100
AcDbLine
 62
7
  6
CONTINUOUS
 10
10.6180741166
 20
10.4605009612
 11
10.6286807183
 21
10.4788721342
  0
LINE
  5
254
100
AcDbEntity
  8
0
100
AcDbLine
 62
7
  6
CONTINUOUS
 10
9.723191724
 20
8.9718853796
 11
9.7344330092
 21
8.9898751964
  0
LINE
  5
255
100
AcDbEntity
  8
0
100
AcDbLine
 62
7
  6
CONTINUOUS
 10
10.6598980369
 20
10.4709288357
 11
10.6711393221
 21
10.4889186525
  0
LINE
  5
256
100
AcDbEntity
  8
0
100
AcDbLine
 62
7
  6
CONTINUOUS
 10
9.713608848
 20
9.0144510236
 11
9.7254711208
 21
9.0320375663
  0
LINE
  5
257
100
AcDbEntity
  8
0
100
AcDbLine
 62
7
  6
CONTINUOUS
 10
9.7055173291
 20
9.0573251753
 11
9.7179861373
 21
9.0744870174
  0
LINE
  5
258
100
AcDbEntity
  8
0
100
AcDbLine
 62
7
  6
CONTINUOUS
 10
9.6989270257
 20
9.1004555992
 11
9.7119871778
 21
9.1171718317
  0
LINE
  5
259
100
AcDbEntity
  8
0
100
AcDbLine
 62
7
  6
CONTINUOUS
 10
9.693845967
 20
9.1437897475
 11
9.7074815513
 21
9.1600400041
  0
LINE
  5
25A
100
AcDbEntity
  8
0
100
AcDbLine
 62
7
  6
CONTINUOUS
 10
9.6902803435
 20
9.1872748242
 11
9.7044747472
 21
9.2030393066
  0
LINE
  5
25B
100
AcDbEntity
  8
0
100
AcDbLine
 62
7
  6
CONTINUOUS
 10
9.6882344994
 20
9.2308578494
 11
9.7029704288
 21
9.246117351
  0
LINE
  5
25C
100
AcDbEntity
  8
0
100
AcDbLine
 62
7
  6
CONTINUOUS
 10
9.6877109272
 20
9.274485724
 11
9.7029704288
 21
9.2892216533
  0
LINE
  5
25D
100
AcDbEntity
  8
0
100
AcDbLine
 62
7
  6
CONTINUOUS
 10
9.6887102648
 20
9.318105294
 11
9.7044747472
 21
9.3322996977
  0
LINE
  5
25E
100
AcDbEntity
  8
0
100
AcDbLine
 62
7
  6
CONTINUOUS
 10
9.6912312947
 20
9.3616634158
 11
9.7074815513
 21
9.3752990001
  0
LINE
  5
25F
100
AcDbEntity
  8
0
100
AcDbLine
 62
7
  6
CONTINUOUS
 10
9.6952709454
 20
9.4051070205
 11
9.7119871778
 21
9.4181671726
  0
LINE
  5
260
100
AcDbEntity
  8
0
100
AcDbLine
 62
7
  6
CONTINUOUS
 10
9.7008242952
 20
9.4483831787
 11
9.7179861373
 21
9.4608519869
  0
LINE
  5
261
100
AcDbEntity
  8
0
100
AcDbLine
 62
7
  6
CONTINUOUS
 10
9.7078845781
 20
9.4914391652
 11
9.7254711208
 21
9.503301438
  0
LINE
  5
262
100
AcDbEntity
  8
0
100
AcDbLine
 62
7
  6
CONTINUOUS
 10
11.1896271465
 20
10.4908871473
 11
11.1909108213
 21
10.4917529969
  0
LINE
  5
263
100
AcDbEntity
  8
0
100
AcDbLine
 62
7
  6
CONTINUOUS
 10
9.7164431924
 20
9.5342225228
 11
9.7344330092
 21
9.5454638079
  0
LINE
  5
264
100
AcDbEntity
  8
0
100
AcDbLine
 62
7
  6
CONTINUOUS
 10
11.2154866485
 20
10.4709288357
 11
11.2334764653
 21
10.4821701208
  0
LINE
  5
265
100
AcDbEntity
  8
0
100
AcDbLine
 62
7
  6
CONTINUOUS
 10
9.7264897107
 20
9.5766811266
 11
9.7448608837
 21
9.5872877283
  0
LINE
  5
266
100
AcDbEntity
  8
0
100
AcDbLine
 62
7
  6
CONTINUOUS
 10
11.2573105689
 20
10.4605009612
 11
11.275681742
 21
10.4711075629
  0
LINE
  5
267
100
AcDbEntity
  8
0
100
AcDbLine
 62
7
  6
CONTINUOUS
 10
9.7380118927
 20
9.6187632473
 11
9.7567420396
 21
9.6287222431
  0
LINE
  5
268
100
AcDbEntity
  8
0
100
AcDbLine
 62
7
  6
CONTINUOUS
 10
11.2987450837
 20
10.4486198052
 11
11.3174752306
 21
10.458578801
  0
LINE
  5
269
100
AcDbEntity
  8
0
100
AcDbLine
 62
7
  6
CONTINUOUS
 10
9.7509957007
 20
9.6604176144
 11
9.7700620016
 21
9.6697168707
  0
LINE
  5
26A
100
AcDbEntity
  8
0
100
AcDbLine
 62
7
  6
CONTINUOUS
 10
11.3397397113
 20
10.4352998433
 11
11.3588060123
 21
10.4445990996
  0
LINE
  5
26B
100
AcDbEntity
  8
0
100
AcDbLine
 62
7
  6
CONTINUOUS
 10
9.7654253156
 20
9.7015934784
 11
9.7848045413
 21
9.7102216656
  0
LINE
  5
26C
100
AcDbEntity
  8
0
100
AcDbLine
 62
7
  6
CONTINUOUS
 10
11.3802445061
 20
10.4205573036
 11
11.3996237318
 21
10.4291854908
  0
LINE
  5
26D
100
AcDbEntity
  8
0
100
AcDbLine
 62
7
  6
CONTINUOUS
 10
9.7812831574
 20
9.7422406729
 11
9.8009516971
 21
9.7501872788
  0
LINE
  5
26E
100
AcDbEntity
  8
0
100
AcDbLine
 62
7
  6
CONTINUOUS
 10
11.4202101194
 20
10.4044101477
 11
11.4398786591
 21
10.4123567536
  0
LINE
  5
26F
100
AcDbEntity
  8
0
100
AcDbLine
 62
7
  6
CONTINUOUS
 10
9.7985499057
 20
9.7823096755
 11
9.8184837964
 21
9.7895650184
  0
LINE
  5
270
100
AcDbEntity
  8
0
100
AcDbLine
 62
7
  6
CONTINUOUS
 10
11.459587859
 20
10.3868780485
 11
11.4795217497
 21
10.3941333914
  0
LINE
  5
271
100
AcDbEntity
  8
0
100
AcDbLine
 62
7
  6
CONTINUOUS
 10
9.8172045235
 20
9.8217516683
 11
9.8373794788
 21
9.8283069087
  0
LINE
  5
272
100
AcDbEntity
  8
0
100
AcDbLine
 62
7
  6
CONTINUOUS
 10
11.4983297493
 20
10.367982366
 11
11.5185047047
 21
10.3745376064
  0
LINE
  5
273
100
AcDbEntity
  8
0
100
AcDbLine
 62
7
  6
CONTINUOUS
 10
9.8372242831
 20
9.8605185974
 11
9.857615723
 21
9.8663657487
  0
LINE
  5
274
100
AcDbEntity
  8
0
100
AcDbLine
 62
7
  6
CONTINUOUS
 10
11.5363885893
 20
10.3477461219
 11
11.5567800292
 21
10.3535932732
  0
LINE
  5
275
100
AcDbEntity
  8
0
100
AcDbLine
 62
7
  6
CONTINUOUS
 10
10.3016666753
 20
8.2091450336
 11
10.2810835947
 21
8.2040130952
  0
LINE
  5
276
100
AcDbEntity
  8
0
100
AcDbLine
 62
7
  6
CONTINUOUS
 10
10.2651121538
 20
8.2319868338
 11
10.2443625097
 21
8.2275763608
  0
LINE
  5
277
100
AcDbEntity
  8
0
100
AcDbLine
 62
7
  6
CONTINUOUS
 10
10.2293770676
 20
8.2560904538
 11
10.2084861404
 21
8.2524068197
  0
LINE
  5
278
100
AcDbEntity
  8
0
100
AcDbLine
 62
7
  6
CONTINUOUS
 10
10.1945049544
 20
8.281426527
 11
10.1734981964
 21
8.2784742197
  0
LINE
  5
279
100
AcDbEntity
  8
0
100
AcDbLine
 62
7
  6
CONTINUOUS
 10
10.1605383007
 20
8.3079641854
 11
10.1394413054
 21
8.3057468018
  0
LINE
  5
27A
100
AcDbEntity
  8
0
100
AcDbLine
 62
7
  6
CONTINUOUS
 10
10.1275184894
 20
8.3356710969
 11
10.1063569602
 21
8.3341913386
  0
LINE
  5
27B
100
AcDbEntity
  8
0
100
AcDbLine
 62
7
  6
CONTINUOUS
 10
11.862048621
 20
8.4262032397
 11
11.84084834
 21
8.4254629095
  0
LINE
  5
27C
100
AcDbEntity
  8
0
100
AcDbLine
 62
7
  6
CONTINUOUS
 10
10.0954857501
 20
8.3645135048
 11
10.0742854692
 21
8.3637731747
  0
LINE
  5
27D
100
AcDbEntity
  8
0
100
AcDbLine
 62
7
  6
CONTINUOUS
 10
11.832118779
 20
8.3944562693
 11
11.8109055756
 21
8.3944562693
  0
LINE
  5
27E
100
AcDbEntity
  8
0
100
AcDbLine
 62
7
  6
CONTINUOUS
 10
10.0644791099
 20
8.3944562693
 11
10.0432659064
 21
8.3944562693
  0
LINE
  5
27F
100
AcDbEntity
  8
0
100
AcDbLine
 62
7
  6
CONTINUOUS
 10
11.8010992163
 20
8.3637731747
 11
11.7798989354
 21
8.3645135048
  0
LINE
  5
280
100
AcDbEntity
  8
0
100
AcDbLine
 62
7
  6
CONTINUOUS
 10
10.0345363454
 20
8.4254629095
 11
10.0133360645
 21
8.4262032397
  0
LINE
  5
281
100
AcDbEntity
  8
0
100
AcDbLine
 62
7
  6
CONTINUOUS
 10
11.7690277252
 20
8.3341913386
 11
11.7478661961
 21
8.3356710969
  0
LINE
  5
282
100
AcDbEntity
  8
0
100
AcDbLine
 62
7
  6
CONTINUOUS
 10
11.7359433801
 20
8.3057468018
 11
11.7148463848
 21
8.3079641854
  0
LINE
  5
283
100
AcDbEntity
  8
0
100
AcDbLine
 62
7
  6
CONTINUOUS
 10
11.701886489
 20
8.2784742197
 11
11.680879731
 21
8.281426527
  0
LINE
  5
284
100
AcDbEntity
  8
0
100
AcDbLine
 62
7
  6
CONTINUOUS
 10
11.6668985451
 20
8.2524068197
 11
11.6460076179
 21
8.2560904538
  0
LINE
  5
285
100
AcDbEntity
  8
0
100
AcDbLine
 62
7
  6
CONTINUOUS
 10
11.6310221757
 20
8.2275763608
 11
11.6102725317
 21
8.2319868338
  0
LINE
  5
286
100
AcDbEntity
  8
0
100
AcDbLine
 62
7
  6
CONTINUOUS
 10
11.5943010908
 20
8.2040130952
 11
11.5737180102
 21
8.2091450336
  0
LINE
  5
287
100
AcDbEntity
  8
0
100
AcDbLine
 62
7
  6
CONTINUOUS
 10
11.5567800292
 20
8.1817457311
 11
11.5363885893
 21
8.1875928824
  0
LINE
  5
288
100
AcDbEntity
  8
0
100
AcDbLine
 62
7
  6
CONTINUOUS
 10
12.7168073007
 20
7.8514461013
 11
12.7328715024
 21
7.8466588678
  0
LINE
  5
289
100
AcDbEntity
  8
0
100
AcDbLine
 62
7
  6
CONTINUOUS
 10
11.5185047047
 20
8.1608013979
 11
11.4983297493
 21
8.1673566382
  0
LINE
  5
28A
100
AcDbEntity
  8
0
100
AcDbLine
 62
7
  6
CONTINUOUS
 10
11.4795217497
 20
8.1412056129
 11
11.459587859
 21
8.1484609558
  0
LINE
  5
28B
100
AcDbEntity
  8
0
100
AcDbLine
 62
7
  6
CONTINUOUS
 10
11.4398786591
 20
8.1229822507
 11
11.4202101194
 21
8.1309288565
  0
LINE
  5
28C
100
AcDbEntity
  8
0
100
AcDbLine
 62
7
  6
CONTINUOUS
 10
11.3996237318
 20
8.1061535135
 11
11.3802445061
 21
8.1147817007
  0
LINE
  5
28D
100
AcDbEntity
  8
0
100
AcDbLine
 62
7
  6
CONTINUOUS
 10
11.3588060123
 20
8.0907399047
 11
11.3397397113
 21
8.100039161
  0
LINE
  5
28E
100
AcDbEntity
  8
0
100
AcDbLine
 62
7
  6
CONTINUOUS
 10
9.7523873858
 20
8.8742426197
 11
9.7509957007
 21
8.8749213899
  0
LINE
  5
28F
100
AcDbEntity
  8
0
100
AcDbLine
 62
7
  6
CONTINUOUS
 10
11.3174752306
 20
8.0767602033
 11
11.2987450837
 21
8.0867191991
  0
LINE
  5
290
100
AcDbEntity
  8
0
100
AcDbLine
 62
7
  6
CONTINUOUS
 10
9.7567420396
 20
8.9066167612
 11
9.7380118927
 21
8.916575757
  0
LINE
  5
291
100
AcDbEntity
  8
0
100
AcDbLine
 62
7
  6
CONTINUOUS
 10
11.275681742
 20
8.0642314414
 11
11.2573105689
 21
8.0748380431
  0
LINE
  5
292
100
AcDbEntity
  8
0
100
AcDbLine
 62
7
  6
CONTINUOUS
 10
9.7448608837
 20
8.948051276
 11
9.7264897107
 21
8.9586578777
  0
LINE
  5
293
100
AcDbEntity
  8
0
100
AcDbLine
 62
7
  6
CONTINUOUS
 10
12.0903046412
 20
7.6695312042
 11
12.1063688143
 21
7.659956736
  0
LINE
  5
294
100
AcDbEntity
  8
0
100
AcDbLine
 62
7
  6
CONTINUOUS
 10
12.2790586529
 20
7.6695312042
 11
12.2951228317
 21
7.659956736
  0
LINE
  5
295
100
AcDbEntity
  8
0
100
AcDbLine
 62
7
  6
CONTINUOUS
 10
11.2334764653
 20
8.0531688834
 11
11.2154866485
 21
8.0644101686
  0
LINE
  5
296
100
AcDbEntity
  8
0
100
AcDbLine
 62
7
  6
CONTINUOUS
 10
9.7344330092
 20
8.9898751964
 11
9.7164431924
 21
9.0011164815
  0
LINE
  5
297
100
AcDbEntity
  8
0
100
AcDbLine
 62
7
  6
CONTINUOUS
 10
11.1909108213
 20
8.0435860074
 11
11.1733242786
 21
8.0554482802
  0
LINE
  5
298
100
AcDbEntity
  8
0
100
AcDbLine
 62
7
  6
CONTINUOUS
 10
9.7254711208
 20
9.0320375663
 11
9.7078845781
 21
9.0438998391
  0
LINE
  5
299
100
AcDbEntity
  8
0
100
AcDbLine
 62
7
  6
CONTINUOUS
 10
11.1480366695
 20
8.0354944885
 11
11.1308748275
 21
8.0479632967
  0
LINE
  5
29A
100
AcDbEntity
  8
0
100
AcDbLine
 62
7
  6
CONTINUOUS
 10
9.7179861373
 20
9.0744870174
 11
9.7008242952
 21
9.0869558256
  0
LINE
  5
29B
100
AcDbEntity
  8
0
100
AcDbLine
 62
7
  6
CONTINUOUS
 10
11.1049062456
 20
8.0289041851
 11
11.0881900132
 21
8.0419643372
  0
LINE
  5
29C
100
AcDbEntity
  8
0
100
AcDbLine
 62
7
  6
CONTINUOUS
 10
9.7119871778
 20
9.1171718317
 11
9.6952709454
 21
9.1302319838
  0
LINE
  5
29D
100
AcDbEntity
  8
0
100
AcDbLine
 62
7
  6
CONTINUOUS
 10
11.0615720973
 20
8.0238231264
 11
11.0453218407
 21
8.0374587108
  0
LINE
  5
29E
100
AcDbEntity
  8
0
100
AcDbLine
 62
7
  6
CONTINUOUS
 10
9.7074815513
 20
9.1600400041
 11
9.6912312947
 21
9.1736755885
  0
LINE
  5
29F
100
AcDbEntity
  8
0
100
AcDbLine
 62
7
  6
CONTINUOUS
 10
11.0180870207
 20
8.0202575029
 11
11.0023225383
 21
8.0344519066
  0
LINE
  5
2A0
100
AcDbEntity
  8
0
100
AcDbLine
 62
7
  6
CONTINUOUS
 10
9.7044747472
 20
9.2030393066
 11
9.6887102648
 21
9.2172337103
  0
LINE
  5
2A1
100
AcDbEntity
  8
0
100
AcDbLine
 62
7
  6
CONTINUOUS
 10
10.9745039954
 20
8.0182116588
 11
10.9592444939
 21
8.0329475882
  0
LINE
  5
2A2
100
AcDbEntity
  8
0
100
AcDbLine
 62
7
  6
CONTINUOUS
 10
9.7029704288
 20
9.246117351
 11
9.6877109272
 21
9.2608532803
  0
LINE
  5
2A3
100
AcDbEntity
  8
0
100
AcDbLine
 62
7
  6
CONTINUOUS
 10
10.9308761209
 20
8.0176880866
 11
10.9161401916
 21
8.0329475882
  0
LINE
  5
2A4
100
AcDbEntity
  8
0
100
AcDbLine
 62
7
  6
CONTINUOUS
 10
9.7029704288
 20
9.2892216533
 11
9.6882344994
 21
9.3044811548
  0
LINE
  5
2A5
100
AcDbEntity
  8
0
100
AcDbLine
 62
7
  6
CONTINUOUS
 10
10.8872565509
 20
8.0186874243
 11
10.8730621472
 21
8.0344519066
  0
LINE
  5
2A6
100
AcDbEntity
  8
0
100
AcDbLine
 62
7
  6
CONTINUOUS
 10
9.7044747472
 20
9.3322996977
 11
9.6902803435
 21
9.3480641801
  0
LINE
  5
2A7
100
AcDbEntity
  8
0
100
AcDbLine
 62
7
  6
CONTINUOUS
 10
10.8436984291
 20
8.0212084541
 11
10.8300628447
 21
8.0374587108
  0
LINE
  5
2A8
100
AcDbEntity
  8
0
100
AcDbLine
 62
7
  6
CONTINUOUS
 10
9.7074815513
 20
9.3752990001
 11
9.693845967
 21
9.3915492567
  0
LINE
  5
2A9
100
AcDbEntity
  8
0
100
AcDbLine
 62
7
  6
CONTINUOUS
 10
10.8002548244
 20
8.0252481048
 11
10.7871946723
 21
8.0419643372
  0
LINE
  5
2AA
100
AcDbEntity
  8
0
100
AcDbLine
 62
7
  6
CONTINUOUS
 10
9.7119871778
 20
9.4181671726
 11
9.6989270257
 21
9.434883405
  0
LINE
  5
2AB
100
AcDbEntity
  8
0
100
AcDbLine
 62
7
  6
CONTINUOUS
 10
10.7569786662
 20
8.0308014546
 11
10.744509858
 21
8.0479632967
  0
LINE
  5
2AC
100
AcDbEntity
  8
0
100
AcDbLine
 62
7
  6
CONTINUOUS
 10
9.7179861373
 20
9.4608519869
 11
9.7055173291
 21
9.4780138289
  0
LINE
  5
2AD
100
AcDbEntity
  8
0
100
AcDbLine
 62
7
  6
CONTINUOUS
 10
10.7139226797
 20
8.0378617375
 11
10.7020604069
 21
8.0554482802
  0
LINE
  5
2AE
100
AcDbEntity
  8
0
100
AcDbLine
 62
7
  6
CONTINUOUS
 10
9.7254711208
 20
9.503301438
 11
9.713608848
 21
9.5208879807
  0
LINE
  5
2AF
100
AcDbEntity
  8
0
100
AcDbLine
 62
7
  6
CONTINUOUS
 10
10.6711393221
 20
8.0464203518
 11
10.6598980369
 21
8.0644101686
  0
LINE
  5
2B0
100
AcDbEntity
  8
0
100
AcDbLine
 62
7
  6
CONTINUOUS
 10
9.7344330092
 20
9.5454638079
 11
9.723191724
 21
9.5634536247
  0
LINE
  5
2B1
100
AcDbEntity
  8
0
100
AcDbLine
 62
7
  6
CONTINUOUS
 10
10.6286807183
 20
8.0564668701
 11
10.6180741166
 21
8.0748380431
  0
LINE
  5
2B2
100
AcDbEntity
  8
0
100
AcDbLine
 62
7
  6
CONTINUOUS
 10
9.7448608837
 20
9.5872877283
 11
9.734254282
 21
9.6056589014
  0
LINE
  5
2B3
100
AcDbEntity
  8
0
100
AcDbLine
 62
7
  6
CONTINUOUS
 10
10.5865985976
 20
8.0679890521
 11
10.5766396018
 21
8.0867191991
  0
LINE
  5
2B4
100
AcDbEntity
  8
0
100
AcDbLine
 62
7
  6
CONTINUOUS
 10
9.7567420396
 20
9.6287222431
 11
9.7467830439
 21
9.64745239
  0
LINE
  5
2B5
100
AcDbEntity
  8
0
100
AcDbLine
 62
7
  6
CONTINUOUS
 10
10.5449442305
 20
8.0809728601
 11
10.5356449742
 21
8.100039161
  0
LINE
  5
2B6
100
AcDbEntity
  8
0
100
AcDbLine
 62
7
  6
CONTINUOUS
 10
9.7700620016
 20
9.6697168707
 11
9.7607627453
 21
9.6887831717
  0
LINE
  5
2B7
100
AcDbEntity
  8
0
100
AcDbLine
 62
7
  6
CONTINUOUS
 10
10.5037683665
 20
8.095402475
 11
10.4951401793
 21
8.1147817007
  0
LINE
  5
2B8
100
AcDbEntity
  8
0
100
AcDbLine
 62
7
  6
CONTINUOUS
 10
9.7848045413
 20
9.7102216656
 11
9.7761763541
 21
9.7296008912
  0
LINE
  5
2B9
100
AcDbEntity
  8
0
100
AcDbLine
 62
7
  6
CONTINUOUS
 10
10.463121172
 20
8.1112603168
 11
10.4551745661
 21
8.1309288565
  0
LINE
  5
2BA
100
AcDbEntity
  8
0
100
AcDbLine
 62
7
  6
CONTINUOUS
 10
9.8009516971
 20
9.7501872788
 11
9.7930050913
 21
9.7698558185
  0
LINE
  5
2BB
100
AcDbEntity
  8
0
100
AcDbLine
 62
7
  6
CONTINUOUS
 10
10.4230521694
 20
8.1285270651
 11
10.4157968265
 21
8.1484609558
  0
LINE
  5
2BC
100
AcDbEntity
  8
0
100
AcDbLine
 62
7
  6
CONTINUOUS
 10
9.8184837964
 20
9.7895650184
 11
9.8112284535
 21
9.8094989091
  0
LINE
  5
2BD
100
AcDbEntity
  8
0
100
AcDbLine
 62
7
  6
CONTINUOUS
 10
10.3836101765
 20
8.1471816829
 11
10.3770549362
 21
8.1673566382
  0
LINE
  5
2BE
100
AcDbEntity
  8
0
100
AcDbLine
 62
7
  6
CONTINUOUS
 10
9.8373794788
 20
9.8283069087
 11
9.8308242385
 21
9.8484818641
  0
LINE
  5
2BF
100
AcDbEntity
  8
0
100
AcDbLine
 62
7
  6
CONTINUOUS
 10
10.3448432475
 20
8.1672014425
 11
10.3389960962
 21
8.1875928824
  0
LINE
  5
2C0
100
AcDbEntity
  8
0
100
AcDbLine
 62
7
  6
CONTINUOUS
 10
9.857615723
 20
9.8663657487
 11
9.8517685717
 21
9.8867571886
  0
LINE
  5
2C1
100
AcDbEntity
  8
0
100
AcDbLine
 62
7
  6
CONTINUOUS
 10
10.3067986137
 20
8.188561953
 11
10.3016666753
 21
8.2091450336
  0
LINE
  5
2C2
100
AcDbEntity
  8
0
100
AcDbLine
 62
7
  6
CONTINUOUS
 10
9.8791678742
 20
9.9036951696
 11
9.8740359358
 21
9.9242782502
  0
LINE
  5
2C3
100
AcDbEntity
  8
0
100
AcDbLine
 62
7
  6
CONTINUOUS
 10
10.2695226268
 20
8.2112371898
 11
10.2651121538
 21
8.2319868338
  0
LINE
  5
2C4
100
AcDbEntity
  8
0
100
AcDbLine
 62
7
  6
CONTINUOUS
 10
9.9020096744
 20
9.9402496911
 11
9.8975992014
 21
9.9609993352
  0
LINE
  5
2C5
100
AcDbEntity
  8
0
100
AcDbLine
 62
7
  6
CONTINUOUS
 10
10.2330607017
 20
8.2351995266
 11
10.2293770676
 21
8.2560904538
  0
LINE
  5
2C6
100
AcDbEntity
  8
0
100
AcDbLine
 62
7
  6
CONTINUOUS
 10
9.9261132944
 20
9.9759847773
 11
9.9224296603
 21
9.9968757045
  0
LINE
  5
2C7
100
AcDbEntity
  8
0
100
AcDbLine
 62
7
  6
CONTINUOUS
 10
10.1974572618
 20
8.260419769
 11
10.1945049544
 21
8.281426527
  0
LINE
  5
2C8
100
AcDbEntity
  8
0
100
AcDbLine
 62
7
  6
CONTINUOUS
 10
9.9514493676
 20
10.0108568904
 11
9.9484970603
 21
10.0318636484
  0
LINE
  5
2C9
100
AcDbEntity
  8
0
100
AcDbLine
 62
7
  6
CONTINUOUS
 10
10.6491923427
 20
11.5801695021
 11
10.6491923427
 21
11.3551695021
  0
LINE
  5
2CA
100
AcDbEntity
  8
0
100
AcDbLine
 62
7
  6
CONTINUOUS
 10
10.8482979843
 20
11.527509934
 11
10.8442345963
 21
11.5035737532
  0
LINE
  5
2CB
100
AcDbEntity
  8
0
100
AcDbLine
 62
7
  6
CONTINUOUS
 10
11.0027064272
 20
11.407829077
 11
11.0067698153
 21
11.4317652444
  0
LINE
  5
2CC
100
AcDbEntity
  8
0
100
AcDbLine
 62
7
  6
CONTINUOUS
 10
10.8686148779
 20
11.5035737532
 11
10.872678266
 21
11.5227226871
  0
LINE
  5
2CD
100
AcDbEntity
  8
0
100
AcDbLine
 62
7
  6
CONTINUOUS
 10
10.9823895336
 20
11.4317652444
 11
10.9783261456
 21
11.4126163105
  0
LINE
  5
2CE
100
AcDbEntity
  8
0
100
AcDbLine
 62
7
  6
CONTINUOUS
 10
12.5737117429
 20
10.7652758854
 11
12.5918476998
 21
10.7748503524
  0
LINE
  5
2CF
100
AcDbEntity
  8
0
100
AcDbLine
 62
7
  6
CONTINUOUS
 10
12.1987377935
 20
7.8658078017
 11
12.1826736262
 21
7.8753822687
  0
LINE
  5
2D0
100
AcDbEntity
  8
0
100
AcDbLine
 62
7
  6
CONTINUOUS
 10
12.3834757575
 20
7.8658078017
 11
12.3674116017
 21
7.8753822687
  0
LINE
  5
2D1
100
AcDbEntity
  8
0
100
AcDbLine
 62
7
  6
CONTINUOUS
 10
12.7529516857
 20
7.8658078017
 11
12.7368875299
 21
7.8753822687
  0
LINE
  5
2D2
100
AcDbEntity
  8
0
100
AcDbLine
 62
7
  6
CONTINUOUS
 10
12.1103848561
 20
7.6886801398
 11
12.0983367278
 21
7.6982546101
  0
LINE
  5
2D3
100
AcDbEntity
  8
0
100
AcDbLine
 62
7
  6
CONTINUOUS
 10
12.2991388591
 20
7.6886801398
 11
12.2870907308
 21
7.6982546101
  0
LINE
  5
2D4
100
AcDbEntity
  8
0
100
AcDbLine
 62
7
  6
CONTINUOUS
 10
12.1786575872
 20
7.8466588678
 11
12.1907057156
 21
7.8370844009
  0
LINE
  5
2D5
100
AcDbEntity
  8
0
100
AcDbLine
 62
7
  6
CONTINUOUS
 10
10.7527422695
 20
9.6870703815
 11
10.6663024943
 21
10.7243476829
  0
LINE
  5
2D6
100
AcDbEntity
  8
0
100
AcDbLine
 62
7
  6
CONTINUOUS
 10
10.6735726244
 20
11.3551695021
 11
10.6735726244
 21
11.4604886519
  0
LINE
  5
2D7
100
AcDbEntity
  8
0
100
AcDbLine
 62
7
  6
CONTINUOUS
 10
10.6735726244
 20
11.4892120528
 11
10.6735726244
 21
11.5801695021
  0
LINE
  5
2D8
100
AcDbEntity
  8
0
100
AcDbLine
 62
7
  6
CONTINUOUS
 10
10.7873472684
 20
11.5801695021
 11
10.7873472684
 21
11.4892120528
  0
LINE
  5
2D9
100
AcDbEntity
  8
0
100
AcDbLine
 62
7
  6
CONTINUOUS
 10
10.7873472684
 20
11.4604886519
 11
10.7873472684
 21
11.3551695021
  0
LINE
  5
2DA
100
AcDbEntity
  8
0
100
AcDbLine
 62
7
  6
CONTINUOUS
 10
10.8117275501
 20
11.3551695021
 11
10.8117275501
 21
11.5801695021
  0
LINE
  5
2DB
100
AcDbEntity
  8
0
100
AcDbLine
 62
7
  6
CONTINUOUS
 10
10.8442345963
 20
11.5035737532
 11
10.8442345963
 21
11.4317652444
  0
LINE
  5
2DC
100
AcDbEntity
  8
0
100
AcDbLine
 62
7
  6
CONTINUOUS
 10
10.8686148779
 20
11.4317652444
 11
10.8686148779
 21
11.5035737532
  0
LINE
  5
2DD
100
AcDbEntity
  8
0
100
AcDbLine
 62
7
  6
CONTINUOUS
 10
10.4820054902
 20
9.2181405243
 11
9.5404771088
 21
8.7743609148
  0
LINE
  5
2DE
100
AcDbEntity
  8
0
100
AcDbLine
 62
7
  6
CONTINUOUS
 10
11.208429122
 20
8.8977976005
 11
12.0635177283
 21
8.3042999087
  0
LINE
  5
2DF
100
AcDbEntity
  8
0
100
AcDbLine
 62
7
  6
CONTINUOUS
 10
12.3633955513
 20
7.8466588678
 11
12.3754436796
 21
7.8370844009
  0
LINE
  5
2E0
100
AcDbEntity
  8
0
100
AcDbLine
 62
7
  6
CONTINUOUS
 10
12.7328715024
 20
7.8466588678
 11
12.7449196308
 21
7.8370844009
  0
LINE
  5
2E1
100
AcDbEntity
  8
0
100
AcDbLine
 62
7
  6
CONTINUOUS
 10
12.0742404711
 20
7.6886801398
 11
12.0903046412
 21
7.6695312042
  0
LINE
  5
2E2
100
AcDbEntity
  8
0
100
AcDbLine
 62
7
  6
CONTINUOUS
 10
12.2629944741
 20
7.6886801398
 11
12.2790586529
 21
7.6695312042
  0
LINE
  5
2E3
100
AcDbEntity
  8
0
100
AcDbLine
 62
7
  6
CONTINUOUS
 10
10.9823895336
 20
11.5035737532
 11
10.9823895336
 21
11.4317652444
  0
LINE
  5
2E4
100
AcDbEntity
  8
0
100
AcDbLine
 62
7
  6
CONTINUOUS
 10
11.0067698153
 20
11.4317652444
 11
11.0067698153
 21
11.5035737532
  0
LINE
  5
2E5
100
AcDbEntity
  8
0
100
AcDbLine
 62
7
  6
CONTINUOUS
 10
11.0392768498
 20
11.5801695021
 11
11.0392768498
 21
11.5562333348
  0
LINE
  5
2E6
100
AcDbEntity
  8
0
100
AcDbLine
 62
7
  6
CONTINUOUS
 10
11.1042909188
 20
11.5562333348
 11
11.1042909188
 21
11.3551695021
  0
LINE
  5
2E7
100
AcDbEntity
  8
0
100
AcDbLine
 62
7
  6
CONTINUOUS
 10
11.1286712005
 20
11.3551695021
 11
11.1286712005
 21
11.5562333348
  0
LINE
  5
2E8
100
AcDbEntity
  8
0
100
AcDbLine
 62
7
  6
CONTINUOUS
 10
11.193685316
 20
11.5562333348
 11
11.193685316
 21
11.5801695021
  0
LINE
  5
2E9
100
AcDbEntity
  8
0
100
AcDbLine
 62
7
  6
CONTINUOUS
 10
11.122642416
 20
9.6870703815
 11
11.2090821911
 21
10.7243476829
  0
LINE
  5
2EA
100
AcDbEntity
  8
0
100
AcDbLine
 62
7
  6
CONTINUOUS
 10
12.5782457581
 20
10.7987865197
 11
12.5691777796
 21
10.7892120528
  0
LINE
  5
2EB
100
AcDbEntity
  8
0
100
AcDbLine
 62
7
  6
CONTINUOUS
 10
10.6669555634
 20
8.8977976005
 11
9.8118669572
 21
8.3042999087
  0
LINE
  5
2EC
100
AcDbEntity
  8
0
100
AcDbLine
 62
7
  6
CONTINUOUS
 10
11.3933791953
 20
9.2181405243
 11
12.3349075767
 21
8.7743609148
  0
LINE
  5
2ED
100
AcDbEntity
  8
0
100
AcDbLine
 62
7
  6
CONTINUOUS
 10
12.2148019722
 20
7.8466588678
 11
12.1987377935
 21
7.8658078017
  0
LINE
  5
2EE
100
AcDbEntity
  8
0
100
AcDbLine
 62
7
  6
CONTINUOUS
 10
12.3995399363
 20
7.8466588678
 11
12.3834757575
 21
7.8658078017
  0
LINE
  5
2EF
100
AcDbEntity
  8
0
100
AcDbLine
 62
7
  6
CONTINUOUS
 10
12.0983367278
 20
7.6982546101
 11
12.0903046412
 21
7.7126163105
  0
LINE
  5
2F0
100
AcDbEntity
  8
0
100
AcDbLine
 62
7
  6
CONTINUOUS
 10
10.8442345963
 20
11.4317652444
 11
10.8482979843
 21
11.407829077
  0
LINE
  5
2F1
100
AcDbEntity
  8
0
100
AcDbLine
 62
7
  6
CONTINUOUS
 10
12.5918476998
 20
10.7748503524
 11
12.6054496416
 21
10.7939992862
  0
LINE
  5
2F2
100
AcDbEntity
  8
0
100
AcDbLine
 62
7
  6
CONTINUOUS
 10
12.7690158875
 20
7.8466588678
 11
12.7529516857
 21
7.8658078017
  0
LINE
  5
2F3
100
AcDbEntity
  8
0
100
AcDbLine
 62
7
  6
CONTINUOUS
 10
12.2870907308
 20
7.6982546101
 11
12.2790586529
 21
7.7126163105
  0
LINE
  5
2F4
100
AcDbEntity
  8
0
100
AcDbLine
 62
7
  6
CONTINUOUS
 10
12.3754436796
 20
7.8370844009
 11
12.3834757575
 21
7.8227226871
  0
LINE
  5
2F5
100
AcDbEntity
  8
0
100
AcDbLine
 62
7
  6
CONTINUOUS
 10
12.0662083856
 20
7.707829077
 11
12.0742404711
 21
7.6886801398
  0
LINE
  5
2F6
100
AcDbEntity
  8
0
100
AcDbLine
 62
7
  6
CONTINUOUS
 10
12.2549623962
 20
7.707829077
 11
12.2629944741
 21
7.6886801398
  0
LINE
  5
2F7
100
AcDbEntity
  8
0
100
AcDbLine
 62
7
  6
CONTINUOUS
 10
10.872678266
 20
11.4126163105
 11
10.8686148779
 21
11.4317652444
  0
LINE
  5
2F8
100
AcDbEntity
  8
0
100
AcDbLine
 62
7
  6
CONTINUOUS
 10
10.9783261456
 20
11.5227226871
 11
10.9823895336
 21
11.5035737532
  0
LINE
  5
2F9
100
AcDbEntity
  8
0
100
AcDbLine
 62
7
  6
CONTINUOUS
 10
11.0067698153
 20
11.5035737532
 11
11.0027064272
 21
11.527509934
  0
LINE
  5
2FA
100
AcDbEntity
  8
0
100
AcDbLine
 62
7
  6
CONTINUOUS
 10
11.7126290013
 20
10.2484718142
 11
11.7148463848
 21
10.2273748189
  0
LINE
  5
2FB
100
AcDbEntity
  8
0
100
AcDbLine
 62
7
  6
CONTINUOUS
 10
11.7463864378
 20
10.2208294365
 11
11.7478661961
 21
10.1996679074
  0
LINE
  5
2FC
100
AcDbEntity
  8
0
100
AcDbLine
 62
7
  6
CONTINUOUS
 10
11.8710624959
 20
8.4378787394
 11
11.8711705063
 21
8.4363341196
  0
LINE
  5
2FD
100
AcDbEntity
  8
0
100
AcDbLine
 62
7
  6
CONTINUOUS
 10
11.7791586052
 20
10.1920257804
 11
11.7798989354
 21
10.1708254994
  0
LINE
  5
2FE
100
AcDbEntity
  8
0
100
AcDbLine
 62
7
  6
CONTINUOUS
 10
11.84084834
 20
8.4254629095
 11
11.8415886702
 21
8.4042626286
  0
LINE
  5
2FF
100
AcDbEntity
  8
0
100
AcDbLine
 62
7
  6
CONTINUOUS
 10
11.8109055756
 20
10.1620959384
 11
11.8109055756
 21
10.140882735
  0
LINE
  5
300
100
AcDbEntity
  8
0
100
AcDbLine
 62
7
  6
CONTINUOUS
 10
11.8109055756
 20
8.3944562693
 11
11.8109055756
 21
8.3732430658
  0
LINE
  5
301
100
AcDbEntity
  8
0
100
AcDbLine
 62
7
  6
CONTINUOUS
 10
11.8415886702
 20
10.1310763757
 11
11.84084834
 21
10.1098760948
  0
LINE
  5
302
100
AcDbEntity
  8
0
100
AcDbLine
 62
7
  6
CONTINUOUS
 10
11.7798989354
 20
8.3645135048
 11
11.7791586052
 21
8.3433132239
  0
LINE
  5
303
100
AcDbEntity
  8
0
100
AcDbLine
 62
7
  6
CONTINUOUS
 10
11.8711705063
 20
10.0990048846
 11
11.869690748
 21
10.0778433555
  0
LINE
  5
304
100
AcDbEntity
  8
0
100
AcDbLine
 62
7
  6
CONTINUOUS
 10
11.7478661961
 20
8.3356710969
 11
11.7463864378
 21
8.3145095677
  0
LINE
  5
305
100
AcDbEntity
  8
0
100
AcDbLine
 62
7
  6
CONTINUOUS
 10
11.899615043
 20
10.0659205395
 11
11.8973976595
 21
10.0448235442
  0
LINE
  5
306
100
AcDbEntity
  8
0
100
AcDbLine
 62
7
  6
CONTINUOUS
 10
11.7148463848
 20
8.3079641854
 11
11.7126290013
 21
8.2868671901
  0
LINE
  5
307
100
AcDbEntity
  8
0
100
AcDbLine
 62
7
  6
CONTINUOUS
 10
11.9268876252
 20
10.0318636484
 11
11.9239353179
 21
10.0108568904
  0
LINE
  5
308
100
AcDbEntity
  8
0
100
AcDbLine
 62
7
  6
CONTINUOUS
 10
11.680879731
 20
8.281426527
 11
11.6779274237
 21
8.260419769
  0
LINE
  5
309
100
AcDbEntity
  8
0
100
AcDbLine
 62
7
  6
CONTINUOUS
 10
12.1611195272
 20
10.8801695021
 11
12.1339156437
 21
10.707829077
  0
LINE
  5
30A
100
AcDbEntity
  8
0
100
AcDbLine
 62
7
  6
CONTINUOUS
 10
11.9529550252
 20
9.9968757045
 11
11.9492713911
 21
9.9759847773
  0
LINE
  5
30B
100
AcDbEntity
  8
0
100
AcDbLine
 62
7
  6
CONTINUOUS
 10
11.6460076179
 20
8.2560904538
 11
11.6423239838
 21
8.2351995266
  0
LINE
  5
30C
100
AcDbEntity
  8
0
100
AcDbLine
 62
7
  6
CONTINUOUS
 10
12.0432360342
 20
10.6551695021
 11
12.0795078767
 21
10.8370844009
  0
LINE
  5
30D
100
AcDbEntity
  8
0
100
AcDbLine
 62
7
  6
CONTINUOUS
 10
12.0613719522
 20
10.8801695021
 11
12.0251001097
 21
10.707829077
  0
LINE
  5
30E
100
AcDbEntity
  8
0
100
AcDbLine
 62
7
  6
CONTINUOUS
 10
11.9777854841
 20
9.9609993352
 11
11.9733750111
 21
9.9402496911
  0
LINE
  5
30F
100
AcDbEntity
  8
0
100
AcDbLine
 62
7
  6
CONTINUOUS
 10
11.6102725317
 20
8.2319868338
 11
11.6058620587
 21
8.2112371898
  0
LINE
  5
310
100
AcDbEntity
  8
0
100
AcDbLine
 62
7
  6
CONTINUOUS
 10
12.0013487497
 20
9.9242782502
 11
11.9962168113
 21
9.9036951696
  0
LINE
  5
311
100
AcDbEntity
  8
0
100
AcDbLine
 62
7
  6
CONTINUOUS
 10
11.5737180102
 20
8.2091450336
 11
11.5685860718
 21
8.188561953
  0
LINE
  5
312
100
AcDbEntity
  8
0
100
AcDbLine
 62
7
  6
CONTINUOUS
 10
12.0236161138
 20
9.8867571886
 11
12.0177689624
 21
9.8663657487
  0
LINE
  5
313
100
AcDbEntity
  8
0
100
AcDbLine
 62
7
  6
CONTINUOUS
 10
11.5363885893
 20
8.1875928824
 11
11.530541438
 21
8.1672014425
  0
LINE
  5
314
100
AcDbEntity
  8
0
100
AcDbLine
 62
7
  6
CONTINUOUS
 10
12.2744690504
 20
10.7317652444
 11
12.3152748757
 21
10.8610205683
  0
LINE
  5
315
100
AcDbEntity
  8
0
100
AcDbLine
 62
7
  6
CONTINUOUS
 10
12.2517991302
 20
10.6551695021
 11
12.2699350612
 21
10.7126163105
  0
LINE
  5
316
100
AcDbEntity
  8
0
100
AcDbLine
 62
7
  6
CONTINUOUS
 10
12.2971389447
 20
10.8801695021
 11
12.2245952467
 21
10.6551695021
  0
LINE
  5
317
100
AcDbEntity
  8
0
100
AcDbLine
 62
7
  6
CONTINUOUS
 10
12.044560447
 20
9.8484818641
 11
12.0380052066
 21
9.8283069087
  0
LINE
  5
318
100
AcDbEntity
  8
0
100
AcDbLine
 62
7
  6
CONTINUOUS
 10
11.4983297493
 20
8.1673566382
 11
11.4917745089
 21
8.1471816829
  0
LINE
  5
319
100
AcDbEntity
  8
0
100
AcDbLine
 62
7
  6
CONTINUOUS
 10
12.064156232
 20
9.8094989091
 11
12.0569008891
 21
9.7895650184
  0
LINE
  5
31A
100
AcDbEntity
  8
0
100
AcDbLine
 62
7
  6
CONTINUOUS
 10
11.459587859
 20
8.1484609558
 11
11.4523325161
 21
8.1285270651
  0
LINE
  5
31B
100
AcDbEntity
  8
0
100
AcDbLine
 62
7
  6
CONTINUOUS
 10
12.0823795942
 20
9.7698558185
 11
12.0744329883
 21
9.7501872788
  0
LINE
  5
31C
100
AcDbEntity
  8
0
100
AcDbLine
 62
7
  6
CONTINUOUS
 10
11.4202101194
 20
8.1309288565
 11
11.4122635135
 21
8.1112603168
  0
LINE
  5
31D
100
AcDbEntity
  8
0
100
AcDbLine
 62
7
  6
CONTINUOUS
 10
12.0992083314
 20
9.7296008912
 11
12.0905801442
 21
9.7102216656
  0
LINE
  5
31E
100
AcDbEntity
  8
0
100
AcDbLine
 62
7
  6
CONTINUOUS
 10
11.3802445061
 20
8.1147817007
 11
11.371616319
 21
8.095402475
  0
LINE
  5
31F
100
AcDbEntity
  8
0
100
AcDbLine
 62
7
  6
CONTINUOUS
 10
12.1146219402
 20
9.6887831717
 11
12.1053226839
 21
9.6697168707
  0
LINE
  5
320
100
AcDbEntity
  8
0
100
AcDbLine
 62
7
  6
CONTINUOUS
 10
11.3397397113
 20
8.100039161
 11
11.330440455
 21
8.0809728601
  0
LINE
  5
321
100
AcDbEntity
  8
0
100
AcDbLine
 62
7
  6
CONTINUOUS
 10
12.1286016416
 20
9.64745239
 11
12.1186426458
 21
9.6287222431
  0
LINE
  5
322
100
AcDbEntity
  8
0
100
AcDbLine
 62
7
  6
CONTINUOUS
 10
11.2987450837
 20
8.0867191991
 11
11.2887860879
 21
8.0679890521
  0
LINE
  5
323
100
AcDbEntity
  8
0
100
AcDbLine
 62
7
  6
CONTINUOUS
 10
12.1411304035
 20
9.6056589014
 11
12.1305238018
 21
9.5872877283
  0
LINE
  5
324
100
AcDbEntity
  8
0
100
AcDbLine
 62
7
  6
CONTINUOUS
 10
11.2573105689
 20
8.0748380431
 11
11.2467039672
 21
8.0564668701
  0
LINE
  5
325
100
AcDbEntity
  8
0
100
AcDbLine
 62
7
  6
CONTINUOUS
 10
12.1521929614
 20
9.5634536247
 11
12.1409516763
 21
9.5454638079
  0
LINE
  5
326
100
AcDbEntity
  8
0
100
AcDbLine
 62
7
  6
CONTINUOUS
 10
11.2154866485
 20
8.0644101686
 11
11.2042453634
 21
8.0464203518
  0
LINE
  5
327
100
AcDbEntity
  8
0
100
AcDbLine
 62
7
  6
CONTINUOUS
 10
12.1617758375
 20
9.5208879807
 11
12.1499135647
 21
9.503301438
  0
LINE
  5
328
100
AcDbEntity
  8
0
100
AcDbLine
 62
7
  6
CONTINUOUS
 10
11.1733242786
 20
8.0554482802
 11
11.1614620058
 21
8.0378617375
  0
LINE
  5
329
100
AcDbEntity
  8
0
100
AcDbLine
 62
7
  6
CONTINUOUS
 10
12.1698673564
 20
9.4780138289
 11
12.1573985482
 21
9.4608519869
  0
LINE
  5
32A
100
AcDbEntity
  8
0
100
AcDbLine
 62
7
  6
CONTINUOUS
 10
11.1308748275
 20
8.0479632967
 11
11.1184060193
 21
8.0308014546
  0
LINE
  5
32B
100
AcDbEntity
  8
0
100
AcDbLine
 62
7
  6
CONTINUOUS
 10
12.1764576598
 20
9.434883405
 11
12.1633975076
 21
9.4181671726
  0
LINE
  5
32C
100
AcDbEntity
  8
0
100
AcDbLine
 62
7
  6
CONTINUOUS
 10
11.0881900132
 20
8.0419643372
 11
11.0751298611
 21
8.0252481048
  0
LINE
  5
32D
100
AcDbEntity
  8
0
100
AcDbLine
 62
7
  6
CONTINUOUS
 10
12.1815387185
 20
9.3915492567
 11
12.1679031341
 21
9.3752990001
  0
LINE
  5
32E
100
AcDbEntity
  8
0
100
AcDbLine
 62
7
  6
CONTINUOUS
 10
11.0453218407
 20
8.0374587108
 11
11.0316862564
 21
8.0212084541
  0
LINE
  5
32F
100
AcDbEntity
  8
0
100
AcDbLine
 62
7
  6
CONTINUOUS
 10
12.1851043419
 20
9.3480641801
 11
12.1709099383
 21
9.3322996977
  0
LINE
  5
330
100
AcDbEntity
  8
0
100
AcDbLine
 62
7
  6
CONTINUOUS
 10
11.0023225383
 20
8.0344519066
 11
10.9881281346
 21
8.0186874243
  0
LINE
  5
331
100
AcDbEntity
  8
0
100
AcDbLine
 62
7
  6
CONTINUOUS
 10
12.1871501861
 20
9.3044811548
 11
12.1724142567
 21
9.2892216533
  0
LINE
  5
332
100
AcDbEntity
  8
0
100
AcDbLine
 62
7
  6
CONTINUOUS
 10
10.9592444939
 20
8.0329475882
 11
10.9445085646
 21
8.0176880866
  0
LINE
  5
333
100
AcDbEntity
  8
0
100
AcDbLine
 62
7
  6
CONTINUOUS
 10
12.1876737582
 20
9.2608532803
 11
12.1724142567
 21
9.246117351
  0
LINE
  5
334
100
AcDbEntity
  8
0
100
AcDbLine
 62
7
  6
CONTINUOUS
 10
10.9161401916
 20
8.0329475882
 11
10.90088069
 21
8.0182116588
  0
LINE
  5
335
100
AcDbEntity
  8
0
100
AcDbLine
 62
7
  6
CONTINUOUS
 10
12.1866744206
 20
9.2172337103
 11
12.1709099383
 21
9.2030393066
  0
LINE
  5
336
100
AcDbEntity
  8
0
100
AcDbLine
 62
7
  6
CONTINUOUS
 10
10.8730621472
 20
8.0344519066
 11
10.8572976648
 21
8.0202575029
  0
LINE
  5
337
100
AcDbEntity
  8
0
100
AcDbLine
 62
7
  6
CONTINUOUS
 10
12.1841533907
 20
9.1736755885
 11
12.1679031341
 21
9.1600400041
  0
LINE
  5
338
100
AcDbEntity
  8
0
100
AcDbLine
 62
7
  6
CONTINUOUS
 10
10.8300628447
 20
8.0374587108
 11
10.8138125881
 21
8.0238231264
  0
LINE
  5
339
100
AcDbEntity
  8
0
100
AcDbLine
 62
7
  6
CONTINUOUS
 10
12.1801137401
 20
9.1302319838
 11
12.1633975076
 21
9.1171718317
  0
LINE
  5
33A
100
AcDbEntity
  8
0
100
AcDbLine
 62
7
  6
CONTINUOUS
 10
10.7871946723
 20
8.0419643372
 11
10.7704784398
 21
8.0289041851
  0
LINE
  5
33B
100
AcDbEntity
  8
0
100
AcDbLine
 62
7
  6
CONTINUOUS
 10
12.1745603903
 20
9.0869558256
 11
12.1573985482
 21
9.0744870174
  0
LINE
  5
33C
100
AcDbEntity
  8
0
100
AcDbLine
 62
7
  6
CONTINUOUS
 10
10.744509858
 20
8.0479632967
 11
10.7273480159
 21
8.0354944885
  0
LINE
  5
33D
100
AcDbEntity
  8
0
100
AcDbLine
 62
7
  6
CONTINUOUS
 10
12.1675001074
 20
9.0438998391
 11
12.1499135647
 21
9.0320375663
  0
LINE
  5
33E
100
AcDbEntity
  8
0
100
AcDbLine
 62
7
  6
CONTINUOUS
 10
10.7020604069
 20
8.0554482802
 11
10.6844738642
 21
8.0435860074
  0
LINE
  5
33F
100
AcDbEntity
  8
0
100
AcDbLine
 62
7
  6
CONTINUOUS
 10
12.1589414931
 20
9.0011164815
 11
12.1409516763
 21
8.9898751964
  0
LINE
  5
340
100
AcDbEntity
  8
0
100
AcDbLine
 62
7
  6
CONTINUOUS
 10
10.6598980369
 20
8.0644101686
 11
10.6419082202
 21
8.0531688834
  0
LINE
  5
341
100
AcDbEntity
  8
0
100
AcDbLine
 62
7
  6
CONTINUOUS
 10
12.1488949748
 20
8.9586578777
 11
12.1305238018
 21
8.948051276
  0
LINE
  5
342
100
AcDbEntity
  8
0
100
AcDbLine
 62
7
  6
CONTINUOUS
 10
10.6180741166
 20
8.0748380431
 11
10.5997029435
 21
8.0642314414
  0
LINE
  5
343
100
AcDbEntity
  8
0
100
AcDbLine
 62
7
  6
CONTINUOUS
 10
12.1373727927
 20
8.916575757
 11
12.1186426458
 21
8.9066167612
  0
LINE
  5
344
100
AcDbEntity
  8
0
100
AcDbLine
 62
7
  6
CONTINUOUS
 10
10.5766396018
 20
8.0867191991
 11
10.5579094549
 21
8.0767602033
  0
LINE
  5
345
100
AcDbEntity
  8
0
100
AcDbLine
 62
7
  6
CONTINUOUS
 10
12.1243889848
 20
8.8749213899
 11
12.1229972997
 21
8.8742426197
  0
LINE
  5
346
100
AcDbEntity
  8
0
100
AcDbLine
 62
7
  6
CONTINUOUS
 10
10.5356449742
 20
8.100039161
 11
10.5165786732
 21
8.0907399047
  0
LINE
  5
347
100
AcDbEntity
  8
0
100
AcDbLine
 62
7
  6
CONTINUOUS
 10
10.4951401793
 20
8.1147817007
 11
10.4757609537
 21
8.1061535135
  0
LINE
  5
348
100
AcDbEntity
  8
0
100
AcDbLine
 62
7
  6
CONTINUOUS
 10
10.4551745661
 20
8.1309288565
 11
10.4355060264
 21
8.1229822507
  0
LINE
  5
349
100
AcDbEntity
  8
0
100
AcDbLine
 62
7
  6
CONTINUOUS
 10
10.4157968265
 20
8.1484609558
 11
10.3958629358
 21
8.1412056129
  0
LINE
  5
34A
100
AcDbEntity
  8
0
100
AcDbLine
 62
7
  6
CONTINUOUS
 10
10.3770549362
 20
8.1673566382
 11
10.3568799808
 21
8.1608013979
  0
LINE
  5
34B
100
AcDbEntity
  8
0
100
AcDbLine
 62
7
  6
CONTINUOUS
 10
10.3389960962
 20
8.1875928824
 11
10.3186046563
 21
8.1817457311
  0
LINE
  5
34C
100
AcDbEntity
  8
0
100
AcDbLine
 62
7
  6
CONTINUOUS
 10
9.8585847936
 20
9.8985632312
 11
9.8791678742
 21
9.9036951696
  0
LINE
  5
34D
100
AcDbEntity
  8
0
100
AcDbLine
 62
7
  6
CONTINUOUS
 10
11.5737180102
 20
10.3261939707
 11
11.5943010908
 21
10.3313259091
  0
LINE
  5
34E
100
AcDbEntity
  8
0
100
AcDbLine
 62
7
  6
CONTINUOUS
 10
9.8812600303
 20
9.9358392181
 11
9.9020096744
 21
9.9402496911
  0
LINE
  5
34F
100
AcDbEntity
  8
0
100
AcDbLine
 62
7
  6
CONTINUOUS
 10
11.6102725317
 20
10.3033521705
 11
11.6310221757
 21
10.3077626435
  0
LINE
  5
350
100
AcDbEntity
  8
0
100
AcDbLine
 62
7
  6
CONTINUOUS
 10
9.9052223672
 20
9.9723011432
 11
9.9261132944
 21
9.9759847773
  0
LINE
  5
351
100
AcDbEntity
  8
0
100
AcDbLine
 62
7
  6
CONTINUOUS
 10
11.6460076179
 20
10.2792485505
 11
11.6668985451
 21
10.2829321846
  0
LINE
  5
352
100
AcDbEntity
  8
0
100
AcDbLine
 62
7
  6
CONTINUOUS
 10
9.9304426096
 20
10.0079045831
 11
9.9514493676
 21
10.0108568904
  0
LINE
  5
353
100
AcDbEntity
  8
0
100
AcDbLine
 62
7
  6
CONTINUOUS
 10
11.680879731
 20
10.2539124773
 11
11.701886489
 21
10.2568647846
  0
LINE
  5
354
100
AcDbEntity
  8
0
100
AcDbLine
 62
7
  6
CONTINUOUS
 10
9.9568900307
 20
10.0426061607
 11
9.977987026
 21
10.0448235442
  0
LINE
  5
355
100
AcDbEntity
  8
0
100
AcDbLine
 62
7
  6
CONTINUOUS
 10
11.7148463848
 20
10.2273748189
 11
11.7359433801
 21
10.2295922024
  0
LINE
  5
356
100
AcDbEntity
  8
0
100
AcDbLine
 62
7
  6
CONTINUOUS
 10
9.9845324083
 20
10.0763635972
 11
10.0056939375
 21
10.0778433555
  0
LINE
  5
357
100
AcDbEntity
  8
0
100
AcDbLine
 62
7
  6
CONTINUOUS
 10
11.7478661961
 20
10.1996679074
 11
11.7690277252
 21
10.2011476657
  0
LINE
  5
358
100
AcDbEntity
  8
0
100
AcDbLine
 62
7
  6
CONTINUOUS
 10
10.0133360645
 20
10.1091357646
 11
10.0345363454
 21
10.1098760948
  0
LINE
  5
359
100
AcDbEntity
  8
0
100
AcDbLine
 62
7
  6
CONTINUOUS
 10
11.7798989354
 20
10.1708254994
 11
11.8010992163
 21
10.1715658296
  0
LINE
  5
35A
100
AcDbEntity
  8
0
100
AcDbLine
 62
7
  6
CONTINUOUS
 10
10.0432659064
 20
10.140882735
 11
10.0644791099
 21
10.140882735
  0
LINE
  5
35B
100
AcDbEntity
  8
0
100
AcDbLine
 62
7
  6
CONTINUOUS
 10
11.8109055756
 20
10.140882735
 11
11.832118779
 21
10.140882735
  0
LINE
  5
35C
100
AcDbEntity
  8
0
100
AcDbLine
 62
7
  6
CONTINUOUS
 10
10.0742854692
 20
10.1715658296
 11
10.0954857501
 21
10.1708254994
  0
LINE
  5
35D
100
AcDbEntity
  8
0
100
AcDbLine
 62
7
  6
CONTINUOUS
 10
11.84084834
 20
10.1098760948
 11
11.862048621
 21
10.1091357646
  0
LINE
  5
35E
100
AcDbEntity
  8
0
100
AcDbLine
 62
7
  6
CONTINUOUS
 10
10.1063569602
 20
10.2011476657
 11
10.1275184894
 21
10.1996679074
  0
LINE
  5
35F
100
AcDbEntity
  8
0
100
AcDbLine
 62
7
  6
CONTINUOUS
 10
11.869690748
 20
10.0778433555
 11
11.8908522771
 21
10.0763635972
  0
LINE
  5
360
100
AcDbEntity
  8
0
100
AcDbLine
 62
7
  6
CONTINUOUS
 10
10.1394413054
 20
10.2295922024
 11
10.1605383007
 21
10.2273748189
  0
LINE
  5
361
100
AcDbEntity
  8
0
100
AcDbLine
 62
7
  6
CONTINUOUS
 10
11.8973976595
 20
10.0448235442
 11
11.9184946548
 21
10.0426061607
  0
LINE
  5
362
100
AcDbEntity
  8
0
100
AcDbLine
 62
7
  6
CONTINUOUS
 10
10.1734981964
 20
10.2568647846
 11
10.1945049544
 21
10.2539124773
  0
LINE
  5
363
100
AcDbEntity
  8
0
100
AcDbLine
 62
7
  6
CONTINUOUS
 10
11.9239353179
 20
10.0108568904
 11
11.9449420759
 21
10.0079045831
  0
LINE
  5
364
100
AcDbEntity
  8
0
100
AcDbLine
 62
7
  6
CONTINUOUS
 10
10.2084861404
 20
10.2829321846
 11
10.2293770676
 21
10.2792485505
  0
LINE
  5
365
100
AcDbEntity
  8
0
100
AcDbLine
 62
7
  6
CONTINUOUS
 10
11.9492713911
 20
9.9759847773
 11
11.9701623183
 21
9.9723011432
  0
LINE
  5
366
100
AcDbEntity
  8
0
100
AcDbLine
 62
7
  6
CONTINUOUS
 10
10.2443625097
 20
10.3077626435
 11
10.2651121538
 21
10.3033521705
  0
LINE
  5
367
100
AcDbEntity
  8
0
100
AcDbLine
 62
7
  6
CONTINUOUS
 10
11.9733750111
 20
9.9402496911
 11
11.9941246551
 21
9.9358392181
  0
LINE
  5
368
100
AcDbEntity
  8
0
100
AcDbLine
 62
7
  6
CONTINUOUS
 10
10.2810835947
 20
10.3313259091
 11
10.3016666753
 21
10.3261939707
  0
LINE
  5
369
100
AcDbEntity
  8
0
100
AcDbLine
 62
7
  6
CONTINUOUS
 10
11.9962168113
 20
9.9036951696
 11
12.0167998919
 21
9.8985632312
  0
LINE
  5
36A
100
AcDbEntity
  8
0
100
AcDbLine
 62
7
  6
CONTINUOUS
 10
10.3186046563
 20
10.3535932732
 11
10.3389960962
 21
10.3477461219
  0
LINE
  5
36B
100
AcDbEntity
  8
0
100
AcDbLine
 62
7
  6
CONTINUOUS
 10
12.0177689624
 20
9.8663657487
 11
12.0381604024
 21
9.8605185974
  0
LINE
  5
36C
100
AcDbEntity
  8
0
100
AcDbLine
 62
7
  6
CONTINUOUS
 10
10.3568799808
 20
10.3745376064
 11
10.3770549362
 21
10.367982366
  0
LINE
  5
36D
100
AcDbEntity
  8
0
100
AcDbLine
 62
7
  6
CONTINUOUS
 10
12.0380052066
 20
9.8283069087
 11
12.058180162
 21
9.8217516683
  0
LINE
  5
36E
100
AcDbEntity
  8
0
100
AcDbLine
 62
7
  6
CONTINUOUS
 10
10.3958629358
 20
10.3941333914
 11
10.4157968265
 21
10.3868780485
  0
LINE
  5
36F
100
AcDbEntity
  8
0
100
AcDbLine
 62
7
  6
CONTINUOUS
 10
12.0569008891
 20
9.7895650184
 11
12.0768347798
 21
9.7823096755
  0
LINE
  5
370
100
AcDbEntity
  8
0
100
AcDbLine
 62
7
  6
CONTINUOUS
 10
10.4355060264
 20
10.4123567536
 11
10.4551745661
 21
10.4044101477
  0
LINE
  5
371
100
AcDbEntity
  8
0
100
AcDbLine
 62
7
  6
CONTINUOUS
 10
12.0744329883
 20
9.7501872788
 11
12.0941015281
 21
9.7422406729
  0
LINE
  5
372
100
AcDbEntity
  8
0
100
AcDbLine
 62
7
  6
CONTINUOUS
 10
10.4757609537
 20
10.4291854908
 11
10.4951401793
 21
10.4205573036
  0
LINE
  5
373
100
AcDbEntity
  8
0
100
AcDbLine
 62
7
  6
CONTINUOUS
 10
12.0905801442
 20
9.7102216656
 11
12.1099593698
 21
9.7015934784
  0
LINE
  5
374
100
AcDbEntity
  8
0
100
AcDbLine
 62
7
  6
CONTINUOUS
 10
10.5165786732
 20
10.4445990996
 11
10.5356449742
 21
10.4352998433
  0
LINE
  5
375
100
AcDbEntity
  8
0
100
AcDbLine
 62
7
  6
CONTINUOUS
 10
12.1053226839
 20
9.6697168707
 11
12.1243889848
 21
9.6604176144
  0
LINE
  5
376
100
AcDbEntity
  8
0
100
AcDbLine
 62
7
  6
CONTINUOUS
 10
10.5579094549
 20
10.458578801
 11
10.5766396018
 21
10.4486198052
  0
LINE
  5
377
100
AcDbEntity
  8
0
100
AcDbLine
 62
7
  6
CONTINUOUS
 10
12.1186426458
 20
9.6287222431
 11
12.1373727927
 21
9.6187632473
  0
LINE
  5
378
100
AcDbEntity
  8
0
100
AcDbLine
 62
7
  6
CONTINUOUS
 10
10.5997029435
 20
10.4711075629
 11
10.6180741166
 21
10.4605009612
  0
LINE
  5
379
100
AcDbEntity
  8
0
100
AcDbLine
 62
7
  6
CONTINUOUS
 10
12.1305238018
 20
9.5872877283
 11
12.1488949748
 21
9.5766811266
  0
LINE
  5
37A
100
AcDbEntity
  8
0
100
AcDbLine
 62
7
  6
CONTINUOUS
 10
10.6419082202
 20
10.4821701208
 11
10.6598980369
 21
10.4709288357
  0
LINE
  5
37B
100
AcDbEntity
  8
0
100
AcDbLine
 62
7
  6
CONTINUOUS
 10
12.1409516763
 20
9.5454638079
 11
12.1589414931
 21
9.5342225228
  0
LINE
  5
37C
100
AcDbEntity
  8
0
100
AcDbLine
 62
7
  6
CONTINUOUS
 10
10.6844738642
 20
10.4917529969
 11
10.685757539
 21
10.4908871473
  0
LINE
  5
37D
100
AcDbEntity
  8
0
100
AcDbLine
 62
7
  6
CONTINUOUS
 10
12.1499135647
 20
9.503301438
 11
12.1675001074
 21
9.4914391652
  0
LINE
  5
37E
100
AcDbEntity
  8
0
100
AcDbLine
 62
7
  6
CONTINUOUS
 10
12.1573985482
 20
9.4608519869
 11
12.1745603903
 21
9.4483831787
  0
LINE
  5
37F
100
AcDbEntity
  8
0
100
AcDbLine
 62
7
  6
CONTINUOUS
 10
12.1633975076
 20
9.4181671726
 11
12.1801137401
 21
9.4051070205
  0
LINE
  5
380
100
AcDbEntity
  8
0
100
AcDbLine
 62
7
  6
CONTINUOUS
 10
12.1679031341
 20
9.3752990001
 11
12.1841533907
 21
9.3616634158
  0
LINE
  5
381
100
AcDbEntity
  8
0
100
AcDbLine
 62
7
  6
CONTINUOUS
 10
12.1709099383
 20
9.3322996977
 11
12.1866744206
 21
9.318105294
  0
LINE
  5
382
100
AcDbEntity
  8
0
100
AcDbLine
 62
7
  6
CONTINUOUS
 10
12.1724142567
 20
9.2892216533
 11
12.1876737582
 21
9.274485724
  0
LINE
  5
383
100
AcDbEntity
  8
0
100
AcDbLine
 62
7
  6
CONTINUOUS
 10
12.1724142567
 20
9.246117351
 11
12.1871501861
 21
9.2308578494
  0
LINE
  5
384
100
AcDbEntity
  8
0
100
AcDbLine
 62
7
  6
CONTINUOUS
 10
12.1709099383
 20
9.2030393066
 11
12.1851043419
 21
9.1872748242
  0
LINE
  5
385
100
AcDbEntity
  8
0
100
AcDbLine
 62
7
  6
CONTINUOUS
 10
12.1679031341
 20
9.1600400041
 11
12.1815387185
 21
9.1437897475
  0
LINE
  5
386
100
AcDbEntity
  8
0
100
AcDbLine
 62
7
  6
CONTINUOUS
 10
12.1633975076
 20
9.1171718317
 11
12.1764576598
 21
9.1004555992
  0
LINE
  5
387
100
AcDbEntity
  8
0
100
AcDbLine
 62
7
  6
CONTINUOUS
 10
12.1573985482
 20
9.0744870174
 11
12.1698673564
 21
9.0573251753
  0
LINE
  5
388
100
AcDbEntity
  8
0
100
AcDbLine
 62
7
  6
CONTINUOUS
 10
12.1499135647
 20
9.0320375663
 11
12.1617758375
 21
9.0144510236
  0
LINE
  5
389
100
AcDbEntity
  8
0
100
AcDbLine
 62
7
  6
CONTINUOUS
 10
11.2042453634
 20
10.4889186525
 11
11.2154866485
 21
10.4709288357
  0
LINE
  5
38A
100
AcDbEntity
  8
0
100
AcDbLine
 62
7
  6
CONTINUOUS
 10
12.1409516763
 20
8.9898751964
 11
12.1521929614
 21
8.9718853796
  0
LINE
  5
38B
100
AcDbEntity
  8
0
100
AcDbLine
 62
7
  6
CONTINUOUS
 10
11.2467039672
 20
10.4788721342
 11
11.2573105689
 21
10.4605009612
  0
LINE
  5
38C
100
AcDbEntity
  8
0
100
AcDbLine
 62
7
  6
CONTINUOUS
 10
12.1305238018
 20
8.948051276
 11
12.1411304035
 21
8.9296801029
  0
LINE
  5
38D
100
AcDbEntity
  8
0
100
AcDbLine
 62
7
  6
CONTINUOUS
 10
12.7449196308
 20
7.8370844009
 11
12.7529516857
 21
7.8227226871
  0
LINE
  5
38E
100
AcDbEntity
  8
0
100
AcDbLine
 62
7
  6
CONTINUOUS
 10
11.2887860879
 20
10.4673499521
 11
11.2987450837
 21
10.4486198052
  0
LINE
  5
38F
100
AcDbEntity
  8
0
100
AcDbLine
 62
7
  6
CONTINUOUS
 10
12.1186426458
 20
8.9066167612
 11
12.1286016416
 21
8.8878866143
  0
LINE
  5
390
100
AcDbEntity
  8
0
100
AcDbLine
 62
7
  6
CONTINUOUS
 10
11.330440455
 20
10.4543661442
 11
11.3397397113
 21
10.4352998433
  0
LINE
  5
391
100
AcDbEntity
  8
0
100
AcDbLine
 62
7
  6
CONTINUOUS
 10
11.371616319
 20
10.4399365292
 11
11.3802445061
 21
10.4205573036
  0
LINE
  5
392
100
AcDbEntity
  8
0
100
AcDbLine
 62
7
  6
CONTINUOUS
 10
10.8482979843
 20
11.407829077
 11
10.8564247371
 21
11.3886801398
  0
LINE
  5
393
100
AcDbEntity
  8
0
100
AcDbLine
 62
7
  6
CONTINUOUS
 10
11.0027064272
 20
11.527509934
 11
10.9945796744
 21
11.5466588678
  0
LINE
  5
394
100
AcDbEntity
  8
0
100
AcDbLine
 62
7
  6
CONTINUOUS
 10
12.4075720142
 20
7.827509934
 11
12.3995399363
 21
7.8466588678
  0
LINE
  5
395
100
AcDbEntity
  8
0
100
AcDbLine
 62
7
  6
CONTINUOUS
 10
11.4122635135
 20
10.4240786875
 11
11.4202101194
 21
10.4044101477
  0
LINE
  5
396
100
AcDbEntity
  8
0
100
AcDbLine
 62
7
  6
CONTINUOUS
 10
11.4523325161
 20
10.4068119392
 11
11.459587859
 21
10.3868780485
  0
LINE
  5
397
100
AcDbEntity
  8
0
100
AcDbLine
 62
7
  6
CONTINUOUS
 10
11.4917745089
 20
10.3881573214
 11
11.4983297493
 21
10.367982366
  0
LINE
  5
398
100
AcDbEntity
  8
0
100
AcDbLine
 62
7
  6
CONTINUOUS
 10
11.530541438
 20
10.3681375618
 11
11.5363885893
 21
10.3477461219
  0
LINE
  5
399
100
AcDbEntity
  8
0
100
AcDbLine
 62
7
  6
CONTINUOUS
 10
12.1907057156
 20
7.8370844009
 11
12.1947217545
 21
7.8227226871
  0
LINE
  5
39A
100
AcDbEntity
  8
0
100
AcDbLine
 62
7
  6
CONTINUOUS
 10
11.5685860718
 20
10.3467770513
 11
11.5737180102
 21
10.3261939707
  0
LINE
  5
39B
100
AcDbEntity
  8
0
100
AcDbLine
 62
7
  6
CONTINUOUS
 10
11.6058620587
 20
10.3241018145
 11
11.6102725317
 21
10.3033521705
  0
LINE
  5
39C
100
AcDbEntity
  8
0
100
AcDbLine
 62
7
  6
CONTINUOUS
 10
12.0903046412
 20
7.7126163105
 11
12.0862885994
 21
7.7317652444
  0
LINE
  5
39D
100
AcDbEntity
  8
0
100
AcDbLine
 62
7
  6
CONTINUOUS
 10
11.6423239838
 20
10.3001394777
 11
11.6460076179
 21
10.2792485505
  0
LINE
  5
39E
100
AcDbEntity
  8
0
100
AcDbLine
 62
7
  6
CONTINUOUS
 10
12.0621923427
 20
7.7317652444
 11
12.0662083856
 21
7.707829077
  0
LINE
  5
39F
100
AcDbEntity
  8
0
100
AcDbLine
 62
7
  6
CONTINUOUS
 10
11.6779274237
 20
10.2749192353
 11
11.680879731
 21
10.2539124773
  0
LINE
  5
3A0
100
AcDbEntity
  8
0
100
AcDbLine
 62
7
  6
CONTINUOUS
 10
12.0621923427
 20
7.8035737532
 11
12.0621923427
 21
7.7317652444
  0
LINE
  5
3A1
100
AcDbEntity
  8
0
100
AcDbLine
 62
7
  6
CONTINUOUS
 10
12.0862885994
 20
7.7317652444
 11
12.0862885994
 21
7.8035737532
  0
LINE
  5
3A2
100
AcDbEntity
  8
0
100
AcDbLine
 62
7
  6
CONTINUOUS
 10
12.1520515617
 20
10.6551695021
 11
12.1883234107
 21
10.8801695021
  0
LINE
  5
3A3
100
AcDbEntity
  8
0
100
AcDbLine
 62
7
  6
CONTINUOUS
 10
12.5827797214
 20
10.8131482201
 11
12.5782457581
 21
10.7987865197
  0
LINE
  5
3A4
100
AcDbEntity
  8
0
100
AcDbLine
 62
7
  6
CONTINUOUS
 10
12.6054496416
 20
10.7939992862
 11
12.6099836049
 21
10.8083609867
  0
LINE
  5
3A5
100
AcDbEntity
  8
0
100
AcDbLine
 62
7
  6
CONTINUOUS
 10
12.7777408691
 20
10.6551695021
 11
12.8412166146
 21
10.8322971674
  0
LINE
  5
3A6
100
AcDbEntity
  8
0
100
AcDbLine
 62
7
  6
CONTINUOUS
 10
10.8808050188
 20
11.3982546101
 11
10.872678266
 21
11.4126163105
  0
LINE
  5
3A7
100
AcDbEntity
  8
0
100
AcDbLine
 62
7
  6
CONTINUOUS
 10
10.9701993927
 20
11.5370844009
 11
10.9783261456
 21
11.5227226871
  0
LINE
  5
3A8
100
AcDbEntity
  8
0
100
AcDbLine
 62
7
  6
CONTINUOUS
 10
12.7770479424
 20
7.827509934
 11
12.7690158875
 21
7.8466588678
  0
LINE
  5
3A9
100
AcDbEntity
  8
0
100
AcDbLine
 62
7
  6
CONTINUOUS
 10
12.2790586529
 20
7.7126163105
 11
12.2750426025
 21
7.7317652444
  0
LINE
  5
3AA
100
AcDbEntity
  8
0
100
AcDbLine
 62
7
  6
CONTINUOUS
 10
12.3834757575
 20
7.8227226871
 11
12.387491808
 21
7.8035737532
  0
LINE
  5
3AB
100
AcDbEntity
  8
0
100
AcDbLine
 62
7
  6
CONTINUOUS
 10
12.2188180112
 20
7.8227226871
 11
12.2148019722
 21
7.8466588678
  0
LINE
  5
3AC
100
AcDbEntity
  8
0
100
AcDbLine
 62
7
  6
CONTINUOUS
 10
12.2509463573
 20
7.7317652444
 11
12.2549623962
 21
7.707829077
  0
LINE
  5
3AD
100
AcDbEntity
  8
0
100
AcDbLine
 62
7
  6
CONTINUOUS
 10
12.4115880647
 20
7.8035737532
 11
12.4075720142
 21
7.827509934
  0
LINE
  5
3AE
100
AcDbEntity
  8
0
100
AcDbLine
 62
7
  6
CONTINUOUS
 10
12.2509463573
 20
7.8035737532
 11
12.2509463573
 21
7.7317652444
  0
LINE
  5
3AF
100
AcDbEntity
  8
0
100
AcDbLine
 62
7
  6
CONTINUOUS
 10
12.2750426025
 20
7.7317652444
 11
12.2750426025
 21
7.8035737532
  0
LINE
  5
3B0
100
AcDbEntity
  8
0
100
AcDbLine
 62
7
  6
CONTINUOUS
 10
12.387491808
 20
7.8035737532
 11
12.387491808
 21
7.7317652444
  0
LINE
  5
3B1
100
AcDbEntity
  8
0
100
AcDbLine
 62
7
  6
CONTINUOUS
 10
12.4115880647
 20
7.7317652444
 11
12.4115880647
 21
7.8035737532
  0
LINE
  5
3B2
100
AcDbEntity
  8
0
100
AcDbLine
 62
7
  6
CONTINUOUS
 10
12.4422263406
 20
10.8801695021
 11
12.4422263406
 21
10.6551695021
  0
LINE
  5
3B3
100
AcDbEntity
  8
0
100
AcDbLine
 62
7
  6
CONTINUOUS
 10
12.4437163992
 20
7.8801695021
 11
12.4437163992
 21
7.6551695021
  0
LINE
  5
3B4
100
AcDbEntity
  8
0
100
AcDbLine
 62
7
  6
CONTINUOUS
 10
12.4678126789
 20
7.6838929063
 11
12.4678126789
 21
7.8801695021
  0
LINE
  5
3B5
100
AcDbEntity
  8
0
100
AcDbLine
 62
7
  6
CONTINUOUS
 10
12.4694302241
 20
10.6551695021
 11
12.4694302241
 21
10.7557014185
  0
LINE
  5
3B6
100
AcDbEntity
  8
0
100
AcDbLine
 62
7
  6
CONTINUOUS
 10
12.4694302241
 20
10.7844248193
 11
12.4694302241
 21
10.8562333348
  0
LINE
  5
3B7
100
AcDbEntity
  8
0
100
AcDbLine
 62
7
  6
CONTINUOUS
 10
12.0662083856
 20
7.827509934
 11
12.0621923427
 21
7.8035737532
  0
LINE
  5
3B8
100
AcDbEntity
  8
0
100
AcDbLine
 62
7
  6
CONTINUOUS
 10
12.2148019722
 20
7.6886801398
 11
12.2188180112
 21
7.7126163105
  0
LINE
  5
3B9
100
AcDbEntity
  8
0
100
AcDbLine
 62
7
  6
CONTINUOUS
 10
12.2549623962
 20
7.827509934
 11
12.2509463573
 21
7.8035737532
  0
LINE
  5
3BA
100
AcDbEntity
  8
0
100
AcDbLine
 62
7
  6
CONTINUOUS
 10
12.0862885994
 20
7.8035737532
 11
12.0903046412
 21
7.8227226871
  0
LINE
  5
3BB
100
AcDbEntity
  8
0
100
AcDbLine
 62
7
  6
CONTINUOUS
 10
12.8276146728
 20
10.8801695021
 11
12.7596049641
 21
10.6791056729
  0
LINE
  5
3BC
100
AcDbEntity
  8
0
100
AcDbLine
 62
7
  6
CONTINUOUS
 10
12.3524944574
 20
8.7181786475
 11
12.1209664394
 21
8.3171603568
  0
LINE
  5
3BD
100
AcDbEntity
  8
0
100
AcDbLine
 62
7
  6
CONTINUOUS
 10
12.0069641885
 20
10.6551695021
 11
12.0432360342
 21
10.6551695021
  0
LINE
  5
3BE
100
AcDbEntity
  8
0
100
AcDbLine
 62
7
  6
CONTINUOUS
 10
12.1157797257
 20
10.6551695021
 11
12.1520515617
 21
10.6551695021
  0
LINE
  5
3BF
100
AcDbEntity
  8
0
100
AcDbLine
 62
7
  6
CONTINUOUS
 10
12.2245952467
 20
10.6551695021
 11
12.2517991302
 21
10.6551695021
  0
LINE
  5
3C0
100
AcDbEntity
  8
0
100
AcDbLine
 62
7
  6
CONTINUOUS
 10
12.3787505952
 20
10.6551695021
 11
12.4059544787
 21
10.6551695021
  0
LINE
  5
3C1
100
AcDbEntity
  8
0
100
AcDbLine
 62
7
  6
CONTINUOUS
 10
12.4422263406
 20
10.6551695021
 11
12.4694302241
 21
10.6551695021
  0
LINE
  5
3C2
100
AcDbEntity
  8
0
100
AcDbLine
 62
7
  6
CONTINUOUS
 10
12.5827797214
 20
10.6551695021
 11
12.6145175682
 21
10.6551695021
  0
LINE
  5
3C3
100
AcDbEntity
  8
0
100
AcDbLine
 62
7
  6
CONTINUOUS
 10
12.6507894301
 20
10.6551695021
 11
12.6779933136
 21
10.6551695021
  0
LINE
  5
3C4
100
AcDbEntity
  8
0
100
AcDbLine
 62
7
  6
CONTINUOUS
 10
12.7414690591
 20
10.6551695021
 11
12.7777408691
 21
10.6551695021
  0
LINE
  5
3C5
100
AcDbEntity
  8
0
100
AcDbLine
 62
7
  6
CONTINUOUS
 10
12.8412166146
 20
10.6551695021
 11
12.8684204981
 21
10.6551695021
  0
LINE
  5
3C6
100
AcDbEntity
  8
0
100
AcDbLine
 62
7
  6
CONTINUOUS
 10
12.2699350612
 20
10.7126163105
 11
12.3606146642
 21
10.7126163105
  0
LINE
  5
3C7
100
AcDbEntity
  8
0
100
AcDbLine
 62
7
  6
CONTINUOUS
 10
12.3560807009
 20
10.7317652444
 11
12.2744690504
 21
10.7317652444
  0
LINE
  5
3C8
100
AcDbEntity
  8
0
100
AcDbLine
 62
7
  6
CONTINUOUS
 10
12.4694302241
 20
10.7557014185
 11
12.5465078594
 21
10.7557014185
  0
LINE
  5
3C9
100
AcDbEntity
  8
0
100
AcDbLine
 62
7
  6
CONTINUOUS
 10
11.1692203608
 20
10.7676695021
 11
10.7061643247
 21
10.7676695021
  0
LINE
  5
3CA
100
AcDbEntity
  8
0
100
AcDbLine
 62
7
  6
CONTINUOUS
 10
12.5555758379
 20
10.7844248193
 11
12.4694302241
 21
10.7844248193
  0
LINE
  5
3CB
100
AcDbEntity
  8
0
100
AcDbLine
 62
7
  6
CONTINUOUS
 10
10.8564247371
 20
11.3886801398
 11
10.872678266
 21
11.3695312042
  0
LINE
  5
3CC
100
AcDbEntity
  8
0
100
AcDbLine
 62
7
  6
CONTINUOUS
 10
10.9945796744
 20
11.5466588678
 11
10.9783261456
 21
11.5658078017
  0
LINE
  5
3CD
100
AcDbEntity
  8
0
100
AcDbLine
 62
7
  6
CONTINUOUS
 10
12.1339156437
 20
10.707829077
 11
12.0976437947
 21
10.8801695021
  0
LINE
  5
3CE
100
AcDbEntity
  8
0
100
AcDbLine
 62
7
  6
CONTINUOUS
 10
12.7529516857
 20
7.8227226871
 11
12.7569677591
 21
7.8035737532
  0
LINE
  5
3CF
100
AcDbEntity
  8
0
100
AcDbLine
 62
7
  6
CONTINUOUS
 10
12.0795078767
 20
10.8370844009
 11
12.1157797257
 21
10.6551695021
  0
LINE
  5
3D0
100
AcDbEntity
  8
0
100
AcDbLine
 62
7
  6
CONTINUOUS
 10
11.9706923427
 20
10.8801695021
 11
12.0069641885
 21
10.6551695021
  0
LINE
  5
3D1
100
AcDbEntity
  8
0
100
AcDbLine
 62
7
  6
CONTINUOUS
 10
12.0251001097
 20
10.707829077
 11
11.9978962262
 21
10.8801695021
  0
LINE
  5
3D2
100
AcDbEntity
  8
0
100
AcDbLine
 62
7
  6
CONTINUOUS
 10
12.5827797214
 20
10.827509934
 11
12.5827797214
 21
10.8131482201
  0
LINE
  5
3D3
100
AcDbEntity
  8
0
100
AcDbLine
 62
7
  6
CONTINUOUS
 10
12.5882939623
 20
7.6551695021
 11
12.5882939623
 21
7.6838929063
  0
LINE
  5
3D4
100
AcDbEntity
  8
0
100
AcDbLine
 62
7
  6
CONTINUOUS
 10
12.6099836049
 20
10.8083609867
 11
12.6099836049
 21
10.827509934
  0
LINE
  5
3D5
100
AcDbEntity
  8
0
100
AcDbLine
 62
7
  6
CONTINUOUS
 10
12.6204222739
 20
7.8801695021
 11
12.6204222739
 21
7.6551695021
  0
LINE
  5
3D6
100
AcDbEntity
  8
0
100
AcDbLine
 62
7
  6
CONTINUOUS
 10
12.6445185306
 20
7.6838929063
 11
12.6445185306
 21
7.8514461013
  0
LINE
  5
3D7
100
AcDbEntity
  8
0
100
AcDbLine
 62
7
  6
CONTINUOUS
 10
12.6507894301
 20
10.8801695021
 11
12.6507894301
 21
10.6551695021
  0
LINE
  5
3D8
100
AcDbEntity
  8
0
100
AcDbLine
 62
7
  6
CONTINUOUS
 10
12.6779933136
 20
10.6551695021
 11
12.6779933136
 21
10.8322971674
  0
LINE
  5
3D9
100
AcDbEntity
  8
0
100
AcDbLine
 62
7
  6
CONTINUOUS
 10
12.7569677591
 20
7.8035737532
 11
12.7569677591
 21
7.7317652444
  0
LINE
  5
3DA
100
AcDbEntity
  8
0
100
AcDbLine
 62
7
  6
CONTINUOUS
 10
12.7810640158
 20
7.7317652444
 11
12.7810640158
 21
7.8035737532
  0
LINE
  5
3DB
100
AcDbEntity
  8
0
100
AcDbLine
 62
7
  6
CONTINUOUS
 10
12.4075720142
 20
7.707829077
 11
12.4115880647
 21
7.7317652444
  0
LINE
  5
3DC
100
AcDbEntity
  8
0
100
AcDbLine
 62
7
  6
CONTINUOUS
 10
12.2750426025
 20
7.8035737532
 11
12.2790586529
 21
7.8227226871
  0
LINE
  5
3DD
100
AcDbEntity
  8
0
100
AcDbLine
 62
7
  6
CONTINUOUS
 10
12.387491808
 20
7.7317652444
 11
12.3834757575
 21
7.7126163105
  0
LINE
  5
3DE
100
AcDbEntity
  8
0
100
AcDbLine
 62
7
  6
CONTINUOUS
 10
12.1947217545
 20
7.7126163105
 11
12.1907057156
 21
7.6982546101
  0
LINE
  5
3DF
100
AcDbEntity
  8
0
100
AcDbLine
 62
7
  6
CONTINUOUS
 10
12.0742404711
 20
7.8466588678
 11
12.0662083856
 21
7.827509934
  0
LINE
  5
3E0
100
AcDbEntity
  8
0
100
AcDbLine
 62
7
  6
CONTINUOUS
 10
12.2629944741
 20
7.8466588678
 11
12.2549623962
 21
7.827509934
  0
LINE
  5
3E1
100
AcDbEntity
  8
0
100
AcDbLine
 62
7
  6
CONTINUOUS
 10
12.0903046412
 20
7.8227226871
 11
12.0983367278
 21
7.8370844009
  0
LINE
  5
3E2
100
AcDbEntity
  8
0
100
AcDbLine
 62
7
  6
CONTINUOUS
 10
12.2790586529
 20
7.8227226871
 11
12.2870907308
 21
7.8370844009
  0
LINE
  5
3E3
100
AcDbEntity
  8
0
100
AcDbLine
 62
7
  6
CONTINUOUS
 10
12.0903046412
 20
7.8658078017
 11
12.0742404711
 21
7.8466588678
  0
LINE
  5
3E4
100
AcDbEntity
  8
0
100
AcDbLine
 62
7
  6
CONTINUOUS
 10
12.0983367278
 20
7.8370844009
 11
12.1103848561
 21
7.8466588678
  0
LINE
  5
3E5
100
AcDbEntity
  8
0
100
AcDbLine
 62
7
  6
CONTINUOUS
 10
12.1063688143
 20
7.8753822687
 11
12.0903046412
 21
7.8658078017
  0
LINE
  5
3E6
100
AcDbEntity
  8
0
100
AcDbLine
 62
7
  6
CONTINUOUS
 10
12.1103848561
 20
7.8466588678
 11
12.1264490291
 21
7.8514461013
  0
LINE
  5
3E7
100
AcDbEntity
  8
0
100
AcDbLine
 62
7
  6
CONTINUOUS
 10
12.2991388591
 20
7.8466588678
 11
12.3152030379
 21
7.8514461013
  0
LINE
  5
3E8
100
AcDbEntity
  8
0
100
AcDbLine
 62
7
  6
CONTINUOUS
 10
12.1786575872
 20
7.6886801398
 11
12.1625934084
 21
7.6838929063
  0
LINE
  5
3E9
100
AcDbEntity
  8
0
100
AcDbLine
 62
7
  6
CONTINUOUS
 10
12.4694302241
 20
10.8562333348
 11
12.5555758379
 21
10.8562333348
  0
LINE
  5
3EA
100
AcDbEntity
  8
0
100
AcDbLine
 62
7
  6
CONTINUOUS
 10
12.8684204981
 20
10.8801695021
 11
12.8276146728
 21
10.8801695021
  0
LINE
  5
3EB
100
AcDbEntity
  8
0
100
AcDbLine
 62
7
  6
CONTINUOUS
 10
12.6915952554
 20
10.8801695021
 11
12.6507894301
 21
10.8801695021
  0
LINE
  5
3EC
100
AcDbEntity
  8
0
100
AcDbLine
 62
7
  6
CONTINUOUS
 10
12.5510418746
 20
10.8801695021
 11
12.4422263406
 21
10.8801695021
  0
LINE
  5
3ED
100
AcDbEntity
  8
0
100
AcDbLine
 62
7
  6
CONTINUOUS
 10
12.3334107807
 20
10.8801695021
 11
12.2971389447
 21
10.8801695021
  0
LINE
  5
3EE
100
AcDbEntity
  8
0
100
AcDbLine
 62
7
  6
CONTINUOUS
 10
12.1883234107
 20
10.8801695021
 11
12.1611195272
 21
10.8801695021
  0
LINE
  5
3EF
100
AcDbEntity
  8
0
100
AcDbLine
 62
7
  6
CONTINUOUS
 10
12.0976437947
 20
10.8801695021
 11
12.0613719522
 21
10.8801695021
  0
LINE
  5
3F0
100
AcDbEntity
  8
0
100
AcDbLine
 62
7
  6
CONTINUOUS
 10
11.9978962262
 20
10.8801695021
 11
11.9706923427
 21
10.8801695021
  0
LINE
  5
3F1
100
AcDbEntity
  8
0
100
AcDbLine
 62
7
  6
CONTINUOUS
 10
10.872678266
 20
11.3695312042
 11
10.8889317716
 21
11.359956736
  0
LINE
  5
3F2
100
AcDbEntity
  8
0
100
AcDbLine
 62
7
  6
CONTINUOUS
 10
10.8929951596
 20
11.3886801398
 11
10.8808050188
 21
11.3982546101
  0
LINE
  5
3F3
100
AcDbEntity
  8
0
100
AcDbLine
 62
7
  6
CONTINUOUS
 10
10.9580092519
 20
11.5466588678
 11
10.9701993927
 21
11.5370844009
  0
LINE
  5
3F4
100
AcDbEntity
  8
0
100
AcDbLine
 62
7
  6
CONTINUOUS
 10
12.4059544787
 20
10.6551695021
 11
12.3334107807
 21
10.8801695021
  0
LINE
  5
3F5
100
AcDbEntity
  8
0
100
AcDbLine
 62
7
  6
CONTINUOUS
 10
12.3606146642
 20
10.7126163105
 11
12.3787505952
 21
10.6551695021
  0
LINE
  5
3F6
100
AcDbEntity
  8
0
100
AcDbLine
 62
7
  6
CONTINUOUS
 10
12.3152748757
 20
10.8610205683
 11
12.3560807009
 21
10.7317652444
  0
LINE
  5
3F7
100
AcDbEntity
  8
0
100
AcDbLine
 62
7
  6
CONTINUOUS
 10
12.7810640158
 20
7.8035737532
 11
12.7770479424
 21
7.827509934
  0
LINE
  5
3F8
100
AcDbEntity
  8
0
100
AcDbLine
 62
7
  6
CONTINUOUS
 10
12.8412166146
 20
10.8322971674
 11
12.8412166146
 21
10.6551695021
  0
LINE
  5
3F9
100
AcDbEntity
  8
0
100
AcDbLine
 62
7
  6
CONTINUOUS
 10
12.8684204981
 20
10.6551695021
 11
12.8684204981
 21
10.8801695021
  0
LINE
  5
3FA
100
AcDbEntity
  8
0
100
AcDbLine
 62
7
  6
CONTINUOUS
 10
12.7770479424
 20
7.707829077
 11
12.7810640158
 21
7.7317652444
  0
LINE
  5
3FB
100
AcDbEntity
  8
0
100
AcDbLine
 62
7
  6
CONTINUOUS
 10
12.7569677591
 20
7.7317652444
 11
12.7529516857
 21
7.7126163105
  0
LINE
  5
3FC
100
AcDbEntity
  8
0
100
AcDbLine
 62
7
  6
CONTINUOUS
 10
12.3995399363
 20
7.6886801398
 11
12.4075720142
 21
7.707829077
  0
LINE
  5
3FD
100
AcDbEntity
  8
0
100
AcDbLine
 62
7
  6
CONTINUOUS
 10
12.3834757575
 20
7.7126163105
 11
12.3754436796
 21
7.6982546101
  0
LINE
  5
3FE
100
AcDbEntity
  8
0
100
AcDbLine
 62
7
  6
CONTINUOUS
 10
12.2790586529
 20
7.8658078017
 11
12.2629944741
 21
7.8466588678
  0
LINE
  5
3FF
100
AcDbEntity
  8
0
100
AcDbLine
 62
7
  6
CONTINUOUS
 10
12.1987377935
 20
7.6695312042
 11
12.2148019722
 21
7.6886801398
  0
LINE
  5
400
100
AcDbEntity
  8
0
100
AcDbLine
 62
7
  6
CONTINUOUS
 10
12.3834757575
 20
7.6695312042
 11
12.3995399363
 21
7.6886801398
  0
LINE
  5
401
100
AcDbEntity
  8
0
100
AcDbLine
 62
7
  6
CONTINUOUS
 10
12.2870907308
 20
7.8370844009
 11
12.2991388591
 21
7.8466588678
  0
LINE
  5
402
100
AcDbEntity
  8
0
100
AcDbLine
 62
7
  6
CONTINUOUS
 10
12.1907057156
 20
7.6982546101
 11
12.1786575872
 21
7.6886801398
  0
LINE
  5
403
100
AcDbEntity
  8
0
100
AcDbLine
 62
7
  6
CONTINUOUS
 10
12.3754436796
 20
7.6982546101
 11
12.3633955513
 21
7.6886801398
  0
LINE
  5
404
100
AcDbEntity
  8
0
100
AcDbLine
 62
7
  6
CONTINUOUS
 10
12.2951228317
 20
7.8753822687
 11
12.2790586529
 21
7.8658078017
  0
LINE
  5
405
100
AcDbEntity
  8
0
100
AcDbLine
 62
7
  6
CONTINUOUS
 10
12.1826736262
 20
7.659956736
 11
12.1987377935
 21
7.6695312042
  0
LINE
  5
406
100
AcDbEntity
  8
0
100
AcDbLine
 62
7
  6
CONTINUOUS
 10
12.3674116017
 20
7.659956736
 11
12.3834757575
 21
7.6695312042
  0
LINE
  5
407
100
AcDbEntity
  8
0
100
AcDbLine
 62
7
  6
CONTINUOUS
 10
12.3633955513
 20
7.6886801398
 11
12.3473313725
 21
7.6838929063
  0
LINE
  5
408
100
AcDbEntity
  8
0
100
AcDbLine
 62
7
  6
CONTINUOUS
 10
12.7328715024
 20
7.6886801398
 11
12.7168073007
 21
7.6838929063
  0
LINE
  5
409
100
AcDbEntity
  8
0
100
AcDbLine
 62
7
  6
CONTINUOUS
 10
10.941755723
 20
11.3551695021
 11
10.9620726167
 21
11.359956736
  0
LINE
  5
40A
100
AcDbEntity
  8
0
100
AcDbLine
 62
7
  6
CONTINUOUS
 10
10.6491923427
 20
11.3551695021
 11
10.6735726244
 21
11.3551695021
  0
LINE
  5
40B
100
AcDbEntity
  8
0
100
AcDbLine
 62
7
  6
CONTINUOUS
 10
10.7873472684
 20
11.3551695021
 11
10.8117275501
 21
11.3551695021
  0
LINE
  5
40C
100
AcDbEntity
  8
0
100
AcDbLine
 62
7
  6
CONTINUOUS
 10
10.9092486885
 20
11.3551695021
 11
10.941755723
 21
11.3551695021
  0
LINE
  5
40D
100
AcDbEntity
  8
0
100
AcDbLine
 62
7
  6
CONTINUOUS
 10
11.1042909188
 20
11.3551695021
 11
11.1286712005
 21
11.3551695021
  0
LINE
  5
40E
100
AcDbEntity
  8
0
100
AcDbLine
 62
7
  6
CONTINUOUS
 10
10.941755723
 20
11.3838929063
 11
10.9092486885
 21
11.3838929063
  0
LINE
  5
40F
100
AcDbEntity
  8
0
100
AcDbLine
 62
7
  6
CONTINUOUS
 10
12.5737117429
 20
10.8753822687
 11
12.5510418746
 21
10.8801695021
  0
LINE
  5
410
100
AcDbEntity
  8
0
100
AcDbLine
 62
7
  6
CONTINUOUS
 10
10.8889317716
 20
11.359956736
 11
10.9092486885
 21
11.3551695021
  0
LINE
  5
411
100
AcDbEntity
  8
0
100
AcDbLine
 62
7
  6
CONTINUOUS
 10
10.9092486885
 20
11.3838929063
 11
10.8929951596
 21
11.3886801398
  0
LINE
  5
412
100
AcDbEntity
  8
0
100
AcDbLine
 62
7
  6
CONTINUOUS
 10
12.5555758379
 20
10.8562333348
 11
12.5691777796
 21
10.8514461013
  0
LINE
  5
413
100
AcDbEntity
  8
0
100
AcDbLine
 62
7
  6
CONTINUOUS
 10
10.9783261456
 20
11.5658078017
 11
10.9620726167
 21
11.5753822687
  0
LINE
  5
414
100
AcDbEntity
  8
0
100
AcDbLine
 62
7
  6
CONTINUOUS
 10
12.6145175682
 20
10.6551695021
 11
12.5737117429
 21
10.7652758854
  0
LINE
  5
415
100
AcDbEntity
  8
0
100
AcDbLine
 62
7
  6
CONTINUOUS
 10
12.5465078594
 20
10.7557014185
 11
12.5827797214
 21
10.6551695021
  0
LINE
  5
416
100
AcDbEntity
  8
0
100
AcDbLine
 62
7
  6
CONTINUOUS
 10
12.6779933136
 20
10.8322971674
 11
12.7414690591
 21
10.6551695021
  0
LINE
  5
417
100
AcDbEntity
  8
0
100
AcDbLine
 62
7
  6
CONTINUOUS
 10
12.7596049641
 20
10.6791056729
 11
12.6915952554
 21
10.8801695021
  0
LINE
  5
418
100
AcDbEntity
  8
0
100
AcDbLine
 62
7
  6
CONTINUOUS
 10
12.5782457581
 20
10.8418716344
 11
12.5827797214
 21
10.827509934
  0
LINE
  5
419
100
AcDbEntity
  8
0
100
AcDbLine
 62
7
  6
CONTINUOUS
 10
12.6099836049
 20
10.827509934
 11
12.6054496416
 21
10.8418716344
  0
LINE
  5
41A
100
AcDbEntity
  8
0
100
AcDbLine
 62
7
  6
CONTINUOUS
 10
12.7690158875
 20
7.6886801398
 11
12.7770479424
 21
7.707829077
  0
LINE
  5
41B
100
AcDbEntity
  8
0
100
AcDbLine
 62
7
  6
CONTINUOUS
 10
12.7529516857
 20
7.7126163105
 11
12.7449196308
 21
7.6982546101
  0
LINE
  5
41C
100
AcDbEntity
  8
0
100
AcDbLine
 62
7
  6
CONTINUOUS
 10
12.7529516857
 20
7.6695312042
 11
12.7690158875
 21
7.6886801398
  0
LINE
  5
41D
100
AcDbEntity
  8
0
100
AcDbLine
 62
7
  6
CONTINUOUS
 10
12.7449196308
 20
7.6982546101
 11
12.7328715024
 21
7.6886801398
  0
LINE
  5
41E
100
AcDbEntity
  8
0
100
AcDbLine
 62
7
  6
CONTINUOUS
 10
12.7368875299
 20
7.659956736
 11
12.7529516857
 21
7.6695312042
  0
LINE
  5
41F
100
AcDbEntity
  8
0
100
AcDbLine
 62
7
  6
CONTINUOUS
 10
10.9092486885
 20
11.5801695021
 11
10.8889317716
 21
11.5753822687
  0
LINE
  5
420
100
AcDbEntity
  8
0
100
AcDbLine
 62
7
  6
CONTINUOUS
 10
10.6735726244
 20
11.4604886519
 11
10.7873472684
 21
11.4604886519
  0
LINE
  5
421
100
AcDbEntity
  8
0
100
AcDbLine
 62
7
  6
CONTINUOUS
 10
10.7873472684
 20
11.4892120528
 11
10.6735726244
 21
11.4892120528
  0
LINE
  5
422
100
AcDbEntity
  8
0
100
AcDbLine
 62
7
  6
CONTINUOUS
 10
10.9092486885
 20
11.5514461013
 11
10.941755723
 21
11.5514461013
  0
LINE
  5
423
100
AcDbEntity
  8
0
100
AcDbLine
 62
7
  6
CONTINUOUS
 10
11.0392768498
 20
11.5562333348
 11
11.1042909188
 21
11.5562333348
  0
LINE
  5
424
100
AcDbEntity
  8
0
100
AcDbLine
 62
7
  6
CONTINUOUS
 10
11.1286712005
 20
11.5562333348
 11
11.193685316
 21
11.5562333348
  0
LINE
  5
425
100
AcDbEntity
  8
0
100
AcDbLine
 62
7
  6
CONTINUOUS
 10
11.193685316
 20
11.5801695021
 11
11.0392768498
 21
11.5801695021
  0
LINE
  5
426
100
AcDbEntity
  8
0
100
AcDbLine
 62
7
  6
CONTINUOUS
 10
10.941755723
 20
11.5801695021
 11
10.9092486885
 21
11.5801695021
  0
LINE
  5
427
100
AcDbEntity
  8
0
100
AcDbLine
 62
7
  6
CONTINUOUS
 10
10.8117275501
 20
11.5801695021
 11
10.7873472684
 21
11.5801695021
  0
LINE
  5
428
100
AcDbEntity
  8
0
100
AcDbLine
 62
7
  6
CONTINUOUS
 10
10.6735726244
 20
11.5801695021
 11
10.6491923427
 21
11.5801695021
  0
LINE
  5
429
100
AcDbEntity
  8
0
100
AcDbLine
 62
7
  6
CONTINUOUS
 10
10.9620726167
 20
11.5753822687
 11
10.941755723
 21
11.5801695021
  0
LINE
  5
42A
100
AcDbEntity
  8
0
100
AcDbLine
 62
7
  6
CONTINUOUS
 10
10.941755723
 20
11.5514461013
 11
10.9580092519
 21
11.5466588678
  0
LINE
  5
42B
100
AcDbEntity
  8
0
100
AcDbLine
 62
7
  6
CONTINUOUS
 10
12.5918476998
 20
10.8610205683
 11
12.5737117429
 21
10.8753822687
  0
LINE
  5
42C
100
AcDbEntity
  8
0
100
AcDbLine
 62
7
  6
CONTINUOUS
 10
12.5691777796
 20
10.8514461013
 11
12.5782457581
 21
10.8418716344
  0
LINE
  5
42D
100
AcDbEntity
  8
0
100
AcDbLine
 62
7
  6
CONTINUOUS
 10
12.6054496416
 20
10.8418716344
 11
12.5918476998
 21
10.8610205683
  0
ARC
  5
42E
100
AcDbEntity
  8
0
100
AcDbCircle
 62
9
  6
CONTINUOUS
 10
10.9376836581
 20
-83.3308231691
 40
94.0571490056
100
AcDbArc
 50
89.8560132681
 51
90.1439761494
  0
ARC
  5
42F
100
AcDbEntity
  8
0
100
AcDbCircle
 62
9
  6
CONTINUOUS
 10
-69.2547672903
 20
55.5668054676
 40
94.0569315513
100
AcDbArc
 50
329.8560193812
 51
330.1439829283
  0
ARC
  5
430
100
AcDbEntity
  8
0
100
AcDbCircle
 62
7
  6
CONTINUOUS
 10
9.7890592622
 20
8.3371603568
 40
0.04
100
AcDbArc
 50
210.0
 51
304.7636416907
  0
ARC
  5
431
100
AcDbEntity
  8
0
100
AcDbCircle
 62
7
  6
CONTINUOUS
 10
9.5575312442
 20
8.7381786475
 40
0.04
100
AcDbArc
 50
115.2363583093
 51
210.0
  0
CIRCLE
  5
432
100
AcDbEntity
  8
0
100
AcDbCircle
 62
7
  6
CONTINUOUS
 10
10.9376923427
 20
7.0976695021
 40
0.45
  0
CIRCLE
  5
433
100
AcDbEntity
  8
0
100
AcDbCircle
 62
9
  6
CONTINUOUS
 10
10.9376923427
 20
7.0976695021
 40
0.4492005033
  0
CIRCLE
  5
434
100
AcDbEntity
  8
0
100
AcDbCircle
 62
9
  6
CONTINUOUS
 10
10.9376923427
 20
7.0976695021
 40
0.4177005033
  0
CIRCLE
  5
435
100
AcDbEntity
  8
0
100
AcDbCircle
 62
9
  6
CONTINUOUS
 10
10.9376923427
 20
7.0976695021
 40
0.3875
  0
ARC
  5
436
100
AcDbEntity
  8
0
100
AcDbCircle
 62
9
  6
CONTINUOUS
 10
10.7255302763
 20
8.8165061825
 40
0.1372329636
100
AcDbArc
 50
122.4325817723
 51
124.9228056525
  0
ARC
  5
437
100
AcDbEntity
  8
0
100
AcDbCircle
 62
7
  6
CONTINUOUS
 10
10.7239748009
 20
8.8156464803
 40
0.1
100
AcDbArc
 50
64.6951061016
 51
124.7636416907
  0
ARC
  5
438
100
AcDbEntity
  8
0
100
AcDbCircle
 62
9
  6
CONTINUOUS
 10
10.6530545487
 20
9.6769839822
 40
0.1372333173
100
AcDbArc
 50
2.4348093701
 51
4.924854234
  0
ARC
  5
439
100
AcDbEntity
  8
0
100
AcDbCircle
 62
9
  6
CONTINUOUS
 10
10.4409070044
 20
9.3095128186
 40
0.137226232
100
AcDbArc
 50
295.0717835283
 51
297.5618509329
  0
ARC
  5
43A
100
AcDbEntity
  8
0
100
AcDbCircle
 62
7
  6
CONTINUOUS
 10
10.4393701518
 20
9.3085961926
 40
0.1
100
AcDbArc
 50
295.2363583093
 51
355.3048938984
  0
ARC
  5
43B
100
AcDbEntity
  8
0
100
AcDbCircle
 62
7
  6
CONTINUOUS
 10
10.6530876936
 20
9.6787658336
 40
0.1
100
AcDbArc
 50
304.6951061016
 51
4.7636416907
  0
ARC
  5
43C
100
AcDbEntity
  8
0
100
AcDbCircle
 62
9
  6
CONTINUOUS
 10
10.9211698326
 20
9.2581310238
 40
0.4226439196
100
AcDbArc
 50
189.5706358655
 51
230.4297180384
  0
CIRCLE
  5
43D
100
AcDbEntity
  8
0
100
AcDbCircle
 62
7
  6
CONTINUOUS
 10
10.9376923427
 20
9.2676695021
 40
3.25
  0
CIRCLE
  5
43E
100
AcDbEntity
  8
0
100
AcDbCircle
 62
9
  6
CONTINUOUS
 10
10.9376923427
 20
9.2676695021
 40
3.2115516844
  0
CIRCLE
  5
43F
100
AcDbEntity
  8
0
100
AcDbCircle
 62
9
  6
CONTINUOUS
 10
10.9376923427
 20
9.2676695021
 40
3.1422181513
  0
CIRCLE
  5
440
100
AcDbEntity
  8
0
100
AcDbCircle
 62
9
  6
CONTINUOUS
 10
10.9376923427
 20
9.2676695021
 40
3.0828434898
  0
ARC
  5
441
100
AcDbEntity
  8
0
100
AcDbCircle
 62
7
  6
CONTINUOUS
 10
10.9376923427
 20
9.2676695021
 40
1.25
100
AcDbArc
 50
33.6875658564
 51
34.3124341436
  0
ARC
  5
442
100
AcDbEntity
  8
0
100
AcDbCircle
 62
7
  6
CONTINUOUS
 10
10.9376923427
 20
9.2676695021
 40
1.25
100
AcDbArc
 50
359.6875658564
 51
0.3124341436
  0
ARC
  5
443
100
AcDbEntity
  8
0
100
AcDbCircle
 62
7
  6
CONTINUOUS
 10
10.9376923427
 20
9.2676695021
 40
1.25
100
AcDbArc
 50
291.6875658564
 51
292.3124341436
  0
ARC
  5
444
100
AcDbEntity
  8
0
100
AcDbCircle
 62
7
  6
CONTINUOUS
 10
10.9376923427
 20
9.2676695021
 40
1.25
100
AcDbArc
 50
281.6875658564
 51
282.3124341436
  0
ARC
  5
445
100
AcDbEntity
  8
0
100
AcDbCircle
 62
7
  6
CONTINUOUS
 10
10.9376923427
 20
9.2676695021
 40
1.25
100
AcDbArc
 50
257.6875658564
 51
258.3124341436
  0
ARC
  5
446
100
AcDbEntity
  8
0
100
AcDbCircle
 62
7
  6
CONTINUOUS
 10
10.9376923427
 20
9.2676695021
 40
1.25
100
AcDbArc
 50
247.6875658564
 51
248.3124341436
  0
ARC
  5
447
100
AcDbEntity
  8
0
100
AcDbCircle
 62
7
  6
CONTINUOUS
 10
10.9376923427
 20
9.2676695021
 40
1.25
100
AcDbArc
 50
179.6875658564
 51
180.3124341436
  0
ARC
  5
448
100
AcDbEntity
  8
0
100
AcDbCircle
 62
7
  6
CONTINUOUS
 10
10.9376923427
 20
9.2676695021
 40
1.25
100
AcDbArc
 50
145.6875658564
 51
146.3124341436
  0
ARC
  5
449
100
AcDbEntity
  8
0
100
AcDbCircle
 62
7
  6
CONTINUOUS
 10
10.9376923427
 20
9.2676695021
 40
1.25
100
AcDbArc
 50
111.6875658564
 51
112.3124341436
  0
ARC
  5
44A
100
AcDbEntity
  8
0
100
AcDbCircle
 62
7
  6
CONTINUOUS
 10
10.9376923427
 20
9.2676695021
 40
1.25
100
AcDbArc
 50
101.6875658564
 51
102.3124341436
  0
ARC
  5
44B
100
AcDbEntity
  8
0
100
AcDbCircle
 62
7
  6
CONTINUOUS
 10
10.9376923427
 20
9.2676695021
 40
1.25
100
AcDbArc
 50
77.6875658564
 51
78.3124341436
  0
ARC
  5
44C
100
AcDbEntity
  8
0
100
AcDbCircle
 62
7
  6
CONTINUOUS
 10
10.9376923427
 20
9.2676695021
 40
1.25
100
AcDbArc
 50
67.6875658564
 51
68.3124341436
  0
ARC
  5
44D
100
AcDbEntity
  8
0
100
AcDbCircle
 62
7
  6
CONTINUOUS
 10
10.9376923427
 20
9.2676695021
 40
1.25
100
AcDbArc
 50
176.3198194398
 51
179.6789988165
  0
ARC
  5
44E
100
AcDbEntity
  8
0
100
AcDbCircle
 62
7
  6
CONTINUOUS
 10
10.9376923427
 20
9.2676695021
 40
1.25
100
AcDbArc
 50
149.6875658564
 51
176.3124341436
  0
ARC
  5
44F
100
AcDbEntity
  8
0
100
AcDbCircle
 62
7
  6
CONTINUOUS
 10
10.9376923427
 20
9.2676695021
 40
1.25
100
AcDbArc
 50
146.3200568243
 51
149.6810609222
  0
ARC
  5
450
100
AcDbEntity
  8
0
100
AcDbCircle
 62
7
  6
CONTINUOUS
 10
10.9376923427
 20
9.2676695021
 40
1.25
100
AcDbArc
 50
142.3206781636
 51
145.6781174563
  0
ARC
  5
451
100
AcDbEntity
  8
0
100
AcDbCircle
 62
7
  6
CONTINUOUS
 10
10.9376923427
 20
9.2676695021
 40
1.25
100
AcDbArc
 50
139.6875658564
 51
142.3124341436
  0
ARC
  5
452
100
AcDbEntity
  8
0
100
AcDbCircle
 62
7
  6
CONTINUOUS
 10
10.9376923427
 20
9.2676695021
 40
1.25
100
AcDbArc
 50
115.6875658564
 51
139.6768684784
  0
ARC
  5
453
100
AcDbEntity
  8
0
100
AcDbCircle
 62
7
  6
CONTINUOUS
 10
10.9376923427
 20
9.2676695021
 40
1.25
100
AcDbArc
 50
112.3190999169
 51
115.6819636632
  0
ARC
  5
454
100
AcDbEntity
  8
0
100
AcDbCircle
 62
7
  6
CONTINUOUS
 10
10.9376923427
 20
9.2676695021
 40
1.25
100
AcDbArc
 50
108.3215162274
 51
111.6772463843
  0
ARC
  5
455
100
AcDbEntity
  8
0
100
AcDbCircle
 62
7
  6
CONTINUOUS
 10
10.9376923427
 20
9.2676695021
 40
1.25
100
AcDbArc
 50
105.6875658564
 51
108.3124341436
  0
ARC
  5
456
100
AcDbEntity
  8
0
100
AcDbCircle
 62
7
  6
CONTINUOUS
 10
10.9376923427
 20
9.2676695021
 40
1.25
100
AcDbArc
 50
102.3235978379
 51
105.6776660651
  0
ARC
  5
457
100
AcDbEntity
  8
0
100
AcDbCircle
 62
7
  6
CONTINUOUS
 10
10.9376923427
 20
9.2676695021
 40
1.25
100
AcDbArc
 50
101.6325265187
 51
101.6818864629
  0
ARC
  5
458
100
AcDbEntity
  8
0
100
AcDbCircle
 62
7
  6
CONTINUOUS
 10
10.9376923427
 20
9.2676695021
 40
1.25
100
AcDbArc
 50
78.3181135371
 51
78.3674734813
  0
ARC
  5
459
100
AcDbEntity
  8
0
100
AcDbCircle
 62
7
  6
CONTINUOUS
 10
10.9376923427
 20
9.2676695021
 40
1.25
100
AcDbArc
 50
74.3223339349
 51
77.6764021621
  0
ARC
  5
45A
100
AcDbEntity
  8
0
100
AcDbCircle
 62
7
  6
CONTINUOUS
 10
10.9376923427
 20
9.2676695021
 40
1.25
100
AcDbArc
 50
71.6875658564
 51
74.3124341436
  0
ARC
  5
45B
100
AcDbEntity
  8
0
100
AcDbCircle
 62
7
  6
CONTINUOUS
 10
10.9376923427
 20
9.2676695021
 40
1.25
100
AcDbArc
 50
68.3227536157
 51
71.6784837726
  0
ARC
  5
45C
100
AcDbEntity
  8
0
100
AcDbCircle
 62
7
  6
CONTINUOUS
 10
10.9376923427
 20
9.2676695021
 40
1.25
100
AcDbArc
 50
64.3180363368
 51
67.6809000831
  0
ARC
  5
45D
100
AcDbEntity
  8
0
100
AcDbCircle
 62
7
  6
CONTINUOUS
 10
10.9376923427
 20
9.2676695021
 40
1.25
100
AcDbArc
 50
40.3231315216
 51
64.3124341436
  0
ARC
  5
45E
100
AcDbEntity
  8
0
100
AcDbCircle
 62
7
  6
CONTINUOUS
 10
10.9376923427
 20
9.2676695021
 40
1.25
100
AcDbArc
 50
37.6875658564
 51
40.3124341436
  0
ARC
  5
45F
100
AcDbEntity
  8
0
100
AcDbCircle
 62
7
  6
CONTINUOUS
 10
10.9376923427
 20
9.2676695021
 40
1.25
100
AcDbArc
 50
34.3218825437
 51
37.6793218364
  0
ARC
  5
460
100
AcDbEntity
  8
0
100
AcDbCircle
 62
7
  6
CONTINUOUS
 10
10.9376923427
 20
9.2676695021
 40
1.25
100
AcDbArc
 50
30.3189390778
 51
33.6799431757
  0
ARC
  5
461
100
AcDbEntity
  8
0
100
AcDbCircle
 62
7
  6
CONTINUOUS
 10
10.9376923427
 20
9.2676695021
 40
1.25
100
AcDbArc
 50
3.6875658564
 51
30.3124341436
  0
ARC
  5
462
100
AcDbEntity
  8
0
100
AcDbCircle
 62
7
  6
CONTINUOUS
 10
10.9376923427
 20
9.2676695021
 40
1.25
100
AcDbArc
 50
0.3210011835
 51
3.6801805602
  0
ARC
  5
463
100
AcDbEntity
  8
0
100
AcDbCircle
 62
7
  6
CONTINUOUS
 10
10.9376923427
 20
9.2676695021
 40
1.25
100
AcDbArc
 50
180.3210011835
 51
183.6801805602
  0
ARC
  5
464
100
AcDbEntity
  8
0
100
AcDbCircle
 62
7
  6
CONTINUOUS
 10
10.9376923427
 20
9.2676695021
 40
1.25
100
AcDbArc
 50
183.6875658564
 51
198.3653547461
  0
ARC
  5
465
100
AcDbEntity
  8
0
100
AcDbCircle
 62
7
  6
CONTINUOUS
 10
10.9376923427
 20
9.2676695021
 40
1.25
100
AcDbArc
 50
221.6342960767
 51
244.3124341436
  0
ARC
  5
466
100
AcDbEntity
  8
0
100
AcDbCircle
 62
7
  6
CONTINUOUS
 10
10.9376923427
 20
9.2676695021
 40
1.25
100
AcDbArc
 50
244.3180363368
 51
247.6809000831
  0
ARC
  5
467
100
AcDbEntity
  8
0
100
AcDbCircle
 62
7
  6
CONTINUOUS
 10
10.9376923427
 20
9.2676695021
 40
1.25
100
AcDbArc
 50
248.3227536157
 51
251.6784837726
  0
ARC
  5
468
100
AcDbEntity
  8
0
100
AcDbCircle
 62
7
  6
CONTINUOUS
 10
10.9376923427
 20
9.2676695021
 40
1.25
100
AcDbArc
 50
251.6875658564
 51
254.3124341436
  0
ARC
  5
469
100
AcDbEntity
  8
0
100
AcDbCircle
 62
7
  6
CONTINUOUS
 10
10.9376923427
 20
9.2676695021
 40
1.25
100
AcDbArc
 50
254.3223339349
 51
257.6764021621
  0
ARC
  5
46A
100
AcDbEntity
  8
0
100
AcDbCircle
 62
7
  6
CONTINUOUS
 10
10.9376923427
 20
9.2676695021
 40
1.25
100
AcDbArc
 50
258.3181135371
 51
281.6818864629
  0
ARC
  5
46B
100
AcDbEntity
  8
0
100
AcDbCircle
 62
7
  6
CONTINUOUS
 10
10.9376923427
 20
9.2676695021
 40
1.25
100
AcDbArc
 50
282.3235978379
 51
285.6776660651
  0
ARC
  5
46C
100
AcDbEntity
  8
0
100
AcDbCircle
 62
7
  6
CONTINUOUS
 10
10.9376923427
 20
9.2676695021
 40
1.25
100
AcDbArc
 50
285.6875658564
 51
288.3124341436
  0
ARC
  5
46D
100
AcDbEntity
  8
0
100
AcDbCircle
 62
7
  6
CONTINUOUS
 10
10.9376923427
 20
9.2676695021
 40
1.25
100
AcDbArc
 50
288.3215162274
 51
291.6772463843
  0
ARC
  5
46E
100
AcDbEntity
  8
0
100
AcDbCircle
 62
7
  6
CONTINUOUS
 10
10.9376923427
 20
9.2676695021
 40
1.25
100
AcDbArc
 50
292.3190999169
 51
295.6819636632
  0
ARC
  5
46F
100
AcDbEntity
  8
0
100
AcDbCircle
 62
7
  6
CONTINUOUS
 10
10.9376923427
 20
9.2676695021
 40
1.25
100
AcDbArc
 50
295.6875658564
 51
318.3657039233
  0
ARC
  5
470
100
AcDbEntity
  8
0
100
AcDbCircle
 62
7
  6
CONTINUOUS
 10
10.9376923427
 20
9.2676695021
 40
1.25
100
AcDbArc
 50
341.6346452539
 51
356.3124341436
  0
ARC
  5
471
100
AcDbEntity
  8
0
100
AcDbCircle
 62
7
  6
CONTINUOUS
 10
10.9376923427
 20
9.2676695021
 40
1.25
100
AcDbArc
 50
356.3198194398
 51
359.6789988165
  0
ARC
  5
472
100
AcDbEntity
  8
0
100
AcDbCircle
 62
9
  6
CONTINUOUS
 10
10.9376923427
 20
9.2676695021
 40
1.175
100
AcDbArc
 50
222.0743091127
 51
317.9256908873
  0
ARC
  5
473
100
AcDbEntity
  8
0
100
AcDbCircle
 62
9
  6
CONTINUOUS
 10
10.9376923427
 20
9.2676695021
 40
1.175
100
AcDbArc
 50
102.0758905078
 51
197.9254289435
  0
ARC
  5
474
100
AcDbEntity
  8
0
100
AcDbCircle
 62
9
  6
CONTINUOUS
 10
10.9376923427
 20
9.2676695021
 40
1.175
100
AcDbArc
 50
342.0745710565
 51
77.9241094922
  0
ARC
  5
475
100
AcDbEntity
  8
0
100
AcDbCircle
 62
7
  6
CONTINUOUS
 10
10.9376923427
 20
9.2676695021
 40
1.075
100
AcDbArc
 50
102.7582255008
 51
197.2417744992
  0
ARC
  5
476
100
AcDbEntity
  8
0
100
AcDbCircle
 62
7
  6
CONTINUOUS
 10
10.9376923427
 20
9.2676695021
 40
1.075
100
AcDbArc
 50
222.7582255008
 51
317.2417744992
  0
ARC
  5
477
100
AcDbEntity
  8
0
100
AcDbCircle
 62
7
  6
CONTINUOUS
 10
10.9376923427
 20
9.2676695021
 40
1.075
100
AcDbArc
 50
342.7582255008
 51
77.2417744992
  0
ARC
  5
478
100
AcDbEntity
  8
0
100
AcDbCircle
 62
7
  6
CONTINUOUS
 10
10.9376923427
 20
9.2676695021
 40
1.025
100
AcDbArc
 50
223.1495726384
 51
316.8504273616
  0
ARC
  5
479
100
AcDbEntity
  8
0
100
AcDbCircle
 62
7
  6
CONTINUOUS
 10
10.9376923427
 20
9.2676695021
 40
1.025
100
AcDbArc
 50
343.1529202843
 51
76.8469396103
  0
ARC
  5
47A
100
AcDbEntity
  8
0
100
AcDbCircle
 62
7
  6
CONTINUOUS
 10
10.9376923427
 20
9.2676695021
 40
1.025
100
AcDbArc
 50
103.1530603897
 51
196.8470797157
  0
ARC
  5
47B
100
AcDbEntity
  8
0
100
AcDbCircle
 62
7
  6
CONTINUOUS
 10
10.9376923427
 20
9.2676695021
 40
0.95
100
AcDbArc
 50
223.8178522348
 51
316.1821477652
  0
ARC
  5
47C
100
AcDbEntity
  8
0
100
AcDbCircle
 62
7
  6
CONTINUOUS
 10
10.9376923427
 20
9.2676695021
 40
0.95
100
AcDbArc
 50
343.8211520188
 51
76.1794597062
  0
ARC
  5
47D
100
AcDbEntity
  8
0
100
AcDbCircle
 62
7
  6
CONTINUOUS
 10
10.9376923427
 20
9.2676695021
 40
0.95
100
AcDbArc
 50
103.8205402938
 51
196.1788479812
  0
ARC
  5
47E
100
AcDbEntity
  8
0
100
AcDbCircle
 62
7
  6
CONTINUOUS
 10
10.9376923427
 20
9.2676695021
 40
0.85
100
AcDbArc
 50
224.8930174829
 51
315.1069825171
  0
ARC
  5
47F
100
AcDbEntity
  8
0
100
AcDbCircle
 62
7
  6
CONTINUOUS
 10
10.9376923427
 20
9.2676695021
 40
0.85
100
AcDbArc
 50
344.8930377376
 51
75.1070031042
  0
ARC
  5
480
100
AcDbEntity
  8
0
100
AcDbCircle
 62
7
  6
CONTINUOUS
 10
10.9376923427
 20
9.2676695021
 40
0.85
100
AcDbArc
 50
104.8929968958
 51
195.1069622624
  0
ARC
  5
481
100
AcDbEntity
  8
0
100
AcDbCircle
 62
7
  6
CONTINUOUS
 10
10.9376923427
 20
9.2676695021
 40
0.75
100
AcDbArc
 50
226.2620679094
 51
313.7379320906
  0
ARC
  5
482
100
AcDbEntity
  8
0
100
AcDbCircle
 62
7
  6
CONTINUOUS
 10
10.9376923427
 20
9.2676695021
 40
0.75
100
AcDbArc
 50
346.2665430104
 51
73.7349657294
  0
ARC
  5
483
100
AcDbEntity
  8
0
100
AcDbCircle
 62
7
  6
CONTINUOUS
 10
10.9376923427
 20
9.2676695021
 40
0.75
100
AcDbArc
 50
106.2650342706
 51
193.7334569896
  0
CIRCLE
  5
484
100
AcDbEntity
  8
0
100
AcDbCircle
 62
7
  6
CONTINUOUS
 10
10.9376923427
 20
9.2676695021
 40
0.4
  0
CIRCLE
  5
485
100
AcDbEntity
  8
0
100
AcDbCircle
 62
9
  6
CONTINUOUS
 10
10.9376923427
 20
9.2676695021
 40
0.3875
  0
CIRCLE
  5
486
100
AcDbEntity
  8
0
100
AcDbCircle
 62
7
  6
CONTINUOUS
 10
10.9376923427
 20
9.2676695021
 40
0.3125
  0
CIRCLE
  5
487
100
AcDbEntity
  8
0
100
AcDbCircle
 62
9
  6
CONTINUOUS
 10
10.9376923427
 20
9.2676695021
 40
0.2825
  0
CIRCLE
  5
488
100
AcDbEntity
  8
0
100
AcDbCircle
 62
7
  6
CONTINUOUS
 10
10.9376923427
 20
9.2676695021
 40
0.2625
  0
ARC
  5
489
100
AcDbEntity
  8
0
100
AcDbCircle
 62
9
  6
CONTINUOUS
 10
10.9376923548
 20
9.2867498978
 40
0.4226408627
100
AcDbArc
 50
69.5703636916
 51
110.4296654948
  0
ARC
  5
48A
100
AcDbEntity
  8
0
100
AcDbCircle
 62
7
  6
CONTINUOUS
 10
10.7061643247
 20
10.7276695021
 40
0.04
100
AcDbArc
 50
90.0
 51
184.7636416907
  0
ARC
  5
48B
100
AcDbEntity
  8
0
100
AcDbCircle
 62
9
  6
CONTINUOUS
 10
91.1301554167
 20
55.5668118271
 40
94.056937711
100
AcDbArc
 50
209.8560193862
 51
210.1439829144
  0
ARC
  5
48C
100
AcDbEntity
  8
0
100
AcDbCircle
 62
9
  6
CONTINUOUS
 10
10.954241735
 20
9.2581169477
 40
0.4226141919
100
AcDbArc
 50
309.5687102987
 51
350.4306444894
  0
ARC
  5
48D
100
AcDbEntity
  8
0
100
AcDbCircle
 62
9
  6
CONTINUOUS
 10
11.4344812286
 20
9.3095193913
 40
0.1372336895
100
AcDbArc
 50
242.4380995998
 51
244.9280378671
  0
ARC
  5
48E
100
AcDbEntity
  8
0
100
AcDbCircle
 62
9
  6
CONTINUOUS
 10
11.2223225724
 20
9.6769823377
 40
0.1372259212
100
AcDbArc
 50
175.074190683
 51
177.5643547579
  0
ARC
  5
48F
100
AcDbEntity
  8
0
100
AcDbCircle
 62
9
  6
CONTINUOUS
 10
11.1498574828
 20
8.8165130899
 40
0.1372255397
100
AcDbArc
 50
55.0765957287
 51
57.5668695063
  0
ARC
  5
490
100
AcDbEntity
  8
0
100
AcDbCircle
 62
7
  6
CONTINUOUS
 10
11.4360145337
 20
9.3085961926
 40
0.1
100
AcDbArc
 50
184.6951061016
 51
244.7636416907
  0
ARC
  5
491
100
AcDbEntity
  8
0
100
AcDbCircle
 62
7
  6
CONTINUOUS
 10
11.1514098846
 20
8.8156464803
 40
0.1
100
AcDbArc
 50
55.2363583093
 51
115.3048938984
  0
ARC
  5
492
100
AcDbEntity
  8
0
100
AcDbCircle
 62
7
  6
CONTINUOUS
 10
11.2222969918
 20
9.6787658336
 40
0.1
100
AcDbArc
 50
175.2363583093
 51
235.3048938984
  0
ARC
  5
493
100
AcDbEntity
  8
0
100
AcDbCircle
 62
7
  6
CONTINUOUS
 10
12.3178534413
 20
8.7381786475
 40
0.04
100
AcDbArc
 50
330.0
 51
64.7636416907
  0
ARC
  5
494
100
AcDbEntity
  8
0
100
AcDbCircle
 62
7
  6
CONTINUOUS
 10
12.0863254232
 20
8.3371603568
 40
0.04
100
AcDbArc
 50
235.2363583093
 51
330.0
  0
ARC
  5
495
100
AcDbEntity
  8
0
100
AcDbCircle
 62
7
  6
CONTINUOUS
 10
11.1692203608
 20
10.7276695021
 40
0.04
100
AcDbArc
 50
355.2363583093
 51
90.0
  0
SPLINE
  5
496
100
AcDbEntity
  8
0
100
AcDbSpline
 62
9
  6
CONTINUOUS
 70
0
 71
3
 72
10
 73
6
 74
0
 42
0.0000001
 43
0.0000001
 44
0.0000000001
 40
0.0
 40
0.0
 40
0.0
 40
0.0
 40
0.4998664289
 40
0.7498771884
 40
1.0
 40
1.0
 40
1.0
 40
1.0
 10
10.5390347954
 20
9.3004133562
 30
0.0
 10
10.538564425
 20
9.2946780593
 30
0.0
 10
10.5377108572
 20
9.2860852555
 30
0.0
 10
10.5362635623
 20
9.2746639833
 30
0.0
 10
10.5354285601
 20
9.268966703
 30
0.0
 10
10.5349802439
 20
9.2661223582
 30
0.0
  0
SPLINE
  5
497
100
AcDbEntity
  8
0
100
AcDbSpline
 62
9
  6
CONTINUOUS
 70
0
 71
3
 72
22
 73
18
 74
0
 42
0.0000001
 43
0.0000001
 44
0.0000000001
 40
0.0
 40
0.0
 40
0.0
 40
0.0
 40
0.1230423004
 40
0.1846383535
 40
0.2462987752
 40
0.3080395458
 40
0.3698819162
 40
0.43184663
 40
0.4939629246
 40
0.5562600101
 40
0.6187785538
 40
0.6815554668
 40
0.7446372107
 40
0.8080575637
 40
0.8718180801
 40
0.9358663987
 40
1.0
 40
1.0
 40
1.0
 40
1.0
 10
10.5349812327
 20
9.2661208054
 30
0.0
 10
10.5344362087
 20
9.2626606116
 30
0.0
 10
10.5335503085
 20
9.2574784122
 30
0.0
 10
10.5322073777
 20
9.2505961633
 30
0.0
 10
10.5311105339
 20
9.2454447041
 30
0.0
 10
10.5299131869
 20
9.2403084232
 30
0.0
 10
10.5286051979
 20
9.235190151
 30
0.0
 10
10.5271703952
 20
9.2300947328
 30
0.0
 10
10.5255934247
 20
9.2250277589
 30
0.0
 10
10.5238521109
 20
9.2199979412
 30
0.0
 10
10.5219235778
 20
9.2150163446
 30
0.0
 10
10.5197769294
 20
9.2100998557
 30
0.0
 10
10.5173793528
 20
9.2052712456
 30
0.0
 10
10.5146901491
 20
9.2005653344
 30
0.0
 10
10.5116674946
 20
9.1960312703
 30
0.0
 10
10.5082724527
 20
9.191741173
 30
0.0
 10
10.5057384303
 20
9.1891044107
 30
0.0
 10
10.504402525
 20
9.1878598607
 30
0.0
  0
SPLINE
  5
498
100
AcDbEntity
  8
0
100
AcDbSpline
 62
9
  6
CONTINUOUS
 70
0
 71
3
 72
30
 73
26
 74
0
 42
0.0000001
 43
0.0000001
 44
0.0000000001
 40
0.0
 40
0.0
 40
0.0
 40
0.0
 40
0.1981884061
 40
0.2940893043
 40
0.3867447806
 40
0.4753400095
 40
0.5590979032
 40
0.6372868992
 40
0.7092235808
 40
0.7742817227
 40
0.8318944823
 40
0.8815627788
 40
0.922863654
 40
0.940265192
 40
0.9554543192
 40
0.9684010927
 40
0.9790884155
 40
0.9835829662
 40
0.9875118175
 40
0.9908775982
 40
0.9936872487
 40
0.9959543888
 40
0.9977062894
 40
0.9990044179
 40
1.0
 40
1.0
 40
1.0
 40
1.0
 10
10.5044023881
 20
9.1878601367
 30
0.0
 10
10.5032535294
 20
9.1900360506
 30
0.0
 10
10.501537511
 20
9.1932589508
 30
0.0
 10
10.4992567766
 20
9.1974842965
 30
0.0
 10
10.4976102147
 20
9.2005057193
 30
0.0
 10
10.4960233064
 20
9.2033879232
 30
0.0
 10
10.4945100149
 20
9.2061055906
 30
0.0
 10
10.4930836484
 20
9.2086348907
 30
0.0
 10
10.4917567527
 20
9.2109536944
 30
0.0
 10
10.4905410268
 20
9.2130417096
 30
0.0
 10
10.4894472693
 20
9.214880735
 30
0.0
 10
10.4884851404
 20
9.2164547099
 30
0.0
 10
10.4877646614
 20
9.2175911503
 30
0.0
 10
10.4872580963
 20
9.2183560379
 30
0.0
 10
10.4869381581
 20
9.218822213
 30
0.0
 10
10.486656701
 20
9.2192135557
 30
0.0
 10
10.4864442099
 20
9.2194908286
 30
0.0
 10
10.4862929389
 20
9.219673658
 30
0.0
 10
10.4861961523
 20
9.2197834944
 30
0.0
 10
10.486109396
 20
9.219874179
 30
0.0
 10
10.4860326968
 20
9.2199457149
 30
0.0
 10
10.4859660471
 20
9.2199983921
 30
0.0
 10
10.4859091078
 20
9.2200322325
 30
0.0
 10
10.4858607861
 20
9.2200484799
 30
0.0
 10
10.4858308335
 20
9.220044475
 30
0.0
 10
10.4858198878
 20
9.2200387327
 30
0.0
  0
SPLINE
  5
499
100
AcDbEntity
  8
0
100
AcDbSpline
 62
9
  6
CONTINUOUS
 70
0
 71
3
 72
32
 73
28
 74
0
 42
0.0000001
 43
0.0000001
 44
0.0000000001
 40
0.0
 40
0.0
 40
0.0
 40
0.0
 40
0.1013957231
 40
0.1514221371
 40
0.2008421808
 40
0.2974743487
 40
0.3905319752
 40
0.5629158783
 40
0.6408388937
 40
0.7123888004
 40
0.7769834557
 40
0.8340931661
 40
0.8832476872
 40
0.9047145563
 40
0.9240474652
 40
0.9412088595
 40
0.9561695136
 40
0.9689031532
 40
0.9793948619
 40
0.9837997659
 40
0.9876457155
 40
0.9909366959
 40
0.9936816295
 40
0.9958983494
 40
0.9976223442
 40
0.9989313604
 40
1.0
 40
1.0
 40
1.0
 40
1.0
 10
9.5565360704
 20
8.7431844048
 30
0.0
 10
9.556025179
 20
8.7442567452
 30
0.0
 10
9.5552526063
 20
8.7458535579
 30
0.0
 10
9.554225904
 20
8.7479705339
 30
0.0
 10
9.5532276833
 20
8.7500393028
 30
0.0
 10
9.5520127975
 20
8.7525632421
 30
0.0
 10
9.5501586471
 20
8.7563781153
 30
0.0
 10
9.5483803124
 20
8.7599861775
 30
0.0
 10
9.5466798546
 20
8.763351452
 30
0.0
 10
9.5455329819
 20
8.7655816016
 30
0.0
 10
9.54448274
 20
8.7675872026
 30
0.0
 10
9.5435405914
 20
8.769353181
 30
0.0
 10
9.5428275948
 20
8.7706687417
 30
0.0
 10
9.5423193544
 20
8.7715918736
 30
0.0
 10
9.5419886983
 20
8.7721849274
 30
0.0
 10
9.5416912568
 20
8.7727092188
 30
0.0
 10
9.5414266631
 20
8.7731632383
 30
0.0
 10
9.5411945299
 20
8.7735456604
 30
0.0
 10
9.5410190127
 20
8.7738177271
 30
0.0
 10
9.5408932659
 20
8.7739977497
 30
0.0
 10
9.5408123402
 20
8.7741061021
 30
0.0
 10
9.5407391085
 20
8.7741958273
 30
0.0
 10
9.540673457
 20
8.774266893
 30
0.0
 10
9.5406151594
 20
8.7743194847
 30
0.0
 10
9.5405637505
 20
8.7743537064
 30
0.0
 10
9.5405175889
 20
8.7743702008
 30
0.0
 10
9.5404884328
 20
8.7743662522
 30
0.0
 10
9.5404771088
 20
8.7743609148
 30
0.0
  0
SPLINE
  5
49A
100
AcDbEntity
  8
0
100
AcDbSpline
 62
9
  6
CONTINUOUS
 70
0
 71
3
 72
13
 73
9
 74
0
 42
0.0000001
 43
0.0000001
 44
0.0000000001
 40
0.0
 40
0.0
 40
0.0
 40
0.0
 40
0.2499908205
 40
0.3749868786
 40
0.4999845261
 40
0.6249842687
 40
0.7499865947
 40
1.0
 40
1.0
 40
1.0
 40
1.0
 10
10.4990570876
 20
9.1852163733
 30
0.0
 10
10.4204837413
 20
9.1484516279
 30
0.0
 10
10.3026001476
 20
9.0933543786
 30
0.0
 10
10.1454362629
 20
9.0198592763
 30
0.0
 10
10.0275818803
 20
8.9646941958
 30
0.0
 10
9.909754969
 20
8.9094653226
 30
0.0
 10
9.7527005873
 20
8.8357112273
 30
0.0
 10
9.6349785314
 20
8.7802459411
 30
0.0
 10
9.5565361016
 20
8.7431843403
 30
0.0
  0
SPLINE
  5
49B
100
AcDbEntity
  8
0
100
AcDbSpline
 62
9
  6
CONTINUOUS
 70
0
 71
3
 72
28
 73
24
 74
0
 42
0.0000001
 43
0.0000001
 44
0.0000000001
 40
0.0
 40
0.0
 40
0.0
 40
0.0
 40
0.1983813802
 40
0.2943545039
 40
0.3870677291
 40
0.4757075566
 40
0.5594982057
 40
0.6377093607
 40
0.7096587453
 40
0.7747210946
 40
0.832330259
 40
0.8819874304
 40
0.9232692053
 40
0.9558298201
 40
0.9687569757
 40
0.9794197202
 40
0.9838993741
 40
0.9878110043
 40
0.9911565007
 40
0.9939416577
 40
0.9961782156
 40
0.9978902094
 40
1.0
 40
1.0
 40
1.0
 40
1.0
 10
10.4990570876
 20
9.1852163733
 30
0.0
 10
10.4980039579
 20
9.1874359017
 30
0.0
 10
10.496430823
 20
9.1907242233
 30
0.0
 10
10.49433963
 20
9.1950373587
 30
0.0
 10
10.4928299594
 20
9.1981220966
 30
0.0
 10
10.4913748877
 20
9.2010655643
 30
0.0
 10
10.4899871854
 20
9.2038419689
 30
0.0
 10
10.4886790281
 20
9.2064270248
 30
0.0
 10
10.4874618884
 20
9.2087981618
 30
0.0
 10
10.4863464925
 20
9.2109346912
 30
0.0
 10
10.4853426666
 20
9.212817965
 30
0.0
 10
10.4844594491
 20
9.2144317243
 30
0.0
 10
10.4837046048
 20
9.2157619002
 30
0.0
 10
10.4831537328
 20
9.2166847302
 30
0.0
 10
10.4827786827
 20
9.2172703312
 30
0.0
 10
10.4825829739
 20
9.2175577059
 30
0.0
 10
10.4824434725
 20
9.2177480598
 30
0.0
 10
10.4823542448
 20
9.2178627822
 30
0.0
 10
10.4822740497
 20
9.2179580206
 30
0.0
 10
10.482203552
 20
9.2180336316
 30
0.0
 10
10.4821410262
 20
9.218090283
 30
0.0
 10
10.4820823729
 20
9.2181331542
 30
0.0
 10
10.482029124
 20
9.2181516628
 30
0.0
 10
10.4820054905
 20
9.2181405236
 30
0.0
  0
SPLINE
  5
49C
100
AcDbEntity
  8
0
100
AcDbSpline
 62
9
  6
CONTINUOUS
 70
0
 71
3
 72
31
 73
27
 74
0
 42
0.0000001
 43
0.0000001
 44
0.0000000001
 40
0.0
 40
0.0
 40
0.0
 40
0.0
 40
0.0010059635
 40
0.00229856
 40
0.0040273266
 40
0.0062551742
 40
0.009010725
 40
0.0123086915
 40
0.0161579044
 40
0.020563935
 40
0.0310552195
 40
0.0437881397
 40
0.0587497993
 40
0.0759128425
 40
0.1167149442
 40
0.1658717493
 40
0.2229842776
 40
0.2875818702
 40
0.3591349736
 40
0.4370615268
 40
0.6094524601
 40
0.7025139748
 40
0.7991499536
 40
0.8485717167
 40
0.8985998879
 40
1.0
 40
1.0
 40
1.0
 40
1.0
 10
12.3349075767
 20
8.7743609148
 30
0.0
 10
12.3348969173
 20
8.7743659389
 30
0.0
 10
12.3348685432
 20
8.7743688379
 30
0.0
 10
12.3348236227
 20
8.7743520958
 30
0.0
 10
12.3347719949
 20
8.7743182509
 30
0.0
 10
12.3347128552
 20
8.774266156
 30
0.0
 10
12.3346461198
 20
8.7741956388
 30
0.0
 10
12.334572023
 20
8.7741063022
 30
0.0
 10
12.3344906862
 20
8.7739980909
 30
0.0
 10
12.3343648312
 20
8.7738180954
 30
0.0
 10
12.334189794
 20
8.7735457296
 30
0.0
 10
12.3339581782
 20
8.7731630279
 30
0.0
 10
12.3336935855
 20
8.7727090117
 30
0.0
 10
12.3332718777
 20
8.7719660655
 30
0.0
 10
12.3326649642
 20
8.7708677147
 30
0.0
 10
12.3318440236
 20
8.7693530546
 30
0.0
 10
12.3309018995
 20
8.7675870593
 30
0.0
 10
12.3298516191
 20
8.7655814816
 30
0.0
 10
12.328704772
 20
8.7633513235
 30
0.0
 10
12.3270043133
 20
8.7599860678
 30
0.0
 10
12.3252260273
 20
8.7563780036
 30
0.0
 10
12.3233718362
 20
8.7525631802
 30
0.0
 10
12.3221569178
 20
8.7500392804
 30
0.0
 10
12.3211588045
 20
8.7479704848
 30
0.0
 10
12.3201322102
 20
8.7458534769
 30
0.0
 10
12.3193595943
 20
8.7442566984
 30
0.0
 10
12.3188486151
 20
8.7431844049
 30
0.0
  0
SPLINE
  5
49D
100
AcDbEntity
  8
0
100
AcDbSpline
 62
9
  6
CONTINUOUS
 70
0
 71
3
 72
10
 73
6
 74
0
 42
0.0000001
 43
0.0000001
 44
0.0000000001
 40
0.0
 40
0.0
 40
0.0
 40
0.0
 40
0.499867413
 40
0.7498776316
 40
1.0
 40
1.0
 40
1.0
 40
1.0
 10
11.3363498179
 20
9.3004142357
 30
0.0
 10
11.3368201763
 20
9.2946788333
 30
0.0
 10
11.3376736653
 20
9.2860858768
 30
0.0
 10
11.3391209308
 20
9.2746644126
 30
0.0
 10
11.3399559962
 20
9.2689670587
 30
0.0
 10
11.3404043457
 20
9.2661226772
 30
0.0
  0
SPLINE
  5
49E
100
AcDbEntity
  8
0
100
AcDbSpline
 62
9
  6
CONTINUOUS
 70
0
 71
3
 72
28
 73
24
 74
0
 42
0.0000001
 43
0.0000001
 44
0.0000000001
 40
0.0
 40
0.0
 40
0.0
 40
0.0
 40
0.0021097917
 40
0.0038217865
 40
0.0060583452
 40
0.0088435032
 40
0.0121890004
 40
0.0161006314
 40
0.0205802861
 40
0.0312430322
 40
0.0441701891
 40
0.0767308062
 40
0.1180125829
 40
0.1676697553
 40
0.2252789203
 40
0.2903412695
 40
0.3622906536
 40
0.4405018076
 40
0.5242924553
 40
0.6129322809
 40
0.7056455039
 40
0.8016186252
 40
1.0
 40
1.0
 40
1.0
 40
1.0
 10
11.3933791948
 20
9.2181405233
 30
0.0
 10
11.3933555613
 20
9.2181516625
 30
0.0
 10
11.3933023124
 20
9.2181331539
 30
0.0
 10
11.3932436591
 20
9.2180902827
 30
0.0
 10
11.3931811333
 20
9.2180336312
 30
0.0
 10
11.3931106356
 20
9.2179580202
 30
0.0
 10
11.3930304405
 20
9.2178627817
 30
0.0
 10
11.3929412127
 20
9.2177480594
 30
0.0
 10
11.3928017113
 20
9.2175577054
 30
0.0
 10
11.3926060025
 20
9.2172703307
 30
0.0
 10
11.3922309524
 20
9.2166847296
 30
0.0
 10
11.3916800804
 20
9.2157618996
 30
0.0
 10
11.3909252361
 20
9.2144317236
 30
0.0
 10
11.3900420185
 20
9.2128179642
 30
0.0
 10
11.3890381927
 20
9.2109346904
 30
0.0
 10
11.3879227968
 20
9.2087981611
 30
0.0
 10
11.3867056571
 20
9.2064270241
 30
0.0
 10
11.3853974998
 20
9.2038419682
 30
0.0
 10
11.3840097975
 20
9.2010655637
 30
0.0
 10
11.3825547259
 20
9.1981220961
 30
0.0
 10
11.3810450553
 20
9.1950373583
 30
0.0
 10
11.3789538624
 20
9.1907242229
 30
0.0
 10
11.3773807276
 20
9.1874359015
 30
0.0
 10
11.3763275979
 20
9.1852163732
 30
0.0
  0
SPLINE
  5
49F
100
AcDbEntity
  8
0
100
AcDbSpline
 62
9
  6
CONTINUOUS
 70
0
 71
3
 72
32
 73
28
 74
0
 42
0.0000001
 43
0.0000001
 44
0.0000000001
 40
0.0
 40
0.0
 40
0.0
 40
0.0
 40
0.0028680887
 40
0.0058211028
 40
0.0124367388
 40
0.0162961904
 40
0.0205966897
 40
0.0306255259
 40
0.0426591312
 40
0.0567554583
 40
0.0729398262
 40
0.0912156564
 40
0.111569852
 40
0.1339716742
 40
0.184753024
 40
0.2431568947
 40
0.3086607406
 40
0.3806405805
 40
0.4583890783
 40
0.5411420569
 40
0.6280846342
 40
0.7183545818
 40
0.7644546584
 40
0.8110458615
 40
0.8580162043
 40
0.9052531922
 40
1.0
 40
1.0
 40
1.0
 40
1.0
 10
11.1692203606
 20
10.7676695021
 30
0.0
 10
11.1692609984
 20
10.7676695021
 30
0.0
 10
11.1693437423
 20
10.7676607783
 30
0.0
 10
11.1695123899
 20
10.7676060551
 30
0.0
 10
11.1696723951
 20
10.7674964675
 30
0.0
 10
11.169822094
 20
10.7673501389
 30
0.0
 10
11.1699886637
 20
10.7671529191
 30
0.0
 10
11.1701944984
 20
10.7668398644
 30
0.0
 10
11.1704301472
 20
10.7663842788
 30
0.0
 10
11.1706631945
 20
10.7658313496
 30
0.0
 10
11.1708925702
 20
10.7651824083
 30
0.0
 10
11.1711175353
 20
10.7644388133
 30
0.0
 10
11.1713372554
 20
10.763602273
 30
0.0
 10
11.171635019
 20
10.7623106637
 30
0.0
 10
11.1719824919
 20
10.7604782076
 30
0.0
 10
11.1723582788
 20
10.7580314301
 30
0.0
 10
11.1727070839
 20
10.7552776476
 30
0.0
 10
11.1730254091
 20
10.7522444924
 30
0.0
 10
11.1733049737
 20
10.7489621767
 30
0.0
 10
11.1735429852
 20
10.7454641033
 30
0.0
 10
11.1737384373
 20
10.7417857377
 30
0.0
 10
11.1738632582
 20
10.7386240078
 30
0.0
 10
11.1739424064
 20
10.736032841
 30
0.0
 10
11.1739908205
 20
10.7340545643
 30
0.0
 10
11.1740259966
 20
10.732059891
 30
0.0
 10
11.1740517182
 20
10.7293827109
 30
0.0
 10
11.1740526032
 20
10.7273709297
 30
0.0
 10
11.1740530607
 20
10.7260284692
 30
0.0
  0
SPLINE
  5
4A0
100
AcDbEntity
  8
0
100
AcDbSpline
 62
9
  6
CONTINUOUS
 70
0
 71
3
 72
13
 73
9
 74
0
 42
0.0000001
 43
0.0000001
 44
0.0000000001
 40
0.0
 40
0.0
 40
0.0
 40
0.0
 40
0.2499908204
 40
0.3749868782
 40
0.4999845258
 40
0.6249842685
 40
0.7499865947
 40
1.0
 40
1.0
 40
1.0
 40
1.0
 10
11.3763275979
 20
9.1852163732
 30
0.0
 10
11.4549009443
 20
9.1484516283
 30
0.0
 10
11.5727845379
 20
9.0933543789
 30
0.0
 10
11.7299484223
 20
9.0198592764
 30
0.0
 10
11.8478028049
 20
8.9646941958
 30
0.0
 10
11.9656297163
 20
8.9094653226
 30
0.0
 10
12.1226840984
 20
8.8357112279
 30
0.0
 10
12.2404061547
 20
8.7802459423
 30
0.0
 10
12.3188485845
 20
8.7431843416
 30
0.0
  0
SPLINE
  5
4A1
100
AcDbEntity
  8
0
100
AcDbSpline
 62
9
  6
CONTINUOUS
 70
0
 71
3
 72
27
 73
23
 74
0
 42
0.0000001
 43
0.0000001
 44
0.0000000001
 40
0.0
 40
0.0
 40
0.0
 40
0.0
 40
0.0028520792
 40
0.0058257631
 40
0.0125224671
 40
0.020718607
 40
0.0307379346
 40
0.042742018
 40
0.0568114333
 40
0.0729769926
 40
0.0912409189
 40
0.1115894316
 40
0.1339908703
 40
0.1847823361
 40
0.2431962215
 40
0.3087005783
 40
0.3806740286
 40
0.4584178253
 40
0.5411681501
 40
0.628107902
 40
0.8110562362
 40
1.0
 40
1.0
 40
1.0
 40
1.0
 10
10.7061643249
 20
10.7676695021
 30
0.0
 10
10.7061239127
 20
10.7676695021
 30
0.0
 10
10.7060411265
 20
10.7676605932
 30
0.0
 10
10.7058712535
 20
10.7676057977
 30
0.0
 10
10.7056573809
 20
10.7674622
 30
0.0
 10
10.7054190248
 20
10.7671993791
 30
0.0
 10
10.7051836981
 20
10.766840164
 30
0.0
 10
10.7049509746
 20
10.766384033
 30
0.0
 10
10.704720829
 20
10.7658310718
 30
0.0
 10
10.7044938184
 20
10.7651821469
 30
0.0
 10
10.7042705293
 20
10.764438575
 30
0.0
 10
10.7040516406
 20
10.76360206
 30
0.0
 10
10.7037538174
 20
10.7623103753
 30
0.0
 10
10.703403428
 20
10.7604781636
 30
0.0
 10
10.7030239295
 20
10.7580315532
 30
0.0
 10
10.7026743974
 20
10.7552776827
 30
0.0
 10
10.7023585796
 20
10.7522443116
 30
0.0
 10
10.7020799789
 20
10.7489620188
 30
0.0
 10
10.7018415172
 20
10.7454640059
 30
0.0
 10
10.701576031
 20
10.7404742404
 30
0.0
 10
10.7013649089
 20
10.733975543
 30
0.0
 10
10.7013214302
 20
10.7287056667
 30
0.0
 10
10.7013316247
 20
10.7260284692
 30
0.0
  0
SPLINE
  5
4A2
100
AcDbEntity
  8
0
100
AcDbSpline
 62
9
  6
CONTINUOUS
 70
0
 71
3
 72
24
 73
20
 74
0
 42
0.0000001
 43
0.0000001
 44
0.0000000001
 40
0.0
 40
0.0
 40
0.0
 40
0.0
 40
0.1234624302
 40
0.2469555882
 40
0.3087451432
 40
0.3705839639
 40
0.4324935229
 40
0.4945004251
 40
0.556641187
 40
0.6189599594
 40
0.6815145577
 40
0.744377408
 40
0.7759533963
 40
0.8076392959
 40
0.8394420116
 40
0.8713715724
 40
0.903419825
 40
0.9355779359
 40
1.0
 40
1.0
 40
1.0
 40
1.0
 10
11.1086650759
 20
8.9060513242
 30
0.0
 10
11.1131275215
 20
8.9081609791
 30
0.0
 10
11.1221160915
 20
8.9122497565
 30
0.0
 10
11.1335038894
 20
8.9170181691
 30
0.0
 10
11.1427135754
 20
8.9205962977
 30
0.0
 10
11.1496787549
 20
8.923149168
 30
0.0
 10
11.1567059135
 20
8.9255535377
 30
0.0
 10
11.1638026653
 20
8.927785342
 30
0.0
 10
11.1709772104
 20
8.9298149545
 30
0.0
 10
11.178239471
 20
8.9316006882
 30
0.0
 10
11.1855984241
 20
8.9330895931
 30
0.0
 10
11.1918091298
 20
8.9340222132
 30
0.0
 10
11.1968262602
 20
8.9345350581
 30
0.0
 10
11.2006193368
 20
8.9347887733
 30
0.0
 10
11.2044338721
 20
8.9348918821
 30
0.0
 10
11.2082639087
 20
8.9348256368
 30
0.0
 10
11.2121007721
 20
8.9345659802
 30
0.0
 10
11.2172052543
 20
8.9339306856
 30
0.0
 10
11.2209908121
 20
8.9330879147
 30
0.0
 10
11.2234535111
 20
8.9323337828
 30
0.0
  0
SPLINE
  5
4A3
100
AcDbEntity
  8
0
100
AcDbSpline
 62
9
  6
CONTINUOUS
 70
0
 71
3
 72
30
 73
26
 74
0
 42
0.0000001
 43
0.0000001
 44
0.0000000001
 40
0.0
 40
0.0
 40
0.0
 40
0.0
 40
0.1981887153
 40
0.2940896329
 40
0.3867450641
 40
0.4753402004
 40
0.5590979687
 40
0.6372868224
 40
0.7092233596
 40
0.7742813685
 40
0.8318940185
 40
0.8815622405
 40
0.9228630858
 40
0.9402646285
 40
0.9554537749
 40
0.9684005833
 40
0.9790879585
 40
0.9835825427
 40
0.9875114331
 40
0.9908772591
 40
0.9936869617
 40
0.9959541619
 40
0.997706132
 40
0.9990043393
 40
1.0
 40
1.0
 40
1.0
 40
1.0
 10
11.2234535881
 20
8.9323339086
 30
0.0
 10
11.2221436508
 20
8.9302510252
 30
0.0
 10
11.2202105905
 20
8.9271534835
 30
0.0
 10
11.2176917567
 20
8.9230656718
 30
0.0
 10
11.2158984508
 20
8.9201290246
 30
0.0
 10
11.2141958841
 20
8.9173136489
 30
0.0
 10
11.2125990008
 20
8.9146442949
 30
0.0
 10
11.2111217842
 20
8.9121444026
 30
0.0
 10
11.2097771248
 20
8.9098359009
 30
0.0
 10
11.2085767462
 20
8.9077390669
 30
0.0
 10
11.2075310113
 20
8.9058723526
 30
0.0
 10
11.2066489984
 20
8.904252154
 30
0.0
 10
11.2060250698
 20
8.9030599923
 30
0.0
 10
11.2056159527
 20
8.9022388575
 30
0.0
 10
11.2053722099
 20
8.9017286991
 30
0.0
 10
11.2051740322
 20
8.9012892813
 30
0.0
 10
11.2050401572
 20
8.9009666234
 30
0.0
 10
11.2049574612
 20
8.9007442046
 30
0.0
 10
11.2049107355
 20
8.9006054665
 30
0.0
 10
11.2048755805
 20
8.9004849903
 30
0.0
 10
11.20485198
 20
8.9003827979
 30
0.0
 10
11.2048396866
 20
8.9002987376
 30
0.0
 10
11.2048388509
 20
8.9002325047
 30
0.0
 10
11.2048489426
 20
8.9001825314
 30
0.0
 10
11.2048673876
 20
8.9001585927
 30
0.0
 10
11.2048778338
 20
8.9001519835
 30
0.0
  0
SPLINE
  5
4A4
100
AcDbEntity
  8
0
100
AcDbSpline
 62
9
  6
CONTINUOUS
 70
0
 71
3
 72
24
 73
20
 74
0
 42
0.0000001
 43
0.0000001
 44
0.0000000001
 40
0.0
 40
0.0
 40
0.0
 40
0.0
 40
0.1234627614
 40
0.246956119
 40
0.3087450226
 40
0.3705826412
 40
0.4324912475
 40
0.4944978305
 40
0.5566387955
 40
0.6189580707
 40
0.6815132627
 40
0.7443766588
 40
0.7759528719
 40
0.8076389536
 40
0.8394417821
 40
0.871371404
 40
0.9034197289
 40
0.9355779023
 40
1.0
 40
1.0
 40
1.0
 40
1.0
 10
11.1653749723
 20
9.5965464282
 30
0.0
 10
11.1613168179
 20
9.5993562243
 30
0.0
 10
11.1532817759
 20
9.6050963
 30
0.0
 10
11.1434582835
 20
9.612573904
 30
0.0
 10
11.1357546874
 20
9.6187603518
 30
0.0
 10
11.1300613561
 20
9.623515748
 30
0.0
 10
11.1244657693
 20
9.6283992412
 30
0.0
 10
11.1189849049
 20
9.633429442
 30
0.0
 10
11.1136401917
 20
9.6386281209
 30
0.0
 10
11.1084627565
 20
9.6440246726
 30
0.0
 10
11.1034939622
 20
9.6496533163
 30
0.0
 10
11.0995809464
 20
9.6545656068
 30
0.0
 10
11.0966281953
 20
9.658654078
 30
0.0
 10
11.0945118694
 20
9.6618120444
 30
0.0
 10
11.0925152286
 20
9.6650638856
 30
0.0
 10
11.0906574952
 20
9.6684138255
 30
0.0
 10
11.0889638166
 20
9.6718663688
 30
0.0
 10
11.0869615018
 20
9.6766044631
 30
0.0
 10
11.0857988145
 20
9.680304269
 30
0.0
 10
11.0852205568
 20
9.6828140611
 30
0.0
  0
SPLINE
  5
4A5
100
AcDbEntity
  8
0
100
AcDbSpline
 62
9
  6
CONTINUOUS
 70
0
 71
3
 72
30
 73
26
 74
0
 42
0.0000001
 43
0.0000001
 44
0.0000000001
 40
0.0
 40
0.0
 40
0.0
 40
0.0
 40
0.1981883583
 40
0.2940891737
 40
0.3867445445
 40
0.4753396564
 40
0.5590974313
 40
0.6372863167
 40
0.7092229053
 40
0.7742809802
 40
0.831893706
 40
0.8815620086
 40
0.922862935
 40
0.9402645171
 40
0.9554537013
 40
0.9684005451
 40
0.9790879524
 40
0.9835825508
 40
0.9875114537
 40
0.9908772902
 40
0.9936870004
 40
0.9959542043
 40
0.9977061719
 40
0.9990043667
 40
1.0
 40
1.0
 40
1.0
 40
1.0
 10
11.0852206232
 20
9.6828140588
 30
0.0
 10
11.0876794328
 20
9.6827210521
 30
0.0
 10
11.0913285302
 20
9.6825957305
 30
0.0
 10
11.0961281199
 20
9.6824582467
 30
0.0
 10
11.0995680036
 20
9.6823735106
 30
0.0
 10
11.1028574938
 20
9.6823067218
 30
0.0
 10
11.105967684
 20
9.6822584468
 30
0.0
 10
11.1088712822
 20
9.6822290758
 30
0.0
 10
11.1115428521
 20
9.6822188081
 30
0.0
 10
11.1139589709
 20
9.682227658
 30
0.0
 10
11.116098477
 20
9.6822553743
 30
0.0
 10
11.1179426317
 20
9.6823016211
 30
0.0
 10
11.1192870496
 20
9.6823573586
 30
0.0
 10
11.1202027399
 20
9.6824136163
 30
0.0
 10
11.1207664267
 20
9.6824576055
 30
0.0
 10
11.1212460672
 20
9.6825056852
 30
0.0
 10
11.1215924382
 20
9.682551073
 30
0.0
 10
11.1218264091
 20
9.6825906641
 30
0.0
 10
11.1219699243
 20
9.6826195664
 30
0.0
 10
11.1220918387
 20
9.6826493583
 30
0.0
 10
11.1221921415
 20
9.6826800147
 30
0.0
 10
11.1222710877
 20
9.6827113974
 30
0.0
 10
11.1223288658
 20
9.682743789
 30
0.0
 10
11.122367099
 20
9.682777514
 30
0.0
 10
11.1223786088
 20
9.6828054566
 30
0.0
 10
11.1223791097
 20
9.6828178075
 30
0.0
  0
SPLINE
  5
4A6
100
AcDbEntity
  8
0
100
AcDbSpline
 62
9
  6
CONTINUOUS
 70
0
 71
3
 72
32
 73
28
 74
0
 42
0.0000001
 43
0.0000001
 44
0.0000000001
 40
0.0
 40
0.0
 40
0.0
 40
0.0
 40
0.1013957231
 40
0.1514221371
 40
0.2008421808
 40
0.2974743487
 40
0.3905319752
 40
0.5629158783
 40
0.6408388937
 40
0.7123888004
 40
0.7769834557
 40
0.8340931661
 40
0.8832476872
 40
0.9047145563
 40
0.9240474652
 40
0.9412088595
 40
0.9561695136
 40
0.9689031532
 40
0.9793948619
 40
0.9837997659
 40
0.9876457155
 40
0.9909366959
 40
0.9936816295
 40
0.9958983494
 40
0.9976223442
 40
0.9989313604
 40
1.0
 40
1.0
 40
1.0
 40
1.0
 10
11.1740530607
 20
10.7260284692
 30
0.0
 10
11.1752371804
 20
10.725934744
 30
0.0
 10
11.1770063471
 20
10.7258054053
 30
0.0
 10
11.1793530532
 20
10.7256360675
 30
0.0
 10
11.1816437701
 20
10.7254661676
 30
0.0
 10
11.1844370085
 20
10.7252563198
 30
0.0
 10
11.1886678608
 20
10.7249546246
 30
0.0
 10
11.1926817017
 20
10.7246906765
 30
0.0
 10
11.1964463438
 20
10.724480679
 30
0.0
 10
11.1989511463
 20
10.724358825
 30
0.0
 10
11.2012131687
 20
10.7242655607
 30
0.0
 10
11.2032136252
 20
10.7241984961
 30
0.0
 10
11.2047094324
 20
10.7241581889
 30
0.0
 10
11.2057630084
 20
10.7241367721
 30
0.0
 10
11.206441936
 20
10.7241266018
 30
0.0
 10
11.2070447065
 20
10.724122048
 30
0.0
 10
11.2075701958
 20
10.7241241831
 30
0.0
 10
11.2080174496
 20
10.7241340053
 30
0.0
 10
11.2083408248
 20
10.7241499742
 30
0.0
 10
11.2085596024
 20
10.7241688629
 30
0.0
 10
11.2086939012
 20
10.7241847703
 30
0.0
 10
11.2088082213
 20
10.7242033284
 30
0.0
 10
11.2089025918
 20
10.7242246514
 30
0.0
 10
11.2089772863
 20
10.7242488427
 30
0.0
 10
11.2090326277
 20
10.7242762533
 30
0.0
 10
11.209069993
 20
10.7243079832
 30
0.0
 10
11.2090811515
 20
10.7243352074
 30
0.0
 10
11.2090821911
 20
10.7243476829
 30
0.0
  0
SPLINE
  5
4A7
100
AcDbEntity
  8
0
100
AcDbSpline
 62
9
  6
CONTINUOUS
 70
0
 71
3
 72
13
 73
9
 74
0
 42
0.0000001
 43
0.0000001
 44
0.0000000001
 40
0.0
 40
0.0
 40
0.0
 40
0.0
 40
0.2499908205
 40
0.3749868786
 40
0.4999845261
 40
0.6249842687
 40
0.7499865947
 40
1.0
 40
1.0
 40
1.0
 40
1.0
 10
11.0856034661
 20
9.6887653405
 30
0.0
 10
11.0930509358
 20
9.7751942271
 30
0.0
 10
11.1042771151
 20
9.9048330386
 30
0.0
 10
11.1192104317
 20
10.0776885065
 30
0.0
 10
11.130363262
 20
10.2073359361
 30
0.0
 10
11.1414471104
 20
10.3369914711
 30
0.0
 10
11.156101381
 20
10.5098816031
 30
0.0
 10
11.1669280621
 20
10.6395645372
 30
0.0
 10
11.1740529892
 20
10.7260284745
 30
0.0
  0
SPLINE
  5
4A8
100
AcDbEntity
  8
0
100
AcDbSpline
 62
9
  6
CONTINUOUS
 70
0
 71
3
 72
28
 73
24
 74
0
 42
0.0000001
 43
0.0000001
 44
0.0000000001
 40
0.0
 40
0.0
 40
0.0
 40
0.0
 40
0.1983813802
 40
0.2943545039
 40
0.3870677291
 40
0.4757075566
 40
0.5594982057
 40
0.6377093607
 40
0.7096587453
 40
0.7747210946
 40
0.832330259
 40
0.8819874304
 40
0.9232692053
 40
0.9558298201
 40
0.9687569757
 40
0.9794197202
 40
0.9838993741
 40
0.9878110043
 40
0.9911565007
 40
0.9939416577
 40
0.9961782156
 40
0.9978902094
 40
1.0
 40
1.0
 40
1.0
 40
1.0
 10
11.0856034661
 20
9.6887653405
 30
0.0
 10
11.088052199
 20
9.6885676134
 30
0.0
 10
11.0916865364
 20
9.6882858274
 30
0.0
 10
11.0964674178
 20
9.6879402859
 30
0.0
 10
11.0998937145
 20
9.6877053301
 30
0.0
 10
11.1031703681
 20
9.6874937253
 30
0.0
 10
11.1062686561
 20
9.6873073084
 30
0.0
 10
11.1091614589
 20
9.6871476779
 30
0.0
 10
11.1118234936
 20
9.6870161834
 30
0.0
 10
11.1142314803
 20
9.6869138798
 30
0.0
 10
11.1163643562
 20
9.6868415816
 30
0.0
 10
11.1182035216
 20
9.6867995908
 30
0.0
 10
11.1197329098
 20
9.6867882171
 30
0.0
 10
11.12080754
 20
9.6868038713
 30
0.0
 10
11.1215022104
 20
9.6868358738
 30
0.0
 10
11.1218489386
 20
9.6868616752
 30
0.0
 10
11.1220835406
 20
9.6868873099
 30
0.0
 10
11.1222275069
 20
9.6869072223
 30
0.0
 10
11.1223500834
 20
9.686929054
 30
0.0
 10
11.1224508133
 20
9.6869523014
 30
0.0
 10
11.1225311377
 20
9.6869781245
 30
0.0
 10
11.1225975919
 20
9.6870074841
 30
0.0
 10
11.1226402453
 20
9.6870443448
 30
0.0
 10
11.1226424152
 20
9.6870703816
 30
0.0
  0
SPLINE
  5
4A9
100
AcDbEntity
  8
0
100
AcDbSpline
 62
9
  6
CONTINUOUS
 70
0
 71
3
 72
23
 73
19
 74
0
 42
0.0000001
 43
0.0000001
 44
0.0000000001
 40
0.0
 40
0.0
 40
0.0
 40
0.0
 40
0.1234609117
 40
0.2469528628
 40
0.3087437297
 40
0.3705821143
 40
0.4944833544
 40
0.5566243823
 40
0.6189447485
 40
0.6814996732
 40
0.7443605401
 40
0.7759363939
 40
0.807622686
 40
0.8394261081
 40
0.8713555303
 40
0.9355354165
 40
0.9677739776
 40
1.0
 40
1.0
 40
1.0
 40
1.0
 10
10.7100093078
 20
9.5965461205
 30
0.0
 10
10.7140674603
 20
9.5993558671
 30
0.0
 10
10.7221026795
 20
9.6050956437
 30
0.0
 10
10.7319262091
 20
9.6125732242
 30
0.0
 10
10.739630069
 20
9.6187597156
 30
0.0
 10
10.7472254463
 20
9.6251040703
 30
0.0
 10
10.7546245081
 20
9.6317044097
 30
0.0
 10
10.7617443991
 20
9.638627516
 30
0.0
 10
10.766922651
 20
9.6440234943
 30
0.0
 10
10.7718910327
 20
9.6496525195
 30
0.0
 10
10.7758033464
 20
9.6545652612
 30
0.0
 10
10.7787560422
 20
9.6586537053
 30
0.0
 10
10.7808725804
 20
9.6618115393
 30
0.0
 10
10.7828694724
 20
9.6650634866
 30
0.0
 10
10.78534974
 20
9.6695367748
 30
0.0
 10
10.7874975956
 20
9.6742114724
 30
0.0
 10
10.7891985062
 20
9.6790684118
 30
0.0
 10
10.7898767607
 20
9.681558047
 30
0.0
 10
10.7901639531
 20
9.6828140135
 30
0.0
  0
SPLINE
  5
4AA
100
AcDbEntity
  8
0
100
AcDbSpline
 62
9
  6
CONTINUOUS
 70
0
 71
3
 72
30
 73
26
 74
0
 42
0.0000001
 43
0.0000001
 44
0.0000000001
 40
0.0
 40
0.0
 40
0.0
 40
0.0
 40
0.0009956463
 40
0.0022938513
 40
0.0040458263
 40
0.0063130355
 40
0.0091227495
 40
0.0124885884
 40
0.0164174929
 40
0.020912092
 40
0.0315994986
 40
0.0445463394
 40
0.0597355187
 40
0.0771370942
 40
0.1184380034
 40
0.1681062844
 40
0.2257189863
 40
0.2907770364
 40
0.3627136017
 40
0.4409024675
 40
0.5246602287
 40
0.6132553356
 40
0.7059107126
 40
0.8018115479
 40
1.0
 40
1.0
 40
1.0
 40
1.0
 10
10.753005577
 20
9.6828178012
 30
0.0
 10
10.7530060779
 20
9.6828054501
 30
0.0
 10
10.7530175877
 20
9.6827775073
 30
0.0
 10
10.7530558208
 20
9.6827437819
 30
0.0
 10
10.7531135988
 20
9.6827113899
 30
0.0
 10
10.7531925449
 20
9.6826800069
 30
0.0
 10
10.7532928475
 20
9.6826493501
 30
0.0
 10
10.7534147616
 20
9.6826195579
 30
0.0
 10
10.7535582764
 20
9.6825906553
 30
0.0
 10
10.7537922467
 20
9.6825510638
 30
0.0
 10
10.7541386168
 20
9.6825056755
 30
0.0
 10
10.7546182559
 20
9.6824575953
 30
0.0
 10
10.7551819412
 20
9.6824136055
 30
0.0
 10
10.7560976288
 20
9.6823573469
 30
0.0
 10
10.7574420429
 20
9.6823016081
 30
0.0
 10
10.7592861923
 20
9.6822553596
 30
0.0
 10
10.7614256923
 20
9.6822276413
 30
0.0
 10
10.7638418044
 20
9.6822187892
 30
0.0
 10
10.7665133669
 20
9.6822290546
 30
0.0
 10
10.7694169575
 20
9.6822584232
 30
0.0
 10
10.7725271397
 20
9.6823066956
 30
0.0
 10
10.7758166219
 20
9.6823734817
 30
0.0
 10
10.7792564976
 20
9.6824582151
 30
0.0
 10
10.7840560773
 20
9.682595695
 30
0.0
 10
10.7877051674
 20
9.6827210132
 30
0.0
 10
10.7901639724
 20
9.6828140174
 30
0.0
  0
SPLINE
  5
4AB
100
AcDbEntity
  8
0
100
AcDbSpline
 62
9
  6
CONTINUOUS
 70
0
 71
3
 72
43
 73
39
 74
0
 42
0.0000001
 43
0.0000001
 44
0.0000000001
 40
0.0
 40
0.0
 40
0.0
 40
0.0
 40
0.0008238635
 40
0.0013415676
 40
0.0019650467
 40
0.0035799474
 40
0.0057293525
 40
0.0084357394
 40
0.0117098132
 40
0.0155558229
 40
0.0199720184
 40
0.0305037751
 40
0.0432831203
 40
0.0754838357
 40
0.1163371971
 40
0.1655235234
 40
0.2226512618
 40
0.2872608138
 40
0.3588342553
 40
0.4367914529
 40
0.4779625375
 40
0.5204872085
 40
0.5642855196
 40
0.5866379204
 40
0.6092786961
 40
0.6553601525
 40
0.6787677368
 40
0.7024014652
 40
0.7262524672
 40
0.7503163022
 40
0.774584579
 40
0.7990425247
 40
0.8236736247
 40
0.84846427
 40
0.8734079167
 40
0.8984990786
 40
0.9490628105
 40
1.0
 40
1.0
 40
1.0
 40
1.0
 10
10.6663024943
 20
10.7243476829
 30
0.0
 10
10.6663032957
 20
10.7243380672
 30
0.0
 10
10.6663115637
 20
10.7243230261
 30
0.0
 10
10.6663294578
 20
10.7243085837
 30
0.0
 10
10.6663576022
 20
10.7242924659
 30
0.0
 10
10.6664063337
 20
10.7242753442
 30
0.0
 10
10.6664800474
 20
10.7242576605
 30
0.0
 10
10.6665738849
 20
10.7242411986
 30
0.0
 10
10.666687873
 20
10.7242252889
 30
0.0
 10
10.6668220801
 20
10.7242095691
 30
0.0
 10
10.6670411529
 20
10.7241880745
 30
0.0
 10
10.66736508
 20
10.7241643666
 30
0.0
 10
10.6680145513
 20
10.7241333751
 30
0.0
 10
10.6690199452
 20
10.7241186664
 30
0.0
 10
10.670451628
 20
10.7241303057
 30
0.0
 10
10.6721747851
 20
10.7241739366
 30
0.0
 10
10.6741751901
 20
10.7242513668
 30
0.0
 10
10.676436581
 20
10.7243618036
 30
0.0
 10
10.678940888
 20
10.7244981749
 30
0.0
 10
10.6811707486
 20
10.7246259177
 30
0.0
 10
10.683060277
 20
10.7247451757
 30
0.0
 10
10.68455034
 20
10.7248421174
 30
0.0
 10
10.685820778
 20
10.724919911
 30
0.0
 10
10.6868591383
 20
10.7249771001
 30
0.0
 10
10.6879244843
 20
10.7250301706
 30
0.0
 10
10.6890022205
 20
10.7250833521
 30
0.0
 10
10.6900907602
 20
10.725151648
 30
0.0
 10
10.6909186984
 20
10.7252145597
 30
0.0
 10
10.6917530471
 20
10.7252931098
 30
0.0
 10
10.6925929958
 20
10.7253893929
 30
0.0
 10
10.6934388733
 20
10.7254956219
 30
0.0
 10
10.6942910181
 20
10.7256052124
 30
0.0
 10
10.6951497942
 20
10.7257111804
 30
0.0
 10
10.6960155264
 20
10.7258069452
 30
0.0
 10
10.6968885135
 20
10.7258846662
 30
0.0
 10
10.6980642796
 20
10.7259618846
 30
0.0
 10
10.6995462317
 20
10.7260162945
 30
0.0
 10
10.7007350476
 20
10.7260275915
 30
0.0
 10
10.7013316247
 20
10.7260284692
 30
0.0
  0
SPLINE
  5
4AC
100
AcDbEntity
  8
0
100
AcDbSpline
 62
9
  6
CONTINUOUS
 70
0
 71
3
 72
28
 73
24
 74
0
 42
0.0000001
 43
0.0000001
 44
0.0000000001
 40
0.0
 40
0.0
 40
0.0
 40
0.0
 40
0.0021097917
 40
0.0038217865
 40
0.0060583452
 40
0.0088435032
 40
0.0121890004
 40
0.0161006314
 40
0.0205802861
 40
0.0312430322
 40
0.0441701891
 40
0.0767308062
 40
0.1180125829
 40
0.1676697553
 40
0.2252789203
 40
0.2903412695
 40
0.3622906536
 40
0.4405018076
 40
0.5242924553
 40
0.6129322809
 40
0.7056455039
 40
0.8016186252
 40
1.0
 40
1.0
 40
1.0
 40
1.0
 10
10.7527422706
 20
9.6870703816
 30
0.0
 10
10.7527444405
 20
9.6870443448
 30
0.0
 10
10.7527870939
 20
9.6870074842
 30
0.0
 10
10.7528535481
 20
9.6869781245
 30
0.0
 10
10.7529338726
 20
9.6869523014
 30
0.0
 10
10.7530346025
 20
9.6869290541
 30
0.0
 10
10.753157179
 20
9.6869072223
 30
0.0
 10
10.7533011454
 20
9.68688731
 30
0.0
 10
10.7535357474
 20
9.6868616752
 30
0.0
 10
10.7538824757
 20
9.6868358738
 30
0.0
 10
10.7545771462
 20
9.6868038714
 30
0.0
 10
10.7556517764
 20
9.6867882172
 30
0.0
 10
10.7571811647
 20
9.6867995909
 30
0.0
 10
10.7590203301
 20
9.6868415817
 30
0.0
 10
10.761153206
 20
9.6869138799
 30
0.0
 10
10.7635611926
 20
9.6870161834
 30
0.0
 10
10.7662232274
 20
9.687147678
 30
0.0
 10
10.7691160301
 20
9.6873073085
 30
0.0
 10
10.7722143181
 20
9.6874937254
 30
0.0
 10
10.7754909716
 20
9.6877053302
 30
0.0
 10
10.7789172682
 20
9.687940286
 30
0.0
 10
10.7836981494
 20
9.6882858275
 30
0.0
 10
10.7873324867
 20
9.6885676135
 30
0.0
 10
10.7897812195
 20
9.6887653406
 30
0.0
  0
SPLINE
  5
4AD
100
AcDbEntity
  8
0
100
AcDbSpline
 62
9
  6
CONTINUOUS
 70
0
 71
3
 72
13
 73
9
 74
0
 42
0.0000001
 43
0.0000001
 44
0.0000000001
 40
0.0
 40
0.0
 40
0.0
 40
0.0
 40
0.2499908204
 40
0.3749868782
 40
0.4999845258
 40
0.6249842685
 40
0.7499865947
 40
1.0
 40
1.0
 40
1.0
 40
1.0
 10
10.7897812195
 20
9.6887653406
 30
0.0
 10
10.7823337493
 20
9.7751942271
 30
0.0
 10
10.7711075701
 20
9.9048330385
 30
0.0
 10
10.7561742537
 20
10.0776885063
 30
0.0
 10
10.7450214237
 20
10.2073359359
 30
0.0
 10
10.7339375752
 20
10.336991471
 30
0.0
 10
10.7192833038
 20
10.5098816031
 30
0.0
 10
10.708456622
 20
10.6395645372
 30
0.0
 10
10.7013316948
 20
10.7260284745
 30
0.0
  0
SPLINE
  5
4AE
100
AcDbEntity
  8
0
100
AcDbSpline
 62
9
  6
CONTINUOUS
 70
0
 71
3
 72
22
 73
18
 74
0
 42
0.0000001
 43
0.0000001
 44
0.0000000001
 40
0.0
 40
0.0
 40
0.0
 40
0.0
 40
0.1230420081
 40
0.1846370842
 40
0.246296116
 40
0.3080366553
 40
0.3698807105
 40
0.4318467916
 40
0.4939620369
 40
0.5562574006
 40
0.6187753475
 40
0.6815519265
 40
0.7446336753
 40
0.8080557066
 40
0.8718147862
 40
0.9358652948
 40
1.0
 40
1.0
 40
1.0
 40
1.0
 10
11.3404034151
 20
9.2661208169
 30
0.0
 10
11.3409483446
 20
9.2626606193
 30
0.0
 10
11.3418345037
 20
9.2574785007
 30
0.0
 10
11.3431776649
 20
9.2505963811
 30
0.0
 10
11.3442744927
 20
9.2454449995
 30
0.0
 10
11.3454714774
 20
9.24030864
 30
0.0
 10
11.3467786337
 20
9.2351900786
 30
0.0
 10
11.3482128801
 20
9.2300944401
 30
0.0
 10
11.349790571
 20
9.2250277226
 30
0.0
 10
11.3515329913
 20
9.219998404
 30
0.0
 10
11.3534609972
 20
9.2150167115
 30
0.0
 10
11.3556070031
 20
9.2100999494
 30
0.0
 10
11.3580056023
 20
9.2052718013
 30
0.0
 10
11.3606943581
 20
9.2005656875
 30
0.0
 10
11.3637173637
 20
9.196031603
 30
0.0
 10
11.3671136682
 20
9.1917429037
 30
0.0
 10
11.3696438317
 20
9.1891018824
 30
0.0
 10
11.3709821577
 20
9.1878598916
 30
0.0
  0
SPLINE
  5
4AF
100
AcDbEntity
  8
0
100
AcDbSpline
 62
9
  6
CONTINUOUS
 70
0
 71
3
 72
32
 73
28
 74
0
 42
0.0000001
 43
0.0000001
 44
0.0000000001
 40
0.0
 40
0.0
 40
0.0
 40
0.0
 40
0.1013957231
 40
0.1514221371
 40
0.2008421808
 40
0.2974743487
 40
0.3905319752
 40
0.5629158783
 40
0.6408388937
 40
0.7123888004
 40
0.7769834557
 40
0.8340931661
 40
0.8832476872
 40
0.9047145563
 40
0.9240474652
 40
0.9412088595
 40
0.9561695136
 40
0.9689031532
 40
0.9793948619
 40
0.9837997659
 40
0.9876457155
 40
0.9909366959
 40
0.9936816295
 40
0.9958983494
 40
0.9976223442
 40
0.9989313604
 40
1.0
 40
1.0
 40
1.0
 40
1.0
 10
12.0824878971
 20
8.3337956324
 30
0.0
 10
12.0818146688
 20
8.3328170172
 30
0.0
 10
12.0808180748
 20
8.3313495433
 30
0.0
 10
12.079498071
 20
8.3294019051
 30
0.0
 10
12.0782055749
 20
8.327503036
 30
0.0
 10
12.0766272222
 20
8.3251889445
 30
0.0
 10
12.0742505203
 20
8.3216757666
 30
0.0
 10
12.0720150141
 20
8.3183316524
 30
0.0
 10
12.0699508299
 20
8.3151763755
 30
0.0
 10
12.0685928999
 20
8.3130680798
 30
0.0
 10
12.0673811195
 20
8.3111557432
 30
0.0
 10
12.0663228117
 20
8.3094568293
 30
0.0
 10
12.0655400009
 20
8.3081815758
 30
0.0
 10
12.0649946655
 20
8.3072798607
 30
0.0
 10
12.0646463939
 20
8.3066969773
 30
0.0
 10
12.064341065
 20
8.3061772397
 30
0.0
 10
12.0640801694
 20
8.3057210851
 30
0.0
 10
12.0638650487
 20
8.3053288408
 30
0.0
 10
12.0637171906
 20
8.3050408051
 30
0.0
 10
12.06362416
 20
8.3048418938
 30
0.0
 10
12.0635707868
 20
8.3047176339
 30
0.0
 10
12.0635296984
 20
8.3046093508
 30
0.0
 10
12.0635009794
 20
8.3045169621
 30
0.0
 10
12.0634845825
 20
8.3044401791
 30
0.0
 10
12.0634806501
 20
8.3043785468
 30
0.0
 10
12.0634894463
 20
8.3043303225
 30
0.0
 10
12.0635074439
 20
8.3043070468
 30
0.0
 10
12.0635177283
 20
8.3042999087
 30
0.0
  0
SPLINE
  5
4B0
100
AcDbEntity
  8
0
100
AcDbSpline
 62
9
  6
CONTINUOUS
 70
0
 71
3
 72
13
 73
9
 74
0
 42
0.0000001
 43
0.0000001
 44
0.0000000001
 40
0.0
 40
0.0
 40
0.0
 40
0.0
 40
0.2499908205
 40
0.3749868786
 40
0.4999845261
 40
0.6249842687
 40
0.7499865947
 40
1.0
 40
1.0
 40
1.0
 40
1.0
 10
11.2284164745
 20
8.9290267926
 30
0.0
 10
11.2995423511
 20
8.8793626514
 30
0.0
 10
11.4061997655
 20
8.8048210892
 30
0.0
 10
11.5484303335
 20
8.7054607237
 30
0.0
 10
11.655131886
 20
8.6309783746
 30
0.0
 10
11.7618749489
 20
8.5565517127
 30
0.0
 10
11.9042750599
 20
8.4574156761
 30
0.0
 10
12.0111704347
 20
8.3831980282
 30
0.0
 10
12.0824879374
 20
8.3337956917
 30
0.0
  0
SPLINE
  5
4B1
100
AcDbEntity
  8
0
100
AcDbSpline
 62
9
  6
CONTINUOUS
 70
0
 71
3
 72
28
 73
24
 74
0
 42
0.0000001
 43
0.0000001
 44
0.0000000001
 40
0.0
 40
0.0
 40
0.0
 40
0.0
 40
0.1983813802
 40
0.2943545039
 40
0.3870677291
 40
0.4757075566
 40
0.5594982057
 40
0.6377093607
 40
0.7096587453
 40
0.7747210946
 40
0.832330259
 40
0.8819874304
 40
0.9232692053
 40
0.9558298201
 40
0.9687569757
 40
0.9794197202
 40
0.9838993741
 40
0.9878110043
 40
0.9911565007
 40
0.9939416577
 40
0.9961782156
 40
0.9978902094
 40
1.0
 40
1.0
 40
1.0
 40
1.0
 10
11.2284164745
 20
8.9290267926
 30
0.0
 10
11.2270208714
 20
8.9270049913
 30
0.0
 10
11.2249596688
 20
8.9239984558
 30
0.0
 10
11.2222699804
 20
8.9200308618
 30
0.0
 10
11.2203533544
 20
8.9171810797
 30
0.0
 10
11.2185317724
 20
8.9144492169
 30
0.0
 10
11.2168211866
 20
8.9118592291
 30
0.0
 10
11.2152365412
 20
8.9094338037
 30
0.0
 10
11.2137916462
 20
8.9071941613
 30
0.0
 10
11.2124990554
 20
8.9051599354
 30
0.0
 10
11.2113700054
 20
8.9033489598
 30
0.0
 10
11.2104140576
 20
8.9017771913
 30
0.0
 10
11.2096395136
 20
8.9004583891
 30
0.0
 10
11.2091157554
 20
8.8995199049
 30
0.0
 10
11.2087961351
 20
8.8989023015
 30
0.0
 10
11.2086451157
 20
8.8985891253
 30
0.0
 10
11.2085500151
 20
8.8983731367
 30
0.0
 10
11.2084952765
 20
8.898238502
 30
0.0
 10
11.2084528951
 20
8.8981214318
 30
0.0
 10
11.208422663
 20
8.8980225735
 30
0.0
 10
11.2084048642
 20
8.8979400989
 30
0.0
 10
11.2083970633
 20
8.897867868
 30
0.0
 10
11.2084076589
 20
8.8978124988
 30
0.0
 10
11.2084291225
 20
8.8977976013
 30
0.0
  0
SPLINE
  5
4B2
100
AcDbEntity
  8
0
100
AcDbSpline
 62
9
  6
CONTINUOUS
 70
0
 71
3
 72
32
 73
28
 74
0
 42
0.0000001
 43
0.0000001
 44
0.0000000001
 40
0.0
 40
0.0
 40
0.0
 40
0.0
 40
0.0028681579
 40
0.0058212384
 40
0.0124369888
 40
0.0162964868
 40
0.0205970256
 40
0.0306259234
 40
0.042659573
 40
0.0567559316
 40
0.0729403213
 40
0.0912161653
 40
0.111570368
 40
0.1339721918
 40
0.1847535313
 40
0.243157377
 40
0.3086611868
 40
0.3806409819
 40
0.4583894285
 40
0.5411423512
 40
0.6280848696
 40
0.7183547569
 40
0.7644548032
 40
0.8110459762
 40
0.8580162893
 40
0.9052532482
 40
1.0
 40
1.0
 40
1.0
 40
1.0
 10
12.3524944573
 20
8.7181786473
 30
0.0
 10
12.3525147767
 20
8.7182138415
 30
0.0
 10
12.3525485946
 20
8.7182898635
 30
0.0
 10
12.3525855289
 20
8.7184632814
 30
0.0
 10
12.3525706281
 20
8.7186566473
 30
0.0
 10
12.352518755
 20
8.7188594582
 30
0.0
 10
12.3524312445
 20
8.7191023248
 30
0.0
 10
12.3522630508
 20
8.719437114
 30
0.0
 10
12.3519863287
 20
8.7198689887
 30
0.0
 10
12.3516240037
 20
8.720347282
 30
0.0
 10
12.3511766939
 20
8.7208704012
 30
0.0
 10
12.350645206
 20
8.7214370274
 30
0.0
 10
12.3500306024
 20
8.7220455835
 30
0.0
 10
12.3490609198
 20
8.7229492623
 30
0.0
 10
12.3476477046
 20
8.7241664138
 30
0.0
 10
12.3457166278
 20
8.7257152458
 30
0.0
 10
12.3435061851
 20
8.7273942119
 30
0.0
 10
12.3410385577
 20
8.7291864664
 30
0.0
 10
12.3383357698
 20
8.731069732
 30
0.0
 10
12.335425353
 20
8.733024889
 30
0.0
 10
12.332337518
 20
8.735033333
 30
0.0
 10
12.3296617868
 20
8.7367222905
 30
0.0
 10
12.3274573418
 20
8.7380864133
 30
0.0
 10
12.3257683085
 20
8.7391174753
 30
0.0
 10
12.3240584562
 20
8.7401452709
 30
0.0
 10
12.3217528074
 20
8.7415061302
 30
0.0
 10
12.3200109933
 20
8.742512782
 30
0.0
 10
12.3188486151
 20
8.7431844049
 30
0.0
  0
SPLINE
  5
4B3
100
AcDbEntity
  8
0
100
AcDbSpline
 62
9
  6
CONTINUOUS
 70
0
 71
3
 72
23
 73
19
 74
0
 42
0.0000001
 43
0.0000001
 44
0.0000000001
 40
0.0
 40
0.0
 40
0.0
 40
0.0
 40
0.1234614695
 40
0.2469525383
 40
0.3087436966
 40
0.3705829962
 40
0.4944858421
 40
0.5566269507
 40
0.6189469497
 40
0.6815012479
 40
0.7443614864
 40
0.7759370804
 40
0.8076231606
 40
0.839426437
 40
0.871355767
 40
0.9355354944
 40
0.9677740531
 40
1.0
 40
1.0
 40
1.0
 40
1.0
 10
10.7667201236
 20
8.9060510004
 30
0.0
 10
10.7622576718
 20
8.9081606584
 30
0.0
 10
10.7532693024
 20
8.9122498253
 30
0.0
 10
10.7418815538
 20
8.9170183918
 30
0.0
 10
10.7326717327
 20
8.9205966774
 30
0.0
 10
10.7233793712
 20
8.9240021667
 30
0.0
 10
10.7139636758
 20
8.9271101757
 30
0.0
 10
10.7044080875
 20
8.929815101
 30
0.0
 10
10.6971459166
 20
8.9316019042
 30
0.0
 10
10.6897868551
 20
8.9330903536
 30
0.0
 10
10.6835761176
 20
8.9340221674
 30
0.0
 10
10.6785590454
 20
8.9345349983
 30
0.0
 10
10.6747659816
 20
8.9347889857
 30
0.0
 10
10.6709512327
 20
8.9348922751
 30
0.0
 10
10.6658370666
 20
8.9348034744
 30
0.0
 10
10.6607147069
 20
8.934325911
 30
0.0
 10
10.6556579721
 20
8.9333704496
 30
0.0
 10
10.6531627058
 20
8.9327130876
 30
0.0
 10
10.6519314001
 20
8.9323338077
 30
0.0
  0
SPLINE
  5
4B4
100
AcDbEntity
  8
0
100
AcDbSpline
 62
9
  6
CONTINUOUS
 70
0
 71
3
 72
30
 73
26
 74
0
 42
0.0000001
 43
0.0000001
 44
0.0000000001
 40
0.0
 40
0.0
 40
0.0
 40
0.0
 40
0.0009956646
 40
0.0022938652
 40
0.0040458234
 40
0.0063130094
 40
0.0091226967
 40
0.0124885067
 40
0.016417381
 40
0.0209119491
 40
0.0315992926
 40
0.0445460709
 40
0.0597351888
 40
0.0771367051
 40
0.1184375042
 40
0.1681056897
 40
0.2257183138
 40
0.2907763079
 40
0.3627128419
 40
0.4409017046
 40
0.5246594944
 40
0.6132546652
 40
0.705910144
 40
0.8018111223
 40
1.0
 40
1.0
 40
1.0
 40
1.0
 10
10.6705069638
 20
8.9001520556
 30
0.0
 10
10.6705174101
 20
8.9001586645
 30
0.0
 10
10.6705358557
 20
8.9001826026
 30
0.0
 10
10.6705459483
 20
8.9002325756
 30
0.0
 10
10.6705451134
 20
8.9002988079
 30
0.0
 10
10.6705328208
 20
8.9003828678
 30
0.0
 10
10.6705092211
 20
8.9004850596
 30
0.0
 10
10.670474067
 20
8.9006055353
 30
0.0
 10
10.6704273422
 20
8.9007442728
 30
0.0
 10
10.6703446475
 20
8.9009666909
 30
0.0
 10
10.670210774
 20
8.9012893479
 30
0.0
 10
10.6700125983
 20
8.9017287647
 30
0.0
 10
10.6697688575
 20
8.9022389221
 30
0.0
 10
10.6693597435
 20
8.9030600557
 30
0.0
 10
10.6687358191
 20
8.9042522159
 30
0.0
 10
10.6678538114
 20
8.9058724131
 30
0.0
 10
10.6668080821
 20
8.9077391261
 30
0.0
 10
10.6656077095
 20
8.9098359592
 30
0.0
 10
10.6642630564
 20
8.9121444603
 30
0.0
 10
10.6627858462
 20
8.9146443522
 30
0.0
 10
10.6611889694
 20
8.9173137063
 30
0.0
 10
10.6594864095
 20
8.9201290824
 30
0.0
 10
10.6576931102
 20
8.9230657303
 30
0.0
 10
10.6551742852
 20
8.9271535439
 30
0.0
 10
10.6532412315
 20
8.9302510873
 30
0.0
 10
10.6519312988
 20
8.932333972
 30
0.0
  0
SPLINE
  5
4B5
100
AcDbEntity
  8
0
100
AcDbSpline
 62
9
  6
CONTINUOUS
 70
0
 71
3
 72
31
 73
27
 74
0
 42
0.0000001
 43
0.0000001
 44
0.0000000001
 40
0.0
 40
0.0
 40
0.0
 40
0.0
 40
0.0010059635
 40
0.00229856
 40
0.0040273266
 40
0.0062551742
 40
0.009010725
 40
0.0123086915
 40
0.0161579044
 40
0.020563935
 40
0.0310552195
 40
0.0437881397
 40
0.0587497993
 40
0.0759128425
 40
0.1167149442
 40
0.1658717493
 40
0.2229842776
 40
0.2875818702
 40
0.3591349736
 40
0.4370615268
 40
0.6094524601
 40
0.7025139748
 40
0.7991499536
 40
0.8485717167
 40
0.8985998879
 40
1.0
 40
1.0
 40
1.0
 40
1.0
 10
9.8118669572
 20
8.3042999087
 30
0.0
 10
9.8118766379
 20
8.3043066279
 30
0.0
 10
9.8118933356
 20
8.3043297511
 30
0.0
 10
9.8119012967
 20
8.3043770245
 30
0.0
 10
9.8118978001
 20
8.3044386578
 30
0.0
 10
9.8118822544
 20
8.3045159218
 30
0.0
 10
9.8118545525
 20
8.304608975
 30
0.0
 10
9.811814233
 20
8.304717813
 30
0.0
 10
9.8117611878
 20
8.3048423584
 30
0.0
 10
9.8116682345
 20
8.3050413498
 30
0.0
 10
9.8115198774
 20
8.3053291193
 30
0.0
 10
9.811304256
 20
8.3057210553
 30
0.0
 10
9.8110433627
 20
8.3061772075
 30
0.0
 10
9.8106108064
 20
8.3069138902
 30
0.0
 10
9.8099630634
 20
8.3079886681
 30
0.0
 10
9.8090617996
 20
8.3094569536
 30
0.0
 10
9.8080034649
 20
8.3111558546
 30
0.0
 10
9.8067917238
 20
8.313068213
 30
0.0
 10
9.8054337738
 20
8.3151764907
 30
0.0
 10
9.8033696063
 20
8.3183317591
 30
0.0
 10
9.801134074
 20
8.321675832
 30
0.0
 10
9.7987574356
 20
8.3251890203
 30
0.0
 10
9.7971791335
 20
8.3275031204
 30
0.0
 10
9.7958865606
 20
8.3294019096
 30
0.0
 10
9.7945664751
 20
8.3313494703
 30
0.0
 10
9.7935699323
 20
8.3328169646
 30
0.0
 10
9.7928967884
 20
8.3337956324
 30
0.0
  0
SPLINE
  5
4B6
100
AcDbEntity
  8
0
100
AcDbSpline
 62
9
  6
CONTINUOUS
 70
0
 71
3
 72
28
 73
24
 74
0
 42
0.0000001
 43
0.0000001
 44
0.0000000001
 40
0.0
 40
0.0
 40
0.0
 40
0.0
 40
0.0021097917
 40
0.0038217865
 40
0.0060583452
 40
0.0088435032
 40
0.0121890004
 40
0.0161006314
 40
0.0205802861
 40
0.0312430322
 40
0.0441701891
 40
0.0767308062
 40
0.1180125829
 40
0.1676697553
 40
0.2252789203
 40
0.2903412695
 40
0.3622906536
 40
0.4405018076
 40
0.5242924553
 40
0.6129322809
 40
0.7056455039
 40
0.8016186252
 40
1.0
 40
1.0
 40
1.0
 40
1.0
 10
10.6669555628
 20
8.8977976015
 30
0.0
 10
10.6669770264
 20
8.8978124991
 30
0.0
 10
10.666987622
 20
8.8978678683
 30
0.0
 10
10.666979821
 20
8.8979400992
 30
0.0
 10
10.6669620223
 20
8.8980225738
 30
0.0
 10
10.6669317901
 20
8.8981214322
 30
0.0
 10
10.6668894087
 20
8.8982385024
 30
0.0
 10
10.6668346701
 20
8.8983731371
 30
0.0
 10
10.6667395694
 20
8.8985891258
 30
0.0
 10
10.66658855
 20
8.898902302
 30
0.0
 10
10.6662689297
 20
8.8995199055
 30
0.0
 10
10.6657451715
 20
8.9004583896
 30
0.0
 10
10.6649706274
 20
8.9017771919
 30
0.0
 10
10.6640146796
 20
8.9033489605
 30
0.0
 10
10.6628856296
 20
8.9051599361
 30
0.0
 10
10.6615930388
 20
8.9071941619
 30
0.0
 10
10.6601481438
 20
8.9094338043
 30
0.0
 10
10.6585634984
 20
8.9118592297
 30
0.0
 10
10.6568529126
 20
8.9144492174
 30
0.0
 10
10.6550313308
 20
8.9171810802
 30
0.0
 10
10.6531147048
 20
8.9200308622
 30
0.0
 10
10.6504250164
 20
8.923998456
 30
0.0
 10
10.6483638139
 20
8.9270049915
 30
0.0
 10
10.6469682109
 20
8.9290267927
 30
0.0
  0
SPLINE
  5
4B7
100
AcDbEntity
  8
0
100
AcDbSpline
 62
9
  6
CONTINUOUS
 70
0
 71
3
 72
13
 73
9
 74
0
 42
0.0000001
 43
0.0000001
 44
0.0000000001
 40
0.0
 40
0.0
 40
0.0
 40
0.0
 40
0.2499908204
 40
0.3749868782
 40
0.4999845258
 40
0.6249842685
 40
0.7499865947
 40
1.0
 40
1.0
 40
1.0
 40
1.0
 10
10.6469682109
 20
8.9290267927
 30
0.0
 10
10.5758423346
 20
8.879362651
 30
0.0
 10
10.4691849202
 20
8.804821089
 30
0.0
 10
10.3269543522
 20
8.7054607238
 30
0.0
 10
10.2202527996
 20
8.6309783748
 30
0.0
 10
10.1135097367
 20
8.5565517129
 30
0.0
 10
9.971109626
 20
8.4574156756
 30
0.0
 10
9.8642142515
 20
8.3831980271
 30
0.0
 10
9.7928967489
 20
8.3337956904
 30
0.0
  0
SPLINE
  5
4B8
100
AcDbEntity
  8
0
100
AcDbSpline
 62
9
  6
CONTINUOUS
 70
0
 71
3
 72
32
 73
28
 74
0
 42
0.0000001
 43
0.0000001
 44
0.0000000001
 40
0.0
 40
0.0
 40
0.0
 40
0.0
 40
0.0028680886
 40
0.0058211027
 40
0.0124367387
 40
0.0162961904
 40
0.0205966897
 40
0.0306255259
 40
0.0426591312
 40
0.0567554583
 40
0.0729398262
 40
0.0912156564
 40
0.1115698519
 40
0.1339716741
 40
0.1847530239
 40
0.2431568945
 40
0.3086607403
 40
0.38064058
 40
0.4583890778
 40
0.5411420562
 40
0.6280846334
 40
0.7183545809
 40
0.7644546575
 40
0.8110458605
 40
0.8580162034
 40
0.9052531917
 40
1.0
 40
1.0
 40
1.0
 40
1.0
 10
12.1209664395
 20
8.317160357
 30
0.0
 10
12.1209461206
 20
8.3171251637
 30
0.0
 10
12.1208971935
 20
8.3170578672
 30
0.0
 10
12.1207654781
 20
8.3169391757
 30
0.0
 10
12.1205905698
 20
8.3168554009
 30
0.0
 10
12.1203889961
 20
8.3167989222
 30
0.0
 10
12.1201349139
 20
8.3167532785
 30
0.0
 10
12.1197608832
 20
8.3167315478
 30
0.0
 10
12.1192485101
 20
8.3167552628
 30
0.0
 10
12.1186531357
 20
8.3168299024
 30
0.0
 10
12.1179764483
 20
8.3169557279
 30
0.0
 10
12.1172199935
 20
8.3171326999
 30
0.0
 10
12.1163856683
 20
8.3173606869
 30
0.0
 10
12.11511822
 20
8.3177486207
 30
0.0
 10
12.1133575301
 20
8.3183639284
 30
0.0
 10
12.1110506652
 20
8.3192618761
 30
0.0
 10
12.108491417
 20
8.3203366932
 30
0.0
 10
12.1057054649
 20
8.3215775932
 30
0.0
 10
12.1027231139
 20
8.322976641
 30
0.0
 10
12.0995746876
 20
8.3245195537
 30
0.0
 10
12.0962914036
 20
8.32618947
 30
0.0
 10
12.0934908547
 20
8.3276622369
 30
0.0
 10
12.0912072644
 20
8.3288892759
 30
0.0
 10
12.0894698194
 20
8.3298364864
 30
0.0
 10
12.0877247936
 20
8.3308033597
 30
0.0
 10
12.0853934269
 20
8.3321196742
 30
0.0
 10
12.0836507308
 20
8.3331247984
 30
0.0
 10
12.0824878971
 20
8.3337956324
 30
0.0
  0
SPLINE
  5
4B9
100
AcDbEntity
  8
0
100
AcDbSpline
 62
9
  6
CONTINUOUS
 70
0
 71
3
 72
30
 73
26
 74
0
 42
0.0000001
 43
0.0000001
 44
0.0000000001
 40
0.0
 40
0.0
 40
0.0
 40
0.0
 40
0.0009955891
 40
0.0022937307
 40
0.0040456463
 40
0.0063128017
 40
0.0091224673
 40
0.0124882627
 40
0.0164171281
 40
0.0209116922
 40
0.0315990401
 40
0.044545836
 40
0.059734983
 40
0.0771365382
 40
0.1184374396
 40
0.1681057518
 40
0.2257185173
 40
0.2907766557
 40
0.3627133252
 40
0.4409023017
 40
0.5246601695
 40
0.6132553672
 40
0.7059108086
 40
0.8018116696
 40
1.0
 40
1.0
 40
1.0
 40
1.0
 10
11.3895647898
 20
9.2200387358
 30
0.0
 10
11.3895538439
 20
9.2200444778
 30
0.0
 10
11.389523891
 20
9.2200484822
 30
0.0
 10
11.3894755691
 20
9.2200322344
 30
0.0
 10
11.3894186295
 20
9.2199983935
 30
0.0
 10
11.3893519795
 20
9.2199457158
 30
0.0
 10
11.38927528
 20
9.2198741795
 30
0.0
 10
11.3891885234
 20
9.2197834945
 30
0.0
 10
11.3890917365
 20
9.2196736577
 30
0.0
 10
11.3889404652
 20
9.2194908278
 30
0.0
 10
11.3887279738
 20
9.2192135543
 30
0.0
 10
11.3884465163
 20
9.2188222111
 30
0.0
 10
11.3881265777
 20
9.2183560355
 30
0.0
 10
11.3876200123
 20
9.2175911475
 30
0.0
 10
11.3868995331
 20
9.216454707
 30
0.0
 10
11.385937404
 20
9.2148807322
 30
0.0
 10
11.3848436463
 20
9.2130417075
 30
0.0
 10
11.3836279205
 20
9.2109536933
 30
0.0
 10
11.3823010251
 20
9.2086348909
 30
0.0
 10
11.380874659
 20
9.2061055925
 30
0.0
 10
11.379361368
 20
9.2033879271
 30
0.0
 10
11.3777744603
 20
9.2005057254
 30
0.0
 10
11.376127899
 20
9.1974843051
 30
0.0
 10
11.3738471655
 20
9.1932589627
 30
0.0
 10
11.3721311476
 20
9.1900360652
 30
0.0
 10
11.3709822893
 20
9.1878601531
 30
0.0
  0
SPLINE
  5
4BA
100
AcDbEntity
  8
0
100
AcDbSpline
 62
9
  6
CONTINUOUS
 70
0
 71
3
 72
32
 73
28
 74
0
 42
0.0000001
 43
0.0000001
 44
0.0000000001
 40
0.0
 40
0.0
 40
0.0
 40
0.0
 40
0.0028681579
 40
0.0058212385
 40
0.0124369891
 40
0.0162964871
 40
0.020597026
 40
0.0306259239
 40
0.0426595735
 40
0.0567559322
 40
0.0729403219
 40
0.0912161659
 40
0.1115703686
 40
0.1339721925
 40
0.1847535319
 40
0.2431573776
 40
0.3086611874
 40
0.3806409824
 40
0.4583894289
 40
0.5411423515
 40
0.6280848699
 40
0.7183547571
 40
0.7644548034
 40
0.8110459763
 40
0.8580162894
 40
0.9052532482
 40
1.0
 40
1.0
 40
1.0
 40
1.0
 10
9.754418246
 20
8.317160357
 30
0.0
 10
9.7544385654
 20
8.3171251628
 30
0.0
 10
9.7544874934
 20
8.3170578647
 30
0.0
 10
9.7546192106
 20
8.3169391697
 30
0.0
 10
9.7547941208
 20
8.3168553912
 30
0.0
 10
9.7549956967
 20
8.3167989092
 30
0.0
 10
9.7552497806
 20
8.3167532621
 30
0.0
 10
9.7556238134
 20
8.3167315276
 30
0.0
 10
9.7561361889
 20
8.3167552385
 30
0.0
 10
9.7567315656
 20
8.3168298745
 30
0.0
 10
9.757408255
 20
8.3169556966
 30
0.0
 10
9.7581647116
 20
8.3171326655
 30
0.0
 10
9.7589990384
 20
8.3173606498
 30
0.0
 10
9.7602664886
 20
8.3177485802
 30
0.0
 10
9.7620271803
 20
8.3183638847
 30
0.0
 10
9.7643340466
 20
8.3192618302
 30
0.0
 10
9.7668932952
 20
8.3203366467
 30
0.0
 10
9.7696792468
 20
8.3215775475
 30
0.0
 10
9.7726615966
 20
8.3229765977
 30
0.0
 10
9.7758100206
 20
8.3245195141
 30
0.0
 10
9.7790933017
 20
8.3261894357
 30
0.0
 10
9.7818938474
 20
8.3276622081
 30
0.0
 10
9.7841774348
 20
8.3288892521
 30
0.0
 10
9.7859148774
 20
8.3298364668
 30
0.0
 10
9.7876599006
 20
8.3308033446
 30
0.0
 10
9.7899912638
 20
8.3321196654
 30
0.0
 10
9.7917339568
 20
8.3331247947
 30
0.0
 10
9.7928967884
 20
8.3337956324
 30
0.0
  0
SPLINE
  5
4BB
100
AcDbEntity
  8
0
100
AcDbSpline
 62
9
  6
CONTINUOUS
 70
0
 71
3
 72
32
 73
28
 74
0
 42
0.0000001
 43
0.0000001
 44
0.0000000001
 40
0.0
 40
0.0
 40
0.0
 40
0.0
 40
0.0028680885
 40
0.0058211025
 40
0.0124367385
 40
0.0162961901
 40
0.0205966894
 40
0.0306255256
 40
0.0426591309
 40
0.0567554579
 40
0.0729398258
 40
0.091215656
 40
0.1115698515
 40
0.1339716737
 40
0.1847530235
 40
0.2431568941
 40
0.3086607399
 40
0.3806405797
 40
0.4583890775
 40
0.5411420559
 40
0.6280846332
 40
0.7183545808
 40
0.7644546573
 40
0.8110458604
 40
0.8580162033
 40
0.9052531917
 40
1.0
 40
1.0
 40
1.0
 40
1.0
 10
9.5228902281
 20
8.7181786473
 30
0.0
 10
9.5228699093
 20
8.7182138406
 30
0.0
 10
9.5228360924
 20
8.7182898609
 30
0.0
 10
9.5227991602
 20
8.7184632756
 30
0.0
 10
9.5228140633
 20
8.718656638
 30
0.0
 10
9.5228659381
 20
8.7188594453
 30
0.0
 10
9.5229534506
 20
8.7191023088
 30
0.0
 10
9.5231216467
 20
8.7194370942
 30
0.0
 10
9.5233983709
 20
8.7198689648
 30
0.0
 10
9.523760698
 20
8.7203472544
 30
0.0
 10
9.5242080098
 20
8.7208703702
 30
0.0
 10
9.5247394994
 20
8.7214369932
 30
0.0
 10
9.5253541045
 20
8.7220455465
 30
0.0
 10
9.5263237892
 20
8.722949222
 30
0.0
 10
9.5277370063
 20
8.7241663704
 30
0.0
 10
9.5296680843
 20
8.7257152001
 30
0.0
 10
9.5318785273
 20
8.7273941655
 30
0.0
 10
9.5343461542
 20
8.7291864208
 30
0.0
 10
9.5370489407
 20
8.7310696887
 30
0.0
 10
9.5399593553
 20
8.7330248495
 30
0.0
 10
9.5430471873
 20
8.7350332987
 30
0.0
 10
9.5457229153
 20
8.7367222617
 30
0.0
 10
9.5479273574
 20
8.7380863895
 30
0.0
 10
9.5496163883
 20
8.7391174557
 30
0.0
 10
9.551326238
 20
8.7401452557
 30
0.0
 10
9.5536318832
 20
8.7415061213
 30
0.0
 10
9.5553736943
 20
8.7425127783
 30
0.0
 10
9.5565360704
 20
8.7431844048
 30
0.0
  0
ENDSEC
  0
SECTION
  2
OBJECTS
  0
DICTIONARY
  5
C
100
AcDbDictionary
280
0
281
1
  3
ACAD_GROUP
350
D
  3
ACAD_MLINESTYLE
350
17
  3
ACAD_LAYOUT
350
1A
  3
ACAD_PLOTSETTINGS
350
19
  3
ACAD_PLOTSTYLENAME
350
E
  0
DICTIONARY
  5
D
102
{ACAD_REACTORS
330
C
102
}
100
AcDbDictionary
280
0
281
1
  0
ACDBDICTIONARYWDFLT
  5
E
102
{ACAD_REACTORS
330
C
102
}
100
AcDbDictionary
281
1
  3
Normal
350
F
100
AcDbDictionaryWithDefault
340
F
  0
DICTIONARY
  5
17
102
{ACAD_REACTORS
330
C
102
}
100
AcDbDictionary
280
0
281
1
  3
Standard
350
18
  0
DICTIONARY
  5
19
102
{ACAD_REACTORS
330
C
102
}
100
AcDbDictionary
281
1
  0
DICTIONARY
  5
1A
102
{ACAD_REACTORS
330
C
102
}
100
AcDbDictionary
281
1
  3
Model
350
4BC
  3
Layout1
350
4BD
  0
ACDBPLACEHOLDER
  5
F
102
{ACAD_REACTORS
330
E
102
}
  0
MLINESTYLE
  5
18
102
{ACAD_REACTORS
330
17
102
}
100
AcDbMlineStyle
  2
STANDARD
 70
0
  3

 62
256
 51
90.0
 52
90.0
 71
2
 49
0.5
 62
256
  6
BYLAYER
 49
-0.5
 62
256
  6
BYLAYER
  0
LAYOUT
  5
4BC
102
{ACAD_REACTORS
330
1A
102
}
100
AcDbPlotSettings
  1

  2
none_device
  4
ANSI_C_(22.00_x_17.00_Inches)
  6

 40
0.0
 41
0.0
 42
0.0
 43
0.0
 44
558.8
 45
431.8
 46
0.0
 47
0.0
 48
0.0
 49
0.0
140
0.0
141
0.0
142
1.0
143
1.0
 70
1024
 72
0
 73
0
 74
0
  7

 75
0
147
1.0
148
0.0
149
0.0
100
AcDbLayout
  1
Model
 70
0
 71
0
 10
0.0
 20
0.0
 11
22.0
 21
17.0
 12
0.0
 22
0.0
 32
0.0
 14
0.0
 24
0.0
 34
0.0
 15
0.0
 25
0.0
 35
0.0
146
0.0
 13
0.0
 23
0.0
 33
0.0
 16
1.0
 26
0.0
 36
0.0
 17
0.0
 27
1.0
 37
0.0
 76
0
330
205
345
0
346
0
  0
LAYOUT
  5
4BD
102
{ACAD_REACTORS
330
1A
102
}
100
AcDbPlotSettings
  1

  2
none_device
  4
ANSI_C_(22.00_x_17.00_Inches)
  6

 40
0.0
 41
0.0
 42
0.0
 43
0.0
 44
558.8
 45
431.8
 46
0.0
 47
0.0
 48
0.0
 49
0.0
140
0.0
141
0.0
142
1.0
143
1.0
 70
0
 72
0
 73
0
 74
0
  7

 75
0
147
1.0
148
0.0
149
0.0
100
AcDbLayout
  1
Layout1
 70
0
 71
1
 10
0.0
 20
0.0
 11
22.0
 21
17.0
 12
0.0
 22
0.0
 32
0.0
 14
0.0
 24
0.0
 34
0.0
 15
0.0
 25
0.0
 35
0.0
146
0.0
 13
0.0
 23
0.0
 33
0.0
 16
1.0
 26
0.0
 36
0.0
 17
0.0
 27
1.0
 37
0.0
 76
0
330
206
345
0
346
0
  0
ENDSEC
  0
EOF
