999
DXF file: E:\BT Custom\CADOUTPUT\_TOP.dxf
999
Pro/ENGINEER 2018400 by Parametric Technology Corporation
  0
SECTION
  2
HEADER
  9
$ACADVER
  1
AC1018
  9
$DWGCODEPAGE
  3
ANSI_1252
  9
$EXTMAX
 10
22.0
 20
17.0
 30
0.0
  9
$EXTMIN
 10
0.0
 20
0.0
 30
0.0
  9
$LIMMIN
 10
0.0
 20
0.0
  9
$LIMMAX
 10
22.0
 20
17.0
  9
$VIEWCTR
 10
11.0
 20
8.5
  9
$VIEWSIZE
 40
17.0
  9
$CLAYER
  8
0
  9
$LTSCALE
 40
1.21
  9
$CELTYPE
  6
BYLAYER
  9
$DIMSCALE
 40
1.0
  9
$DIMASZ
 40
0.1
  9
$DIMEXO
 40
0.0625
  9
$DIMDLI
 40
0.836
  9
$DIMEXE
 40
0.125
  9
$DIMCEN
 40
0.198
  9
$DIMLFAC
 40
1.0
  9
$DIMBLK
  1
_FILLED
  9
$DIMALT
 70
1
  9
$DIMALTD
 70
2
  9
$DIMALTTD
 70
2
  9
$DIMALTF
 40
25.4
  9
$DIMTXT
 40
0.08
  9
$DIMTOL
 70
1
  9
$DIMLIM
 70
0
  9
$DIMTFAC
 40
1.0
  9
$DIMTP
 40
0.001
  9
$DIMTM
 40
0.001
  9
$DIMGAP
 40
0.09
  9
$DIMDSEP
 70
46
  9
$AUNITS
 70
0
  9
$PDMODE
 70
3
  9
$PDSIZE
 40
0.06
  9
$HANDSEED
  5
3D3
  9
$TILEMODE
 70
1
  9
$MEASUREMENT
 70
0
  9
$INSUNITS
 70
1
  0
ENDSEC
  0
SECTION
  2
CLASSES
  0
CLASS
  1
ACDBDICTIONARYWDFLT
  2
AcDbDictionaryWithDefault
  3
AutoCAD 2000
 90
0
 91
1
280
0
281
0
  0
CLASS
  1
ACDBPLACEHOLDER
  2
AcDbPlaceHolder
  3
AutoCAD 2000
 90
0
 91
1
280
0
281
0
  0
CLASS
  1
LAYOUT
  2
AcDbLayout
  3
AutoCAD 2000
 90
0
 91
0
280
0
281
0
  0
ENDSEC
  0
SECTION
  2
TABLES
  0
TABLE
  2
VPORT
  5
8
100
AcDbSymbolTable
 70
2
  0
VPORT
  5
1F4
100
AcDbSymbolTableRecord
100
AcDbViewportTableRecord
  2
*ACTIVE
 70
0
 10
0.0
 20
0.0
 11
1.0
 21
1.0
 12
11.0
 22
8.5
 13
0.0
 23
0.0
 14
1.0
 24
1.0
 15
0.0
 25
0.0
 16
0.0
 26
0.0
 36
1.0
 17
0.0
 27
0.0
 37
0.0
 40
17.0
 41
1.2941176471
 42
50.0
 43
0.0
 44
0.0
 50
0.0
 51
0.0
 71
0
 72
100
 73
1
 74
1
 75
0
 76
0
 77
0
 78
0
  0
ENDTAB
  0
TABLE
  2
LTYPE
  5
5
100
AcDbSymbolTable
 70
6
  0
LTYPE
  5
14
100
AcDbSymbolTableRecord
100
AcDbLinetypeTableRecord
  2
BYBLOCK
 70
0
  3

 72
65
 73
0
 40
0.0
  0
LTYPE
  5
15
100
AcDbSymbolTableRecord
100
AcDbLinetypeTableRecord
  2
BYLAYER
 70
0
  3

 72
65
 73
0
 40
0.0
  0
LTYPE
  5
16
100
AcDbSymbolTableRecord
100
AcDbLinetypeTableRecord
  2
CONTINUOUS
 70
64
  3
Solid line
 72
65
 73
0
 40
0.0
  0
LTYPE
  5
1F5
100
AcDbSymbolTableRecord
100
AcDbLinetypeTableRecord
  2
CENTER
 70
64
  3
____ _ ____ _ ____ _ ____ _ ____ _ ____ _ ____
 72
65
 73
4
 40
0.6
 49
0.375
 74
0
 49
-0.075
 74
0
 49
0.075
 74
0
 49
-0.075
 74
0
  0
LTYPE
  5
1F6
100
AcDbSymbolTableRecord
100
AcDbLinetypeTableRecord
  2
HIDDEN
 70
64
  3
- - - - - - - - - - - - - - - - - - - -
 72
65
 73
2
 40
0.2
 49
0.1
 74
0
 49
-0.1
 74
0
  0
LTYPE
  5
1F7
100
AcDbSymbolTableRecord
100
AcDbLinetypeTableRecord
  2
PHANTOM
 70
64
  3
_____ _ _ _____ _ _ _____ _ _ _____
 72
65
 73
6
 40
0.8
 49
0.45
 74
0
 49
-0.05
 74
0
 49
0.1
 74
0
 49
-0.05
 74
0
 49
0.1
 74
0
 49
-0.05
 74
0
  0
LTYPE
  5
1F8
100
AcDbSymbolTableRecord
100
AcDbLinetypeTableRecord
  2
DOT
 70
64
  3
. . . . . . . . . . . . . . . . . . . .
 72
65
 73
2
 40
0.2
 49
0.1
 74
0
 49
-0.1
 74
0
  0
LTYPE
  5
1F9
100
AcDbSymbolTableRecord
100
AcDbLinetypeTableRecord
  2
DASHED
 70
64
  3
- - - - - - - - - - - - - - - - - - - -
 72
65
 73
2
 40
0.2
 49
0.1
 74
0
 49
-0.1
 74
0
  0
ENDTAB
  0
TABLE
  2
LAYER
  5
2
100
AcDbSymbolTable
 70
36
  0
LAYER
  5
10
100
AcDbSymbolTableRecord
100
AcDbLayerTableRecord
  2
0
 70
0
 62
7
  6
CONTINUOUS
370
-3
390
F
  0
LAYER
  5
1FA
100
AcDbSymbolTableRecord
100
AcDbLayerTableRecord
  2
DEFAULT_1
 70
0
 62
7
  6
CENTER
370
-3
390
F
  0
LAYER
  5
1FB
100
AcDbSymbolTableRecord
100
AcDbLayerTableRecord
  2
DEFAULT_2
 70
0
 62
8
  6
HIDDEN
370
-3
390
F
  0
LAYER
  5
1FC
100
AcDbSymbolTableRecord
100
AcDbLayerTableRecord
  2
DEFAULT_3
 70
0
 62
7
  6
PHANTOM
370
-3
390
F
  0
LAYER
  5
1FD
100
AcDbSymbolTableRecord
100
AcDbLayerTableRecord
  2
ALL_FEATURES
 70
0
 62
7
  6
CONTINUOUS
370
-3
390
F
  0
LAYER
  5
1FE
100
AcDbSymbolTableRecord
100
AcDbLayerTableRecord
  2
AXES_FEATURES
 70
0
 62
7
  6
CONTINUOUS
370
-3
390
F
  0
LAYER
  5
1FF
100
AcDbSymbolTableRecord
100
AcDbLayerTableRecord
  2
DEFAULT_COORDINATE_SYSTEM
 70
0
 62
7
  6
CONTINUOUS
370
-3
390
F
  0
LAYER
  5
200
100
AcDbSymbolTableRecord
100
AcDbLayerTableRecord
  2
DEFAULT_DATUM_AXES
 70
0
 62
7
  6
CONTINUOUS
370
-3
390
F
  0
LAYER
  5
201
100
AcDbSymbolTableRecord
100
AcDbLayerTableRecord
  2
DEFAULT_DATUM_PLANES
 70
0
 62
7
  6
CONTINUOUS
370
-3
390
F
  0
LAYER
  5
202
100
AcDbSymbolTableRecord
100
AcDbLayerTableRecord
  2
DIMENSIONS
 70
0
 62
7
  6
CONTINUOUS
370
-3
390
F
  0
ENDTAB
  0
TABLE
  2
STYLE
  5
3
100
AcDbSymbolTable
 70
1
  0
STYLE
  5
11
100
AcDbSymbolTableRecord
100
AcDbTextStyleTableRecord
  2
STANDARD
 70
0
 40
0.0
 41
0.8
 50
0.0
 71
0
 42
0.2
  3
txt
  4

  0
STYLE
  5
203
100
AcDbSymbolTableRecord
100
AcDbTextStyleTableRecord
  2
TEXTSTYLE_1
 70
0
 40
0.0
 41
0.8
 50
0.0
 71
0
 42
0.2
  3
gdt
  4

  0
ENDTAB
  0
TABLE
  2
VIEW
  5
6
100
AcDbSymbolTable
 70
0
  0
ENDTAB
  0
TABLE
  2
UCS
  5
7
100
AcDbSymbolTable
 70
0
  0
ENDTAB
  0
TABLE
  2
APPID
  5
9
100
AcDbSymbolTable
 70
1
  0
APPID
  5
204
100
AcDbSymbolTableRecord
100
AcDbRegAppTableRecord
  2
ACAD
 70
0
  0
ENDTAB
  0
TABLE
  2
BLOCK_RECORD
  5
1
100
AcDbSymbolTable
 70
0
  0
BLOCK_RECORD
  5
205
100
AcDbSymbolTableRecord
100
AcDbBlockTableRecord
  2
*Model_Space
  0
BLOCK_RECORD
  5
206
100
AcDbSymbolTableRecord
100
AcDbBlockTableRecord
  2
*Paper_Space
  0
BLOCK_RECORD
  5
207
100
AcDbSymbolTableRecord
100
AcDbBlockTableRecord
  2
_FILLED
  0
ENDTAB
  0
TABLE
  2
DIMSTYLE
  5
A
100
AcDbSymbolTable
 70
1
100
AcDbDimStyleTable
 71
0
  0
DIMSTYLE
105
208
100
AcDbSymbolTableRecord
100
AcDbDimStyleTableRecord
  2
STANDARD
 70
0
  3

  4

 40
1.0
 41
0.1
 42
0.0625
 43
0.38
 44
0.125
 45
0.0
 46
0.0
 47
0.001
 48
0.001
140
0.08
141
0.09
142
0.0
143
25.4
144
1.0
145
0.0
146
1.0
147
0.09
 71
1.0
 72
0.0
 73
1
 74
1
 75
0
 76
0
 77
0
 78
4
 79
1
170
1
171
2
172
0
173
0
174
0
175
0
176
0
177
0
178
0
270
2
179
3
271
3
272
3
273
2
274
2
275
0
280
0
281
0
282
0
283
1
284
4
285
0
286
0
287
3
288
0
340
11
278
46
341
207
342
207
343
207
344
207
  0
ENDTAB
  0
ENDSEC
  0
SECTION
  2
BLOCKS
  0
BLOCK
  5
20
100
AcDbEntity
  8
0
100
AcDbBlockBegin
  2
*Model_Space
 70
0
 10
0.0
 20
0.0
 30
0.0
  3
*Model_Space
  1

  0
ENDBLK
  5
21
100
AcDbEntity
  8
0
100
AcDbBlockEnd
  0
BLOCK
  5
1C
100
AcDbEntity
  8
0
100
AcDbBlockBegin
  2
*Paper_Space
 70
0
 10
0.0
 20
0.0
 30
0.0
  3
*Paper_Space
  1

  0
ENDBLK
  5
1D
100
AcDbEntity
  8
0
100
AcDbBlockEnd
  0
BLOCK
  5
209
100
AcDbEntity
  8
0
100
AcDbBlockBegin
  2
_FILLED
 70
64
 10
0.0
 20
0.0
  3
_FILLED
  1

  0
SOLID
  5
20A
100
AcDbEntity
  8
0
  6
BYBLOCK
 62
0
100
AcDbTrace
 10
0.0
 20
0.0
 11
-1.0
 21
0.2
 12
-1.0
 22
-0.2
 13
-1.0
 23
-0.2
  0
ENDBLK
  5
20B
100
AcDbEntity
  8
0
  6
BYBLOCK
 62
0
100
AcDbBlockEnd
  0
ENDSEC
  0
SECTION
  2
ENTITIES
  0
LINE
  5
20C
100
AcDbEntity
  8
0
100
AcDbLine
 62
7
  6
CONTINUOUS
 10
7.7973183383
 20
8.9083686
 11
7.7973183383
 21
9.0478318604
  0
LINE
  5
20D
100
AcDbEntity
  8
0
100
AcDbLine
 62
7
  6
CONTINUOUS
 10
12.4369408446
 20
6.0773630165
 11
12.4369254953
 21
6.0773592821
  0
LINE
  5
20E
100
AcDbEntity
  8
0
100
AcDbLine
 62
7
  6
CONTINUOUS
 10
12.3943126677
 20
6.0687740696
 11
12.4369416764
 21
6.0773635371
  0
LWPOLYLINE
  5
20F
100
AcDbEntity
  8
0
100
AcDbPolyline
 62
7
  6
CONTINUOUS
 90
5
 70
0
 10
9.657695003
 20
6.0773635106
 10
9.7003817097
 20
6.068764873
 10
9.7441342895
 20
6.0636435832
 10
9.7879793602
 20
6.0622200454
 10
9.8030986382
 20
6.0625871709
  0
LINE
  5
210
100
AcDbEntity
  8
0
100
AcDbLine
 62
7
  6
CONTINUOUS
 10
9.6576958407
 20
6.0773630144
 11
9.6577112329
 21
6.0773592695
  0
LINE
  5
211
100
AcDbEntity
  8
0
100
AcDbLine
 62
7
  6
CONTINUOUS
 10
9.6271572397
 20
6.1162279324
 11
9.6271572397
 21
6.4067482676
  0
LINE
  5
212
100
AcDbEntity
  8
0
100
AcDbLine
 62
7
  6
CONTINUOUS
 10
10.7848183383
 20
5.9168318604
 11
11.3098183383
 21
5.9168318604
  0
LINE
  5
213
100
AcDbEntity
  8
0
100
AcDbLine
 62
9
  6
CONTINUOUS
 10
10.7848183383
 20
5.9468318604
 11
11.3098183383
 21
5.9468318604
  0
LINE
  5
214
100
AcDbEntity
  8
0
100
AcDbLine
 62
7
  6
CONTINUOUS
 10
10.7348183383
 20
5.9668318604
 11
11.3598183383
 21
5.9668318604
  0
LINE
  5
215
100
AcDbEntity
  8
0
100
AcDbLine
 62
7
  6
CONTINUOUS
 10
10.6473183383
 20
6.0418318604
 11
11.4473183383
 21
6.0418318604
  0
LWPOLYLINE
  5
216
100
AcDbEntity
  8
0
100
AcDbPolyline
 62
7
  6
CONTINUOUS
 90
6
 70
0
 10
10.8109555388
 20
6.0765215155
 10
10.9041948054
 20
6.0674327455
 10
10.999525288
 20
6.0627785826
 10
11.0949672415
 20
6.0627750992
 10
11.1902975419
 20
6.0674221916
 10
11.2836819145
 20
6.0765215843
  0
LWPOLYLINE
  5
217
100
AcDbEntity
  8
0
100
AcDbPolyline
 62
7
  6
CONTINUOUS
 90
8
 70
0
 10
10.6303295008
 20
6.1084516008
 10
10.6302456243
 20
6.1084799145
 10
10.6308194773
 20
6.1082330231
 10
10.6323234318
 20
6.107431824
 10
10.6346274516
 20
6.1058751483
 10
10.6374582669
 20
6.1034105994
 10
10.6404351771
 20
6.1000008463
 10
10.6432092622
 20
6.0956633762
  0
LINE
  5
218
100
AcDbEntity
  8
0
100
AcDbLine
 62
9
  6
CONTINUOUS
 10
9.6501031044
 20
6.116239731
 11
9.6501031044
 21
6.4067368272
  0
LINE
  5
219
100
AcDbEntity
  8
0
100
AcDbLine
 62
7
  6
CONTINUOUS
 10
9.7973183383
 20
8.5848318604
 11
9.7973183383
 21
8.7348318604
  0
LINE
  5
21A
100
AcDbEntity
  8
0
100
AcDbLine
 62
7
  6
CONTINUOUS
 10
9.7973369228
 20
8.3348318604
 11
9.7973369228
 21
8.2598318604
  0
LINE
  5
21B
100
AcDbEntity
  8
0
100
AcDbLine
 62
7
  6
CONTINUOUS
 10
9.797860495
 20
8.3348318604
 11
9.797860495
 21
8.2598318604
  0
LINE
  5
21C
100
AcDbEntity
  8
0
100
AcDbLine
 62
7
  6
CONTINUOUS
 10
9.7983362604
 20
8.3348318604
 11
9.7983362604
 21
8.2598318604
  0
LINE
  5
21D
100
AcDbEntity
  8
0
100
AcDbLine
 62
7
  6
CONTINUOUS
 10
9.7999063391
 20
8.3348318604
 11
9.7999063391
 21
8.2598318604
  0
LINE
  5
21E
100
AcDbEntity
  8
0
100
AcDbLine
 62
7
  6
CONTINUOUS
 10
9.8008572903
 20
8.3348318604
 11
9.8008572903
 21
8.2598318604
  0
LINE
  5
21F
100
AcDbEntity
  8
0
100
AcDbLine
 62
7
  6
CONTINUOUS
 10
9.8034719626
 20
8.3348318604
 11
9.8034719626
 21
8.2598318604
  0
LINE
  5
220
100
AcDbEntity
  8
0
100
AcDbLine
 62
7
  6
CONTINUOUS
 10
9.8048969409
 20
8.3348318604
 11
9.8048969409
 21
8.2598318604
  0
LINE
  5
221
100
AcDbEntity
  8
0
100
AcDbLine
 62
7
  6
CONTINUOUS
 10
9.8085530213
 20
8.3348318604
 11
9.8085530213
 21
8.2598318604
  0
LINE
  5
222
100
AcDbEntity
  8
0
100
AcDbLine
 62
7
  6
CONTINUOUS
 10
9.8104502907
 20
8.3348318604
 11
9.8104502907
 21
8.2598318604
  0
LINE
  5
223
100
AcDbEntity
  8
0
100
AcDbLine
 62
7
  6
CONTINUOUS
 10
9.8151433247
 20
8.3348318604
 11
9.8151433247
 21
8.2598318604
  0
LINE
  5
224
100
AcDbEntity
  8
0
100
AcDbLine
 62
7
  6
CONTINUOUS
 10
9.8175105737
 20
8.3348318604
 11
9.8175105737
 21
8.2598318604
  0
LINE
  5
225
100
AcDbEntity
  8
0
100
AcDbLine
 62
7
  6
CONTINUOUS
 10
9.8232348435
 20
8.3348318604
 11
9.8232348435
 21
8.2598318604
  0
LINE
  5
226
100
AcDbEntity
  8
0
100
AcDbLine
 62
7
  6
CONTINUOUS
 10
9.8260691879
 20
8.3348318604
 11
9.8260691879
 21
8.2598318604
  0
LINE
  5
227
100
AcDbEntity
  8
0
100
AcDbLine
 62
7
  6
CONTINUOUS
 10
9.8328177196
 20
8.3348318604
 11
9.8328177196
 21
8.2598318604
  0
LINE
  5
228
100
AcDbEntity
  8
0
100
AcDbLine
 62
7
  6
CONTINUOUS
 10
9.8361157062
 20
8.3348318604
 11
9.8361157062
 21
8.2598318604
  0
LINE
  5
229
100
AcDbEntity
  8
0
100
AcDbLine
 62
7
  6
CONTINUOUS
 10
9.8438802776
 20
8.3348318604
 11
9.8438802776
 21
8.2598318604
  0
LINE
  5
22A
100
AcDbEntity
  8
0
100
AcDbLine
 62
7
  6
CONTINUOUS
 10
9.8473183383
 20
8.3348318604
 11
9.8473183383
 21
8.5348318604
  0
LINE
  5
22B
100
AcDbEntity
  8
0
100
AcDbLine
 62
7
  6
CONTINUOUS
 10
9.8476378883
 20
8.3348318604
 11
9.8476378883
 21
8.2598318604
  0
LINE
  5
22C
100
AcDbEntity
  8
0
100
AcDbLine
 62
7
  6
CONTINUOUS
 10
9.8564090394
 20
8.3348318604
 11
9.8564090394
 21
8.2598318604
  0
LINE
  5
22D
100
AcDbEntity
  8
0
100
AcDbLine
 62
7
  6
CONTINUOUS
 10
9.8606216962
 20
8.3348318604
 11
9.8606216962
 21
8.2598318604
  0
LINE
  5
22E
100
AcDbEntity
  8
0
100
AcDbLine
 62
7
  6
CONTINUOUS
 10
9.8703887408
 20
8.3348318604
 11
9.8703887408
 21
8.2598318604
  0
LINE
  5
22F
100
AcDbEntity
  8
0
100
AcDbLine
 62
7
  6
CONTINUOUS
 10
9.8750513112
 20
8.3348318604
 11
9.8750513112
 21
8.2598318604
  0
LWPOLYLINE
  5
230
100
AcDbEntity
  8
0
100
AcDbPolyline
 62
7
  6
CONTINUOUS
 90
4
 70
0
 10
9.8032119947
 20
6.0625922463
 10
10.1349516561
 20
6.0775211612
 10
10.4395113519
 20
6.0932145357
 10
10.6374892999
 20
6.1033750543
  0
LINE
  5
231
100
AcDbEntity
  8
0
100
AcDbLine
 62
7
  6
CONTINUOUS
 10
9.8032120299
 20
6.0625915869
 11
9.8031061307
 21
6.0625874625
  0
LINE
  5
232
100
AcDbEntity
  8
0
100
AcDbLine
 62
9
  6
CONTINUOUS
 10
12.4674794368
 20
6.1162279324
 11
12.4445335722
 21
6.1162279324
  0
LINE
  5
233
100
AcDbEntity
  8
0
100
AcDbLine
 62
9
  6
CONTINUOUS
 10
10.8157903202
 20
6.1162279324
 11
10.7757903202
 21
6.1162279324
  0
LINE
  5
234
100
AcDbEntity
  8
0
100
AcDbLine
 62
9
  6
CONTINUOUS
 10
9.6271572397
 20
6.1162279324
 11
9.6501031044
 21
6.1162279324
  0
LINE
  5
235
100
AcDbEntity
  8
0
100
AcDbLine
 62
9
  6
CONTINUOUS
 10
11.2788463564
 20
6.1162279324
 11
11.3188463564
 21
6.1162279324
  0
LWPOLYLINE
  5
236
100
AcDbEntity
  8
0
100
AcDbPolyline
 62
7
  6
CONTINUOUS
 90
4
 70
0
 10
12.2915482677
 20
6.0625867983
 10
12.3066765088
 20
6.0622198655
 10
12.3505409054
 20
6.0636464234
 10
12.3943126677
 20
6.0687740696
  0
LINE
  5
237
100
AcDbEntity
  8
0
100
AcDbLine
 62
7
  6
CONTINUOUS
 10
12.2915402223
 20
6.0625871113
 11
12.2914246468
 21
6.0625916115
  0
LWPOLYLINE
  5
238
100
AcDbEntity
  8
0
100
AcDbPolyline
 62
7
  6
CONTINUOUS
 90
4
 70
0
 10
11.4571529751
 20
6.1033747667
 10
11.6551254517
 20
6.093214529
 10
11.9596850868
 20
6.0775211579
 10
12.2914246814
 20
6.0625922464
  0
LINE
  5
239
100
AcDbEntity
  8
0
100
AcDbLine
 62
7
  6
CONTINUOUS
 10
9.8858023497
 20
8.3348318604
 11
9.8858023497
 21
8.2598318604
  0
LINE
  5
23A
100
AcDbEntity
  8
0
100
AcDbLine
 62
7
  6
CONTINUOUS
 10
9.890909153
 20
8.3348318604
 11
9.890909153
 21
8.2598318604
  0
LINE
  5
23B
100
AcDbEntity
  8
0
100
AcDbLine
 62
7
  6
CONTINUOUS
 10
9.9026310868
 20
8.3348318604
 11
9.9026310868
 21
8.2598318604
  0
LINE
  5
23C
100
AcDbEntity
  8
0
100
AcDbLine
 62
7
  6
CONTINUOUS
 10
9.9081759012
 20
8.3348318604
 11
9.9081759012
 21
8.2598318604
  0
LINE
  5
23D
100
AcDbEntity
  8
0
100
AcDbLine
 62
7
  6
CONTINUOUS
 10
9.9208544491
 20
8.3348318604
 11
9.9208544491
 21
8.2598318604
  0
LINE
  5
23E
100
AcDbEntity
  8
0
100
AcDbLine
 62
7
  6
CONTINUOUS
 10
9.926830519
 20
8.3348318604
 11
9.926830519
 21
8.2598318604
  0
LINE
  5
23F
100
AcDbEntity
  8
0
100
AcDbLine
 62
7
  6
CONTINUOUS
 10
9.940450234
 20
8.3348318604
 11
9.940450234
 21
8.2598318604
  0
LINE
  5
240
100
AcDbEntity
  8
0
100
AcDbLine
 62
7
  6
CONTINUOUS
 10
9.9468502787
 20
8.3348318604
 11
9.9468502787
 21
8.2598318604
  0
LINE
  5
241
100
AcDbEntity
  8
0
100
AcDbLine
 62
7
  6
CONTINUOUS
 10
9.9613945673
 20
8.3348318604
 11
9.9613945673
 21
8.2598318604
  0
LINE
  5
242
100
AcDbEntity
  8
0
100
AcDbLine
 62
7
  6
CONTINUOUS
 10
9.9682107891
 20
8.3348318604
 11
9.9682107891
 21
8.2598318604
  0
LINE
  5
243
100
AcDbEntity
  8
0
100
AcDbLine
 62
7
  6
CONTINUOUS
 10
9.9836619314
 20
8.3348318604
 11
9.9836619314
 21
8.2598318604
  0
LINE
  5
244
100
AcDbEntity
  8
0
100
AcDbLine
 62
7
  6
CONTINUOUS
 10
9.9908860259
 20
8.3348318604
 11
9.9908860259
 21
8.2598318604
  0
LINE
  5
245
100
AcDbEntity
  8
0
100
AcDbLine
 62
7
  6
CONTINUOUS
 10
10.0072251969
 20
8.3348318604
 11
10.0072251969
 21
8.2598318604
  0
LINE
  5
246
100
AcDbEntity
  8
0
100
AcDbLine
 62
7
  6
CONTINUOUS
 10
10.0148483627
 20
8.3348318604
 11
10.0148483627
 21
8.2598318604
  0
LINE
  5
247
100
AcDbEntity
  8
0
100
AcDbLine
 62
7
  6
CONTINUOUS
 10
10.0223183383
 20
7.1598318604
 11
10.0223183383
 21
7.3598318604
  0
LINE
  5
248
100
AcDbEntity
  8
0
100
AcDbLine
 62
7
  6
CONTINUOUS
 10
10.0320556558
 20
8.3348318604
 11
10.0320556558
 21
8.2598318604
  0
LINE
  5
249
100
AcDbEntity
  8
0
100
AcDbLine
 62
7
  6
CONTINUOUS
 10
10.0400686052
 20
8.3348318604
 11
10.0400686052
 21
8.2598318604
  0
LINE
  5
24A
100
AcDbEntity
  8
0
100
AcDbLine
 62
7
  6
CONTINUOUS
 10
10.0581230559
 20
8.3348318604
 11
10.0581230559
 21
8.2598318604
  0
LINE
  5
24B
100
AcDbEntity
  8
0
100
AcDbLine
 62
7
  6
CONTINUOUS
 10
10.0665160263
 20
8.3348318604
 11
10.0665160263
 21
8.2598318604
  0
LINE
  5
24C
100
AcDbEntity
  8
0
100
AcDbLine
 62
7
  6
CONTINUOUS
 10
10.085395638
 20
8.3348318604
 11
10.085395638
 21
8.2598318604
  0
LINE
  5
24D
100
AcDbEntity
  8
0
100
AcDbLine
 62
7
  6
CONTINUOUS
 10
10.0941584039
 20
8.3348318604
 11
10.0941584039
 21
8.2598318604
  0
LINE
  5
24E
100
AcDbEntity
  8
0
100
AcDbLine
 62
7
  6
CONTINUOUS
 10
10.0973183383
 20
7.1098318604
 11
10.0973183383
 21
7.1598318604
  0
LINE
  5
24F
100
AcDbEntity
  8
0
100
AcDbLine
 62
7
  6
CONTINUOUS
 10
10.0973183383
 20
7.3598318604
 11
10.0973183383
 21
7.4598318604
  0
LINE
  5
250
100
AcDbEntity
  8
0
100
AcDbLine
 62
7
  6
CONTINUOUS
 10
10.1138401747
 20
8.3348318604
 11
10.1138401747
 21
8.2598318604
  0
LWPOLYLINE
  5
251
100
AcDbEntity
  8
0
100
AcDbPolyline
 62
7
  6
CONTINUOUS
 90
3
 70
0
 10
9.7837871611
 20
6.4607703033
 10
9.7605204927
 20
6.4602884911
 10
9.7085170754
 20
6.4554385049
  0
LINE
  5
252
100
AcDbEntity
  8
0
100
AcDbLine
 62
7
  6
CONTINUOUS
 10
11.7202035545
 20
6.4545437933
 11
11.460465494
 21
6.4507537423
  0
LWPOLYLINE
  5
253
100
AcDbEntity
  8
0
100
AcDbPolyline
 62
7
  6
CONTINUOUS
 90
3
 70
0
 10
12.3108843058
 20
6.4607695507
 10
12.0251507747
 20
6.4587841454
 10
11.7202035545
 20
6.4545437933
  0
LINE
  5
254
100
AcDbEntity
  8
0
100
AcDbLine
 62
7
  6
CONTINUOUS
 10
12.310837223
 20
6.4607702838
 11
12.3108842869
 21
6.4607703612
  0
LINE
  5
255
100
AcDbEntity
  8
0
100
AcDbLine
 62
9
  6
CONTINUOUS
 10
12.4674794368
 20
6.4067482676
 11
12.4445335722
 21
6.4067482676
  0
LINE
  5
256
100
AcDbEntity
  8
0
100
AcDbLine
 62
9
  6
CONTINUOUS
 10
10.8157903202
 20
6.4067482676
 11
10.7757903202
 21
6.4067482676
  0
LINE
  5
257
100
AcDbEntity
  8
0
100
AcDbLine
 62
9
  6
CONTINUOUS
 10
9.6271572397
 20
6.4067482676
 11
9.6501031044
 21
6.4067482676
  0
LINE
  5
258
100
AcDbEntity
  8
0
100
AcDbLine
 62
9
  6
CONTINUOUS
 10
11.2788463564
 20
6.4067482676
 11
11.3188463564
 21
6.4067482676
  0
LINE
  5
259
100
AcDbEntity
  8
0
100
AcDbLine
 62
7
  6
CONTINUOUS
 10
10.6473183383
 20
6.5168318604
 11
11.4473183383
 21
6.5168318604
  0
LINE
  5
25A
100
AcDbEntity
  8
0
100
AcDbLine
 62
9
  6
CONTINUOUS
 10
10.7348183383
 20
6.5368318604
 11
11.3598183383
 21
6.5368318604
  0
LINE
  5
25B
100
AcDbEntity
  8
0
100
AcDbLine
 62
7
  6
CONTINUOUS
 10
9.7837523896
 20
6.4607703602
 11
9.7837878717
 21
6.4607703022
  0
LWPOLYLINE
  5
25C
100
AcDbEntity
  8
0
100
AcDbPolyline
 62
7
  6
CONTINUOUS
 90
4
 70
0
 10
10.634170641
 20
6.4507537504
 10
10.3744332731
 20
6.454543791
 10
10.0694860047
 20
6.4587841442
 10
9.7837523699
 20
6.4607695507
  0
LWPOLYLINE
  5
25D
100
AcDbEntity
  8
0
100
AcDbPolyline
 62
7
  6
CONTINUOUS
 90
6
 70
0
 10
11.2836795757
 20
6.4464548706
 10
11.1904398355
 20
6.4555374214
 10
11.0951106858
 20
6.4601882887
 10
10.9996702077
 20
6.4601917712
 10
10.9043412285
 20
6.4555479722
 10
10.8109570989
 20
6.4464548961
  0
LINE
  5
25E
100
AcDbEntity
  8
0
100
AcDbLine
 62
7
  6
CONTINUOUS
 10
10.1229620601
 20
8.3348318604
 11
10.1229620601
 21
8.2598318604
  0
LINE
  5
25F
100
AcDbEntity
  8
0
100
AcDbLine
 62
7
  6
CONTINUOUS
 10
10.1434220109
 20
8.3348318604
 11
10.1434220109
 21
8.2598318604
  0
LINE
  5
260
100
AcDbEntity
  8
0
100
AcDbLine
 62
7
  6
CONTINUOUS
 10
10.152891902
 20
8.3348318604
 11
10.152891902
 21
8.2598318604
  0
LINE
  5
261
100
AcDbEntity
  8
0
100
AcDbLine
 62
7
  6
CONTINUOUS
 10
10.1723183383
 20
7.5348318604
 11
10.1723183383
 21
8.0598318604
  0
LINE
  5
262
100
AcDbEntity
  8
0
100
AcDbLine
 62
7
  6
CONTINUOUS
 10
10.1741051054
 20
8.3348318604
 11
10.1741051054
 21
8.2598318604
  0
LINE
  5
263
100
AcDbEntity
  8
0
100
AcDbLine
 62
7
  6
CONTINUOUS
 10
10.1839114647
 20
8.3348318604
 11
10.1839114647
 21
8.2598318604
  0
LINE
  5
264
100
AcDbEntity
  8
0
100
AcDbLine
 62
7
  6
CONTINUOUS
 10
10.2051117457
 20
8.2598318604
 11
10.2051117457
 21
8.3348318604
  0
LINE
  5
265
100
AcDbEntity
  8
0
100
AcDbLine
 62
7
  6
CONTINUOUS
 10
10.2058520758
 20
8.3348318604
 11
10.2058520758
 21
8.2598318604
  0
LINE
  5
266
100
AcDbEntity
  8
0
100
AcDbLine
 62
7
  6
CONTINUOUS
 10
10.2159829558
 20
8.3348318604
 11
10.2159829558
 21
8.2598318604
  0
LINE
  5
267
100
AcDbEntity
  8
0
100
AcDbLine
 62
7
  6
CONTINUOUS
 10
10.2371444849
 20
8.2598318604
 11
10.2371444849
 21
8.3348318604
  0
LINE
  5
268
100
AcDbEntity
  8
0
100
AcDbLine
 62
7
  6
CONTINUOUS
 10
10.2386242432
 20
8.3348318604
 11
10.2386242432
 21
8.2598318604
  0
LINE
  5
269
100
AcDbEntity
  8
0
100
AcDbLine
 62
7
  6
CONTINUOUS
 10
10.2490673009
 20
8.3348318604
 11
10.2490673009
 21
8.2598318604
  0
LINE
  5
26A
100
AcDbEntity
  8
0
100
AcDbLine
 62
7
  6
CONTINUOUS
 10
10.2701642962
 20
8.2598318604
 11
10.2701642962
 21
8.3348318604
  0
LINE
  5
26B
100
AcDbEntity
  8
0
100
AcDbLine
 62
7
  6
CONTINUOUS
 10
10.2723816798
 20
8.3348318604
 11
10.2723816798
 21
8.2598318604
  0
LINE
  5
26C
100
AcDbEntity
  8
0
100
AcDbLine
 62
7
  6
CONTINUOUS
 10
10.283124192
 20
8.3348318604
 11
10.283124192
 21
8.2598318604
  0
LINE
  5
26D
100
AcDbEntity
  8
0
100
AcDbLine
 62
7
  6
CONTINUOUS
 10
10.2973183383
 20
6.9598318604
 11
10.2973183383
 21
7.0098318604
  0
LINE
  5
26E
100
AcDbEntity
  8
0
100
AcDbLine
 62
7
  6
CONTINUOUS
 10
10.30413095
 20
8.2598318604
 11
10.30413095
 21
8.3348318604
  0
LINE
  5
26F
100
AcDbEntity
  8
0
100
AcDbLine
 62
7
  6
CONTINUOUS
 10
10.3070832573
 20
8.3348318604
 11
10.3070832573
 21
8.2598318604
  0
LINE
  5
270
100
AcDbEntity
  8
0
100
AcDbLine
 62
7
  6
CONTINUOUS
 10
10.3181121359
 20
8.3348318604
 11
10.3181121359
 21
8.2598318604
  0
LINE
  5
271
100
AcDbEntity
  8
0
100
AcDbLine
 62
7
  6
CONTINUOUS
 10
10.3390030631
 20
8.2598318604
 11
10.3390030631
 21
8.3348318604
  0
LINE
  5
272
100
AcDbEntity
  8
0
100
AcDbLine
 62
7
  6
CONTINUOUS
 10
10.3426866972
 20
8.3348318604
 11
10.3426866972
 21
8.2598318604
  0
LINE
  5
273
100
AcDbEntity
  8
0
100
AcDbLine
 62
7
  6
CONTINUOUS
 10
10.3539885053
 20
8.3348318604
 11
10.3539885053
 21
8.2598318604
  0
LINE
  5
274
100
AcDbEntity
  8
0
100
AcDbLine
 62
7
  6
CONTINUOUS
 10
9.7085170754
 20
6.4554385049
 11
9.6577002293
 21
6.4456139314
  0
LWPOLYLINE
  5
275
100
AcDbEntity
  8
0
100
AcDbPolyline
 62
7
  6
CONTINUOUS
 90
4
 70
0
 10
12.4369364516
 20
6.4456139562
 10
12.3860683024
 20
6.4554458463
 10
12.3340903784
 20
6.4602895755
 10
12.3108372599
 20
6.4607702838
  0
LWPOLYLINE
  5
276
100
AcDbEntity
  8
0
100
AcDbPolyline
 62
7
  6
CONTINUOUS
 90
6
 70
0
 10
11.4660678053
 20
6.4473998076
 10
11.4661115859
 20
6.4473859886
 10
11.4656292333
 20
6.4475747442
 10
11.4643613378
 20
6.4481760385
 10
11.4623481928
 20
6.449358677
 10
11.4616873076
 20
6.4498037368
  0
LWPOLYLINE
  5
277
100
AcDbEntity
  8
0
100
AcDbPolyline
 62
7
  6
CONTINUOUS
 90
4
 70
0
 10
10.6432092622
 20
6.0956633762
 10
10.6454715812
 20
6.0904466181
 10
10.6469274522
 20
6.0844480536
 10
10.6473190012
 20
6.0792816712
  0
LINE
  5
278
100
AcDbEntity
  8
0
100
AcDbLine
 62
7
  6
CONTINUOUS
 10
10.3747381493
 20
8.2598318604
 11
10.3747381493
 21
8.3348318604
  0
LINE
  5
279
100
AcDbEntity
  8
0
100
AcDbLine
 62
7
  6
CONTINUOUS
 10
10.3791486223
 20
8.3348318604
 11
10.3791486223
 21
8.2598318604
  0
LINE
  5
27A
100
AcDbEntity
  8
0
100
AcDbLine
 62
7
  6
CONTINUOUS
 10
10.3907095902
 20
8.3348318604
 11
10.3907095902
 21
8.2598318604
  0
LINE
  5
27B
100
AcDbEntity
  8
0
100
AcDbLine
 62
7
  6
CONTINUOUS
 10
10.4112926709
 20
8.2598318604
 11
10.4112926709
 21
8.3348318604
  0
LINE
  5
27C
100
AcDbEntity
  8
0
100
AcDbLine
 62
7
  6
CONTINUOUS
 10
10.4164246093
 20
8.3348318604
 11
10.4164246093
 21
8.2598318604
  0
LINE
  5
27D
100
AcDbEntity
  8
0
100
AcDbLine
 62
7
  6
CONTINUOUS
 10
10.4282306518
 20
8.3348318604
 11
10.4282306518
 21
8.2598318604
  0
LINE
  5
27E
100
AcDbEntity
  8
0
100
AcDbLine
 62
7
  6
CONTINUOUS
 10
10.4486220917
 20
8.2598318604
 11
10.4486220917
 21
8.3348318604
  0
LINE
  5
27F
100
AcDbEntity
  8
0
100
AcDbLine
 62
7
  6
CONTINUOUS
 10
10.454469243
 20
8.3348318604
 11
10.454469243
 21
8.2598318604
  0
LINE
  5
280
100
AcDbEntity
  8
0
100
AcDbLine
 62
7
  6
CONTINUOUS
 10
10.4665059764
 20
8.3348318604
 11
10.4665059764
 21
8.2598318604
  0
LINE
  5
281
100
AcDbEntity
  8
0
100
AcDbLine
 62
7
  6
CONTINUOUS
 10
10.4866809317
 20
8.2598318604
 11
10.4866809317
 21
8.3348318604
  0
LINE
  5
282
100
AcDbEntity
  8
0
100
AcDbLine
 62
7
  6
CONTINUOUS
 10
10.4932361721
 20
8.3348318604
 11
10.4932361721
 21
8.2598318604
  0
LINE
  5
283
100
AcDbEntity
  8
0
100
AcDbLine
 62
7
  6
CONTINUOUS
 10
10.5054889313
 20
8.3348318604
 11
10.5054889313
 21
8.2598318604
  0
LINE
  5
284
100
AcDbEntity
  8
0
100
AcDbLine
 62
7
  6
CONTINUOUS
 10
10.525422822
 20
8.2598318604
 11
10.525422822
 21
8.3348318604
  0
LINE
  5
285
100
AcDbEntity
  8
0
100
AcDbLine
 62
7
  6
CONTINUOUS
 10
10.5326781649
 20
8.3348318604
 11
10.5326781649
 21
8.2598318604
  0
LINE
  5
286
100
AcDbEntity
  8
0
100
AcDbLine
 62
7
  6
CONTINUOUS
 10
10.5451320219
 20
8.3348318604
 11
10.5451320219
 21
8.2598318604
  0
LINE
  5
287
100
AcDbEntity
  8
0
100
AcDbLine
 62
7
  6
CONTINUOUS
 10
10.5648005617
 20
8.2598318604
 11
10.5648005617
 21
8.3348318604
  0
LINE
  5
288
100
AcDbEntity
  8
0
100
AcDbLine
 62
7
  6
CONTINUOUS
 10
10.5727471675
 20
8.3348318604
 11
10.5727471675
 21
8.2598318604
  0
LINE
  5
289
100
AcDbEntity
  8
0
100
AcDbLine
 62
7
  6
CONTINUOUS
 10
10.5853869492
 20
8.3348318604
 11
10.5853869492
 21
8.2598318604
  0
LINE
  5
28A
100
AcDbEntity
  8
0
100
AcDbLine
 62
9
  6
CONTINUOUS
 10
10.5916314857
 20
6.4049109313
 11
10.5916314857
 21
6.1514463446
  0
LINE
  5
28B
100
AcDbEntity
  8
0
100
AcDbLine
 62
7
  6
CONTINUOUS
 10
10.0973183383
 20
7.4598318604
 11
10.1723183383
 21
7.5348318604
  0
LINE
  5
28C
100
AcDbEntity
  8
0
100
AcDbLine
 62
7
  6
CONTINUOUS
 10
9.6577007328
 20
6.4456143766
 11
9.657712658
 21
6.4456172768
  0
LINE
  5
28D
100
AcDbEntity
  8
0
100
AcDbLine
 62
7
  6
CONTINUOUS
 10
10.7348183383
 20
6.8298318604
 11
11.3598183383
 21
6.8298318604
  0
LINE
  5
28E
100
AcDbEntity
  8
0
100
AcDbLine
 62
7
  6
CONTINUOUS
 10
11.4473183383
 20
6.8598318604
 11
10.6473183383
 21
6.8598318604
  0
LINE
  5
28F
100
AcDbEntity
  8
0
100
AcDbLine
 62
7
  6
CONTINUOUS
 10
11.7973183383
 20
6.9598318604
 11
10.2973183383
 21
6.9598318604
  0
LINE
  5
290
100
AcDbEntity
  8
0
100
AcDbLine
 62
7
  6
CONTINUOUS
 10
11.8973183383
 20
7.0098318604
 11
10.1973183383
 21
7.0098318604
  0
LINE
  5
291
100
AcDbEntity
  8
0
100
AcDbLine
 62
7
  6
CONTINUOUS
 10
12.4369359401
 20
6.4456143775
 11
12.4369239742
 21
6.4456172876
  0
LINE
  5
292
100
AcDbEntity
  8
0
100
AcDbLine
 62
7
  6
CONTINUOUS
 10
10.6047661749
 20
8.2598318604
 11
10.6047661749
 21
8.3348318604
  0
LINE
  5
293
100
AcDbEntity
  8
0
100
AcDbLine
 62
7
  6
CONTINUOUS
 10
10.613394362
 20
8.3348318604
 11
10.613394362
 21
8.2598318604
  0
LINE
  5
294
100
AcDbEntity
  8
0
100
AcDbLine
 62
7
  6
CONTINUOUS
 10
10.6262046688
 20
8.3348318604
 11
10.6262046688
 21
8.2598318604
  0
LINE
  5
295
100
AcDbEntity
  8
0
100
AcDbLine
 62
7
  6
CONTINUOUS
 10
10.6452709697
 20
8.2598318604
 11
10.6452709697
 21
8.3348318604
  0
LINE
  5
296
100
AcDbEntity
  8
0
100
AcDbLine
 62
7
  6
CONTINUOUS
 10
10.6473183383
 20
6.5168318604
 11
10.6473183383
 21
6.4784395378
  0
LINE
  5
297
100
AcDbEntity
  8
0
100
AcDbLine
 62
7
  6
CONTINUOUS
 10
10.6473183383
 20
6.0791964084
 11
10.6473183383
 21
6.0418318604
  0
LINE
  5
298
100
AcDbEntity
  8
0
100
AcDbLine
 62
7
  6
CONTINUOUS
 10
10.6473183383
 20
6.8598318604
 11
10.6473183383
 21
6.9598318604
  0
LINE
  5
299
100
AcDbEntity
  8
0
100
AcDbLine
 62
9
  6
CONTINUOUS
 10
10.6486605855
 20
6.4749890164
 11
10.6486605855
 21
6.0832712325
  0
LINE
  5
29A
100
AcDbEntity
  8
0
100
AcDbLine
 62
7
  6
CONTINUOUS
 10
10.654570226
 20
8.3348318604
 11
10.654570226
 21
8.2598318604
  0
LINE
  5
29B
100
AcDbEntity
  8
0
100
AcDbLine
 62
7
  6
CONTINUOUS
 10
10.6675354504
 20
8.3348318604
 11
10.6675354504
 21
8.2598318604
  0
LINE
  5
29C
100
AcDbEntity
  8
0
100
AcDbLine
 62
7
  6
CONTINUOUS
 10
10.6862655974
 20
8.2598318604
 11
10.6862655974
 21
8.3348318604
  0
LINE
  5
29D
100
AcDbEntity
  8
0
100
AcDbLine
 62
7
  6
CONTINUOUS
 10
10.6962245931
 20
8.3348318604
 11
10.6962245931
 21
8.2598318604
  0
LINE
  5
29E
100
AcDbEntity
  8
0
100
AcDbLine
 62
7
  6
CONTINUOUS
 10
10.7093289391
 20
8.3348318604
 11
10.7093289391
 21
8.2598318604
  0
LINE
  5
29F
100
AcDbEntity
  8
0
100
AcDbLine
 62
7
  6
CONTINUOUS
 10
10.7277001121
 20
8.2598318604
 11
10.7277001121
 21
8.3348318604
  0
LINE
  5
2A0
100
AcDbEntity
  8
0
100
AcDbLine
 62
7
  6
CONTINUOUS
 10
10.7348183383
 20
6.8298318604
 11
10.7348183383
 21
6.5368318604
  0
LINE
  5
2A1
100
AcDbEntity
  8
0
100
AcDbLine
 62
7
  6
CONTINUOUS
 10
10.7383067139
 20
8.3348318604
 11
10.7383067139
 21
8.2598318604
  0
LINE
  5
2A2
100
AcDbEntity
  8
0
100
AcDbLine
 62
7
  6
CONTINUOUS
 10
10.7515342157
 20
8.3348318604
 11
10.7515342157
 21
8.2598318604
  0
LINE
  5
2A3
100
AcDbEntity
  8
0
100
AcDbLine
 62
7
  6
CONTINUOUS
 10
10.7695240325
 20
8.2598318604
 11
10.7695240325
 21
8.3348318604
  0
LINE
  5
2A4
100
AcDbEntity
  8
0
100
AcDbLine
 62
7
  6
CONTINUOUS
 10
10.7757903202
 20
6.4067482676
 11
10.7757903202
 21
6.1162279324
  0
LINE
  5
2A5
100
AcDbEntity
  8
0
100
AcDbLine
 62
7
  6
CONTINUOUS
 10
10.7807653176
 20
8.3348318604
 11
10.7807653176
 21
8.2598318604
  0
LINE
  5
2A6
100
AcDbEntity
  8
0
100
AcDbLine
 62
7
  6
CONTINUOUS
 10
10.7848183383
 20
5.9468318604
 11
10.7848183383
 21
5.9168318604
  0
LINE
  5
2A7
100
AcDbEntity
  8
0
100
AcDbLine
 62
7
  6
CONTINUOUS
 10
10.7940998597
 20
8.3348318604
 11
10.7940998597
 21
8.2598318604
  0
LINE
  5
2A8
100
AcDbEntity
  8
0
100
AcDbLine
 62
7
  6
CONTINUOUS
 10
10.8116864024
 20
8.2598318604
 11
10.8116864024
 21
8.3348318604
  0
LINE
  5
2A9
100
AcDbEntity
  8
0
100
AcDbLine
 62
9
  6
CONTINUOUS
 10
10.8157903202
 20
6.4067479536
 11
10.8157903202
 21
6.1162280002
  0
LINE
  5
2AA
100
AcDbEntity
  8
0
100
AcDbLine
 62
9
  6
CONTINUOUS
 10
10.819634619
 20
6.4472998507
 11
10.819634619
 21
6.4749932185
  0
LINE
  5
2AB
100
AcDbEntity
  8
0
100
AcDbLine
 62
7
  6
CONTINUOUS
 10
10.8235486752
 20
8.3348318604
 11
10.8235486752
 21
8.2598318604
  0
LINE
  5
2AC
100
AcDbEntity
  8
0
100
AcDbLine
 62
7
  6
CONTINUOUS
 10
10.8369740115
 20
8.3348318604
 11
10.8369740115
 21
8.2598318604
  0
LWPOLYLINE
  5
2AD
100
AcDbEntity
  8
0
100
AcDbPolyline
 62
7
  6
CONTINUOUS
 90
3
 70
0
 10
10.6473189901
 20
6.4783537495
 10
10.6469724572
 20
6.4734021444
 10
10.6456333109
 20
6.4674696891
  0
LINE
  5
2AE
100
AcDbEntity
  8
0
100
AcDbLine
 62
7
  6
CONTINUOUS
 10
11.9973183383
 20
7.1098318604
 11
10.0973183383
 21
7.1098318604
  0
LINE
  5
2AF
100
AcDbEntity
  8
0
100
AcDbLine
 62
7
  6
CONTINUOUS
 10
12.0723183383
 20
7.1598318604
 11
10.0223183383
 21
7.1598318604
  0
LWPOLYLINE
  5
2B0
100
AcDbEntity
  8
0
100
AcDbPolyline
 62
7
  6
CONTINUOUS
 90
3
 70
0
 10
11.4565889209
 20
6.4542778461
 10
11.4538023235
 20
6.4577405057
 10
11.4511294535
 20
6.4622205137
  0
LINE
  5
2B1
100
AcDbEntity
  8
0
100
AcDbLine
 62
7
  6
CONTINUOUS
 10
10.8473183383
 20
6.8598318604
 11
10.8473183383
 21
6.8298318604
  0
LINE
  5
2B2
100
AcDbEntity
  8
0
100
AcDbLine
 62
7
  6
CONTINUOUS
 10
10.8541358536
 20
8.2598318604
 11
10.8541358536
 21
8.3348318604
  0
LINE
  5
2B3
100
AcDbEntity
  8
0
100
AcDbLine
 62
7
  6
CONTINUOUS
 10
10.8666046617
 20
8.3348318604
 11
10.8666046617
 21
8.2598318604
  0
LINE
  5
2B4
100
AcDbEntity
  8
0
100
AcDbLine
 62
7
  6
CONTINUOUS
 10
10.8801044354
 20
8.3348318604
 11
10.8801044354
 21
8.2598318604
  0
LINE
  5
2B5
100
AcDbEntity
  8
0
100
AcDbLine
 62
7
  6
CONTINUOUS
 10
10.8968206678
 20
8.2598318604
 11
10.8968206678
 21
8.3348318604
  0
LINE
  5
2B6
100
AcDbEntity
  8
0
100
AcDbLine
 62
7
  6
CONTINUOUS
 10
10.9098808199
 20
8.3348318604
 11
10.9098808199
 21
8.2598318604
  0
LINE
  5
2B7
100
AcDbEntity
  8
0
100
AcDbLine
 62
7
  6
CONTINUOUS
 10
10.9234385837
 20
8.3348318604
 11
10.9234385837
 21
8.2598318604
  0
LINE
  5
2B8
100
AcDbEntity
  8
0
100
AcDbLine
 62
7
  6
CONTINUOUS
 10
10.9396888403
 20
8.2598318604
 11
10.9396888403
 21
8.3348318604
  0
LINE
  5
2B9
100
AcDbEntity
  8
0
100
AcDbLine
 62
7
  6
CONTINUOUS
 10
10.9533244246
 20
8.3348318604
 11
10.9533244246
 21
8.2598318604
  0
LINE
  5
2BA
100
AcDbEntity
  8
0
100
AcDbLine
 62
7
  6
CONTINUOUS
 10
10.9669236604
 20
8.3348318604
 11
10.9669236604
 21
8.2598318604
  0
LINE
  5
2BB
100
AcDbEntity
  8
0
100
AcDbLine
 62
7
  6
CONTINUOUS
 10
10.9826881427
 20
8.2598318604
 11
10.9826881427
 21
8.3348318604
  0
LINE
  5
2BC
100
AcDbEntity
  8
0
100
AcDbLine
 62
7
  6
CONTINUOUS
 10
10.9968825464
 20
8.3348318604
 11
10.9968825464
 21
8.2598318604
  0
LINE
  5
2BD
100
AcDbEntity
  8
0
100
AcDbLine
 62
7
  6
CONTINUOUS
 10
11.0105066856
 20
8.3348318604
 11
11.0105066856
 21
8.2598318604
  0
LINE
  5
2BE
100
AcDbEntity
  8
0
100
AcDbLine
 62
7
  6
CONTINUOUS
 10
11.0257661871
 20
8.2598318604
 11
11.0257661871
 21
8.3348318604
  0
LINE
  5
2BF
100
AcDbEntity
  8
0
100
AcDbLine
 62
7
  6
CONTINUOUS
 10
11.0405021164
 20
8.3348318604
 11
11.0405021164
 21
8.2598318604
  0
LINE
  5
2C0
100
AcDbEntity
  8
0
100
AcDbLine
 62
7
  6
CONTINUOUS
 10
11.0541345601
 20
8.3348318604
 11
11.0541345601
 21
8.2598318604
  0
LINE
  5
2C1
100
AcDbEntity
  8
0
100
AcDbLine
 62
7
  6
CONTINUOUS
 10
11.0688704895
 20
8.2598318604
 11
11.0688704895
 21
8.3348318604
  0
LWPOLYLINE
  5
2C2
100
AcDbEntity
  8
0
100
AcDbPolyline
 62
7
  6
CONTINUOUS
 90
4
 70
0
 10
10.6456333109
 20
6.4674696891
 10
10.6435077776
 20
6.4622212491
 10
10.6408346604
 20
6.4577408047
 10
10.6380568712
 20
6.4542877705
  0
LINE
  5
2C3
100
AcDbEntity
  8
0
100
AcDbLine
 62
7
  6
CONTINUOUS
 10
12.0723183383
 20
7.3598318604
 11
10.0223183383
 21
7.3598318604
  0
LINE
  5
2C4
100
AcDbEntity
  8
0
100
AcDbLine
 62
7
  6
CONTINUOUS
 10
11.9973183383
 20
7.4598318604
 11
10.0973183383
 21
7.4598318604
  0
LINE
  5
2C5
100
AcDbEntity
  8
0
100
AcDbLine
 62
7
  6
CONTINUOUS
 10
9.8473183383
 20
8.5348318604
 11
9.7973183383
 21
8.5848318604
  0
LWPOLYLINE
  5
2C6
100
AcDbEntity
  8
0
100
AcDbPolyline
 62
7
  6
CONTINUOUS
 90
4
 70
0
 10
11.4511294535
 20
6.4622205137
 10
11.4490038827
 20
6.4674688177
 10
11.4476645485
 20
6.47340161
 10
11.4473179099
 20
6.4783571524
  0
LINE
  5
2C7
100
AcDbEntity
  8
0
100
AcDbLine
 62
7
  6
CONTINUOUS
 10
11.084129991
 20
8.3348318604
 11
11.084129991
 21
8.2598318604
  0
LINE
  5
2C8
100
AcDbEntity
  8
0
100
AcDbLine
 62
7
  6
CONTINUOUS
 10
11.0977541302
 20
8.3348318604
 11
11.0977541302
 21
8.2598318604
  0
LINE
  5
2C9
100
AcDbEntity
  8
0
100
AcDbLine
 62
7
  6
CONTINUOUS
 10
11.1119485338
 20
8.2598318604
 11
11.1119485338
 21
8.3348318604
  0
LINE
  5
2CA
100
AcDbEntity
  8
0
100
AcDbLine
 62
7
  6
CONTINUOUS
 10
11.1277130162
 20
8.3348318604
 11
11.1277130162
 21
8.2598318604
  0
LINE
  5
2CB
100
AcDbEntity
  8
0
100
AcDbLine
 62
7
  6
CONTINUOUS
 10
11.1413122519
 20
8.3348318604
 11
11.1413122519
 21
8.2598318604
  0
LINE
  5
2CC
100
AcDbEntity
  8
0
100
AcDbLine
 62
7
  6
CONTINUOUS
 10
11.1549478363
 20
8.2598318604
 11
11.1549478363
 21
8.3348318604
  0
LINE
  5
2CD
100
AcDbEntity
  8
0
100
AcDbLine
 62
7
  6
CONTINUOUS
 10
11.1711980929
 20
8.3348318604
 11
11.1711980929
 21
8.2598318604
  0
LINE
  5
2CE
100
AcDbEntity
  8
0
100
AcDbLine
 62
7
  6
CONTINUOUS
 10
11.1847558566
 20
8.3348318604
 11
11.1847558566
 21
8.2598318604
  0
LINE
  5
2CF
100
AcDbEntity
  8
0
100
AcDbLine
 62
7
  6
CONTINUOUS
 10
11.1978160088
 20
8.2598318604
 11
11.1978160088
 21
8.3348318604
  0
LINE
  5
2D0
100
AcDbEntity
  8
0
100
AcDbLine
 62
7
  6
CONTINUOUS
 10
11.2145322412
 20
8.3348318604
 11
11.2145322412
 21
8.2598318604
  0
LINE
  5
2D1
100
AcDbEntity
  8
0
100
AcDbLine
 62
7
  6
CONTINUOUS
 10
11.2280320149
 20
8.3348318604
 11
11.2280320149
 21
8.2598318604
  0
LINE
  5
2D2
100
AcDbEntity
  8
0
100
AcDbLine
 62
7
  6
CONTINUOUS
 10
11.240500823
 20
8.2598318604
 11
11.240500823
 21
8.3348318604
  0
LINE
  5
2D3
100
AcDbEntity
  8
0
100
AcDbLine
 62
7
  6
CONTINUOUS
 10
11.2473183383
 20
6.8598318604
 11
11.2473183383
 21
6.8298318604
  0
LINE
  5
2D4
100
AcDbEntity
  8
0
100
AcDbLine
 62
7
  6
CONTINUOUS
 10
11.2576626651
 20
8.3348318604
 11
11.2576626651
 21
8.2598318604
  0
LINE
  5
2D5
100
AcDbEntity
  8
0
100
AcDbLine
 62
7
  6
CONTINUOUS
 10
11.2710880013
 20
8.3348318604
 11
11.2710880013
 21
8.2598318604
  0
LINE
  5
2D6
100
AcDbEntity
  8
0
100
AcDbLine
 62
9
  6
CONTINUOUS
 10
11.2750020576
 20
6.4749938588
 11
11.2750020576
 21
6.4473001539
  0
LINE
  5
2D7
100
AcDbEntity
  8
0
100
AcDbLine
 62
9
  6
CONTINUOUS
 10
11.2788463564
 20
6.1162274713
 11
11.2788463564
 21
6.4067491661
  0
LINE
  5
2D8
100
AcDbEntity
  8
0
100
AcDbLine
 62
7
  6
CONTINUOUS
 10
11.2829502741
 20
8.2598318604
 11
11.2829502741
 21
8.3348318604
  0
LINE
  5
2D9
100
AcDbEntity
  8
0
100
AcDbLine
 62
7
  6
CONTINUOUS
 10
11.3005368168
 20
8.3348318604
 11
11.3005368168
 21
8.2598318604
  0
LINE
  5
2DA
100
AcDbEntity
  8
0
100
AcDbLine
 62
7
  6
CONTINUOUS
 10
11.3098183383
 20
5.9468318604
 11
11.3098183383
 21
5.9168318604
  0
LINE
  5
2DB
100
AcDbEntity
  8
0
100
AcDbLine
 62
7
  6
CONTINUOUS
 10
11.3138713589
 20
8.3348318604
 11
11.3138713589
 21
8.2598318604
  0
LINE
  5
2DC
100
AcDbEntity
  8
0
100
AcDbLine
 62
7
  6
CONTINUOUS
 10
11.3188463564
 20
6.1162279324
 11
11.3188463564
 21
6.4067482676
  0
LINE
  5
2DD
100
AcDbEntity
  8
0
100
AcDbLine
 62
7
  6
CONTINUOUS
 10
12.2473183383
 20
8.5348318604
 11
12.2973183383
 21
8.5848318604
  0
LINE
  5
2DE
100
AcDbEntity
  8
0
100
AcDbLine
 62
7
  6
CONTINUOUS
 10
11.9223183383
 20
7.5348318604
 11
10.1723183383
 21
7.5348318604
  0
LINE
  5
2DF
100
AcDbEntity
  8
0
100
AcDbLine
 62
7
  6
CONTINUOUS
 10
11.3251126441
 20
8.2598318604
 11
11.3251126441
 21
8.3348318604
  0
LINE
  5
2E0
100
AcDbEntity
  8
0
100
AcDbLine
 62
7
  6
CONTINUOUS
 10
11.3431024609
 20
8.3348318604
 11
11.3431024609
 21
8.2598318604
  0
LINE
  5
2E1
100
AcDbEntity
  8
0
100
AcDbLine
 62
7
  6
CONTINUOUS
 10
11.3563299627
 20
8.3348318604
 11
11.3563299627
 21
8.2598318604
  0
LINE
  5
2E2
100
AcDbEntity
  8
0
100
AcDbLine
 62
7
  6
CONTINUOUS
 10
11.3598183383
 20
6.8298318604
 11
11.3598183383
 21
6.5368318604
  0
LINE
  5
2E3
100
AcDbEntity
  8
0
100
AcDbLine
 62
7
  6
CONTINUOUS
 10
11.3669365644
 20
8.2598318604
 11
11.3669365644
 21
8.3348318604
  0
LINE
  5
2E4
100
AcDbEntity
  8
0
100
AcDbLine
 62
7
  6
CONTINUOUS
 10
11.3853077375
 20
8.3348318604
 11
11.3853077375
 21
8.2598318604
  0
LINE
  5
2E5
100
AcDbEntity
  8
0
100
AcDbLine
 62
7
  6
CONTINUOUS
 10
11.3984120834
 20
8.3348318604
 11
11.3984120834
 21
8.2598318604
  0
LINE
  5
2E6
100
AcDbEntity
  8
0
100
AcDbLine
 62
7
  6
CONTINUOUS
 10
11.4083710792
 20
8.2598318604
 11
11.4083710792
 21
8.3348318604
  0
LINE
  5
2E7
100
AcDbEntity
  8
0
100
AcDbLine
 62
7
  6
CONTINUOUS
 10
11.4271012261
 20
8.3348318604
 11
11.4271012261
 21
8.2598318604
  0
LINE
  5
2E8
100
AcDbEntity
  8
0
100
AcDbLine
 62
7
  6
CONTINUOUS
 10
11.4400664505
 20
8.3348318604
 11
11.4400664505
 21
8.2598318604
  0
LINE
  5
2E9
100
AcDbEntity
  8
0
100
AcDbLine
 62
9
  6
CONTINUOUS
 10
11.4459760911
 20
6.083272266
 11
11.4459760911
 21
6.4749884342
  0
LINE
  5
2EA
100
AcDbEntity
  8
0
100
AcDbLine
 62
7
  6
CONTINUOUS
 10
11.4473183383
 20
6.5168318604
 11
11.4473183383
 21
6.4784373447
  0
LINE
  5
2EB
100
AcDbEntity
  8
0
100
AcDbLine
 62
7
  6
CONTINUOUS
 10
11.4473183383
 20
6.0792033626
 11
11.4473183383
 21
6.0418318604
  0
LINE
  5
2EC
100
AcDbEntity
  8
0
100
AcDbLine
 62
7
  6
CONTINUOUS
 10
11.4473183383
 20
6.8598318604
 11
11.4473183383
 21
6.9598318604
  0
LINE
  5
2ED
100
AcDbEntity
  8
0
100
AcDbLine
 62
7
  6
CONTINUOUS
 10
11.4493657068
 20
8.2598318604
 11
11.4493657068
 21
8.3348318604
  0
LINE
  5
2EE
100
AcDbEntity
  8
0
100
AcDbLine
 62
7
  6
CONTINUOUS
 10
11.4684320078
 20
8.3348318604
 11
11.4684320078
 21
8.2598318604
  0
LINE
  5
2EF
100
AcDbEntity
  8
0
100
AcDbLine
 62
7
  6
CONTINUOUS
 10
11.4812423145
 20
8.3348318604
 11
11.4812423145
 21
8.2598318604
  0
LINE
  5
2F0
100
AcDbEntity
  8
0
100
AcDbLine
 62
7
  6
CONTINUOUS
 10
11.4898705017
 20
8.2598318604
 11
11.4898705017
 21
8.3348318604
  0
LINE
  5
2F1
100
AcDbEntity
  8
0
100
AcDbLine
 62
9
  6
CONTINUOUS
 10
11.5030051909
 20
6.1514463446
 11
11.5030051909
 21
6.4049109313
  0
LINE
  5
2F2
100
AcDbEntity
  8
0
100
AcDbLine
 62
7
  6
CONTINUOUS
 10
11.5092497273
 20
8.3348318604
 11
11.5092497273
 21
8.2598318604
  0
LINE
  5
2F3
100
AcDbEntity
  8
0
100
AcDbLine
 62
7
  6
CONTINUOUS
 10
11.521889509
 20
8.3348318604
 11
11.521889509
 21
8.2598318604
  0
LINE
  5
2F4
100
AcDbEntity
  8
0
100
AcDbLine
 62
7
  6
CONTINUOUS
 10
11.5298361149
 20
8.2598318604
 11
11.5298361149
 21
8.3348318604
  0
LINE
  5
2F5
100
AcDbEntity
  8
0
100
AcDbLine
 62
7
  6
CONTINUOUS
 10
11.5495046546
 20
8.3348318604
 11
11.5495046546
 21
8.2598318604
  0
LWPOLYLINE
  5
2F6
100
AcDbEntity
  8
0
100
AcDbPolyline
 62
7
  6
CONTINUOUS
 90
3
 70
0
 10
11.4473179008
 20
6.0792774743
 10
11.4477259723
 20
6.084556228
 10
11.449198446
 20
6.0905438999
  0
LINE
  5
2F7
100
AcDbEntity
  8
0
100
AcDbLine
 62
7
  6
CONTINUOUS
 10
11.5619585116
 20
8.3348318604
 11
11.5619585116
 21
8.2598318604
  0
LINE
  5
2F8
100
AcDbEntity
  8
0
100
AcDbLine
 62
7
  6
CONTINUOUS
 10
11.5692138545
 20
8.2598318604
 11
11.5692138545
 21
8.3348318604
  0
LINE
  5
2F9
100
AcDbEntity
  8
0
100
AcDbLine
 62
7
  6
CONTINUOUS
 10
11.5891477453
 20
8.3348318604
 11
11.5891477453
 21
8.2598318604
  0
LINE
  5
2FA
100
AcDbEntity
  8
0
100
AcDbLine
 62
7
  6
CONTINUOUS
 10
11.6014005045
 20
8.3348318604
 11
11.6014005045
 21
8.2598318604
  0
LINE
  5
2FB
100
AcDbEntity
  8
0
100
AcDbLine
 62
7
  6
CONTINUOUS
 10
11.6079557448
 20
8.2598318604
 11
11.6079557448
 21
8.3348318604
  0
LINE
  5
2FC
100
AcDbEntity
  8
0
100
AcDbLine
 62
7
  6
CONTINUOUS
 10
11.6281307002
 20
8.3348318604
 11
11.6281307002
 21
8.2598318604
  0
LINE
  5
2FD
100
AcDbEntity
  8
0
100
AcDbLine
 62
7
  6
CONTINUOUS
 10
11.6401674335
 20
8.3348318604
 11
11.6401674335
 21
8.2598318604
  0
LINE
  5
2FE
100
AcDbEntity
  8
0
100
AcDbLine
 62
7
  6
CONTINUOUS
 10
11.6460145849
 20
8.2598318604
 11
11.6460145849
 21
8.3348318604
  0
LINE
  5
2FF
100
AcDbEntity
  8
0
100
AcDbLine
 62
7
  6
CONTINUOUS
 10
11.6664060248
 20
8.3348318604
 11
11.6664060248
 21
8.2598318604
  0
LINE
  5
300
100
AcDbEntity
  8
0
100
AcDbLine
 62
7
  6
CONTINUOUS
 10
11.6782120673
 20
8.3348318604
 11
11.6782120673
 21
8.2598318604
  0
LINE
  5
301
100
AcDbEntity
  8
0
100
AcDbLine
 62
7
  6
CONTINUOUS
 10
11.6833440057
 20
8.2598318604
 11
11.6833440057
 21
8.3348318604
  0
LINE
  5
302
100
AcDbEntity
  8
0
100
AcDbLine
 62
7
  6
CONTINUOUS
 10
11.7039270863
 20
8.3348318604
 11
11.7039270863
 21
8.2598318604
  0
LINE
  5
303
100
AcDbEntity
  8
0
100
AcDbLine
 62
7
  6
CONTINUOUS
 10
11.7154880543
 20
8.3348318604
 11
11.7154880543
 21
8.2598318604
  0
LINE
  5
304
100
AcDbEntity
  8
0
100
AcDbLine
 62
7
  6
CONTINUOUS
 10
11.7198985272
 20
8.2598318604
 11
11.7198985272
 21
8.3348318604
  0
LINE
  5
305
100
AcDbEntity
  8
0
100
AcDbLine
 62
7
  6
CONTINUOUS
 10
11.7406481713
 20
8.3348318604
 11
11.7406481713
 21
8.2598318604
  0
LINE
  5
306
100
AcDbEntity
  8
0
100
AcDbLine
 62
7
  6
CONTINUOUS
 10
11.7519499793
 20
8.3348318604
 11
11.7519499793
 21
8.2598318604
  0
LINE
  5
307
100
AcDbEntity
  8
0
100
AcDbLine
 62
7
  6
CONTINUOUS
 10
11.7556336134
 20
8.2598318604
 11
11.7556336134
 21
8.3348318604
  0
LINE
  5
308
100
AcDbEntity
  8
0
100
AcDbLine
 62
7
  6
CONTINUOUS
 10
11.7765245406
 20
8.3348318604
 11
11.7765245406
 21
8.2598318604
  0
LINE
  5
309
100
AcDbEntity
  8
0
100
AcDbLine
 62
7
  6
CONTINUOUS
 10
11.7875534193
 20
8.3348318604
 11
11.7875534193
 21
8.2598318604
  0
LINE
  5
30A
100
AcDbEntity
  8
0
100
AcDbLine
 62
7
  6
CONTINUOUS
 10
11.7905057266
 20
8.2598318604
 11
11.7905057266
 21
8.3348318604
  0
LINE
  5
30B
100
AcDbEntity
  8
0
100
AcDbLine
 62
7
  6
CONTINUOUS
 10
11.7973183383
 20
6.9598318604
 11
11.7973183383
 21
7.0098318604
  0
LWPOLYLINE
  5
30C
100
AcDbEntity
  8
0
100
AcDbPolyline
 62
7
  6
CONTINUOUS
 90
5
 70
0
 10
10.6329459259
 20
6.4498014783
 10
10.6322861242
 20
6.44935727
 10
10.6302718854
 20
6.4481743113
 10
10.6290052694
 20
6.4475737865
 10
10.6286476308
 20
6.4474304442
  0
LINE
  5
30D
100
AcDbEntity
  8
0
100
AcDbLine
 62
7
  6
CONTINUOUS
 10
10.1223183383
 20
8.0598318604
 11
11.9723183383
 21
8.0598318604
  0
LINE
  5
30E
100
AcDbEntity
  8
0
100
AcDbLine
 62
7
  6
CONTINUOUS
 10
9.9723183383
 20
8.1598318604
 11
12.1223183383
 21
8.1598318604
  0
LINE
  5
30F
100
AcDbEntity
  8
0
100
AcDbLine
 62
7
  6
CONTINUOUS
 10
11.9973183383
 20
7.4598318604
 11
11.9223183383
 21
7.5348318604
  0
LINE
  5
310
100
AcDbEntity
  8
0
100
AcDbLine
 62
7
  6
CONTINUOUS
 10
11.8115124846
 20
8.3348318604
 11
11.8115124846
 21
8.2598318604
  0
LINE
  5
311
100
AcDbEntity
  8
0
100
AcDbLine
 62
7
  6
CONTINUOUS
 10
11.8222549968
 20
8.3348318604
 11
11.8222549968
 21
8.2598318604
  0
LINE
  5
312
100
AcDbEntity
  8
0
100
AcDbLine
 62
7
  6
CONTINUOUS
 10
11.8244723804
 20
8.2598318604
 11
11.8244723804
 21
8.3348318604
  0
LINE
  5
313
100
AcDbEntity
  8
0
100
AcDbLine
 62
7
  6
CONTINUOUS
 10
11.8455693756
 20
8.3348318604
 11
11.8455693756
 21
8.2598318604
  0
LINE
  5
314
100
AcDbEntity
  8
0
100
AcDbLine
 62
7
  6
CONTINUOUS
 10
11.8560124334
 20
8.3348318604
 11
11.8560124334
 21
8.2598318604
  0
LINE
  5
315
100
AcDbEntity
  8
0
100
AcDbLine
 62
7
  6
CONTINUOUS
 10
11.8574921916
 20
8.2598318604
 11
11.8574921916
 21
8.3348318604
  0
LINE
  5
316
100
AcDbEntity
  8
0
100
AcDbLine
 62
7
  6
CONTINUOUS
 10
11.8786537208
 20
8.3348318604
 11
11.8786537208
 21
8.2598318604
  0
LINE
  5
317
100
AcDbEntity
  8
0
100
AcDbLine
 62
7
  6
CONTINUOUS
 10
11.8887846008
 20
8.3348318604
 11
11.8887846008
 21
8.2598318604
  0
LINE
  5
318
100
AcDbEntity
  8
0
100
AcDbLine
 62
7
  6
CONTINUOUS
 10
11.8895249309
 20
8.2598318604
 11
11.8895249309
 21
8.3348318604
  0
LINE
  5
319
100
AcDbEntity
  8
0
100
AcDbLine
 62
7
  6
CONTINUOUS
 10
11.9107252118
 20
8.3348318604
 11
11.9107252118
 21
8.2598318604
  0
LINE
  5
31A
100
AcDbEntity
  8
0
100
AcDbLine
 62
7
  6
CONTINUOUS
 10
11.9205315711
 20
8.3348318604
 11
11.9205315711
 21
8.2598318604
  0
LINE
  5
31B
100
AcDbEntity
  8
0
100
AcDbLine
 62
7
  6
CONTINUOUS
 10
11.9223183383
 20
7.5348318604
 11
11.9223183383
 21
8.0598318604
  0
LINE
  5
31C
100
AcDbEntity
  8
0
100
AcDbLine
 62
7
  6
CONTINUOUS
 10
11.9417447746
 20
8.3348318604
 11
11.9417447746
 21
8.2598318604
  0
LINE
  5
31D
100
AcDbEntity
  8
0
100
AcDbLine
 62
7
  6
CONTINUOUS
 10
11.9512146657
 20
8.3348318604
 11
11.9512146657
 21
8.2598318604
  0
LINE
  5
31E
100
AcDbEntity
  8
0
100
AcDbLine
 62
7
  6
CONTINUOUS
 10
11.9716746165
 20
8.3348318604
 11
11.9716746165
 21
8.2598318604
  0
LINE
  5
31F
100
AcDbEntity
  8
0
100
AcDbLine
 62
7
  6
CONTINUOUS
 10
11.9807965018
 20
8.3348318604
 11
11.9807965018
 21
8.2598318604
  0
LINE
  5
320
100
AcDbEntity
  8
0
100
AcDbLine
 62
7
  6
CONTINUOUS
 10
11.9973183383
 20
7.1098318604
 11
11.9973183383
 21
7.1598318604
  0
LINE
  5
321
100
AcDbEntity
  8
0
100
AcDbLine
 62
7
  6
CONTINUOUS
 10
11.9973183383
 20
7.3598318604
 11
11.9973183383
 21
7.4598318604
  0
LINE
  5
322
100
AcDbEntity
  8
0
100
AcDbLine
 62
7
  6
CONTINUOUS
 10
12.0004782727
 20
8.3348318604
 11
12.0004782727
 21
8.2598318604
  0
LINE
  5
323
100
AcDbEntity
  8
0
100
AcDbLine
 62
7
  6
CONTINUOUS
 10
12.0092410386
 20
8.3348318604
 11
12.0092410386
 21
8.2598318604
  0
LINE
  5
324
100
AcDbEntity
  8
0
100
AcDbLine
 62
7
  6
CONTINUOUS
 10
12.0281206503
 20
8.3348318604
 11
12.0281206503
 21
8.2598318604
  0
LINE
  5
325
100
AcDbEntity
  8
0
100
AcDbLine
 62
7
  6
CONTINUOUS
 10
12.0365136207
 20
8.3348318604
 11
12.0365136207
 21
8.2598318604
  0
LINE
  5
326
100
AcDbEntity
  8
0
100
AcDbLine
 62
7
  6
CONTINUOUS
 10
11.449198446
 20
6.0905438999
 11
11.4514713341
 21
6.0957447576
  0
LINE
  5
327
100
AcDbEntity
  8
0
100
AcDbLine
 62
7
  6
CONTINUOUS
 10
9.7973369228
 20
8.2598318604
 11
12.2972997538
 21
8.2598318604
  0
LINE
  5
328
100
AcDbEntity
  8
0
100
AcDbLine
 62
7
  6
CONTINUOUS
 10
9.7973369228
 20
8.3348318604
 11
12.2972997538
 21
8.3348318604
  0
LINE
  5
329
100
AcDbEntity
  8
0
100
AcDbLine
 62
7
  6
CONTINUOUS
 10
12.0545680714
 20
8.3348318604
 11
12.0545680714
 21
8.2598318604
  0
LINE
  5
32A
100
AcDbEntity
  8
0
100
AcDbLine
 62
7
  6
CONTINUOUS
 10
12.0625810208
 20
8.3348318604
 11
12.0625810208
 21
8.2598318604
  0
LINE
  5
32B
100
AcDbEntity
  8
0
100
AcDbLine
 62
7
  6
CONTINUOUS
 10
12.0723183383
 20
7.1598318604
 11
12.0723183383
 21
7.3598318604
  0
LINE
  5
32C
100
AcDbEntity
  8
0
100
AcDbLine
 62
7
  6
CONTINUOUS
 10
12.0797883139
 20
8.3348318604
 11
12.0797883139
 21
8.2598318604
  0
LINE
  5
32D
100
AcDbEntity
  8
0
100
AcDbLine
 62
7
  6
CONTINUOUS
 10
12.0874114796
 20
8.3348318604
 11
12.0874114796
 21
8.2598318604
  0
LINE
  5
32E
100
AcDbEntity
  8
0
100
AcDbLine
 62
7
  6
CONTINUOUS
 10
12.1037506507
 20
8.3348318604
 11
12.1037506507
 21
8.2598318604
  0
LINE
  5
32F
100
AcDbEntity
  8
0
100
AcDbLine
 62
7
  6
CONTINUOUS
 10
12.1109747452
 20
8.3348318604
 11
12.1109747452
 21
8.2598318604
  0
LINE
  5
330
100
AcDbEntity
  8
0
100
AcDbLine
 62
7
  6
CONTINUOUS
 10
12.1264258874
 20
8.3348318604
 11
12.1264258874
 21
8.2598318604
  0
LINE
  5
331
100
AcDbEntity
  8
0
100
AcDbLine
 62
7
  6
CONTINUOUS
 10
12.1332421093
 20
8.3348318604
 11
12.1332421093
 21
8.2598318604
  0
LINE
  5
332
100
AcDbEntity
  8
0
100
AcDbLine
 62
7
  6
CONTINUOUS
 10
12.1477863979
 20
8.3348318604
 11
12.1477863979
 21
8.2598318604
  0
LINE
  5
333
100
AcDbEntity
  8
0
100
AcDbLine
 62
7
  6
CONTINUOUS
 10
12.1541864425
 20
8.3348318604
 11
12.1541864425
 21
8.2598318604
  0
LINE
  5
334
100
AcDbEntity
  8
0
100
AcDbLine
 62
7
  6
CONTINUOUS
 10
12.1678061575
 20
8.3348318604
 11
12.1678061575
 21
8.2598318604
  0
LINE
  5
335
100
AcDbEntity
  8
0
100
AcDbLine
 62
7
  6
CONTINUOUS
 10
12.1737822275
 20
8.3348318604
 11
12.1737822275
 21
8.2598318604
  0
LINE
  5
336
100
AcDbEntity
  8
0
100
AcDbLine
 62
7
  6
CONTINUOUS
 10
12.1864607754
 20
8.3348318604
 11
12.1864607754
 21
8.2598318604
  0
LINE
  5
337
100
AcDbEntity
  8
0
100
AcDbLine
 62
7
  6
CONTINUOUS
 10
12.1920055898
 20
8.3348318604
 11
12.1920055898
 21
8.2598318604
  0
LINE
  5
338
100
AcDbEntity
  8
0
100
AcDbLine
 62
7
  6
CONTINUOUS
 10
12.2037275236
 20
8.3348318604
 11
12.2037275236
 21
8.2598318604
  0
LINE
  5
339
100
AcDbEntity
  8
0
100
AcDbLine
 62
7
  6
CONTINUOUS
 10
12.2088343269
 20
8.3348318604
 11
12.2088343269
 21
8.2598318604
  0
LINE
  5
33A
100
AcDbEntity
  8
0
100
AcDbLine
 62
7
  6
CONTINUOUS
 10
12.2195853654
 20
8.3348318604
 11
12.2195853654
 21
8.2598318604
  0
LINE
  5
33B
100
AcDbEntity
  8
0
100
AcDbLine
 62
7
  6
CONTINUOUS
 10
12.2242479357
 20
8.3348318604
 11
12.2242479357
 21
8.2598318604
  0
LINE
  5
33C
100
AcDbEntity
  8
0
100
AcDbLine
 62
7
  6
CONTINUOUS
 10
12.2340149804
 20
8.3348318604
 11
12.2340149804
 21
8.2598318604
  0
LINE
  5
33D
100
AcDbEntity
  8
0
100
AcDbLine
 62
7
  6
CONTINUOUS
 10
12.2382276371
 20
8.3348318604
 11
12.2382276371
 21
8.2598318604
  0
LINE
  5
33E
100
AcDbEntity
  8
0
100
AcDbLine
 62
7
  6
CONTINUOUS
 10
12.2469987883
 20
8.3348318604
 11
12.2469987883
 21
8.2598318604
  0
LINE
  5
33F
100
AcDbEntity
  8
0
100
AcDbLine
 62
7
  6
CONTINUOUS
 10
12.2473183383
 20
8.3348318604
 11
12.2473183383
 21
8.5348318604
  0
LINE
  5
340
100
AcDbEntity
  8
0
100
AcDbLine
 62
7
  6
CONTINUOUS
 10
12.250756399
 20
8.3348318604
 11
12.250756399
 21
8.2598318604
  0
LINE
  5
341
100
AcDbEntity
  8
0
100
AcDbLine
 62
7
  6
CONTINUOUS
 10
12.2585209704
 20
8.3348318604
 11
12.2585209704
 21
8.2598318604
  0
LINE
  5
342
100
AcDbEntity
  8
0
100
AcDbLine
 62
7
  6
CONTINUOUS
 10
12.261818957
 20
8.3348318604
 11
12.261818957
 21
8.2598318604
  0
LINE
  5
343
100
AcDbEntity
  8
0
100
AcDbLine
 62
7
  6
CONTINUOUS
 10
12.2685674886
 20
8.3348318604
 11
12.2685674886
 21
8.2598318604
  0
LINE
  5
344
100
AcDbEntity
  8
0
100
AcDbLine
 62
7
  6
CONTINUOUS
 10
12.271401833
 20
8.3348318604
 11
12.271401833
 21
8.2598318604
  0
LINE
  5
345
100
AcDbEntity
  8
0
100
AcDbLine
 62
7
  6
CONTINUOUS
 10
12.2771261029
 20
8.3348318604
 11
12.2771261029
 21
8.2598318604
  0
LINE
  5
346
100
AcDbEntity
  8
0
100
AcDbLine
 62
7
  6
CONTINUOUS
 10
12.2794933519
 20
8.3348318604
 11
12.2794933519
 21
8.2598318604
  0
LWPOLYLINE
  5
347
100
AcDbEntity
  8
0
100
AcDbPolyline
 62
7
  6
CONTINUOUS
 90
7
 70
0
 10
11.4514713341
 20
6.0957447576
 10
11.4542494211
 20
6.1000641292
 10
11.4572240983
 20
6.1034558615
 10
11.4600463967
 20
6.1059034804
 10
11.4623374045
 20
6.1074461815
 10
11.4638297258
 20
6.1082388133
 10
11.4642757902
 20
6.1084346113
  0
LINE
  5
348
100
AcDbEntity
  8
0
100
AcDbLine
 62
7
  6
CONTINUOUS
 10
9.8473183383
 20
8.5348318604
 11
12.2473183383
 21
8.5348318604
  0
LINE
  5
349
100
AcDbEntity
  8
0
100
AcDbLine
 62
7
  6
CONTINUOUS
 10
9.7973183383
 20
8.5848318604
 11
12.2973183383
 21
8.5848318604
  0
LINE
  5
34A
100
AcDbEntity
  8
0
100
AcDbLine
 62
7
  6
CONTINUOUS
 10
12.2841863859
 20
8.3348318604
 11
12.2841863859
 21
8.2598318604
  0
LINE
  5
34B
100
AcDbEntity
  8
0
100
AcDbLine
 62
7
  6
CONTINUOUS
 10
12.2860836553
 20
8.3348318604
 11
12.2860836553
 21
8.2598318604
  0
LINE
  5
34C
100
AcDbEntity
  8
0
100
AcDbLine
 62
7
  6
CONTINUOUS
 10
12.2897397356
 20
8.3348318604
 11
12.2897397356
 21
8.2598318604
  0
LINE
  5
34D
100
AcDbEntity
  8
0
100
AcDbLine
 62
7
  6
CONTINUOUS
 10
12.291164714
 20
8.3348318604
 11
12.291164714
 21
8.2598318604
  0
LINE
  5
34E
100
AcDbEntity
  8
0
100
AcDbLine
 62
7
  6
CONTINUOUS
 10
12.2937793863
 20
8.3348318604
 11
12.2937793863
 21
8.2598318604
  0
LINE
  5
34F
100
AcDbEntity
  8
0
100
AcDbLine
 62
7
  6
CONTINUOUS
 10
12.2947303375
 20
8.3348318604
 11
12.2947303375
 21
8.2598318604
  0
LINE
  5
350
100
AcDbEntity
  8
0
100
AcDbLine
 62
7
  6
CONTINUOUS
 10
12.2963004162
 20
8.3348318604
 11
12.2963004162
 21
8.2598318604
  0
LINE
  5
351
100
AcDbEntity
  8
0
100
AcDbLine
 62
7
  6
CONTINUOUS
 10
12.2967761816
 20
8.3348318604
 11
12.2967761816
 21
8.2598318604
  0
LINE
  5
352
100
AcDbEntity
  8
0
100
AcDbLine
 62
7
  6
CONTINUOUS
 10
12.2972997538
 20
8.3348318604
 11
12.2972997538
 21
8.2598318604
  0
LINE
  5
353
100
AcDbEntity
  8
0
100
AcDbLine
 62
7
  6
CONTINUOUS
 10
12.2973183383
 20
8.5848318604
 11
12.2973183383
 21
8.7348318604
  0
LINE
  5
354
100
AcDbEntity
  8
0
100
AcDbLine
 62
9
  6
CONTINUOUS
 10
12.4445335722
 20
6.4067366717
 11
12.4445335722
 21
6.1162395776
  0
LINE
  5
355
100
AcDbEntity
  8
0
100
AcDbLine
 62
7
  6
CONTINUOUS
 10
12.4674794368
 20
6.4067482676
 11
12.4674794368
 21
6.1162279324
  0
LINE
  5
356
100
AcDbEntity
  8
0
100
AcDbLine
 62
7
  6
CONTINUOUS
 10
14.130161828
 20
8.7348318604
 11
7.9644748485
 21
8.7348318604
  0
LINE
  5
357
100
AcDbEntity
  8
0
100
AcDbLine
 62
9
  6
CONTINUOUS
 10
14.1895364896
 20
8.7767688701
 11
7.9051001869
 21
8.7767688701
  0
LINE
  5
358
100
AcDbEntity
  8
0
100
AcDbLine
 62
9
  6
CONTINUOUS
 10
14.2588700226
 20
8.8503495101
 11
7.8357666539
 21
8.8503495101
  0
LINE
  5
359
100
AcDbEntity
  8
0
100
AcDbLine
 62
9
  6
CONTINUOUS
 10
14.2973183383
 20
8.9083686
 11
7.7973183383
 21
8.9083686
  0
LINE
  5
35A
100
AcDbEntity
  8
0
100
AcDbLine
 62
7
  6
CONTINUOUS
 10
7.7973184149
 20
9.0478318604
 11
14.2973182617
 21
9.0478318604
  0
LINE
  5
35B
100
AcDbEntity
  8
0
100
AcDbLine
 62
7
  6
CONTINUOUS
 10
14.2973183383
 20
8.9083686
 11
14.2973183383
 21
9.0478318604
  0
ARC
  5
35C
100
AcDbEntity
  8
0
100
AcDbCircle
 62
9
  6
CONTINUOUS
 10
10.6034645549
 20
4.9433311865
 40
1.5014838253
100
AcDbArc
 50
89.5539174004
 51
89.8433067931
  0
ARC
  5
35D
100
AcDbEntity
  8
0
100
AcDbCircle
 62
9
  6
CONTINUOUS
 10
10.5884681885
 20
5.6383071269
 40
0.7666103308
100
AcDbArc
 50
89.3590587862
 51
89.7635772846
  0
ARC
  5
35E
100
AcDbEntity
  8
0
100
AcDbCircle
 62
9
  6
CONTINUOUS
 10
9.7836441568
 20
5.9635018652
 40
0.4972952087
100
AcDbArc
 50
92.7686000803
 51
103.7960348299
  0
ARC
  5
35F
100
AcDbEntity
  8
0
100
AcDbCircle
 62
9
  6
CONTINUOUS
 10
9.7829669009
 20
5.9710650348
 40
0.4897059267
100
AcDbArc
 50
89.9414396152
 51
92.7321958433
  0
ARC
  5
360
100
AcDbEntity
  8
0
100
AcDbCircle
 62
9
  6
CONTINUOUS
 10
10.4636821398
 20
6.2067158399
 40
0.4457296482
100
AcDbArc
 50
32.9340166038
 51
37.0049221538
  0
ARC
  5
361
100
AcDbEntity
  8
0
100
AcDbCircle
 62
7
  6
CONTINUOUS
 10
10.6476555497
 20
6.3220865045
 40
0.1274332915
100
AcDbArc
 50
97.7640451317
 51
98.2226707237
  0
ARC
  5
362
100
AcDbEntity
  8
0
100
AcDbCircle
 62
9
  6
CONTINUOUS
 10
10.6488706176
 20
6.2321883783
 40
0.1260761716
100
AcDbArc
 50
261.4201702335
 51
262.4601893565
  0
ARC
  5
363
100
AcDbEntity
  8
0
100
AcDbCircle
 62
7
  6
CONTINUOUS
 10
10.6465060356
 20
6.3300780426
 40
0.1193595047
100
AcDbArc
 50
98.2251944374
 51
98.7092021942
  0
ARC
  5
364
100
AcDbEntity
  8
0
100
AcDbCircle
 62
7
  6
CONTINUOUS
 10
10.6598183383
 20
5.9668318604
 40
0.075
100
AcDbArc
 50
0.0
 51
90.0
  0
ARC
  5
365
100
AcDbEntity
  8
0
100
AcDbCircle
 62
7
  6
CONTINUOUS
 10
10.8157904126
 20
6.4067481819
 40
0.0400000924
100
AcDbArc
 50
96.9381116197
 51
179.9998771342
  0
ARC
  5
366
100
AcDbEntity
  8
0
100
AcDbCircle
 62
7
  6
CONTINUOUS
 10
9.6671572929
 20
6.1162279653
 40
0.0400000532
100
AcDbArc
 50
180.0000471004
 51
256.3405060017
  0
ARC
  5
367
100
AcDbEntity
  8
0
100
AcDbCircle
 62
7
  6
CONTINUOUS
 10
9.667157271
 20
6.4067482531
 40
0.0400000312
100
AcDbArc
 50
103.6573689597
 51
179.9999791793
  0
ARC
  5
368
100
AcDbEntity
  8
0
100
AcDbCircle
 62
7
  6
CONTINUOUS
 10
10.815790276
 20
6.1162278194
 40
0.0399998824
100
AcDbArc
 50
179.9998370693
 51
263.0576219502
  0
ARC
  5
369
100
AcDbEntity
  8
0
100
AcDbCircle
 62
9
  6
CONTINUOUS
 10
9.6647323782
 20
6.1063284009
 40
0.0298078388
100
AcDbArc
 50
256.3745364007
 51
272.7491598842
  0
ARC
  5
36A
100
AcDbEntity
  8
0
100
AcDbCircle
 62
9
  6
CONTINUOUS
 10
9.6647219811
 20
6.4167167107
 40
0.0297386832
100
AcDbArc
 50
89.3570806929
 51
101.6927042728
  0
ARC
  5
36B
100
AcDbEntity
  8
0
100
AcDbCircle
 62
9
  6
CONTINUOUS
 10
9.664683637
 20
6.4169232414
 40
0.0295286677
100
AcDbArc
 50
101.7010625199
 51
103.6566166786
  0
ARC
  5
36C
100
AcDbEntity
  8
0
100
AcDbCircle
 62
9
  6
CONTINUOUS
 10
10.6173728022
 20
6.0836279918
 40
0.0281900507
100
AcDbArc
 50
62.3435783959
 51
64.5005279959
  0
ARC
  5
36D
100
AcDbEntity
  8
0
100
AcDbCircle
 62
7
  6
CONTINUOUS
 10
10.7148183383
 20
6.5368318604
 40
0.02
100
AcDbArc
 50
270.0000000029
 51
360.0
  0
ARC
  5
36E
100
AcDbEntity
  8
0
100
AcDbCircle
 62
7
  6
CONTINUOUS
 10
10.7648183383
 20
5.9468318604
 40
0.02
100
AcDbArc
 50
0.0
 51
89.9999999937
  0
ARC
  5
36F
100
AcDbEntity
  8
0
100
AcDbCircle
 62
9
  6
CONTINUOUS
 10
10.5619247949
 20
7.3372976428
 40
1.2266099
100
AcDbArc
 50
272.1846406362
 51
272.4345264332
  0
ARC
  5
370
100
AcDbEntity
  8
0
100
AcDbCircle
 62
9
  6
CONTINUOUS
 10
10.5582927614
 20
6.7715594052
 40
0.6210085977
100
AcDbArc
 50
273.0773920527
 51
273.4298861455
  0
ARC
  5
371
100
AcDbEntity
  8
0
100
AcDbCircle
 62
7
  6
CONTINUOUS
 10
7.7868835557
 20
8.7348318604
 40
0.1254347826
100
AcDbArc
 50
19.5319940446
 51
67.0635891141
  0
ARC
  5
372
100
AcDbEntity
  8
0
100
AcDbCircle
 62
7
  6
CONTINUOUS
 10
10.0973183383
 20
7.0098318604
 40
0.1
100
AcDbArc
 50
0.0
 51
90.0
  0
ARC
  5
373
100
AcDbEntity
  8
0
100
AcDbCircle
 62
7
  6
CONTINUOUS
 10
9.8723183383
 20
8.1598318604
 40
0.1
100
AcDbArc
 50
0.0
 51
88.4357649266
  0
ARC
  5
374
100
AcDbEntity
  8
0
100
AcDbCircle
 62
7
  6
CONTINUOUS
 10
10.0223183383
 20
8.0598318604
 40
0.1
100
AcDbArc
 50
0.0
 51
90.0
  0
ARC
  5
375
100
AcDbEntity
  8
0
100
AcDbCircle
 62
7
  6
CONTINUOUS
 10
7.8603183383
 20
8.9083686
 40
0.063
100
AcDbArc
 50
180.0
 51
247.0635891141
  0
ARC
  5
376
100
AcDbEntity
  8
0
100
AcDbCircle
 62
7
  6
CONTINUOUS
 10
7.9644748485
 20
8.7978318604
 40
0.063
100
AcDbArc
 50
199.5319940446
 51
270.0
  0
ARC
  5
377
100
AcDbEntity
  8
0
100
AcDbCircle
 62
9
  6
CONTINUOUS
 10
11.0473221351
 20
4.502350762
 40
1.9184211876
100
AcDbArc
 50
83.06837278
 51
96.9318567267
  0
ARC
  5
378
100
AcDbEntity
  8
0
100
AcDbCircle
 62
9
  6
CONTINUOUS
 10
11.4911741327
 20
4.9436050019
 40
1.5012100299
100
AcDbArc
 50
90.1567985263
 51
90.4462409805
  0
ARC
  5
379
100
AcDbEntity
  8
0
100
AcDbCircle
 62
9
  6
CONTINUOUS
 10
11.5061865617
 20
5.6353753661
 40
0.7695421412
100
AcDbArc
 50
90.2368676572
 51
90.6398454665
  0
ARC
  5
37A
100
AcDbEntity
  8
0
100
AcDbCircle
 62
9
  6
CONTINUOUS
 10
12.3109926472
 20
5.9635007274
 40
0.4972962979
100
AcDbArc
 50
76.204016477
 51
87.233466601
  0
ARC
  5
37B
100
AcDbEntity
  8
0
100
AcDbCircle
 62
9
  6
CONTINUOUS
 10
12.311668133
 20
5.971020832
 40
0.4897501282
100
AcDbArc
 50
87.2699359042
 51
90.0472538403
  0
ARC
  5
37C
100
AcDbEntity
  8
0
100
AcDbCircle
 62
9
  6
CONTINUOUS
 10
11.6307316364
 20
6.206879245
 40
0.4454536781
100
AcDbArc
 50
142.9945403681
 51
147.0678947339
  0
ARC
  5
37D
100
AcDbEntity
  8
0
100
AcDbCircle
 62
9
  6
CONTINUOUS
 10
11.4453630598
 20
6.2350216169
 40
0.1289378256
100
AcDbArc
 50
277.5532780702
 51
278.5551402335
  0
ARC
  5
37E
100
AcDbEntity
  8
0
100
AcDbCircle
 62
7
  6
CONTINUOUS
 10
11.4471666529
 20
6.323420377
 40
0.1260865585
100
AcDbArc
 50
81.7748210173
 51
82.2378865875
  0
ARC
  5
37F
100
AcDbEntity
  8
0
100
AcDbCircle
 62
7
  6
CONTINUOUS
 10
11.4483708356
 20
6.3317018294
 40
0.1177180188
100
AcDbArc
 50
81.2425124944
 51
81.7782373334
  0
ARC
  5
380
100
AcDbEntity
  8
0
100
AcDbCircle
 62
7
  6
CONTINUOUS
 10
11.4348183383
 20
5.9668318604
 40
0.075
100
AcDbArc
 50
90.0
 51
180.0
  0
ARC
  5
381
100
AcDbEntity
  8
0
100
AcDbCircle
 62
7
  6
CONTINUOUS
 10
11.2788462639
 20
6.4067481819
 40
0.0400000924
100
AcDbArc
 50
0.0001228657
 51
83.0618867723
  0
ARC
  5
382
100
AcDbEntity
  8
0
100
AcDbCircle
 62
7
  6
CONTINUOUS
 10
12.4274793836
 20
6.1162279653
 40
0.0400000532
100
AcDbArc
 50
283.6595700758
 51
359.9999528978
  0
ARC
  5
383
100
AcDbEntity
  8
0
100
AcDbCircle
 62
7
  6
CONTINUOUS
 10
12.4274794056
 20
6.4067482531
 40
0.0400000312
100
AcDbArc
 50
0.0000208193
 51
76.3426963348
  0
ARC
  5
384
100
AcDbEntity
  8
0
100
AcDbCircle
 62
7
  6
CONTINUOUS
 10
11.2788464193
 20
6.1162279294
 40
0.0399999371
100
AcDbArc
 50
276.9369083578
 51
0.0000043296
  0
ARC
  5
385
100
AcDbEntity
  8
0
100
AcDbCircle
 62
9
  6
CONTINUOUS
 10
12.4299042885
 20
6.1063285029
 40
0.0298079403
100
AcDbArc
 50
267.2508683884
 51
283.6255377782
  0
ARC
  5
386
100
AcDbEntity
  8
0
100
AcDbCircle
 62
9
  6
CONTINUOUS
 10
12.4299145962
 20
6.4167154493
 40
0.0297399435
100
AcDbArc
 50
78.3654589821
 51
90.6427008106
  0
ARC
  5
387
100
AcDbEntity
  8
0
100
AcDbCircle
 62
9
  6
CONTINUOUS
 10
12.4299528945
 20
6.4169226513
 40
0.0295292754
100
AcDbArc
 50
76.3434685333
 51
78.357164823
  0
ARC
  5
388
100
AcDbEntity
  8
0
100
AcDbCircle
 62
9
  6
CONTINUOUS
 10
11.4772166554
 20
6.0837206866
 40
0.0280866615
100
AcDbArc
 50
115.732413754
 51
117.7282490346
  0
ARC
  5
389
100
AcDbEntity
  8
0
100
AcDbCircle
 62
7
  6
CONTINUOUS
 10
11.3798183383
 20
6.5368318604
 40
0.02
100
AcDbArc
 50
180.0
 51
269.9999999971
  0
ARC
  5
38A
100
AcDbEntity
  8
0
100
AcDbCircle
 62
7
  6
CONTINUOUS
 10
11.3298183383
 20
5.9468318604
 40
0.02
100
AcDbArc
 50
90.0000000063
 51
180.0
  0
ARC
  5
38B
100
AcDbEntity
  8
0
100
AcDbCircle
 62
9
  6
CONTINUOUS
 10
11.0473194184
 20
8.0191860213
 40
1.9169917695
100
AcDbArc
 50
263.0630325106
 51
276.9369014853
  0
ARC
  5
38C
100
AcDbEntity
  8
0
100
AcDbCircle
 62
9
  6
CONTINUOUS
 10
11.5327275932
 20
7.3377437026
 40
1.2270562238
100
AcDbArc
 50
267.5656249543
 51
267.815420216
  0
ARC
  5
38D
100
AcDbEntity
  8
0
100
AcDbCircle
 62
9
  6
CONTINUOUS
 10
11.5366237532
 20
6.776565007
 40
0.6260220043
100
AcDbArc
 50
266.5719560341
 51
266.9216277518
  0
ARC
  5
38E
100
AcDbEntity
  8
0
100
AcDbCircle
 62
7
  6
CONTINUOUS
 10
14.3077531209
 20
8.7348318604
 40
0.1254347826
100
AcDbArc
 50
112.9364108859
 51
160.4680059554
  0
ARC
  5
38F
100
AcDbEntity
  8
0
100
AcDbCircle
 62
7
  6
CONTINUOUS
 10
11.9973183383
 20
7.0098318604
 40
0.1
100
AcDbArc
 50
90.0
 51
180.0
  0
ARC
  5
390
100
AcDbEntity
  8
0
100
AcDbCircle
 62
7
  6
CONTINUOUS
 10
12.2223183383
 20
8.1598318604
 40
0.1
100
AcDbArc
 50
91.5642350734
 51
180.0
  0
ARC
  5
391
100
AcDbEntity
  8
0
100
AcDbCircle
 62
7
  6
CONTINUOUS
 10
12.0723183383
 20
8.0598318604
 40
0.1
100
AcDbArc
 50
90.0
 51
180.0
  0
ARC
  5
392
100
AcDbEntity
  8
0
100
AcDbCircle
 62
7
  6
CONTINUOUS
 10
14.2343183383
 20
8.9083686
 40
0.063
100
AcDbArc
 50
292.9364108859
 51
360.0
  0
ARC
  5
393
100
AcDbEntity
  8
0
100
AcDbCircle
 62
7
  6
CONTINUOUS
 10
14.130161828
 20
8.7978318604
 40
0.063
100
AcDbArc
 50
270.0
 51
340.4680059554
  0
SPLINE
  5
394
100
AcDbEntity
  8
0
100
AcDbSpline
 62
7
  6
CONTINUOUS
 70
0
 71
3
 72
9
 73
5
 74
0
 42
0.0000001
 43
0.0000001
 44
0.0000000001
 40
0.0
 40
0.0
 40
0.0
 40
0.0
 40
0.4851781038
 40
1.0
 40
1.0
 40
1.0
 40
1.0
 10
11.4565856174
 20
6.4542810769
 30
0.0
 10
11.4573299908
 20
6.4534716649
 30
0.0
 10
11.4589461116
 20
6.4518765673
 30
0.0
 10
11.4607301739
 20
6.4504686792
 30
0.0
 10
11.4616883742
 20
6.4498028172
 30
0.0
  0
SPLINE
  5
395
100
AcDbEntity
  8
0
100
AcDbSpline
 62
7
  6
CONTINUOUS
 70
0
 71
3
 72
12
 73
8
 74
0
 42
0.0000001
 43
0.0000001
 44
0.0000000001
 40
0.0
 40
0.0
 40
0.0
 40
0.0
 40
0.2045601288
 40
0.314962356
 40
0.432253881
 40
0.6930044248
 40
1.0
 40
1.0
 40
1.0
 40
1.0
 10
11.4616883742
 20
6.4498028172
 30
0.0
 10
11.4627413376
 20
6.4490711035
 30
0.0
 10
11.4644420222
 20
6.4480525249
 30
0.0
 10
11.4669037924
 20
6.4469160546
 30
0.0
 10
11.4697774041
 20
6.4458507573
 30
0.0
 10
11.4739812073
 20
6.4448755816
 30
0.0
 10
11.4775590512
 20
6.4446996367
 30
0.0
 10
11.4794821206
 20
6.4447693518
 30
0.0
  0
SPLINE
  5
396
100
AcDbEntity
  8
0
100
AcDbSpline
 62
7
  6
CONTINUOUS
 70
0
 71
3
 72
12
 73
8
 74
0
 42
0.0000001
 43
0.0000001
 44
0.0000000001
 40
0.0
 40
0.0
 40
0.0
 40
0.0
 40
0.2045653342
 40
0.3149690388
 40
0.43225975
 40
0.6930173085
 40
1.0
 40
1.0
 40
1.0
 40
1.0
 10
10.63294278
 20
6.4497991062
 30
0.0
 10
10.6318899909
 20
6.4490678792
 30
0.0
 10
10.6301896604
 20
6.4480500028
 30
0.0
 10
10.6277285326
 20
6.4469143452
 30
0.0
 10
10.6248557517
 20
6.4458497957
 30
0.0
 10
10.6206533925
 20
6.4448753693
 30
0.0
 10
10.6170768681
 20
6.4446996501
 30
0.0
 10
10.6151545577
 20
6.444769286
 30
0.0
  0
SPLINE
  5
397
100
AcDbEntity
  8
0
100
AcDbSpline
 62
7
  6
CONTINUOUS
 70
0
 71
3
 72
9
 73
5
 74
0
 42
0.0000001
 43
0.0000001
 44
0.0000000001
 40
0.0
 40
0.0
 40
0.0
 40
0.0
 40
0.4851504385
 40
1.0
 40
1.0
 40
1.0
 40
1.0
 10
10.6380563109
 20
6.4542867647
 30
0.0
 10
10.6373105697
 20
6.4534755409
 30
0.0
 10
10.6356912039
 20
6.4518768831
 30
0.0
 10
10.6339032117
 20
6.4504661854
 30
0.0
 10
10.63294278
 20
6.4497991062
 30
0.0
  0
SPLINE
  5
398
100
AcDbEntity
  8
0
100
AcDbSpline
 62
7
  6
CONTINUOUS
 70
0
 71
3
 72
11
 73
7
 74
0
 42
0.0000001
 43
0.0000001
 44
0.0000000001
 40
0.0
 40
0.0
 40
0.0
 40
0.0
 40
0.2974718011
 40
0.5629691943
 40
0.796921943
 40
1.0
 40
1.0
 40
1.0
 40
1.0
 10
10.6284326697
 20
6.448061282
 30
0.0
 10
10.6270890923
 20
6.4478553701
 30
0.0
 10
10.6245527891
 20
6.4474210735
 30
0.0
 10
10.6209931278
 20
6.4466464153
 30
0.0
 10
10.6178973325
 20
6.4457907103
 30
0.0
 10
10.6160123319
 20
6.4451230505
 30
0.0
 10
10.6151544678
 20
6.4447692892
 30
0.0
  0
SPLINE
  5
399
100
AcDbEntity
  8
0
100
AcDbSpline
 62
7
  6
CONTINUOUS
 70
0
 71
3
 72
9
 73
5
 74
0
 42
0.0000001
 43
0.0000001
 44
0.0000000001
 40
0.0
 40
0.0
 40
0.0
 40
0.0
 40
0.486415021
 40
1.0
 40
1.0
 40
1.0
 40
1.0
 10
11.4499474389
 20
6.4642087026
 30
0.0
 10
11.4508017896
 20
6.4624655159
 30
0.0
 10
11.4527606131
 20
6.4589766828
 30
0.0
 10
11.4551981241
 20
6.4557898005
 30
0.0
 10
11.4565856174
 20
6.4542810769
 30
0.0
  0
SPLINE
  5
39A
100
AcDbEntity
  8
0
100
AcDbSpline
 62
7
  6
CONTINUOUS
 70
0
 71
3
 72
9
 73
5
 74
0
 42
0.0000001
 43
0.0000001
 44
0.0000000001
 40
0.0
 40
0.0
 40
0.0
 40
0.0
 40
0.4864378974
 40
1.0
 40
1.0
 40
1.0
 40
1.0
 10
10.6446894213
 20
6.464208472
 30
0.0
 10
10.6438356253
 20
6.4624663193
 30
0.0
 10
10.6418781175
 20
6.4589797352
 30
0.0
 10
10.6394425385
 20
6.4557947154
 30
0.0
 10
10.6380563109
 20
6.4542867647
 30
0.0
  0
SPLINE
  5
39B
100
AcDbEntity
  8
0
100
AcDbSpline
 62
7
  6
CONTINUOUS
 70
0
 71
3
 72
11
 73
7
 74
0
 42
0.0000001
 43
0.0000001
 44
0.0000000001
 40
0.0
 40
0.0
 40
0.0
 40
0.0
 40
0.2032691057
 40
0.4372909392
 40
0.702725798
 40
1.0
 40
1.0
 40
1.0
 40
1.0
 10
11.4794822061
 20
6.4447693482
 30
0.0
 10
11.4786292254
 20
6.4451211112
 30
0.0
 10
11.476755785
 20
6.4457852268
 30
0.0
 10
11.4736800646
 20
6.4466370734
 30
0.0
 10
11.4701453448
 20
6.4474087952
 30
0.0
 10
11.4676273349
 20
6.4478419652
 30
0.0
 10
11.4662937036
 20
6.4480474471
 30
0.0
  0
SPLINE
  5
39C
100
AcDbEntity
  8
0
100
AcDbSpline
 62
9
  6
CONTINUOUS
 70
0
 71
3
 72
14
 73
10
 74
0
 42
0.0000001
 43
0.0000001
 44
0.0000000001
 40
0.0
 40
0.0
 40
0.0
 40
0.0
 40
0.3015126477
 40
0.4391542987
 40
0.5681452985
 40
0.688585395
 40
0.8005969014
 40
0.9043345894
 40
1.0
 40
1.0
 40
1.0
 40
1.0
 10
11.464543999
 20
6.1075184623
 30
0.0
 10
11.4662015335
 20
6.107768301
 30
0.0
 10
11.468609034
 20
6.1081823078
 30
0.0
 10
11.4716969754
 20
6.1088484091
 30
0.0
 10
11.4737859494
 20
6.1093667584
 30
0.0
 10
11.4757187131
 20
6.1099181798
 30
0.0
 10
11.4774949067
 20
6.110501792
 30
0.0
 10
11.4791140273
 20
6.1111166477
 30
0.0
 10
11.4801288618
 20
6.1115646321
 30
0.0
 10
11.4806082332
 20
6.1117949986
 30
0.0
  0
SPLINE
  5
39D
100
AcDbEntity
  8
0
100
AcDbSpline
 62
9
  6
CONTINUOUS
 70
0
 71
3
 72
11
 73
7
 74
0
 42
0.0000001
 43
0.0000001
 44
0.0000000001
 40
0.0
 40
0.0
 40
0.0
 40
0.0
 40
0.2489201415
 40
0.4985696715
 40
0.7489413177
 40
1.0
 40
1.0
 40
1.0
 40
1.0
 10
11.4459760911
 20
6.4749884342
 30
0.0
 10
11.4461270244
 20
6.4728820369
 30
0.0
 10
11.4465649589
 20
6.4686723486
 30
0.0
 10
11.4475388354
 20
6.4623908862
 30
0.0
 10
11.4488603831
 20
6.456154116
 30
0.0
 10
11.449974767
 20
6.4520457129
 30
0.0
 10
11.4505940296
 20
6.450007782
 30
0.0
  0
SPLINE
  5
39E
100
AcDbEntity
  8
0
100
AcDbSpline
 62
9
  6
CONTINUOUS
 70
0
 71
3
 72
14
 73
10
 74
0
 42
0.0000001
 43
0.0000001
 44
0.0000000001
 40
0.0
 40
0.0
 40
0.0
 40
0.0
 40
0.1229951574
 40
0.1837271835
 40
0.2448623788
 40
0.3681617486
 40
0.4924502061
 40
0.744063755
 40
1.0
 40
1.0
 40
1.0
 40
1.0
 10
11.4459758099
 20
6.4749922438
 30
0.0
 10
11.4460892853
 20
6.4745340815
 30
0.0
 10
11.4462737542
 20
6.4738533552
 30
0.0
 10
11.4465393789
 20
6.4729519969
 30
0.0
 10
11.4468148164
 20
6.4720523481
 30
0.0
 10
11.4471811598
 20
6.470925526
 30
0.0
 10
11.4478174641
 20
6.4691183875
 30
0.0
 10
11.448706843
 20
6.4668615265
 30
0.0
 10
11.4495153987
 20
6.4650882476
 30
0.0
 10
11.4499481552
 20
6.4642065453
 30
0.0
  0
SPLINE
  5
39F
100
AcDbEntity
  8
0
100
AcDbSpline
 62
9
  6
CONTINUOUS
 70
0
 71
3
 72
20
 73
16
 74
0
 42
0.0000001
 43
0.0000001
 44
0.0000000001
 40
0.0
 40
0.0
 40
0.0
 40
0.0
 40
0.1205726995
 40
0.2414032486
 40
0.3019437221
 40
0.3625942567
 40
0.4233900764
 40
0.4843999944
 40
0.6073535165
 40
0.6697059842
 40
0.7328911444
 40
0.7971927908
 40
0.8629342275
 40
0.9304448577
 40
1.0
 40
1.0
 40
1.0
 40
1.0
 10
11.4505940296
 20
6.450007782
 30
0.0
 10
11.4514103142
 20
6.4473196142
 30
0.0
 10
11.4532581486
 20
6.4419994649
 30
0.0
 10
11.4561470419
 20
6.4355721561
 30
0.0
 10
11.4588454496
 20
6.430617791
 30
0.0
 10
11.4610767508
 20
6.4270092967
 30
0.0
 10
11.4635292512
 20
6.42353282
 30
0.0
 10
11.4671190728
 20
6.4190981636
 30
0.0
 10
11.4712210718
 20
6.4150406566
 30
0.0
 10
11.4758523073
 20
6.4115533236
 30
0.0
 10
11.4796406485
 20
6.4092537688
 30
0.0
 10
11.4837312781
 20
6.407349738
 30
0.0
 10
11.4881177066
 20
6.4059152965
 30
0.0
 10
11.4927722163
 20
6.4050280864
 30
0.0
 10
11.4959723968
 20
6.4048515441
 30
0.0
 10
11.4975929477
 20
6.4048695226
 30
0.0
  0
SPLINE
  5
3A0
100
AcDbEntity
  8
0
100
AcDbSpline
 62
9
  6
CONTINUOUS
 70
0
 71
3
 72
21
 73
17
 74
0
 42
0.0000001
 43
0.0000001
 44
0.0000000001
 40
0.0
 40
0.0
 40
0.0
 40
0.0
 40
0.0395366037
 40
0.0809784059
 40
0.1251289709
 40
0.1725957232
 40
0.2237534901
 40
0.2787865512
 40
0.3377229445
 40
0.4004596059
 40
0.4667889625
 40
0.5364199128
 40
0.6089916991
 40
0.6840895828
 40
0.8399385835
 40
1.0
 40
1.0
 40
1.0
 40
1.0
 10
11.4794822652
 20
6.4447695013
 30
0.0
 10
11.4800906261
 20
6.4446802679
 30
0.0
 10
11.4813212897
 20
6.4443744682
 30
0.0
 10
11.4831035261
 20
6.4435713498
 30
0.0
 10
11.4848373181
 20
6.4424274835
 30
0.0
 10
11.4865083675
 20
6.440956155
 30
0.0
 10
11.4881045546
 20
6.4391712296
 30
0.0
 10
11.4896135162
 20
6.4370884782
 30
0.0
 10
11.4910231722
 20
6.4347257574
 30
0.0
 10
11.4923218894
 20
6.4321032982
 30
0.0
 10
11.4934987539
 20
6.4292436463
 30
0.0
 10
11.494543592
 20
6.4261714666
 30
0.0
 10
11.4954474226
 20
6.4229133182
 30
0.0
 10
11.496466273
 20
6.4183023737
 30
0.0
 10
11.4973284695
 20
6.4122729811
 30
0.0
 10
11.4975777201
 20
6.4073587397
 30
0.0
 10
11.4975929418
 20
6.4048695226
 30
0.0
  0
SPLINE
  5
3A1
100
AcDbEntity
  8
0
100
AcDbSpline
 62
9
  6
CONTINUOUS
 70
0
 71
3
 72
22
 73
18
 74
0
 42
0.0000001
 43
0.0000001
 44
0.0000000001
 40
0.0
 40
0.0
 40
0.0
 40
0.0
 40
0.0369482048
 40
0.0563829541
 40
0.0764944074
 40
0.1191664954
 40
0.165717579
 40
0.2164414826
 40
0.2714300175
 40
0.3306311679
 40
0.3938562864
 40
0.4608237967
 40
0.5311823443
 40
0.6803846372
 40
0.8379796895
 40
0.9187227556
 40
1.0
 40
1.0
 40
1.0
 40
1.0
 10
12.4295810029
 20
6.4464535217
 30
0.0
 10
12.4301081717
 20
6.4463025573
 30
0.0
 10
12.4308914297
 20
6.4459906848
 30
0.0
 10
12.4318831802
 20
6.4454364544
 30
0.0
 10
12.432894882
 20
6.4447516574
 30
0.0
 10
12.4341253839
 20
6.4436846876
 30
0.0
 10
12.4355127215
 20
6.442133164
 30
0.0
 10
12.4368338374
 20
6.4402952894
 30
0.0
 10
12.4380804424
 20
6.4381858611
 30
0.0
 10
12.4392448796
 20
6.435821813
 30
0.0
 10
12.440317071
 20
6.4332215124
 30
0.0
 10
12.4412866005
 20
6.4304056896
 30
0.0
 10
12.4424506979
 20
6.4263138248
 30
0.0
 10
12.4435600625
 20
6.4208176683
 30
0.0
 10
12.4441990901
 20
6.4150954188
 30
0.0
 10
12.4444702544
 20
6.410359031
 30
0.0
 10
12.4445261279
 20
6.4079545029
 30
0.0
 10
12.4445335722
 20
6.4067482676
 30
0.0
  0
SPLINE
  5
3A2
100
AcDbEntity
  8
0
100
AcDbSpline
 62
9
  6
CONTINUOUS
 70
0
 71
3
 72
14
 73
10
 74
0
 42
0.0000001
 43
0.0000001
 44
0.0000000001
 40
0.0
 40
0.0
 40
0.0
 40
0.0
 40
0.1250623841
 40
0.2501331536
 40
0.375196324
 40
0.5002385821
 40
0.625249255
 40
0.7502181613
 40
1.0
 40
1.0
 40
1.0
 40
1.0
 10
11.4870658515
 20
6.4448094417
 30
0.0
 10
11.526356849
 20
6.4449189681
 30
0.0
 10
11.6049414393
 20
6.4451519642
 30
0.0
 10
11.7228172254
 20
6.4455106142
 30
0.0
 10
11.8406867672
 20
6.4458433595
 30
0.0
 10
11.9585375611
 20
6.4461258342
 30
0.0
 10
12.0763588809
 20
6.446344254
 30
0.0
 10
12.2333700268
 20
6.4465280531
 30
0.0
 10
12.3511064482
 20
6.446528542
 30
0.0
 10
12.4295809738
 20
6.4464535412
 30
0.0
  0
SPLINE
  5
3A3
100
AcDbEntity
  8
0
100
AcDbSpline
 62
9
  6
CONTINUOUS
 70
0
 71
3
 72
22
 73
18
 74
0
 42
0.0000001
 43
0.0000001
 44
0.0000000001
 40
0.0
 40
0.0
 40
0.0
 40
0.0
 40
0.0362669583
 40
0.0748162115
 40
0.1165800981
 40
0.1622192768
 40
0.212112639
 40
0.2664198222
 40
0.3251298097
 40
0.3880939226
 40
0.4550563736
 40
0.5256771895
 40
0.5995465777
 40
0.6762008501
 40
0.7551298735
 40
0.8357880743
 40
1.0
 40
1.0
 40
1.0
 40
1.0
 10
11.4870658515
 20
6.4448094417
 30
0.0
 10
11.4876076
 20
6.4447188573
 30
0.0
 10
11.4887071266
 20
6.4444073658
 30
0.0
 10
11.4902868208
 20
6.4435981203
 30
0.0
 10
11.4918199316
 20
6.4424499884
 30
0.0
 10
11.4932951688
 20
6.4409764371
 30
0.0
 10
11.494702893
 20
6.4391908467
 30
0.0
 10
11.4960326059
 20
6.4371084635
 30
0.0
 10
11.497273782
 20
6.434746773
 30
0.0
 10
11.4984161593
 20
6.4321257782
 30
0.0
 10
11.4994500774
 20
6.4292678945
 30
0.0
 10
11.5003665474
 20
6.4261977085
 30
0.0
 10
11.5011575865
 20
6.4229417744
 30
0.0
 10
11.5018162759
 20
6.41952844
 30
0.0
 10
11.5023368583
 20
6.4159873706
 30
0.0
 10
11.5028434581
 20
6.4111086188
 30
0.0
 10
11.5029990568
 20
6.4073979425
 30
0.0
 10
11.503005191
 20
6.4049109313
 30
0.0
  0
SPLINE
  5
3A4
100
AcDbEntity
  8
0
100
AcDbSpline
 62
9
  6
CONTINUOUS
 70
0
 71
3
 72
14
 73
10
 74
0
 42
0.0000001
 43
0.0000001
 44
0.0000000001
 40
0.0
 40
0.0
 40
0.0
 40
0.0
 40
0.1250000408
 40
0.2500000951
 40
0.3750001406
 40
0.5000001611
 40
0.6250001494
 40
0.7500001325
 40
1.0
 40
1.0
 40
1.0
 40
1.0
 10
11.5030051909
 20
6.4049109313
 30
0.0
 10
11.5422354828
 20
6.4050291457
 30
0.0
 10
11.6206960217
 20
6.4052817305
 30
0.0
 10
11.7383867795
 20
6.405675109
 30
0.0
 10
11.8560775996
 20
6.4060481935
 30
0.0
 10
11.9737685552
 20
6.406369244
 30
0.0
 10
12.0914596709
 20
6.406618961
 30
0.0
 10
12.2483813223
 20
6.4068265374
 30
0.0
 10
12.3660727452
 20
6.4068214436
 30
0.0
 10
12.4445335722
 20
6.4067366717
 30
0.0
  0
SPLINE
  5
3A5
100
AcDbEntity
  8
0
100
AcDbSpline
 62
9
  6
CONTINUOUS
 70
0
 71
3
 72
14
 73
10
 74
0
 42
0.0000001
 43
0.0000001
 44
0.0000000001
 40
0.0
 40
0.0
 40
0.0
 40
0.0
 40
0.1222686578
 40
0.1827710309
 40
0.2436940871
 40
0.3666812278
 40
0.4908588503
 40
0.7428363463
 40
1.0
 40
1.0
 40
1.0
 40
1.0
 10
11.4459758134
 20
6.083268606
 30
0.0
 10
11.4460905721
 20
6.0837078644
 30
0.0
 10
11.44627692
 20
6.0843606626
 30
0.0
 10
11.4465457128
 20
6.0852246935
 30
0.0
 10
11.4468253792
 20
6.0860880903
 30
0.0
 10
11.4471982636
 20
6.0871697353
 30
0.0
 10
11.4478476975
 20
6.0889058043
 30
0.0
 10
11.4487584954
 20
6.0910751222
 30
0.0
 10
11.4495867549
 20
6.0927759274
 30
0.0
 10
11.4500303413
 20
6.0936215277
 30
0.0
  0
SPLINE
  5
3A6
100
AcDbEntity
  8
0
100
AcDbSpline
 62
9
  6
CONTINUOUS
 70
0
 71
3
 72
11
 73
7
 74
0
 42
0.0000001
 43
0.0000001
 44
0.0000000001
 40
0.0
 40
0.0
 40
0.0
 40
0.0
 40
0.2486683534
 40
0.4982248523
 40
0.7486864205
 40
1.0
 40
1.0
 40
1.0
 40
1.0
 10
11.4459760911
 20
6.083272266
 30
0.0
 10
11.4461304011
 20
6.0853587287
 30
0.0
 10
11.4465766833
 20
6.0895294933
 30
0.0
 10
11.4475754765
 20
6.0957517181
 30
0.0
 10
11.4489318071
 20
6.1019292834
 30
0.0
 10
11.4500762499
 20
6.1059959753
 30
0.0
 10
11.4507121641
 20
6.1080124997
 30
0.0
  0
SPLINE
  5
3A7
100
AcDbEntity
  8
0
100
AcDbSpline
 62
9
  6
CONTINUOUS
 70
0
 71
3
 72
13
 73
9
 74
0
 42
0.0000001
 43
0.0000001
 44
0.0000000001
 40
0.0
 40
0.0
 40
0.0
 40
0.0
 40
0.2255061868
 40
0.4622185105
 40
0.5865409285
 40
0.7164044457
 40
0.853478679
 40
1.0
 40
1.0
 40
1.0
 40
1.0
 10
11.4500294107
 20
6.0936194603
 30
0.0
 10
11.4507577125
 20
6.0950100688
 30
0.0
 10
11.4523927255
 20
6.0977887073
 30
0.0
 10
11.4548651589
 20
6.1010537606
 30
0.0
 10
11.4572109476
 20
6.103542869
 30
0.0
 10
11.459237733
 20
6.1053675887
 30
0.0
 10
11.4615476129
 20
6.1070915633
 30
0.0
 10
11.4632457102
 20
6.1081074253
 30
0.0
 10
11.464148535
 20
6.1085819976
 30
0.0
  0
SPLINE
  5
3A8
100
AcDbEntity
  8
0
100
AcDbSpline
 62
9
  6
CONTINUOUS
 70
0
 71
3
 72
11
 73
7
 74
0
 42
0.0000001
 43
0.0000001
 44
0.0000000001
 40
0.0
 40
0.0
 40
0.0
 40
0.0
 40
0.2081786632
 40
0.4393820614
 40
0.700802451
 40
1.0
 40
1.0
 40
1.0
 40
1.0
 10
11.4650223038
 20
6.1090220373
 30
0.0
 10
11.4660227128
 20
6.1095042464
 30
0.0
 10
11.4681970643
 20
6.1103965168
 30
0.0
 10
11.4718140963
 20
6.1113808663
 30
0.0
 10
11.4760139132
 20
6.1119391578
 30
0.0
 10
11.4790165904
 20
6.1119154391
 30
0.0
 10
11.4806081532
 20
6.1117949933
 30
0.0
  0
SPLINE
  5
3A9
100
AcDbEntity
  8
0
100
AcDbSpline
 62
9
  6
CONTINUOUS
 70
0
 71
3
 72
21
 73
17
 74
0
 42
0.0000001
 43
0.0000001
 44
0.0000000001
 40
0.0
 40
0.0
 40
0.0
 40
0.0
 40
0.1196640581
 40
0.1796606551
 40
0.2397583615
 40
0.2999697655
 40
0.360330778
 40
0.4816470608
 40
0.5428633046
 40
0.6046052448
 40
0.667058758
 40
0.7304798414
 40
0.7951706278
 40
0.8614559189
 40
0.9296538079
 40
1.0
 40
1.0
 40
1.0
 40
1.0
 10
11.4507121641
 20
6.1080124997
 30
0.0
 10
11.4515553396
 20
6.1106885868
 30
0.0
 10
11.4529883025
 20
6.1146574068
 30
0.0
 10
11.4552570535
 20
6.1198026429
 30
0.0
 10
11.4571509668
 20
6.1235844265
 30
0.0
 10
11.4592479241
 20
6.1272679785
 30
0.0
 10
11.4623333892
 20
6.132029201
 30
0.0
 10
11.4658820666
 20
6.1365116296
 30
0.0
 10
11.4699275805
 20
6.1405734118
 30
0.0
 10
11.4732483659
 20
6.1433883302
 30
0.0
 10
11.4768632487
 20
6.1459077026
 30
0.0
 10
11.4807806586
 20
6.1480748189
 30
0.0
 10
11.4850017453
 20
6.14982243
 30
0.0
 10
11.4895153522
 20
6.1510699848
 30
0.0
 10
11.4942843824
 20
6.1517399149
 30
0.0
 10
11.4975443529
 20
6.1517622409
 30
0.0
 10
11.4991907897
 20
6.1516631563
 30
0.0
  0
SPLINE
  5
3AA
100
AcDbEntity
  8
0
100
AcDbSpline
 62
9
  6
CONTINUOUS
 70
0
 71
3
 72
21
 73
17
 74
0
 42
0.0000001
 43
0.0000001
 44
0.0000000001
 40
0.0
 40
0.0
 40
0.0
 40
0.0
 40
0.1602018732
 40
0.3164818331
 40
0.3918676242
 40
0.4647545063
 40
0.5347082536
 40
0.6013459178
 40
0.6643510583
 40
0.7234870799
 40
0.7786177709
 40
0.8297338285
 40
0.8769789066
 40
0.920687066
 40
0.9614314249
 40
1.0
 40
1.0
 40
1.0
 40
1.0
 10
11.4991907854
 20
6.1516631563
 30
0.0
 10
11.4991073762
 20
6.1491752466
 30
0.0
 10
11.4987306105
 20
6.1442649923
 30
0.0
 10
11.4977326386
 20
6.1382491279
 30
0.0
 10
11.4966227823
 20
6.1336470399
 30
0.0
 10
11.4956608268
 20
6.13039375
 30
0.0
 10
11.4945679502
 20
6.127325845
 30
0.0
 10
11.4933535626
 20
6.1244698172
 30
0.0
 10
11.4920281826
 20
6.1218502638
 30
0.0
 10
11.4906029971
 20
6.1194896603
 30
0.0
 10
11.4890898316
 20
6.117408146
 30
0.0
 10
11.4875008617
 20
6.1156234368
 30
0.0
 10
11.4858484128
 20
6.1141510776
 30
0.0
 10
11.4841443063
 20
6.1130046281
 30
0.0
 10
11.4824021916
 20
6.1121971194
 30
0.0
 10
11.4812005971
 20
6.1118861178
 30
0.0
 10
11.4806082848
 20
6.1117948644
 30
0.0
  0
SPLINE
  5
3AB
100
AcDbEntity
  8
0
100
AcDbSpline
 62
9
  6
CONTINUOUS
 70
0
 71
3
 72
25
 73
21
 74
0
 42
0.0000001
 43
0.0000001
 44
0.0000000001
 40
0.0
 40
0.0
 40
0.0
 40
0.0
 40
0.0806404655
 40
0.1208412713
 40
0.1608506176
 40
0.2400328949
 40
0.3176997056
 40
0.3933686167
 40
0.4665858591
 40
0.5369228825
 40
0.6039699288
 40
0.6673670456
 40
0.7268196314
 40
0.7821205852
 40
0.8331957482
 40
0.8801093727
 40
0.9231162415
 40
0.9433683283
 40
0.9629183839
 40
1.0
 40
1.0
 40
1.0
 40
1.0
 10
12.4445335722
 20
6.1162279324
 30
0.0
 10
12.4444926717
 20
6.1150240102
 30
0.0
 10
12.4443968313
 20
6.113220897
 30
0.0
 10
12.4442079579
 20
6.1108254582
 30
0.0
 10
12.4439819003
 20
6.1084550972
 30
0.0
 10
12.4436252575
 20
6.105535353
 30
0.0
 10
12.4430653259
 20
6.1021063674
 30
0.0
 10
12.4423737618
 20
6.0987923078
 30
0.0
 10
12.4415538858
 20
6.0956204652
 30
0.0
 10
12.440613209
 20
6.0926169236
 30
0.0
 10
12.439564618
 20
6.089805261
 30
0.0
 10
12.438419831
 20
6.0872078842
 30
0.0
 10
12.4371901092
 20
6.0848454418
 30
0.0
 10
12.4358863348
 20
6.082736106
 30
0.0
 10
12.4345164971
 20
6.0808968535
 30
0.0
 10
12.4330890222
 20
6.0793426072
 30
0.0
 10
12.4318317896
 20
6.0782717752
 30
0.0
 10
12.43080271
 20
6.077582841
 30
0.0
 10
12.4297978994
 20
6.0770249675
 30
0.0
 10
12.42900664
 20
6.0767090844
 30
0.0
 10
12.4284746106
 20
6.0765548682
 30
0.0
  0
SPLINE
  5
3AC
100
AcDbEntity
  8
0
100
AcDbSpline
 62
9
  6
CONTINUOUS
 70
0
 71
3
 72
14
 73
10
 74
0
 42
0.0000001
 43
0.0000001
 44
0.0000000001
 40
0.0
 40
0.0
 40
0.0
 40
0.0
 40
0.125001017
 40
0.2500021545
 40
0.3750031518
 40
0.5000037831
 40
0.625003893
 40
0.7500033695
 40
1.0
 40
1.0
 40
1.0
 40
1.0
 10
11.5030051909
 20
6.1514463446
 30
0.0
 10
11.542234318
 20
6.1499378494
 30
0.0
 10
11.6206919817
 20
6.1469045299
 30
0.0
 10
11.7383778703
 20
6.1423395908
 30
0.0
 10
11.8560644107
 20
6.1377945553
 30
0.0
 10
11.9737526155
 20
6.1333012026
 30
0.0
 10
12.0914430347
 20
6.1288787536
 30
0.0
 10
12.2483669459
 20
6.1231068889
 30
0.0
 10
12.3660654109
 20
6.1189379212
 30
0.0
 10
12.4445335722
 20
6.1162395776
 30
0.0
  0
SPLINE
  5
3AD
100
AcDbEntity
  8
0
100
AcDbSpline
 62
9
  6
CONTINUOUS
 70
0
 71
3
 72
21
 73
17
 74
0
 42
0.0000001
 43
0.0000001
 44
0.0000000001
 40
0.0
 40
0.0
 40
0.0
 40
0.0
 40
0.1630569602
 40
0.3218728561
 40
0.398323134
 40
0.4720976566
 40
0.5427297645
 40
0.6098038963
 40
0.6729708746
 40
0.7319614128
 40
0.7866076892
 40
0.8368721168
 40
0.8828781012
 40
0.9249565374
 40
0.9637082878
 40
1.0
 40
1.0
 40
1.0
 40
1.0
 10
11.5030051904
 20
6.1514463446
 30
0.0
 10
11.5029270238
 20
6.1489621808
 30
0.0
 10
11.5025789807
 20
6.1440625079
 30
0.0
 10
11.5016614425
 20
6.1380530943
 30
0.0
 10
11.5006414924
 20
6.1334527989
 30
0.0
 10
11.4997586358
 20
6.1302028022
 30
0.0
 10
11.4987561051
 20
6.1271375815
 30
0.0
 10
11.4976425485
 20
6.1242835484
 30
0.0
 10
11.496427639
 20
6.1216652054
 30
0.0
 10
11.495121656
 20
6.1193049038
 30
0.0
 10
11.4937354416
 20
6.1172226075
 30
0.0
 10
11.4922800724
 20
6.1154357707
 30
0.0
 10
11.4907665834
 20
6.1139595676
 30
0.0
 10
11.4892050984
 20
6.1128071736
 30
0.0
 10
11.4876071611
 20
6.1119916078
 30
0.0
 10
11.4864987364
 20
6.1116731961
 30
0.0
 10
11.4859535934
 20
6.1115792667
 30
0.0
  0
SPLINE
  5
3AE
100
AcDbEntity
  8
0
100
AcDbSpline
 62
9
  6
CONTINUOUS
 70
0
 71
3
 72
14
 73
10
 74
0
 42
0.0000001
 43
0.0000001
 44
0.0000000001
 40
0.0
 40
0.0
 40
0.0
 40
0.0
 40
0.1250627238
 40
0.2501340365
 40
0.3751977449
 40
0.5002403851
 40
0.625251191
 40
0.7502198917
 40
1.0
 40
1.0
 40
1.0
 40
1.0
 10
11.4859535934
 20
6.1115792667
 30
0.0
 10
11.5252435358
 20
6.1100794183
 30
0.0
 10
11.603825593
 20
6.1070658564
 30
0.0
 10
11.7216972839
 20
6.1025363397
 30
0.0
 10
11.8395636351
 20
6.0980323066
 30
0.0
 10
11.9574128431
 20
6.0935780451
 30
0.0
 10
12.075234547
 20
6.0891872487
 30
0.0
 10
12.2322492032
 20
6.0834404205
 30
0.0
 10
12.3499928039
 20
6.079264751
 30
0.0
 10
12.4284745801
 20
6.076554848
 30
0.0
  0
SPLINE
  5
3AF
100
AcDbEntity
  8
0
100
AcDbSpline
 62
9
  6
CONTINUOUS
 70
0
 71
3
 72
11
 73
7
 74
0
 42
0.0000001
 43
0.0000001
 44
0.0000000001
 40
0.0
 40
0.0
 40
0.0
 40
0.0
 40
0.2519759247
 40
0.5020321528
 40
0.7510637376
 40
1.0
 40
1.0
 40
1.0
 40
1.0
 10
12.4284749024
 20
6.0765551681
 30
0.0
 10
12.4172112634
 20
6.0737966639
 30
0.0
 10
12.3945746893
 20
6.0690631839
 30
0.0
 10
12.3603046123
 20
6.0643490274
 30
0.0
 10
12.3259278977
 20
6.0620560028
 30
0.0
 10
12.3029882252
 20
6.0621427309
 30
0.0
 10
12.2915402351
 20
6.0625871179
 30
0.0
  0
LINE
  5
3B0
100
AcDbEntity
  8
0
100
AcDbLine
 62
9
  6
CONTINUOUS
 10
9.7834674153
 20
6.4607707057
 11
9.7837523523
 21
6.460770333
  0
SPLINE
  5
3B1
100
AcDbEntity
  8
0
100
AcDbSpline
 62
9
  6
CONTINUOUS
 70
0
 71
3
 72
11
 73
7
 74
0
 42
0.0000001
 43
0.0000001
 44
0.0000000001
 40
0.0
 40
0.0
 40
0.0
 40
0.0
 40
0.2486558656
 40
0.4982236994
 40
0.7486786833
 40
1.0
 40
1.0
 40
1.0
 40
1.0
 10
10.6486605855
 20
6.0832712325
 30
0.0
 10
10.648506735
 20
6.0853600629
 30
0.0
 10
10.6480587922
 20
6.08953558
 30
0.0
 10
10.6470588528
 20
6.0957649475
 30
0.0
 10
10.6456997367
 20
6.1019495767
 30
0.0
 10
10.6445528407
 20
6.1060206754
 30
0.0
 10
10.6439159391
 20
6.1080395347
 30
0.0
  0
SPLINE
  5
3B2
100
AcDbEntity
  8
0
100
AcDbSpline
 62
9
  6
CONTINUOUS
 70
0
 71
3
 72
15
 73
11
 74
0
 42
0.0000001
 43
0.0000001
 44
0.0000000001
 40
0.0
 40
0.0
 40
0.0
 40
0.0
 40
0.1223317174
 40
0.1827828016
 40
0.2436925698
 40
0.3666904525
 40
0.4908587213
 40
0.6162262229
 40
0.7428487694
 40
1.0
 40
1.0
 40
1.0
 40
1.0
 10
10.6486607909
 20
6.0832685239
 30
0.0
 10
10.6485463947
 20
6.0837081221
 30
0.0
 10
10.6483599127
 20
6.0843609482
 30
0.0
 10
10.6480907932
 20
6.0852248746
 30
0.0
 10
10.6478111285
 20
6.0860880689
 30
0.0
 10
10.6474383204
 20
6.0871696969
 30
0.0
 10
10.646953535
 20
6.0884654099
 30
0.0
 10
10.6464298445
 20
6.0897604559
 30
0.0
 10
10.6456741753
 20
6.0914935473
 30
0.0
 10
10.6450497887
 20
6.0927756699
 30
0.0
 10
10.6446062394
 20
6.0936212453
 30
0.0
  0
SPLINE
  5
3B3
100
AcDbEntity
  8
0
100
AcDbSpline
 62
9
  6
CONTINUOUS
 70
0
 71
3
 72
21
 73
17
 74
0
 42
0.0000001
 43
0.0000001
 44
0.0000000001
 40
0.0
 40
0.0
 40
0.0
 40
0.0
 40
0.1196738879
 40
0.1796719389
 40
0.2397657006
 40
0.2999739451
 40
0.3603378352
 40
0.4208993216
 40
0.4817380641
 40
0.6045847346
 40
0.6670459122
 40
0.7304717521
 40
0.7951635517
 40
0.8614515866
 40
0.9296523708
 40
1.0
 40
1.0
 40
1.0
 40
1.0
 10
10.6439159391
 20
6.1080395347
 30
0.0
 10
10.6430725823
 20
6.1107145003
 30
0.0
 10
10.6416393945
 20
6.1146815578
 30
0.0
 10
10.6393698745
 20
6.1198238976
 30
0.0
 10
10.6374753097
 20
6.1236031883
 30
0.0
 10
10.6353780116
 20
6.1272839558
 30
0.0
 10
10.6330671966
 20
6.1308480036
 30
0.0
 10
10.6305266621
 20
6.134271853
 30
0.0
 10
10.6268055177
 20
6.1386254282
 30
0.0
 10
10.6225542058
 20
6.1425738773
 30
0.0
 10
10.6177653438
 20
6.1459122189
 30
0.0
 10
10.6138492292
 20
6.148078927
 30
0.0
 10
10.6096289558
 20
6.1498236479
 30
0.0
 10
10.6051172271
 20
6.1510701609
 30
0.0
 10
10.6003502682
 20
6.1517417727
 30
0.0
 10
10.5970916549
 20
6.1517616272
 30
0.0
 10
10.5954458794
 20
6.1516631847
 30
0.0
  0
SPLINE
  5
3B4
100
AcDbEntity
  8
0
100
AcDbSpline
 62
9
  6
CONTINUOUS
 70
0
 71
3
 72
14
 73
10
 74
0
 42
0.0000001
 43
0.0000001
 44
0.0000000001
 40
0.0
 40
0.0
 40
0.0
 40
0.0
 40
0.225406645
 40
0.3420907235
 40
0.4621769854
 40
0.5865313739
 40
0.7163770526
 40
0.8534116628
 40
1.0
 40
1.0
 40
1.0
 40
1.0
 10
10.6446072282
 20
6.0936196132
 30
0.0
 10
10.6438778945
 20
6.0950119801
 30
0.0
 10
10.6426651161
 20
6.0970730573
 30
0.0
 10
10.640796526
 20
6.099700905
 30
0.0
 10
10.6392048349
 20
6.1016549831
 30
0.0
 10
10.6374122364
 20
6.1035554742
 30
0.0
 10
10.6353812223
 20
6.105382262
 30
0.0
 10
10.6330657747
 20
6.1071073819
 30
0.0
 10
10.6313631386
 20
6.1081227593
 30
0.0
 10
10.6304577356
 20
6.1085972425
 30
0.0
  0
SPLINE
  5
3B5
100
AcDbEntity
  8
0
100
AcDbSpline
 62
9
  6
CONTINUOUS
 70
0
 71
3
 72
11
 73
7
 74
0
 42
0.0000001
 43
0.0000001
 44
0.0000000001
 40
0.0
 40
0.0
 40
0.0
 40
0.0
 40
0.2084031904
 40
0.4397812714
 40
0.7011335327
 40
1.0
 40
1.0
 40
1.0
 40
1.0
 10
10.6295086974
 20
6.1090720286
 30
0.0
 10
10.6285125736
 20
6.1095472043
 30
0.0
 10
10.6263491291
 20
6.110426337
 30
0.0
 10
10.6227538434
 20
6.1113926507
 30
0.0
 10
10.6185852334
 20
6.111940222
 30
0.0
 10
10.6156067147
 20
6.1119147581
 30
0.0
 10
10.6140285206
 20
6.1117950486
 30
0.0
  0
SPLINE
  5
3B6
100
AcDbEntity
  8
0
100
AcDbSpline
 62
9
  6
CONTINUOUS
 70
0
 71
3
 72
21
 73
17
 74
0
 42
0.0000001
 43
0.0000001
 44
0.0000000001
 40
0.0
 40
0.0
 40
0.0
 40
0.0
 40
0.0385685582
 40
0.0793129009
 40
0.1230210465
 40
0.170266114
 40
0.2213821648
 40
0.276512853
 40
0.3356488755
 40
0.3986540201
 40
0.4652916912
 40
0.5352454473
 40
0.6081323394
 40
0.6835181409
 40
0.8397981188
 40
1.0
 40
1.0
 40
1.0
 40
1.0
 10
10.6140283837
 20
6.1117948632
 30
0.0
 10
10.6134360713
 20
6.1118861163
 30
0.0
 10
10.6122344763
 20
6.1121971175
 30
0.0
 10
10.6104923609
 20
6.113004626
 30
0.0
 10
10.6087882538
 20
6.1141510758
 30
0.0
 10
10.6071358042
 20
6.1156234357
 30
0.0
 10
10.6055468338
 20
6.1174081461
 30
0.0
 10
10.6040336678
 20
6.1194896621
 30
0.0
 10
10.6026084819
 20
6.1218502675
 30
0.0
 10
10.6012831017
 20
6.124469823
 30
0.0
 10
10.6000687139
 20
6.1273258534
 30
0.0
 10
10.5989758374
 20
6.1303937611
 30
0.0
 10
10.5980138821
 20
6.1336470539
 30
0.0
 10
10.5969040264
 20
6.1382491459
 30
0.0
 10
10.5959060556
 20
6.1442650151
 30
0.0
 10
10.5955292915
 20
6.1491752732
 30
0.0
 10
10.5954458833
 20
6.1516631847
 30
0.0
  0
SPLINE
  5
3B7
100
AcDbEntity
  8
0
100
AcDbSpline
 62
9
  6
CONTINUOUS
 70
0
 71
3
 72
22
 73
18
 74
0
 42
0.0000001
 43
0.0000001
 44
0.0000000001
 40
0.0
 40
0.0
 40
0.0
 40
0.0
 40
0.0370822686
 40
0.0566350507
 40
0.0768899081
 40
0.1199000038
 40
0.1668168071
 40
0.217896219
 40
0.2732014581
 40
0.332658766
 40
0.3960608478
 40
0.4631130489
 40
0.5334559289
 40
0.6823120023
 40
0.7599845155
 40
0.8391730696
 40
1.0
 40
1.0
 40
1.0
 40
1.0
 10
9.666162066
 20
6.0765548682
 30
0.0
 10
9.6656300714
 20
6.0767091046
 30
0.0
 10
9.6648388364
 20
6.077025016
 30
0.0
 10
9.6638339896
 20
6.0775828506
 30
0.0
 10
9.6628048381
 20
6.078271763
 30
0.0
 10
9.6615476014
 20
6.0793426366
 30
0.0
 10
9.6601201551
 20
6.0808969269
 30
0.0
 10
9.6587502788
 20
6.082736175
 30
0.0
 10
9.6574465096
 20
6.08484555
 30
0.0
 10
9.6562167831
 20
6.0872080241
 30
0.0
 10
9.6550719837
 20
6.0898054139
 30
0.0
 10
9.6540233871
 20
6.0926171676
 30
0.0
 10
9.6527450848
 20
6.0966990975
 30
0.0
 10
9.6517473518
 20
6.1010279924
 30
0.0
 10
9.6510118452
 20
6.1055357189
 30
0.0
 10
9.6504339905
 20
6.1102467974
 30
0.0
 10
9.6501923615
 20
6.1138273026
 30
0.0
 10
9.6501031044
 20
6.1162279324
 30
0.0
  0
SPLINE
  5
3B8
100
AcDbEntity
  8
0
100
AcDbSpline
 62
9
  6
CONTINUOUS
 70
0
 71
3
 72
14
 73
10
 74
0
 42
0.0000001
 43
0.0000001
 44
0.0000000001
 40
0.0
 40
0.0
 40
0.0
 40
0.0
 40
0.1250627237
 40
0.2501340365
 40
0.375197745
 40
0.5002403854
 40
0.6252511914
 40
0.750219892
 40
1.0
 40
1.0
 40
1.0
 40
1.0
 10
10.6086830832
 20
6.1115792647
 30
0.0
 10
10.5693931411
 20
6.1100794108
 30
0.0
 10
10.4908110839
 20
6.1070658478
 30
0.0
 10
10.3729393926
 20
6.1025363436
 30
0.0
 10
10.255073041
 20
6.0980323186
 30
0.0
 10
10.1372238331
 20
6.0935780546
 30
0.0
 10
10.0194021295
 20
6.0891872525
 30
0.0
 10
9.8623874737
 20
6.083440419
 30
0.0
 10
9.7446438732
 20
6.0792647491
 30
0.0
 10
9.6661620972
 20
6.0765548469
 30
0.0
  0
SPLINE
  5
3B9
100
AcDbEntity
  8
0
100
AcDbSpline
 62
9
  6
CONTINUOUS
 70
0
 71
3
 72
21
 73
17
 74
0
 42
0.0000001
 43
0.0000001
 44
0.0000000001
 40
0.0
 40
0.0
 40
0.0
 40
0.0
 40
0.036291712
 40
0.0750434624
 40
0.1171218985
 40
0.163127883
 40
0.2133923107
 40
0.2680385874
 40
0.3270291258
 40
0.3901961044
 40
0.4572702366
 40
0.5279023447
 40
0.6016768675
 40
0.6781271454
 40
0.836943041
 40
1.0
 40
1.0
 40
1.0
 40
1.0
 10
10.6086830832
 20
6.1115792647
 30
0.0
 10
10.6081379402
 20
6.1116731941
 30
0.0
 10
10.6070295154
 20
6.1119916058
 30
0.0
 10
10.6054315781
 20
6.1128071717
 30
0.0
 10
10.603870093
 20
6.1139595658
 30
0.0
 10
10.602356604
 20
6.1154357689
 30
0.0
 10
10.6009012347
 20
6.1172226059
 30
0.0
 10
10.5995150203
 20
6.1193049023
 30
0.0
 10
10.5982090373
 20
6.1216652041
 30
0.0
 10
10.5969941278
 20
6.1242835471
 30
0.0
 10
10.5958805711
 20
6.1271375804
 30
0.0
 10
10.5948780404
 20
6.1302028013
 30
0.0
 10
10.5939951838
 20
6.1334527982
 30
0.0
 10
10.5929752337
 20
6.1380530937
 30
0.0
 10
10.5920576956
 20
6.1440625076
 30
0.0
 10
10.5917096526
 20
6.1489621807
 30
0.0
 10
10.5916314861
 20
6.1514463446
 30
0.0
  0
SPLINE
  5
3BA
100
AcDbEntity
  8
0
100
AcDbSpline
 62
9
  6
CONTINUOUS
 70
0
 71
3
 72
14
 73
10
 74
0
 42
0.0000001
 43
0.0000001
 44
0.0000000001
 40
0.0
 40
0.0
 40
0.0
 40
0.0
 40
0.1250010177
 40
0.250002155
 40
0.3750031521
 40
0.5000037836
 40
0.6250038937
 40
0.7500033702
 40
1.0
 40
1.0
 40
1.0
 40
1.0
 10
10.5916314857
 20
6.1514463446
 30
0.0
 10
10.552402359
 20
6.14993784
 30
0.0
 10
10.4739446957
 20
6.1469045166
 30
0.0
 10
10.3562588071
 20
6.1423395917
 30
0.0
 10
10.2385722673
 20
6.1377945601
 30
0.0
 10
10.120884064
 20
6.1333011871
 30
0.0
 10
10.0031936455
 20
6.1288787316
 30
0.0
 10
9.8462697328
 20
6.123106937
 30
0.0
 10
9.728571265
 20
6.1189380743
 30
0.0
 10
9.6501031044
 20
6.116239731
 30
0.0
  0
SPLINE
  5
3BB
100
AcDbEntity
  8
0
100
AcDbSpline
 62
9
  6
CONTINUOUS
 70
0
 71
3
 72
12
 73
8
 74
0
 42
0.0000001
 43
0.0000001
 44
0.0000000001
 40
0.0
 40
0.0
 40
0.0
 40
0.0
 40
0.2446313304
 40
0.3677703696
 40
0.4921528252
 40
0.7440268239
 40
1.0
 40
1.0
 40
1.0
 40
1.0
 10
10.6486608389
 20
6.4749924082
 30
0.0
 10
10.6484284304
 20
6.4740829276
 30
0.0
 10
10.6480396466
 20
6.4727254264
 30
0.0
 10
10.6474543743
 20
6.4709298111
 30
0.0
 10
10.6468188178
 20
6.4691218053
 30
0.0
 10
10.6459303303
 20
6.4668632127
 30
0.0
 10
10.6451211087
 20
6.4650891761
 30
0.0
 10
10.6446884527
 20
6.4642073718
 30
0.0
  0
SPLINE
  5
3BC
100
AcDbEntity
  8
0
100
AcDbSpline
 62
9
  6
CONTINUOUS
 70
0
 71
3
 72
12
 73
8
 74
0
 42
0.0000001
 43
0.0000001
 44
0.0000000001
 40
0.0
 40
0.0
 40
0.0
 40
0.0
 40
0.2489275225
 40
0.3734642331
 40
0.4983995137
 40
0.7489474426
 40
1.0
 40
1.0
 40
1.0
 40
1.0
 10
10.6486605855
 20
6.4749890164
 30
0.0
 10
10.6485043328
 20
6.472879632
 30
0.0
 10
10.6481816831
 20
6.469720636
 30
0.0
 10
10.6475834376
 20
6.4655278212
 30
0.0
 10
10.6468731482
 20
6.4613384252
 30
0.0
 10
10.6457703966
 20
6.4561273108
 30
0.0
 10
10.6446516834
 20
6.4520116803
 30
0.0
 10
10.6440312311
 20
6.4499706834
 30
0.0
  0
SPLINE
  5
3BD
100
AcDbEntity
  8
0
100
AcDbSpline
 62
9
  6
CONTINUOUS
 70
0
 71
3
 72
21
 73
17
 74
0
 42
0.0000001
 43
0.0000001
 44
0.0000000001
 40
0.0
 40
0.0
 40
0.0
 40
0.0
 40
0.1205711061
 40
0.1809703874
 40
0.2414303821
 40
0.3019667137
 40
0.3626140051
 40
0.4234072473
 40
0.4844148601
 40
0.6073648939
 40
0.6697159997
 40
0.7328997858
 40
0.7972000406
 40
0.862939946
 40
0.9304483327
 40
1.0
 40
1.0
 40
1.0
 40
1.0
 10
10.6440312311
 20
6.4499706834
 30
0.0
 10
10.6432149049
 20
6.4472840931
 30
0.0
 10
10.641828628
 20
6.4432972215
 30
0.0
 10
10.6396340278
 20
6.4381191843
 30
0.0
 10
10.6378033349
 20
6.43431013
 30
0.0
 10
10.6357776344
 20
6.4305943132
 30
0.0
 10
10.6335463739
 20
6.4269887168
 30
0.0
 10
10.6310940129
 20
6.4235150645
 30
0.0
 10
10.6275046643
 20
6.419084099
 30
0.0
 10
10.6234036049
 20
6.4150301575
 30
0.0
 10
10.6187738505
 20
6.4115461133
 30
0.0
 10
10.6149869034
 20
6.4092488907
 30
0.0
 10
10.6108980033
 20
6.407346959
 30
0.0
 10
10.6065137199
 20
6.4059141228
 30
0.0
 10
10.6018617342
 20
6.4050278178
 30
0.0
 10
10.5986633497
 20
6.4048514822
 30
0.0
 10
10.5970437225
 20
6.404869492
 30
0.0
  0
SPLINE
  5
3BE
100
AcDbEntity
  8
0
100
AcDbSpline
 62
9
  6
CONTINUOUS
 70
0
 71
3
 72
21
 73
17
 74
0
 42
0.0000001
 43
0.0000001
 44
0.0000000001
 40
0.0
 40
0.0
 40
0.0
 40
0.0
 40
0.1600614199
 40
0.3159104352
 40
0.3910083283
 40
0.4635801243
 40
0.5332110837
 40
0.5995404478
 40
0.6622771144
 40
0.72121351
 40
0.7762465701
 40
0.8274043322
 40
0.8748710758
 40
0.9190216285
 40
0.9604634148
 40
1.0
 40
1.0
 40
1.0
 40
1.0
 10
10.5970437304
 20
6.404869492
 30
0.0
 10
10.597058951
 20
6.4073587109
 30
0.0
 10
10.5973081998
 20
6.4122729563
 30
0.0
 10
10.5981703947
 20
6.418302354
 30
0.0
 10
10.5991892442
 20
6.4229133028
 30
0.0
 10
10.6000930743
 20
6.4261714543
 30
0.0
 10
10.6011379122
 20
6.429243637
 30
0.0
 10
10.6023147766
 20
6.4321032918
 30
0.0
 10
10.6036134938
 20
6.4347257536
 30
0.0
 10
10.60502315
 20
6.4370884768
 30
0.0
 10
10.606532112
 20
6.4391712302
 30
0.0
 10
10.6081282996
 20
6.4409561571
 30
0.0
 10
10.6097993496
 20
6.4424274868
 30
0.0
 10
10.6115331422
 20
6.4435713539
 30
0.0
 10
10.6133153793
 20
6.4443744725
 30
0.0
 10
10.6145460433
 20
6.4446802721
 30
0.0
 10
10.6151544045
 20
6.4447695053
 30
0.0
  0
SPLINE
  5
3BF
100
AcDbEntity
  8
0
100
AcDbSpline
 62
9
  6
CONTINUOUS
 70
0
 71
3
 72
25
 73
21
 74
0
 42
0.0000001
 43
0.0000001
 44
0.0000000001
 40
0.0
 40
0.0
 40
0.0
 40
0.0
 40
0.0812725252
 40
0.1217536841
 40
0.1620181359
 40
0.2416339286
 40
0.3196318027
 40
0.3955267755
 40
0.4688638142
 40
0.5392159781
 40
0.6061777417
 40
0.6693973601
 40
0.7285933323
 40
0.7835771128
 40
0.8342964168
 40
0.8808438436
 40
0.9235123388
 40
0.9436211282
 40
0.9630532672
 40
1.0
 40
1.0
 40
1.0
 40
1.0
 10
9.6501031044
 20
6.4067482676
 30
0.0
 10
9.6501075582
 20
6.4079545423
 30
0.0
 10
9.6501503663
 20
6.4097617123
 30
0.0
 10
9.6502702571
 20
6.4121635346
 30
0.0
 10
9.6504283239
 20
6.414538531
 30
0.0
 10
9.6507018227
 20
6.4174635369
 30
0.0
 10
9.6511652398
 20
6.4208993037
 30
0.0
 10
9.6517635977
 20
6.4242196535
 30
0.0
 10
9.652494116
 20
6.4273972629
 30
0.0
 10
9.6533501411
 20
6.4304058765
 30
0.0
 10
9.65431966
 20
6.4332216356
 30
0.0
 10
9.6553918425
 20
6.4358219242
 30
0.0
 10
9.6565562797
 20
6.4381859459
 30
0.0
 10
9.6578028867
 20
6.4402953449
 30
0.0
 10
9.6591239741
 20
6.4421332212
 30
0.0
 10
9.6605113335
 20
6.4436847113
 30
0.0
 10
9.6617418316
 20
6.4447516499
 30
0.0
 10
9.6627534795
 20
6.445436461
 30
0.0
 10
9.6637452034
 20
6.4459907186
 30
0.0
 10
9.6645284792
 20
6.4463025699
 30
0.0
 10
9.6650556736
 20
6.4464535217
 30
0.0
  0
SPLINE
  5
3C0
100
AcDbEntity
  8
0
100
AcDbSpline
 62
9
  6
CONTINUOUS
 70
0
 71
3
 72
14
 73
10
 74
0
 42
0.0000001
 43
0.0000001
 44
0.0000000001
 40
0.0
 40
0.0
 40
0.0
 40
0.0
 40
0.1250000403
 40
0.2500000948
 40
0.3750001407
 40
0.5000001612
 40
0.6250001495
 40
0.7500001324
 40
1.0
 40
1.0
 40
1.0
 40
1.0
 10
10.5916314857
 20
6.4049109313
 30
0.0
 10
10.5524011939
 20
6.4050291357
 30
0.0
 10
10.4739406551
 20
6.4052817164
 30
0.0
 10
10.3562498973
 20
6.4056751097
 30
0.0
 10
10.238559077
 20
6.4060481986
 30
0.0
 10
10.1208681212
 20
6.4063692285
 30
0.0
 10
10.0031770055
 20
6.4066189387
 30
0.0
 10
9.8462553544
 20
6.4068265859
 30
0.0
 10
9.7285639314
 20
6.4068215988
 30
0.0
 10
9.6501031044
 20
6.4067368272
 30
0.0
  0
SPLINE
  5
3C1
100
AcDbEntity
  8
0
100
AcDbSpline
 62
9
  6
CONTINUOUS
 70
0
 71
3
 72
22
 73
18
 74
0
 42
0.0000001
 43
0.0000001
 44
0.0000000001
 40
0.0
 40
0.0
 40
0.0
 40
0.0
 40
0.1642119261
 40
0.244870127
 40
0.3237991504
 40
0.4004534227
 40
0.4743228109
 40
0.5449436266
 40
0.6119060776
 40
0.6748701904
 40
0.7335801778
 40
0.7878873608
 40
0.8377807231
 40
0.8834199017
 40
0.9251837883
 40
0.9637330417
 40
1.0
 40
1.0
 40
1.0
 40
1.0
 10
10.5916314857
 20
6.4049109313
 30
0.0
 10
10.5916376198
 20
6.4073979425
 30
0.0
 10
10.5917932186
 20
6.4111086187
 30
0.0
 10
10.5922998184
 20
6.4159873705
 30
0.0
 10
10.5928204008
 20
6.4195284397
 30
0.0
 10
10.5934790902
 20
6.4229417741
 30
0.0
 10
10.5942701293
 20
6.4261977081
 30
0.0
 10
10.5951865993
 20
6.429267894
 30
0.0
 10
10.5962205174
 20
6.4321257777
 30
0.0
 10
10.5973628948
 20
6.4347467724
 30
0.0
 10
10.5986040708
 20
6.4371084628
 30
0.0
 10
10.5999337837
 20
6.439190846
 30
0.0
 10
10.6013415078
 20
6.4409764363
 30
0.0
 10
10.602816745
 20
6.4424499876
 30
0.0
 10
10.6043498559
 20
6.4435981195
 30
0.0
 10
10.60592955
 20
6.444407365
 30
0.0
 10
10.6070290766
 20
6.4447188564
 30
0.0
 10
10.6075708251
 20
6.4448094408
 30
0.0
  0
SPLINE
  5
3C2
100
AcDbEntity
  8
0
100
AcDbSpline
 62
9
  6
CONTINUOUS
 70
0
 71
3
 72
14
 73
10
 74
0
 42
0.0000001
 43
0.0000001
 44
0.0000000001
 40
0.0
 40
0.0
 40
0.0
 40
0.0
 40
0.1250623842
 40
0.2501331536
 40
0.3751963237
 40
0.5002385818
 40
0.6252492546
 40
0.750218161
 40
1.0
 40
1.0
 40
1.0
 40
1.0
 10
10.6075708251
 20
6.4448094408
 30
0.0
 10
10.5682798275
 20
6.4449189614
 30
0.0
 10
10.4896952372
 20
6.445151956
 30
0.0
 10
10.371819451
 20
6.4455106182
 30
0.0
 10
10.2539499094
 20
6.4458433714
 30
0.0
 10
10.1360991155
 20
6.4461258435
 30
0.0
 10
10.0182777957
 20
6.4463442577
 30
0.0
 10
9.8612666495
 20
6.4465280516
 30
0.0
 10
9.7435302279
 20
6.4465285401
 30
0.0
 10
9.6650557022
 20
6.4464535401
 30
0.0
  0
LINE
  5
3C3
100
AcDbEntity
  8
0
100
AcDbLine
 62
9
  6
CONTINUOUS
 10
11.2788463561
 20
6.4067482676
 11
11.2836781867
 21
6.4464553587
  0
LINE
  5
3C4
100
AcDbEntity
  8
0
100
AcDbLine
 62
9
  6
CONTINUOUS
 10
10.8157903204
 20
6.4067482676
 11
10.8109584909
 21
6.4464553588
  0
LINE
  5
3C5
100
AcDbEntity
  8
0
100
AcDbLine
 62
9
  6
CONTINUOUS
 10
11.2788463562
 20
6.1162279324
 11
11.2836778526
 21
6.0765208492
  0
LINE
  5
3C6
100
AcDbEntity
  8
0
100
AcDbLine
 62
9
  6
CONTINUOUS
 10
10.8157903204
 20
6.1162279324
 11
10.8109554538
 21
6.0765212588
  0
SPLINE
  5
3C7
100
AcDbEntity
  8
0
100
AcDbSpline
 62
9
  6
CONTINUOUS
 70
0
 71
3
 72
12
 73
8
 74
0
 42
0.0000001
 43
0.0000001
 44
0.0000000001
 40
0.0
 40
0.0
 40
0.0
 40
0.0
 40
0.2623856536
 40
0.518361347
 40
0.7657743127
 40
0.8849756705
 40
1.0
 40
1.0
 40
1.0
 40
1.0
 10
11.2750008607
 20
6.4749928548
 30
0.0
 10
11.2700791415
 20
6.4731035479
 30
0.0
 10
11.2603731346
 20
6.4693262208
 30
0.0
 10
11.2460730307
 20
6.4636482186
 30
0.0
 10
11.2344700456
 20
6.4589737723
 30
0.0
 10
11.2254961545
 20
6.4553521185
 30
0.0
 10
11.2211293229
 20
6.4535976401
 30
0.0
 10
11.2189828379
 20
6.45274107
 30
0.0
  0
SPLINE
  5
3C8
100
AcDbEntity
  8
0
100
AcDbSpline
 62
9
  6
CONTINUOUS
 70
0
 71
3
 72
12
 73
8
 74
0
 42
0.0000001
 43
0.0000001
 44
0.0000000001
 40
0.0
 40
0.0
 40
0.0
 40
0.0
 40
0.2623877231
 40
0.5183633311
 40
0.7657763649
 40
0.8849775943
 40
1.0
 40
1.0
 40
1.0
 40
1.0
 10
10.8196353986
 20
6.4749927821
 30
0.0
 10
10.8245576079
 20
6.4731029486
 30
0.0
 10
10.834264988
 20
6.4693257517
 30
0.0
 10
10.8485667397
 20
6.4636469999
 30
0.0
 10
10.8601712367
 20
6.458972476
 30
0.0
 10
10.8691461183
 20
6.4553504163
 30
0.0
 10
10.8735133996
 20
6.4535957198
 30
0.0
 10
10.8756600851
 20
6.4527390409
 30
0.0
  0
SPLINE
  5
3C9
100
AcDbEntity
  8
0
100
AcDbSpline
 62
9
  6
CONTINUOUS
 70
0
 71
3
 72
11
 73
7
 74
0
 42
0.0000001
 43
0.0000001
 44
0.0000000001
 40
0.0
 40
0.0
 40
0.0
 40
0.0
 40
0.2821274457
 40
0.538949457
 40
0.7759092264
 40
1.0
 40
1.0
 40
1.0
 40
1.0
 10
11.4459760911
 20
6.4749924262
 30
0.0
 10
11.4461887979
 20
6.4752721446
 30
0.0
 10
11.4465670387
 20
6.4758291402
 30
0.0
 10
11.4469969759
 20
6.4766987069
 30
0.0
 10
11.4472580218
 20
6.4775585724
 30
0.0
 10
11.4473182368
 20
6.4781341654
 30
0.0
 10
11.4473183383
 20
6.4784132838
 30
0.0
  0
SPLINE
  5
3CA
100
AcDbEntity
  8
0
100
AcDbSpline
 62
9
  6
CONTINUOUS
 70
0
 71
3
 72
11
 73
7
 74
0
 42
0.0000001
 43
0.0000001
 44
0.0000000001
 40
0.0
 40
0.0
 40
0.0
 40
0.0
 40
0.228260767
 40
0.4677080315
 40
0.7235488898
 40
1.0
 40
1.0
 40
1.0
 40
1.0
 10
11.4473183383
 20
6.0792251506
 30
0.0
 10
11.4473182412
 20
6.0795534759
 30
0.0
 10
11.4472585653
 20
6.0802273584
 30
0.0
 10
11.4469993432
 20
6.0812392948
 30
0.0
 10
11.4465711966
 20
6.0822670055
 30
0.0
 10
11.4461905038
 20
6.0829335093
 30
0.0
 10
11.4459760911
 20
6.083268391
 30
0.0
  0
SPLINE
  5
3CB
100
AcDbEntity
  8
0
100
AcDbSpline
 62
9
  6
CONTINUOUS
 70
0
 71
3
 72
11
 73
7
 74
0
 42
0.0000001
 43
0.0000001
 44
0.0000000001
 40
0.0
 40
0.0
 40
0.0
 40
0.0
 40
0.2240872198
 40
0.4610464548
 40
0.7178682807
 40
1.0
 40
1.0
 40
1.0
 40
1.0
 10
10.6473183383
 20
6.4784132838
 30
0.0
 10
10.6473183938
 20
6.4781341801
 30
0.0
 10
10.6473786462
 20
6.4775586079
 30
0.0
 10
10.6476397178
 20
6.4766987972
 30
0.0
 10
10.6480696327
 20
6.4758292534
 30
0.0
 10
10.6484478763
 20
6.4752722822
 30
0.0
 10
10.6486605855
 20
6.474992575
 30
0.0
  0
SPLINE
  5
3CC
100
AcDbEntity
  8
0
100
AcDbSpline
 62
9
  6
CONTINUOUS
 70
0
 71
3
 72
11
 73
7
 74
0
 42
0.0000001
 43
0.0000001
 44
0.0000000001
 40
0.0
 40
0.0
 40
0.0
 40
0.0
 40
0.2764556061
 40
0.5322991349
 40
0.7717453806
 40
1.0
 40
1.0
 40
1.0
 40
1.0
 10
10.6486605855
 20
6.0832683632
 30
0.0
 10
10.6484461646
 20
6.0829334822
 30
0.0
 10
10.6480654748
 20
6.0822669693
 30
0.0
 10
10.647637344
 20
6.0812392516
 30
0.0
 10
10.6473781096
 20
6.0802273337
 30
0.0
 10
10.6473184271
 20
6.0795534649
 30
0.0
 10
10.6473183383
 20
6.0792251506
 30
0.0
  0
SPLINE
  5
3CD
100
AcDbEntity
  8
0
100
AcDbSpline
 62
9
  6
CONTINUOUS
 70
0
 71
3
 72
14
 73
10
 74
0
 42
0.0000001
 43
0.0000001
 44
0.0000000001
 40
0.0
 40
0.0
 40
0.0
 40
0.0
 40
0.095699405
 40
0.1994602732
 40
0.31148473
 40
0.4319284429
 40
0.5609143085
 40
0.6985420053
 40
1.0
 40
1.0
 40
1.0
 40
1.0
 10
10.614028436
 20
6.1117950534
 30
0.0
 10
10.6145070808
 20
6.1115650456
 30
0.0
 10
10.6155202735
 20
6.1111177223
 30
0.0
 10
10.6171366324
 20
6.1105036657
 30
0.0
 10
10.6189095901
 20
6.1099207519
 30
0.0
 10
10.6208386663
 20
6.1093699369
 30
0.0
 10
10.622923515
 20
6.1088521067
 30
0.0
 10
10.6260050979
 20
6.1081866108
 30
0.0
 10
10.6284075993
 20
6.1077728581
 30
0.0
 10
10.6300616595
 20
6.10752313
 30
0.0
  0
SPLINE
  5
3CE
100
AcDbEntity
  8
0
100
AcDbSpline
 62
9
  6
CONTINUOUS
 70
0
 71
3
 72
22
 73
18
 74
0
 42
0.0000001
 43
0.0000001
 44
0.0000000001
 40
0.0
 40
0.0
 40
0.0
 40
0.0
 40
0.0561411354
 40
0.1147730261
 40
0.1755745707
 40
0.2382117439
 40
0.3023373558
 40
0.3675920304
 40
0.4336058883
 40
0.5000013769
 40
0.5663968626
 40
0.6324107143
 40
0.6976653835
 40
0.7617909993
 40
0.8244281758
 40
0.8852297298
 40
1.0
 40
1.0
 40
1.0
 40
1.0
 10
10.819634619
 20
6.474992751
 30
0.0
 10
10.8281089843
 20
6.4761020405
 30
0.0
 10
10.845448782
 20
6.478256317
 30
0.0
 10
10.8720175671
 20
6.481183207
 30
0.0
 10
10.8996114053
 20
6.4838108268
 30
0.0
 10
10.9280774258
 20
6.4860654729
 30
0.0
 10
10.9572537493
 20
6.4878885081
 30
0.0
 10
10.9869708928
 20
6.4892305614
 30
0.0
 10
11.0170528366
 20
6.490048036
 30
0.0
 10
11.047318333
 20
6.4903270206
 30
0.0
 10
11.0775838349
 20
6.4900481796
 30
0.0
 10
11.1076657599
 20
6.4892302836
 30
0.0
 10
11.137382935
 20
6.4878887955
 30
0.0
 10
11.1665592042
 20
6.4860652327
 30
0.0
 10
11.1950253359
 20
6.4838109492
 30
0.0
 10
11.2311268841
 20
6.4803731585
 30
0.0
 10
11.2576777667
 20
6.4772605302
 30
0.0
 10
11.2750020576
 20
6.4749928139
 30
0.0
  0
SPLINE
  5
3CF
100
AcDbEntity
  8
0
100
AcDbSpline
 62
9
  6
CONTINUOUS
 70
0
 71
3
 72
11
 73
7
 74
0
 42
0.0000001
 43
0.0000001
 44
0.0000000001
 40
0.0
 40
0.0
 40
0.0
 40
0.0
 40
0.248936406
 40
0.4979679411
 40
0.7480240802
 40
1.0
 40
1.0
 40
1.0
 40
1.0
 10
9.8031061181
 20
6.0625874687
 30
0.0
 10
9.7916573269
 20
6.0621428368
 30
0.0
 10
9.7687160398
 20
6.0620557455
 30
0.0
 10
9.734336885
 20
6.0643485247
 30
0.0
 10
9.7000643688
 20
6.0690627203
 30
0.0
 10
9.6774261894
 20
6.0737964442
 30
0.0
 10
9.666161761
 20
6.0765551421
 30
0.0
  0
LINE
  5
3D0
100
AcDbEntity
  8
0
100
AcDbLine
 62
9
  6
CONTINUOUS
 10
12.3108843243
 20
6.4607703341
 11
12.3112642189
 21
6.4607707936
  0
ENDSEC
  0
SECTION
  2
OBJECTS
  0
DICTIONARY
  5
C
100
AcDbDictionary
280
0
281
1
  3
ACAD_GROUP
350
D
  3
ACAD_MLINESTYLE
350
17
  3
ACAD_LAYOUT
350
1A
  3
ACAD_PLOTSETTINGS
350
19
  3
ACAD_PLOTSTYLENAME
350
E
  0
DICTIONARY
  5
D
102
{ACAD_REACTORS
330
C
102
}
100
AcDbDictionary
280
0
281
1
  0
ACDBDICTIONARYWDFLT
  5
E
102
{ACAD_REACTORS
330
C
102
}
100
AcDbDictionary
281
1
  3
Normal
350
F
100
AcDbDictionaryWithDefault
340
F
  0
DICTIONARY
  5
17
102
{ACAD_REACTORS
330
C
102
}
100
AcDbDictionary
280
0
281
1
  3
Standard
350
18
  0
DICTIONARY
  5
19
102
{ACAD_REACTORS
330
C
102
}
100
AcDbDictionary
281
1
  0
DICTIONARY
  5
1A
102
{ACAD_REACTORS
330
C
102
}
100
AcDbDictionary
281
1
  3
Model
350
3D1
  3
Layout1
350
3D2
  0
ACDBPLACEHOLDER
  5
F
102
{ACAD_REACTORS
330
E
102
}
  0
MLINESTYLE
  5
18
102
{ACAD_REACTORS
330
17
102
}
100
AcDbMlineStyle
  2
STANDARD
 70
0
  3

 62
256
 51
90.0
 52
90.0
 71
2
 49
0.5
 62
256
  6
BYLAYER
 49
-0.5
 62
256
  6
BYLAYER
  0
LAYOUT
  5
3D1
102
{ACAD_REACTORS
330
1A
102
}
100
AcDbPlotSettings
  1

  2
none_device
  4
ANSI_C_(22.00_x_17.00_Inches)
  6

 40
0.0
 41
0.0
 42
0.0
 43
0.0
 44
558.8
 45
431.8
 46
0.0
 47
0.0
 48
0.0
 49
0.0
140
0.0
141
0.0
142
1.0
143
1.0
 70
1024
 72
0
 73
0
 74
0
  7

 75
0
147
1.0
148
0.0
149
0.0
100
AcDbLayout
  1
Model
 70
0
 71
0
 10
0.0
 20
0.0
 11
22.0
 21
17.0
 12
0.0
 22
0.0
 32
0.0
 14
0.0
 24
0.0
 34
0.0
 15
0.0
 25
0.0
 35
0.0
146
0.0
 13
0.0
 23
0.0
 33
0.0
 16
1.0
 26
0.0
 36
0.0
 17
0.0
 27
1.0
 37
0.0
 76
0
330
205
345
0
346
0
  0
LAYOUT
  5
3D2
102
{ACAD_REACTORS
330
1A
102
}
100
AcDbPlotSettings
  1

  2
none_device
  4
ANSI_C_(22.00_x_17.00_Inches)
  6

 40
0.0
 41
0.0
 42
0.0
 43
0.0
 44
558.8
 45
431.8
 46
0.0
 47
0.0
 48
0.0
 49
0.0
140
0.0
141
0.0
142
1.0
143
1.0
 70
0
 72
0
 73
0
 74
0
  7

 75
0
147
1.0
148
0.0
149
0.0
100
AcDbLayout
  1
Layout1
 70
0
 71
1
 10
0.0
 20
0.0
 11
22.0
 21
17.0
 12
0.0
 22
0.0
 32
0.0
 14
0.0
 24
0.0
 34
0.0
 15
0.0
 25
0.0
 35
0.0
146
0.0
 13
0.0
 23
0.0
 33
0.0
 16
1.0
 26
0.0
 36
0.0
 17
0.0
 27
1.0
 37
0.0
 76
0
330
206
345
0
346
0
  0
ENDSEC
  0
EOF
